  0
SECTION
  2
HEADER
  9
$ACADVER
  1
AC1009
  9
$INSBASE
 10
0.0
 20
0.0
 30
0.0
  9
$EXTMIN
 10
-0.0000000000000089
 20
-2003.0
 30
0.0
  9
$EXTMAX
 10
8399.7000000000007
 20
620.0
 30
0.0
  9
$LIMMIN
 10
0.0
 20
0.0
  9
$LIMMAX
 10
210.0
 20
297.0
  9
$ORTHOMODE
 70
     0
  9
$REGENMODE
 70
     1
  9
$FILLMODE
 70
     1
  9
$QTEXTMODE
 70
     0
  9
$MIRRTEXT
 70
     0
  9
$DRAGMODE
 70
     2
  9
$LTSCALE
 40
1.0
  9
$OSMODE
 70
   125
  9
$ATTMODE
 70
     1
  9
$TEXTSIZE
 40
4.0
  9
$TRACEWID
 40
0.05
  9
$TEXTSTYLE
  7
STANDARD
  9
$CLAYER
  8
0
  9
$CELTYPE
  6
BYLAYER
  9
$CECOLOR
 62
   256
  9
$DIMSCALE
 40
10.0
  9
$DIMASZ
 40
2.0
  9
$DIMEXO
 40
1.0
  9
$DIMDLI
 40
10.0
  9
$DIMRND
 40
0.0
  9
$DIMDLE
 40
0.0
  9
$DIMEXE
 40
1.0
  9
$DIMTP
 40
0.0
  9
$DIMTM
 40
0.0
  9
$DIMTXT
 40
3.2000000000000002
  9
$DIMCEN
 40
0.0
  9
$DIMTSZ
 40
0.0
  9
$DIMTOL
 70
     0
  9
$DIMLIM
 70
     0
  9
$DIMTIH
 70
     0
  9
$DIMTOH
 70
     0
  9
$DIMSE1
 70
     0
  9
$DIMSE2
 70
     0
  9
$DIMTAD
 70
     1
  9
$DIMZIN
 70
     8
  9
$DIMBLK
  1
OPEN30
  9
$DIMASO
 70
     1
  9
$DIMSHO
 70
     1
  9
$DIMPOST
  1

  9
$DIMAPOST
  1

  9
$DIMALT
 70
     0
  9
$DIMALTD
 70
     2
  9
$DIMALTF
 40
25.399999999999999
  9
$DIMLFAC
 40
1.0
  9
$DIMTOFL
 70
     1
  9
$DIMTVP
 40
0.0
  9
$DIMTIX
 70
     0
  9
$DIMSOXD
 70
     0
  9
$DIMSAH
 70
     0
  9
$DIMBLK1
  1

  9
$DIMBLK2
  1

  9
$DIMSTYLE
  2
S10
  9
$DIMCLRD
 70
   256
  9
$DIMCLRE
 70
   256
  9
$DIMCLRT
 70
   256
  9
$DIMTFAC
 40
1.0
  9
$DIMGAP
 40
0.9
  9
$LUNITS
 70
     2
  9
$LUPREC
 70
     2
  9
$SKETCHINC
 40
0.1
  9
$FILLETRAD
 40
0.0
  9
$AUNITS
 70
     0
  9
$AUPREC
 70
     2
  9
$MENU
  1
ACAD
  9
$ELEVATION
 40
0.0
  9
$PELEVATION
 40
0.0
  9
$THICKNESS
 40
0.0
  9
$LIMCHECK
 70
     0
  9
$BLIPMODE
 70
     0
  9
$CHAMFERA
 40
2.0
  9
$CHAMFERB
 40
2.0
  9
$SKPOLY
 70
     0
  9
$TDCREATE
 40
2453095.4929404748
  9
$TDUPDATE
 40
2457303.4420697452
  9
$TDINDWG
 40
18.4680342708
  9
$TDUSRTIMER
 40
18.468033611100001
  9
$USRTIMER
 70
     1
  9
$ANGBASE
 50
0.0
  9
$ANGDIR
 70
     0
  9
$PDMODE
 70
    35
  9
$PDSIZE
 40
2.0
  9
$PLINEWID
 40
0.0
  9
$COORDS
 70
     1
  9
$SPLFRAME
 70
     0
  9
$SPLINETYPE
 70
     6
  9
$SPLINESEGS
 70
     8
  9
$ATTDIA
 70
     1
  9
$ATTREQ
 70
     1
  9
$HANDLING
 70
     1
  9
$HANDSEED
  5
135742
  9
$SURFTAB1
 70
     6
  9
$SURFTAB2
 70
     6
  9
$SURFTYPE
 70
     6
  9
$SURFU
 70
     6
  9
$SURFV
 70
     6
  9
$UCSNAME
  2

  9
$UCSORG
 10
0.0
 20
0.0
 30
0.0
  9
$UCSXDIR
 10
1.0
 20
0.0
 30
0.0
  9
$UCSYDIR
 10
0.0
 20
1.0
 30
0.0
  9
$PUCSNAME
  2

  9
$PUCSORG
 10
0.0
 20
0.0
 30
0.0
  9
$PUCSXDIR
 10
1.0
 20
0.0
 30
0.0
  9
$PUCSYDIR
 10
0.0
 20
1.0
 30
0.0
  9
$USERI1
 70
     0
  9
$USERI2
 70
     0
  9
$USERI3
 70
     0
  9
$USERI4
 70
     0
  9
$USERI5
 70
     0
  9
$USERR1
 40
0.0
  9
$USERR2
 40
0.0
  9
$USERR3
 40
0.0
  9
$USERR4
 40
0.0
  9
$USERR5
 40
0.0
  9
$WORLDVIEW
 70
     1
  9
$SHADEDGE
 70
     3
  9
$SHADEDIF
 70
    70
  9
$TILEMODE
 70
     1
  9
$MAXACTVP
 70
    64
  9
$PLIMCHECK
 70
     0
  9
$PEXTMIN
 10
29.066066288948051
 20
20.366566777229309
 30
0.0
  9
$PEXTMAX
 10
261.5945966005325
 20
183.29910099506381
 30
0.0
  9
$PLIMMIN
 10
-3.17498779296875
 20
-3.1749999523162842
  9
$PLIMMAX
 10
293.83566284179687
 20
206.8406708240509
  9
$UNITMODE
 70
     0
  9
$VISRETAIN
 70
     1
  9
$PLINEGEN
 70
     0
  9
$PSLTSCALE
 70
     1
  0
ENDSEC
  0
SECTION
  2
TABLES
  0
TABLE
  2
VPORT
 70
     1
  0
VPORT
  2
*ACTIVE
 70
     0
 10
0.0
 20
0.0
 11
1.0
 21
1.0
 12
6363.8540064222843
 22
-216.41096675505921
 13
0.0
 23
0.0
 14
1.0
 24
1.0
 15
0.0
 25
0.0
 16
0.0
 26
0.0
 36
1.0
 17
0.0
 27
0.0
 37
0.0
 40
10935.716524868159
 41
1.70911528150134
 42
50.0
 43
0.0
 44
0.0
 50
0.0
 51
0.0
 71
     0
 72
   600
 73
     1
 74
     1
 75
     0
 76
     0
 77
     0
 78
     0
  0
ENDTAB
  0
TABLE
  2
LTYPE
 70
     3
  0
LTYPE
  2
CONTINUOUS
 70
     0
  3
Solid line
 72
    65
 73
     0
 40
0.0
  0
LTYPE
  2
ACAD_ISO08W100
 70
     0
  3
ISO long-dash short-dash ____ __ ____ __ ____ _
 72
    65
 73
     4
 40
36.0
 49
24.0
 49
-3.0
 49
6.0
 49
-3.0
  0
LTYPE
  2
ACAD_ISO02W100
 70
     0
  3
ISO dash __ __ __ __ __ __ __ __ __ __ __ __ __
 72
    65
 73
     2
 40
15.0
 49
12.0
 49
-3.0
  0
ENDTAB
  0
TABLE
  2
LAYER
 70
     7
  0
LAYER
  2
0
 70
     0
 62
     7
  6
CONTINUOUS
  0
LAYER
  2
DEFPOINTS
 70
     0
 62
     7
  6
CONTINUOUS
  0
LAYER
  2
OBJECT
 70
     0
 62
     4
  6
CONTINUOUS
  0
LAYER
  2
HIDDEN
 70
     0
 62
     2
  6
ACAD_ISO02W100
  0
LAYER
  2
CENTER
 70
     0
 62
     2
  6
ACAD_ISO08W100
  0
LAYER
  2
DOTS
 70
     0
 62
     1
  6
CONTINUOUS
  0
LAYER
  2
SLIM
 70
     0
 62
     2
  6
CONTINUOUS
  0
ENDTAB
  0
TABLE
  2
STYLE
 70
     2
  0
STYLE
  2
STANDARD
 70
     0
 40
0.0
 41
0.75
 50
0.0
 71
     0
 42
4.0
  3
simplex.shx
  4
bigfont.shx
  0
ENDTAB
  0
TABLE
  2
VIEW
 70
     0
  0
ENDTAB
  0
TABLE
  2
UCS
 70
     0
  0
ENDTAB
  0
TABLE
  2
APPID
 70
    18
  0
APPID
  2
ACAD
 70
     0
  0
APPID
  2
ACADANNOTATIVE
 70
     0
  0
APPID
  2
ACAD_PSEXT
 70
     0
  0
APPID
  2
ACAD_EXEMPT_FROM_CAD_STANDARDS
 70
     0
  0
APPID
  2
ACAECLAYERSTANDARD
 70
     0
  0
APPID
  2
ACAUTHENVIRON
 70
     0
  0
APPID
  2
ACDBDYNAMICBLOCKTRUENAME
 70
     0
  0
APPID
  2
ACDBDYNAMICBLOCKGUID
 70
     0
  0
APPID
  2
ACDBBLOCKREPETAG
 70
     0
  0
APPID
  2
ACDBBLOCKREPBTAG
 70
     0
  0
APPID
  2
ACAD_NAV_VCDISPLAY
 70
     0
  0
APPID
  2
ACAD_DSTYLE_DIMRADIAL_EXTENSION
 70
     0
  0
APPID
  2
ACAD_DSTYLE_DIMJAG
 70
     0
  0
APPID
  2
ACAD_DSTYLE_DIMTALN
 70
     0
  0
APPID
  2
ACADANNOPO
 70
     0
  0
APPID
  2
GRADIENTCOLOR1ACI
 70
     0
  0
APPID
  2
GRADIENTCOLOR2ACI
 70
     0
  0
APPID
  2
ACAD_MLEADERVER
 70
     0
  0
ENDTAB
  0
TABLE
  2
DIMSTYLE
 70
     3
  0
DIMSTYLE
  2
STANDARD
 70
     0
  3

  4

  5

  6

  7

 40
1.0
 41
0.18
 42
0.0625
 43
0.38
 44
0.18
 45
0.0
 46
0.0
 47
0.0
 48
0.0
140
0.18
141
0.09
142
0.0
143
25.399999999999999
144
1.0
145
0.0
146
1.0
147
0.09
 71
     0
 72
     0
 73
     1
 74
     1
 75
     0
 76
     0
 77
     0
 78
     0
170
     0
171
     2
172
     0
173
     0
174
     0
175
     0
176
     0
177
     0
178
     0
  0
DIMSTYLE
  2
S10
 70
     0
  3

  4

  5

  6

  7

 40
10.0
 41
2.0
 42
1.0
 43
10.0
 44
1.0
 45
0.0
 46
0.0
 47
0.0
 48
0.0
140
3.2000000000000002
141
0.0
142
0.0
143
25.399999999999999
144
1.0
145
0.0
146
1.0
147
0.9
 71
     0
 72
     0
 73
     0
 74
     0
 75
     0
 76
     0
 77
     1
 78
     8
170
     0
171
     2
172
     1
173
     0
174
     0
175
     0
176
   256
177
   256
178
   256
  0
ENDTAB
  0
ENDSEC
  0
SECTION
  2
BLOCKS
  0
BLOCK
  8
0
  2
$MODEL_SPACE
 70
     0
 10
0.0
 20
0.0
 30
0.0
  3
$MODEL_SPACE
  1

  0
ENDBLK
  5
1355E9
  8
0
  0
BLOCK
 67
     1
  8
0
  2
$PAPER_SPACE
 70
     0
 10
0.0
 20
0.0
 30
0.0
  3
$PAPER_SPACE
  1

  0
ENDBLK
  5
1355E5
 67
     1
  8
0
  0
BLOCK
  8
0
  2
_OPEN30
 70
     0
 10
0.0
 20
0.0
 30
0.0
  3
_OPEN30
  1

  0
LINE
  5
202
  8
0
  6
BYBLOCK
 62
     0
 10
-1.0
 20
0.26794919
 30
0.0
 11
0.0
 21
0.0
 31
0.0
  0
LINE
  5
203
  8
0
  6
BYBLOCK
 62
     0
 10
0.0
 20
0.0
 30
0.0
 11
-1.0
 21
-0.26794919
 31
0.0
  0
LINE
  5
204
  8
0
  6
BYBLOCK
 62
     0
 10
0.0
 20
0.0
 30
0.0
 11
-1.0
 21
0.0
 31
0.0
  0
ENDBLK
  5
206
  8
0
  0
ENDSEC
  0
SECTION
  2
ENTITIES
  0
LINE
  5
134ED3
  8
OBJECT
 10
7866.0
 20
-582.99999999999761
 30
0.0
 11
7866.0
 21
-580.99999999999761
 31
0.0
1001
ACDBBLOCKREPETAG
1070
     1
1071
      157
1005
134ED3
  0
ARC
  5
134ED4
  8
OBJECT
 10
7824.8134425017461
 20
-600.99999999999761
 30
0.0
 40
59.0
 50
270.0
 51
310.7972311667607
1001
ACDBBLOCKREPETAG
1070
     1
1071
      158
1005
134ED4
  0
LINE
  5
134ED5
  8
OBJECT
 10
7756.0
 20
-589.49999999999761
 30
0.0
 11
7891.0
 21
-589.49999999999761
 31
0.0
1001
ACDBBLOCKREPETAG
1070
     1
1071
      159
1005
134ED5
  0
LINE
  5
134ED6
  8
OBJECT
 10
7891.0
 20
-602.49999999999761
 30
0.0
 11
7756.0
 21
-602.49999999999761
 31
0.0
1001
ACDBBLOCKREPETAG
1070
     1
1071
      160
1005
134ED6
  0
LINE
  5
134ED7
  8
OBJECT
 10
7891.0
 20
-589.49999999999761
 30
0.0
 11
7891.0
 21
-602.49999999999761
 31
0.0
1001
ACDBBLOCKREPETAG
1070
     1
1071
      161
1005
134ED7
  0
LINE
  5
134ED8
  8
OBJECT
 10
7884.0
 20
-611.49999999999761
 30
0.0
 11
7884.0
 21
-602.49999999999761
 31
0.0
1001
ACDBBLOCKREPETAG
1070
     1
1071
      162
1005
134ED8
  0
LINE
  5
134ED9
  8
OBJECT
 10
7866.0
 20
-614.99999999999761
 30
0.0
 11
7866.0
 21
-602.49999999999761
 31
0.0
1001
ACDBBLOCKREPETAG
1070
     1
1071
      163
1005
134ED9
  0
LINE
  5
134EDA
  8
OBJECT
 10
7776.0
 20
-611.49999999999761
 30
0.0
 11
7776.0
 21
-602.49999999999761
 31
0.0
1001
ACDBBLOCKREPETAG
1070
     1
1071
      164
1005
134EDA
  0
LINE
  5
134EDB
  8
OBJECT
 10
7756.0
 20
-589.49999999999761
 30
0.0
 11
7756.0
 21
-602.49999999999761
 31
0.0
1001
ACDBBLOCKREPETAG
1070
     1
1071
      165
1005
134EDB
  0
LINE
  5
134EDC
  8
OBJECT
 10
7858.0
 20
-614.99999999999761
 30
0.0
 11
7858.0
 21
-602.49999999999761
 31
0.0
1001
ACDBBLOCKREPETAG
1070
     1
1071
      166
1005
134EDC
  0
LINE
  5
134EDD
  8
OBJECT
 10
7866.0
 20
-611.49999999999761
 30
0.0
 11
7885.0
 21
-611.49999999999761
 31
0.0
1001
ACDBBLOCKREPETAG
1070
     1
1071
      167
1005
134EDD
  0
LINE
  5
134EDE
  8
OBJECT
 10
7885.0
 20
-614.99999999999761
 30
0.0
 11
7885.0
 21
-611.49999999999761
 31
0.0
1001
ACDBBLOCKREPETAG
1070
     1
1071
      168
1005
134EDE
  0
LINE
  5
134EDF
  8
OBJECT
 10
7858.0
 20
-611.49999999999761
 30
0.0
 11
7775.0
 21
-611.49999999999761
 31
0.0
1001
ACDBBLOCKREPETAG
1070
     1
1071
      169
1005
134EDF
  0
LINE
  5
134EE0
  8
OBJECT
 10
7775.0
 20
-611.49999999999761
 30
0.0
 11
7775.0
 21
-614.99999999999761
 31
0.0
1001
ACDBBLOCKREPETAG
1070
     1
1071
      170
1005
134EE0
  0
LINE
  5
134EE1
  8
OBJECT
 10
7869.5055534994663
 20
-589.49999999999761
 30
0.0
 11
7869.5055534994663
 21
-582.99999999999761
 31
0.0
1001
ACDBBLOCKREPETAG
1070
     1
1071
      171
1005
134EE1
  0
LINE
  5
134EE2
  8
OBJECT
 10
7871.0
 20
-627.99999999999761
 30
0.0
 11
7871.0
 21
-632.99999999999761
 31
0.0
1001
ACDBBLOCKREPETAG
1070
     1
1071
      172
1005
134EE2
  0
LINE
  5
134EE3
  8
OBJECT
 10
7871.0
 20
-632.99999999999761
 30
0.0
 11
7853.0
 21
-632.99999999999761
 31
0.0
1001
ACDBBLOCKREPETAG
1070
     1
1071
      173
1005
134EE3
  0
LINE
  5
134EE4
  8
OBJECT
 10
7853.0
 20
-627.99999999999761
 30
0.0
 11
7853.0
 21
-632.99999999999761
 31
0.0
1001
ACDBBLOCKREPETAG
1070
     1
1071
      174
1005
134EE4
  0
LINE
  5
134EE5
  8
OBJECT
 10
7890.9999999999973
 20
-614.99999999999761
 30
0.0
 11
7756.0
 21
-614.99999999999761
 31
0.0
1001
ACDBBLOCKREPETAG
1070
     1
1071
      175
1005
134EE5
  0
LINE
  5
134EE6
  8
OBJECT
 10
7756.0
 20
-614.99999999999761
 30
0.0
 11
7756.0
 21
-627.99999999999761
 31
0.0
1001
ACDBBLOCKREPETAG
1070
     1
1071
      176
1005
134EE6
  0
LINE
  5
134EE7
  8
OBJECT
 10
7863.3630997552364
 20
-645.66457125774514
 30
0.0
 11
7883.8297019999973
 21
-627.99999999999761
 31
0.0
1001
ACDBBLOCKREPETAG
1070
     1
1071
      177
1005
134EE7
  0
LINE
  5
134EE8
  8
OBJECT
 10
7778.9999999999982
 20
-635.65708264965485
 30
0.0
 11
7778.9999999999982
 21
-659.99999999999761
 31
0.0
1001
ACDBBLOCKREPETAG
1070
     1
1071
      178
1005
134EE8
  0
LINE
  5
134EE9
  8
OBJECT
 10
7824.8134425017461
 20
-659.99999999999761
 30
0.0
 11
7778.9999999999982
 21
-659.99999999999761
 31
0.0
1001
ACDBBLOCKREPETAG
1070
     1
1071
      179
1005
134EE9
  0
ARC
  5
134EEA
  8
OBJECT
 10
7869.5000000000027
 20
-661.49999999999761
 30
0.0
 40
84.0
 50
178.97680669632871
 51
262.94651512902959
1001
ACDBBLOCKREPETAG
1070
     1
1071
      180
1005
134EEA
  0
LINE
  5
134EEB
  8
OBJECT
 10
7894.0
 20
-749.17200317020843
 30
0.0
 11
7859.1851511871173
 21
-744.86428428270153
 31
0.0
1001
ACDBBLOCKREPETAG
1070
     1
1071
      181
1005
134EEB
  0
LINE
  5
134EEC
  8
OBJECT
 10
7893.9999999999973
 20
-749.99999999999852
 30
0.0
 11
7893.9999999999973
 21
-628.99999999999761
 31
0.0
1001
ACDBBLOCKREPETAG
1070
     1
1071
      182
1005
134EEC
  0
ARC
  5
134EED
  8
OBJECT
 10
7896.9999999999973
 20
-749.99999999999852
 30
0.0
 40
3.0
 50
180.0
 51
270.0
1001
ACDBBLOCKREPETAG
1070
     1
1071
      183
1005
134EED
  0
LINE
  5
134EEE
  8
OBJECT
 10
7883.8297019999973
 20
-627.99999999999761
 30
0.0
 11
7756.0
 21
-627.99999999999761
 31
0.0
1001
ACDBBLOCKREPETAG
1070
     1
1071
      184
1005
134EEE
  0
LINE
  5
134EEF
  8
OBJECT
 10
7874.9460861482739
 20
-635.65708264965485
 30
0.0
 11
7778.9999999999982
 21
-635.65708264965485
 31
0.0
1001
ACDBBLOCKREPETAG
1070
     1
1071
      185
1005
134EEF
  0
LINE
  5
134EF0
  8
OBJECT
 10
7775.0
 20
-630.89006764214673
 30
0.0
 11
7778.9999999999982
 21
-635.65708264965485
 31
0.0
1001
ACDBBLOCKREPETAG
1070
     1
1071
      186
1005
134EF0
  0
LINE
  5
134EF1
  8
OBJECT
 10
7890.9999999999973
 20
-614.99999999999761
 30
0.0
 11
7890.99999999999
 21
-628.99999999999761
 31
0.0
1001
ACDBBLOCKREPETAG
1070
     1
1071
      187
1005
134EF1
  0
LINE
  5
134EF2
  8
HIDDEN
 10
7874.5000000000027
 20
-654.9999999999975
 30
0.0
 11
7785.5
 21
-654.9999999999975
 31
0.0
1001
ACDBBLOCKREPETAG
1070
     1
1071
      188
1005
134EF2
  0
LINE
  5
134EF3
  8
OBJECT
 10
7866.0
 20
-580.99999999999761
 30
0.0
 11
7858.0
 21
-580.99999999999761
 31
0.0
1001
ACDBBLOCKREPETAG
1070
     1
1071
      189
1005
134EF3
  0
LINE
  5
134EF4
  8
OBJECT
 10
7858.0
 20
-582.99999999999761
 30
0.0
 11
7858.0
 21
-580.99999999999761
 31
0.0
1001
ACDBBLOCKREPETAG
1070
     1
1071
      190
1005
134EF4
  0
LINE
  5
134EF5
  8
OBJECT
 10
7869.5055534994663
 20
-582.99999999999761
 30
0.0
 11
7854.4944465005347
 21
-582.99999999999761
 31
0.0
1001
ACDBBLOCKREPETAG
1070
     1
1071
      191
1005
134EF5
  0
LINE
  5
134EF6
  8
CENTER
 10
7830.0
 20
-674.77158855533025
 30
0.0
 11
7830.0
 21
-574.49999999999761
 31
0.0
1001
ACDBBLOCKREPETAG
1070
     1
1071
      193
1005
134EF6
  0
LINE
  5
134EF7
  8
OBJECT
 10
7900.0
 20
-752.99999999999773
 30
0.0
 11
7896.9999999999973
 21
-752.99999999999852
 31
0.0
1001
ACDBBLOCKREPETAG
1070
     1
1071
      194
1005
134EF7
  0
LINE
  5
134EF8
  8
OBJECT
 10
7900.0
 20
-628.99999999999761
 30
0.0
 11
7890.99999999999
 21
-628.99999999999761
 31
0.0
1001
ACDBBLOCKREPETAG
1070
     1
1071
      195
1005
134EF8
  0
LINE
  5
134EF9
  8
OBJECT
 10
7865.7528030216072
 20
-589.49998110540889
 30
0.0
 11
7865.7528030216072
 21
-582.99998110540901
 31
0.0
1001
ACDBBLOCKREPETAG
1070
     1
1071
      196
1005
134EF9
  0
LINE
  5
134EFA
  8
OBJECT
 10
7854.4944465005347
 20
-589.49999999999761
 30
0.0
 11
7854.4944465005347
 21
-582.99999999999761
 31
0.0
1001
ACDBBLOCKREPETAG
1070
     1
1071
      197
1005
134EFA
  0
LINE
  5
134EFB
  8
OBJECT
 10
7858.2471969783937
 20
-589.49998110540889
 30
0.0
 11
7858.2471969783937
 21
-582.99998110540901
 31
0.0
1001
ACDBBLOCKREPETAG
1070
     1
1071
      198
1005
134EFB
  0
LINE
  5
134EFC
  8
OBJECT
 10
7770.0
 20
-582.99999999999761
 30
0.0
 11
7770.0
 21
-580.99999999999761
 31
0.0
1001
ACDBBLOCKREPETAG
1070
     1
1071
      199
1005
134EFC
  0
LINE
  5
134EFD
  8
OBJECT
 10
7770.0
 20
-614.99999999999761
 30
0.0
 11
7770.0
 21
-602.49999999999761
 31
0.0
1001
ACDBBLOCKREPETAG
1070
     1
1071
      200
1005
134EFD
  0
LINE
  5
134EFE
  8
OBJECT
 10
7762.0
 20
-614.99999999999761
 30
0.0
 11
7762.0
 21
-602.49999999999761
 31
0.0
1001
ACDBBLOCKREPETAG
1070
     1
1071
      201
1005
134EFE
  0
LINE
  5
134EFF
  8
OBJECT
 10
7773.5055534994653
 20
-589.49999999999761
 30
0.0
 11
7773.5055534994653
 21
-582.99999999999761
 31
0.0
1001
ACDBBLOCKREPETAG
1070
     1
1071
      202
1005
134EFF
  0
LINE
  5
134F00
  8
OBJECT
 10
7775.0
 20
-627.99999999999761
 30
0.0
 11
7775.0
 21
-632.99999999999761
 31
0.0
1001
ACDBBLOCKREPETAG
1070
     1
1071
      203
1005
134F00
  0
LINE
  5
134F01
  8
OBJECT
 10
7775.0
 20
-632.99999999999761
 30
0.0
 11
7757.0
 21
-632.99999999999761
 31
0.0
1001
ACDBBLOCKREPETAG
1070
     1
1071
      204
1005
134F01
  0
LINE
  5
134F02
  8
OBJECT
 10
7757.0
 20
-627.99999999999761
 30
0.0
 11
7757.0
 21
-632.99999999999761
 31
0.0
1001
ACDBBLOCKREPETAG
1070
     1
1071
      205
1005
134F02
  0
LINE
  5
134F03
  8
OBJECT
 10
7770.0
 20
-580.99999999999761
 30
0.0
 11
7762.0
 21
-580.99999999999761
 31
0.0
1001
ACDBBLOCKREPETAG
1070
     1
1071
      206
1005
134F03
  0
LINE
  5
134F04
  8
OBJECT
 10
7762.0
 20
-582.99999999999761
 30
0.0
 11
7762.0
 21
-580.99999999999761
 31
0.0
1001
ACDBBLOCKREPETAG
1070
     1
1071
      207
1005
134F04
  0
LINE
  5
134F05
  8
OBJECT
 10
7773.5055534994653
 20
-582.99999999999761
 30
0.0
 11
7758.4944465005337
 21
-582.99999999999761
 31
0.0
1001
ACDBBLOCKREPETAG
1070
     1
1071
      208
1005
134F05
  0
LINE
  5
134F06
  8
OBJECT
 10
7769.7528030216054
 20
-589.49998110540889
 30
0.0
 11
7769.7528030216054
 21
-582.99998110540901
 31
0.0
1001
ACDBBLOCKREPETAG
1070
     1
1071
      209
1005
134F06
  0
LINE
  5
134F07
  8
OBJECT
 10
7758.4944465005337
 20
-589.49999999999761
 30
0.0
 11
7758.4944465005337
 21
-582.99999999999761
 31
0.0
1001
ACDBBLOCKREPETAG
1070
     1
1071
      210
1005
134F07
  0
LINE
  5
134F08
  8
OBJECT
 10
7762.2471969783937
 20
-589.49998110540889
 30
0.0
 11
7762.2471969783937
 21
-582.99998110540901
 31
0.0
1001
ACDBBLOCKREPETAG
1070
     1
1071
      211
1005
134F08
  0
CIRCLE
  5
134F09
  8
OBJECT
 10
8000.0
 20
-690.99999999999761
 30
0.0
 40
62.0
1001
ACDBBLOCKREPETAG
1070
     1
1071
        0
1005
134F09
  0
LINE
  5
134F0A
  8
OBJECT
 10
8095.0
 20
-569.99999999999955
 30
0.0
 11
7905.0
 21
-569.99999999999955
 31
0.0
1001
ACDBBLOCKREPETAG
1070
     1
1071
        0
1005
134F0A
  0
LINE
  5
134F0B
  8
OBJECT
 10
8095.0
 20
-549.99999999999955
 30
0.0
 11
7905.0
 21
-549.99999999999955
 31
0.0
1001
ACDBBLOCKREPETAG
1070
     1
1071
        1
1005
134F0B
  0
LINE
  5
134F0C
  8
OBJECT
 10
7902.5
 20
-914.99999999999955
 30
0.0
 11
8097.5000000000009
 21
-914.99999999999955
 31
0.0
1001
ACDBBLOCKREPETAG
1070
     1
1071
        2
1005
134F0C
  0
LINE
  5
134F0D
  8
OBJECT
 10
7908.237046000002
 20
-549.99999999999955
 30
0.0
 11
7908.2370465822614
 21
-569.99999999999955
 31
0.0
1001
ACDBBLOCKREPETAG
1070
     1
1071
        3
1005
134F0D
  0
LINE
  5
134F0E
  8
OBJECT
 10
7905.0
 20
-549.99999999999955
 30
0.0
 11
7905.0
 21
-569.99999999999955
 31
0.0
1001
ACDBBLOCKREPETAG
1070
     1
1071
        4
1005
134F0E
  0
LINE
  5
134F0F
  8
OBJECT
 10
7916.0249089999988
 20
-549.99999999999955
 30
0.0
 11
7916.0249089999988
 21
-569.99999999999955
 31
0.0
1001
ACDBBLOCKREPETAG
1070
     1
1071
        5
1005
134F0F
  0
LINE
  5
134F10
  8
OBJECT
 10
7967.6243270000023
 20
-549.99999999999955
 30
0.0
 11
7967.6243270000023
 21
-569.99999999999955
 31
0.0
1001
ACDBBLOCKREPETAG
1070
     1
1071
        6
1005
134F10
  0
LINE
  5
134F11
  8
OBJECT
 10
7975.4121899999973
 20
-549.99999999999955
 30
0.0
 11
7975.4121899999973
 21
-569.99999999999955
 31
0.0
1001
ACDBBLOCKREPETAG
1070
     1
1071
        7
1005
134F11
  0
LINE
  5
134F12
  8
OBJECT
 10
8024.5878090000006
 20
-549.99999999999955
 30
0.0
 11
8024.5878090000006
 21
-569.99999999999955
 31
0.0
1001
ACDBBLOCKREPETAG
1070
     1
1071
        8
1005
134F12
  0
LINE
  5
134F13
  8
OBJECT
 10
8032.3756720000038
 20
-549.99999999999955
 30
0.0
 11
8032.3756720000038
 21
-569.99999999999955
 31
0.0
1001
ACDBBLOCKREPETAG
1070
     1
1071
        9
1005
134F13
  0
LINE
  5
134F14
  8
OBJECT
 10
8083.9750910000021
 20
-549.99999999999955
 30
0.0
 11
8083.9750910000021
 21
-569.99999999999955
 31
0.0
1001
ACDBBLOCKREPETAG
1070
     1
1071
       10
1005
134F14
  0
LINE
  5
134F15
  8
OBJECT
 10
8091.762953999998
 20
-549.99999999999955
 30
0.0
 11
8091.7629534177404
 21
-569.99999999999955
 31
0.0
1001
ACDBBLOCKREPETAG
1070
     1
1071
       11
1005
134F15
  0
LINE
  5
134F16
  8
OBJECT
 10
8095.0
 20
-549.99999999999955
 30
0.0
 11
8095.0
 21
-569.99999999999955
 31
0.0
1001
ACDBBLOCKREPETAG
1070
     1
1071
       12
1005
134F16
  0
LINE
  5
134F17
  8
OBJECT
 10
8100.0
 20
-628.99999999999955
 30
0.0
 11
7900.0
 21
-628.99999999999955
 31
0.0
1001
ACDBBLOCKREPETAG
1070
     1
1071
       13
1005
134F17
  0
LINE
  5
134F18
  8
OBJECT
 10
8100.0
 20
-752.99999999999773
 30
0.0
 11
8092.4999999999973
 21
-752.99999999999773
 31
0.0
1001
ACDBBLOCKREPETAG
1070
     1
1071
       14
1005
134F18
  0
LINE
  5
134F19
  8
OBJECT
 10
7902.5
 20
-914.99999999999955
 30
0.0
 11
7902.5
 21
-902.99999999999784
 31
0.0
1001
ACDBBLOCKREPETAG
1070
     1
1071
       15
1005
134F19
  0
LINE
  5
134F1A
  8
OBJECT
 10
8097.5000000000009
 20
-914.99999999999955
 30
0.0
 11
8097.5000000000009
 21
-902.99999999999784
 31
0.0
1001
ACDBBLOCKREPETAG
1070
     1
1071
       16
1005
134F1A
  0
LINE
  5
134F1B
  8
OBJECT
 10
7902.5
 20
-902.99999999999784
 30
0.0
 11
8097.5000000000009
 21
-902.99999999999784
 31
0.0
1001
ACDBBLOCKREPETAG
1070
     1
1071
       17
1005
134F1B
  0
LINE
  5
134F1C
  8
HIDDEN
 10
7930.0
 20
-624.99999999999955
 30
0.0
 11
8070.0
 21
-624.99999999999955
 31
0.0
1001
ACDBBLOCKREPETAG
1070
     1
1071
       18
1005
134F1C
  0
LINE
  5
134F1D
  8
CENTER
 10
8000.0
 20
-534.99999999999955
 30
0.0
 11
8000.0
 21
-914.99999999999955
 31
0.0
1001
ACDBBLOCKREPETAG
1070
     1
1071
       19
1005
134F1D
  0
LINE
  5
134F1E
  8
OBJECT
 10
8092.4999999999973
 20
-752.99999999999773
 30
0.0
 11
8092.4999999999973
 21
-902.99999999999784
 31
0.0
1001
ACDBBLOCKREPETAG
1070
     1
1071
       20
1005
134F1E
  0
LINE
  5
134F1F
  8
OBJECT
 10
7914.5
 20
-569.99999999999955
 30
0.0
 11
7914.5
 21
-628.99999999999955
 31
0.0
1001
ACDBBLOCKREPETAG
1070
     1
1071
       21
1005
134F1F
  0
LINE
  5
134F20
  8
OBJECT
 10
8085.5000000000027
 20
-569.99999999999955
 30
0.0
 11
8085.5000000000027
 21
-628.99999999999955
 31
0.0
1001
ACDBBLOCKREPETAG
1070
     1
1071
       22
1005
134F20
  0
POINT
  5
134F21
  8
DOTS
 10
8000.0
 20
-749.99999999999955
 30
0.0
1001
ACDBBLOCKREPETAG
1070
     1
1071
       24
1005
134F21
  0
LINE
  5
134F22
  8
OBJECT
 10
7900.0
 20
-752.99999999999773
 30
0.0
 11
7907.5
 21
-752.99999999999773
 31
0.0
1001
ACDBBLOCKREPETAG
1070
     1
1071
       25
1005
134F22
  0
LINE
  5
134F23
  8
OBJECT
 10
7907.5
 20
-752.99999999999773
 30
0.0
 11
7907.5
 21
-902.99999999999784
 31
0.0
1001
ACDBBLOCKREPETAG
1070
     1
1071
       26
1005
134F23
  0
ARC
  5
134F24
  8
OBJECT
 10
8214.4155190291513
 20
-715.62073879202455
 30
0.0
 40
149.554492306393
 50
144.60628028468801
 51
164.2211863995189
1001
ACDBBLOCKREPETAG
1070
     1
1071
       28
1005
134F24
  0
ARC
  5
134F25
  8
OBJECT
 10
8139.1422781245292
 20
-690.99999999999761
 30
0.0
 40
70.496447952551449
 50
166.8426918235858
 51
193.15730817641409
1001
ACDBBLOCKREPETAG
1070
     1
1071
       29
1005
134F25
  0
ARC
  5
134F26
  8
OBJECT
 10
8214.4155190291513
 20
-666.3792612079701
 30
0.0
 40
149.55449230639621
 50
195.7788136004809
 51
215.3937197153119
1001
ACDBBLOCKREPETAG
1070
     1
1071
       30
1005
134F26
  0
ARC
  5
134F27
  8
OBJECT
 10
7785.5844809708497
 20
-715.62073879202455
 30
0.0
 40
149.554492306393
 50
15.778813600524931
 51
35.393719715228642
1001
ACDBBLOCKREPETAG
1070
     1
1071
       31
1005
134F27
  0
ARC
  5
134F28
  8
OBJECT
 10
7860.8577218754726
 20
-690.99999999999761
 30
0.0
 40
70.496447952551449
 50
346.84269182358582
 51
13.15730817641421
1001
ACDBBLOCKREPETAG
1070
     1
1071
       32
1005
134F28
  0
ARC
  5
134F29
  8
OBJECT
 10
7785.5844809708497
 20
-666.3792612079701
 30
0.0
 40
149.55449230639621
 50
324.60628028477117
 51
344.22118639947507
1001
ACDBBLOCKREPETAG
1070
     1
1071
       33
1005
134F29
  0
LINE
  5
134F2A
  8
CENTER
 10
7899.9999999999973
 20
-199.99999999999909
 30
0.0
 11
7740.9999999999964
 21
-199.99999999999909
 31
0.0
1001
ACDBBLOCKREPETAG
1070
     1
1071
      155
1005
134F2A
  0
LINE
  5
134F2B
  8
OBJECT
 10
7899.9999999999973
 20
-261.99999999999909
 30
0.0
 11
7896.9999999999973
 21
-261.99999999999909
 31
0.0
1001
ACDBBLOCKREPETAG
1070
     1
1071
      156
1005
134F2B
  0
ARC
  5
134F2C
  8
OBJECT
 10
7896.9999999999973
 20
-258.99999999999909
 30
0.0
 40
3.0
 50
180.0
 51
270.0
1001
ACDBBLOCKREPETAG
1070
     1
1071
      157
1005
134F2C
  0
LINE
  5
134F2D
  8
OBJECT
 10
7899.9999999999973
 20
-138.0000000000027
 30
0.0
 11
7896.9999999999973
 21
-138.0000000000027
 31
0.0
1001
ACDBBLOCKREPETAG
1070
     1
1071
      158
1005
134F2D
  0
LINE
  5
134F2E
  8
OBJECT
 10
7893.9999999999973
 20
-140.99999999999909
 30
0.0
 11
7871.3452724064609
 21
-140.9999999999954
 31
0.0
1001
ACDBBLOCKREPETAG
1070
     1
1071
      159
1005
134F2E
  0
LINE
  5
134F2F
  8
OBJECT
 10
7893.9999999999973
 20
-259.00000000000267
 30
0.0
 11
7871.3452724064609
 21
-258.99999999999909
 31
0.0
1001
ACDBBLOCKREPETAG
1070
     1
1071
      160
1005
134F2F
  0
LINE
  5
134F30
  8
CENTER
 10
7829.9999999999973
 20
-123.5195984073716
 30
0.0
 11
7829.9999999999973
 21
-276.48040159262649
 31
0.0
1001
ACDBBLOCKREPETAG
1070
     1
1071
      161
1005
134F30
  0
LINE
  5
134F31
  8
OBJECT
 10
7893.9999999999973
 20
-141.0000000000027
 30
0.0
 11
7893.9999999999973
 21
-258.99999999999909
 31
0.0
1001
ACDBBLOCKREPETAG
1070
     1
1071
      162
1005
134F31
  0
ARC
  5
134F32
  8
OBJECT
 10
7896.9999999999973
 20
-141.0000000000027
 30
0.0
 40
3.0
 50
90.0
 51
180.0
1001
ACDBBLOCKREPETAG
1070
     1
1071
      163
1005
134F32
  0
ARC
  5
134F33
  8
OBJECT
 10
7829.9999999999973
 20
-199.99999999999909
 30
0.0
 40
61.0
 50
97.16728546129427
 51
142.83271453872419
1001
ACDBBLOCKREPETAG
1070
     1
1071
      165
1005
134F33
  0
ARC
  5
134F34
  8
OBJECT
 10
7829.9999999999973
 20
-199.99999999999909
 30
0.0
 40
61.0
 50
337.1672854612342
 51
22.83271453876576
1001
ACDBBLOCKREPETAG
1070
     1
1071
      166
1005
134F34
  0
ARC
  5
134F35
  8
OBJECT
 10
7829.9999999999973
 20
-199.99999999999909
 30
0.0
 40
61.0
 50
217.16728546127581
 51
262.83271453870572
1001
ACDBBLOCKREPETAG
1070
     1
1071
      167
1005
134F35
  0
CIRCLE
  5
134F36
  8
SLIM
 10
7765.9999999999973
 20
-199.99999999999909
 30
0.0
 40
4.0
1001
ACDBBLOCKREPETAG
1070
     1
1071
      168
1005
134F36
  0
ARC
  5
134F37
  8
OBJECT
 10
7765.9999999999973
 20
-199.99999999999909
 30
0.0
 40
10.0
 50
142.83271453872419
 51
217.16728546127581
1001
ACDBBLOCKREPETAG
1070
     1
1071
      169
1005
134F37
  0
LINE
  5
134F38
  8
OBJECT
 10
7781.390625
 20
-163.14720279124501
 30
0.0
 11
7758.0312499999982
 21
-193.9585578346296
 31
0.0
1001
ACDBBLOCKREPETAG
1070
     1
1071
      170
1005
134F38
  0
LINE
  5
134F39
  8
OBJECT
 10
7781.390625
 20
-236.8527972087532
 30
0.0
 11
7758.0312499999982
 21
-206.04144216536861
 31
0.0
1001
ACDBBLOCKREPETAG
1070
     1
1071
      171
1005
134F39
  0
CIRCLE
  5
134F3A
  8
SLIM
 10
7861.9999999999982
 20
-144.5743741577962
 30
0.0
 40
3.9999999999999991
1001
ACDBBLOCKREPETAG
1070
     1
1071
      172
1005
134F3A
  0
ARC
  5
134F3B
  8
OBJECT
 10
7861.9999999999982
 20
-144.5743741577962
 30
0.0
 40
9.9999999999999982
 50
22.83271453876576
 51
97.16728546129427
1001
ACDBBLOCKREPETAG
1070
     1
1071
      173
1005
134F3B
  0
LINE
  5
134F3C
  8
OBJECT
 10
7886.2201460832912
 20
-176.32944499229319
 30
0.0
 11
7871.2164173907004
 21
-140.6939553040711
 31
0.0
1001
ACDBBLOCKREPETAG
1070
     1
1071
      174
1005
134F3C
  0
LINE
  5
134F3D
  8
OBJECT
 10
7822.3892289166979
 20
-139.47664778353919
 30
0.0
 11
7860.7523326092933
 21
-134.65251313870161
 31
0.0
1001
ACDBBLOCKREPETAG
1070
     1
1071
      175
1005
134F3D
  0
CIRCLE
  5
134F3E
  8
SLIM
 10
7861.9999999999982
 20
-255.4256258422019
 30
0.0
 40
4.0
1001
ACDBBLOCKREPETAG
1070
     1
1071
      176
1005
134F3E
  0
ARC
  5
134F3F
  8
OBJECT
 10
7861.9999999999982
 20
-255.4256258422019
 30
0.0
 40
10.0
 50
262.83271453870572
 51
337.1672854612342
1001
ACDBBLOCKREPETAG
1070
     1
1071
      177
1005
134F3F
  0
LINE
  5
134F40
  8
OBJECT
 10
7822.3892289166979
 20
-260.52335221645899
 30
0.0
 11
7860.7523326092933
 21
-265.3474868612966
 31
0.0
1001
ACDBBLOCKREPETAG
1070
     1
1071
      178
1005
134F40
  0
LINE
  5
134F41
  8
OBJECT
 10
7886.2201460832912
 20
-223.67055500770491
 30
0.0
 11
7871.2164173907004
 21
-259.30604469592708
 31
0.0
1001
ACDBBLOCKREPETAG
1070
     1
1071
      179
1005
134F41
  0
CIRCLE
  5
134F42
  8
OBJECT
 10
7829.9999999999973
 20
-199.99999999999909
 30
0.0
 40
46.0
1001
ACDBBLOCKREPETAG
1070
     1
1071
      180
1005
134F42
  0
POLYLINE
  5
134F43
  8
SLIM
 66
     1
 10
0.0
 20
0.0
 30
0.0
 70
     1
1001
ACDBBLOCKREPETAG
1070
     1
1071
      181
1005
134F43
  0
VERTEX
  5
135630
  8
SLIM
 10
7769.7527767497304
 20
-193.49999999999909
 30
0.0
  0
VERTEX
  5
135631
  8
SLIM
 10
7773.5055534994581
 20
-199.99999999999909
 30
0.0
  0
VERTEX
  5
135632
  8
SLIM
 10
7769.7527767497304
 20
-206.49999999999909
 30
0.0
  0
VERTEX
  5
135633
  8
SLIM
 10
7762.2472232502632
 20
-206.49999999999909
 30
0.0
  0
VERTEX
  5
135634
  8
SLIM
 10
7758.4944465005337
 20
-199.99999999999909
 30
0.0
  0
VERTEX
  5
135635
  8
SLIM
 10
7762.2472232502632
 20
-193.49999999999909
 30
0.0
  0
SEQEND
  5
135636
  8
SLIM
  0
POLYLINE
  5
134F44
  8
SLIM
 66
     1
 10
0.0
 20
0.0
 30
0.0
 70
     1
1001
ACDBBLOCKREPETAG
1070
     1
1071
      182
1005
134F44
  0
VERTEX
  5
135637
  8
SLIM
 10
7865.7527767497286
 20
-151.0743741577962
 30
0.0
  0
VERTEX
  5
135638
  8
SLIM
 10
7858.2472232502632
 20
-151.0743741577962
 30
0.0
  0
VERTEX
  5
135639
  8
SLIM
 10
7854.494446500531
 20
-144.5743741577962
 30
0.0
  0
VERTEX
  5
13563A
  8
SLIM
 10
7858.247223250266
 20
-138.07437415779259
 30
0.0
  0
VERTEX
  5
13563B
  8
SLIM
 10
7865.7527767497286
 20
-138.0743741577962
 30
0.0
  0
VERTEX
  5
13563C
  8
SLIM
 10
7869.505553499459
 20
-144.57437415779259
 30
0.0
  0
SEQEND
  5
13563D
  8
SLIM
  0
POLYLINE
  5
134F45
  8
SLIM
 66
     1
 10
0.0
 20
0.0
 30
0.0
 70
     1
1001
ACDBBLOCKREPETAG
1070
     1
1071
      183
1005
134F45
  0
VERTEX
  5
13563E
  8
SLIM
 10
7854.494446500531
 20
-255.4256258422019
 30
0.0
  0
VERTEX
  5
13563F
  8
SLIM
 10
7858.247223250266
 20
-248.9256258422019
 30
0.0
  0
VERTEX
  5
135640
  8
SLIM
 10
7865.7527767497286
 20
-248.9256258422019
 30
0.0
  0
VERTEX
  5
135641
  8
SLIM
 10
7869.505553499459
 20
-255.42562584220559
 30
0.0
  0
VERTEX
  5
135642
  8
SLIM
 10
7865.7527767497286
 20
-261.9256258422019
 30
0.0
  0
VERTEX
  5
135643
  8
SLIM
 10
7858.247223250266
 20
-261.92562584220559
 30
0.0
  0
SEQEND
  5
135644
  8
SLIM
  0
LINE
  5
134F46
  8
CENTER
 10
8000.0000000000027
 20
-320.99999999999898
 30
0.0
 11
8000.0000000000027
 21
-299.99999999999898
 31
0.0
1001
ACDBBLOCKREPETAG
1070
     1
1071
        0
1005
134F46
  0
LINE
  5
134F47
  8
OBJECT
 10
8062.0000000000018
 20
-303.0
 30
0.0
 11
8062.0000000000018
 21
-299.99999999999898
 31
0.0
1001
ACDBBLOCKREPETAG
1070
     1
1071
        1
1005
134F47
  0
ARC
  5
134F48
  8
OBJECT
 10
8059.0000000000018
 20
-303.0
 30
0.0
 40
3.0
 50
270.0
 51
0.0
1001
ACDBBLOCKREPETAG
1070
     1
1071
        2
1005
134F48
  0
LINE
  5
134F49
  8
OBJECT
 10
7938.0000000000018
 20
-299.99999999999898
 30
0.0
 11
7938.0000000000018
 21
-302.99999999999818
 31
0.0
1001
ACDBBLOCKREPETAG
1070
     1
1071
        3
1005
134F49
  0
ARC
  5
134F4A
  8
OBJECT
 10
7941.0000000000018
 20
-302.99999999999818
 30
0.0
 40
3.0
 50
180.0
 51
270.0
1001
ACDBBLOCKREPETAG
1070
     1
1071
        4
1005
134F4A
  0
LINE
  5
134F4B
  8
OBJECT
 10
7941.0000000000018
 20
-305.99999999999818
 30
0.0
 11
8059.0000000000018
 21
-306.0
 31
0.0
1001
ACDBBLOCKREPETAG
1070
     1
1071
        5
1005
134F4B
  0
LINE
  5
134F4C
  8
SLIM
 10
7918.5743713244692
 20
-137.74153073842379
 30
0.0
 11
7937.7415307384244
 21
-118.5743713244679
 31
0.0
1001
GRADIENTCOLOR1ACI
1070
     5
1001
GRADIENTCOLOR2ACI
1070
     2
1001
ACAD
1010
0.0
1020
0.0
1030
0.0
1001
ACDBBLOCKREPETAG
1070
     1
1071
      301
1005
134F4C
  0
LINE
  5
134F4D
  8
SLIM
 10
7927.2961581839618
 20
-137.99999999999909
 30
0.0
 11
7959.4220169794107
 21
-105.8741412045496
 31
0.0
1001
GRADIENTCOLOR1ACI
1070
     5
1001
GRADIENTCOLOR2ACI
1070
     2
1001
ACAD
1010
0.0
1020
0.0
1030
0.0
1001
ACDBBLOCKREPETAG
1070
     1
1071
      302
1005
134F4D
  0
LINE
  5
134F4E
  8
SLIM
 10
7955.2080715681668
 20
-119.0683427368643
 30
0.0
 11
7973.21479235677
 21
-101.06162194825821
 31
0.0
1001
GRADIENTCOLOR1ACI
1070
     5
1001
GRADIENTCOLOR2ACI
1070
     2
1001
ACAD
1010
0.0
1020
0.0
1030
0.0
1001
ACDBBLOCKREPETAG
1070
     1
1071
      303
1005
134F4E
  0
LINE
  5
134F4F
  8
SLIM
 10
7971.1389053532557
 20
-112.11776507284389
 30
0.0
 11
7984.5919680901698
 21
-98.664702335928993
 31
0.0
1001
GRADIENTCOLOR1ACI
1070
     5
1001
GRADIENTCOLOR2ACI
1070
     2
1001
ACAD
1010
0.0
1020
0.0
1030
0.0
1001
ACDBBLOCKREPETAG
1070
     1
1071
      304
1005
134F4F
  0
LINE
  5
134F50
  8
SLIM
 10
7986.2342955596032
 20
-106.0026309875652
 30
0.0
 11
7994.59428198766
 21
-97.642644559507801
 31
0.0
1001
GRADIENTCOLOR1ACI
1070
     5
1001
GRADIENTCOLOR2ACI
1070
     2
1001
ACAD
1010
0.0
1020
0.0
1030
0.0
1001
ACDBBLOCKREPETAG
1070
     1
1071
      278
1005
134F50
  0
LINE
  5
134F51
  8
SLIM
 10
7996.1386775409328
 20
-105.0785051273038
 30
0.0
 11
8000.0
 21
-101.21718266823839
 31
0.0
1001
GRADIENTCOLOR1ACI
1070
     5
1001
GRADIENTCOLOR2ACI
1070
     2
1001
ACAD
1010
0.0
1020
0.0
1030
0.0
1001
ACDBBLOCKREPETAG
1070
     1
1071
      305
1005
134F51
  0
LINE
  5
134F52
  8
SLIM
 10
8000.0
 20
-101.21718266823839
 30
0.0
 11
8003.652099419467
 21
-97.565083248774314
 31
0.0
1001
GRADIENTCOLOR1ACI
1070
     5
1001
GRADIENTCOLOR2ACI
1070
     2
1001
ACAD
1010
0.0
1020
0.0
1030
0.0
1001
ACDBBLOCKREPETAG
1070
     1
1071
      306
1005
134F52
  0
LINE
  5
134F53
  8
SLIM
 10
8005.0624562444928
 20
-105.13498254481389
 30
0.0
 11
8011.9933588609547
 21
-98.204079928355625
 31
0.0
1001
GRADIENTCOLOR1ACI
1070
     5
1001
GRADIENTCOLOR2ACI
1070
     2
1001
ACAD
1010
0.0
1020
0.0
1030
0.0
1001
ACDBBLOCKREPETAG
1070
     1
1071
      307
1005
134F53
  0
LINE
  5
134F54
  8
SLIM
 10
8013.2492495222623
 20
-105.9284453881143
 30
0.0
 11
8019.7558130592479
 21
-99.421881851129058
 31
0.0
1001
GRADIENTCOLOR1ACI
1070
     5
1001
GRADIENTCOLOR2ACI
1070
     2
1001
ACAD
1010
0.0
1020
0.0
1030
0.0
1001
ACDBBLOCKREPETAG
1070
     1
1071
      282
1005
134F54
  0
LINE
  5
134F55
  8
SLIM
 10
8020.8432248281188
 20
-107.31472620332499
 30
0.0
 11
8027.0297896486627
 21
-101.1281613827821
 31
0.0
1001
GRADIENTCOLOR1ACI
1070
     5
1001
GRADIENTCOLOR2ACI
1070
     2
1001
ACAD
1010
0.0
1020
0.0
1030
0.0
1001
ACDBBLOCKREPETAG
1070
     1
1071
      283
1005
134F55
  0
LINE
  5
134F56
  8
SLIM
 10
8026.7444850762586
 20
-110.3937220762563
 30
0.0
 11
8033.877784086586
 21
-103.2604230659298
 31
0.0
1001
GRADIENTCOLOR1ACI
1070
     5
1001
GRADIENTCOLOR2ACI
1070
     2
1001
ACAD
1010
0.0
1020
0.0
1030
0.0
1001
ACDBBLOCKREPETAG
1070
     1
1071
      284
1005
134F56
  0
LINE
  5
134F57
  8
SLIM
 10
8032.6605739035549
 20
-113.4578893700272
 30
0.0
 11
8040.3445940865868
 21
-105.7738691869987
 31
0.0
1001
GRADIENTCOLOR1ACI
1070
     5
1001
GRADIENTCOLOR2ACI
1070
     2
1001
ACAD
1010
0.0
1020
0.0
1030
0.0
1001
ACDBBLOCKREPETAG
1070
     1
1071
      285
1005
134F57
  0
LINE
  5
134F58
  8
SLIM
 10
8038.983012933968
 20
-116.115706460684
 30
0.0
 11
8046.4630285156381
 21
-108.63569087901411
 31
0.0
1001
GRADIENTCOLOR1ACI
1070
     5
1001
GRADIENTCOLOR2ACI
1070
     2
1001
ACAD
1010
0.0
1020
0.0
1030
0.0
1001
ACDBBLOCKREPETAG
1070
     1
1071
      286
1005
134F58
  0
LINE
  5
134F59
  8
SLIM
 10
8044.9326113883499
 20
-119.1463641273716
 30
0.0
 11
8052.2573273714534
 21
-111.8216481442697
 31
0.0
1001
GRADIENTCOLOR1ACI
1070
     5
1001
GRADIENTCOLOR2ACI
1070
     2
1001
ACAD
1010
0.0
1020
0.0
1030
0.0
1001
ACDBBLOCKREPETAG
1070
     1
1071
      287
1005
134F59
  0
LINE
  5
134F5A
  8
SLIM
 10
8050.5348792738341
 20
-122.5243523629576
 30
0.0
 11
8057.7453005374227
 21
-115.3139310993673
 31
0.0
1001
GRADIENTCOLOR1ACI
1070
     5
1001
GRADIENTCOLOR2ACI
1070
     2
1001
ACAD
1010
0.0
1020
0.0
1030
0.0
1001
ACDBBLOCKREPETAG
1070
     1
1071
      288
1005
134F5A
  0
LINE
  5
134F5B
  8
SLIM
 10
7919.0997883728269
 20
-262.93969938503398
 30
0.0
 11
7920.039487757861
 21
-261.99999999999909
 31
0.0
1001
GRADIENTCOLOR1ACI
1070
     5
1001
GRADIENTCOLOR2ACI
1070
     2
1001
ACAD
1010
0.0
1020
0.0
1030
0.0
1001
ACDBBLOCKREPETAG
1070
     1
1071
      289
1005
134F5B
  0
LINE
  5
134F5C
  8
SLIM
 10
8055.807705723706
 20
-126.2317820341551
 30
0.0
 11
8062.9396993850351
 21
-119.0997883728258
 31
0.0
1001
GRADIENTCOLOR1ACI
1070
     5
1001
GRADIENTCOLOR2ACI
1070
     2
1001
ACAD
1010
0.0
1020
0.0
1030
0.0
1001
ACDBBLOCKREPETAG
1070
     1
1071
      290
1005
134F5C
  0
LINE
  5
134F5D
  8
SLIM
 10
7923.1706450290276
 20
-267.84909884990361
 30
0.0
 11
7929.019743878931
 21
-261.99999999999909
 31
0.0
1001
GRADIENTCOLOR1ACI
1070
     5
1001
GRADIENTCOLOR2ACI
1070
     2
1001
ACAD
1010
0.0
1020
0.0
1030
0.0
1001
ACDBBLOCKREPETAG
1070
     1
1071
      291
1005
134F5D
  0
LINE
  5
134F5E
  8
SLIM
 10
8060.7629465796699
 20
-130.25679729926071
 30
0.0
 11
8067.8490988499034
 21
-123.17064502902539
 31
0.0
1001
GRADIENTCOLOR1ACI
1070
     5
1001
GRADIENTCOLOR2ACI
1070
     2
1001
ACAD
1010
0.0
1020
0.0
1030
0.0
1001
ACDBBLOCKREPETAG
1070
     1
1071
      292
1005
134F5E
  0
LINE
  5
134F5F
  8
SLIM
 10
7927.5215549283794
 20
-272.47844507162011
 30
0.0
 11
7934.5926227402433
 21
-265.40737725975481
 31
0.0
1001
GRADIENTCOLOR1ACI
1070
     5
1001
GRADIENTCOLOR2ACI
1070
     2
1001
ACAD
1010
0.0
1020
0.0
1030
0.0
1001
ACDBBLOCKREPETAG
1070
     1
1071
      293
1005
134F5F
  0
LINE
  5
134F60
  8
SLIM
 10
8065.4073772597576
 20
-134.5926227402434
 30
0.0
 11
8072.4784450716224
 21
-127.52155492837799
 31
0.0
1001
GRADIENTCOLOR1ACI
1070
     5
1001
GRADIENTCOLOR2ACI
1070
     2
1001
ACAD
1010
0.0
1020
0.0
1030
0.0
1001
ACDBBLOCKREPETAG
1070
     1
1071
      294
1005
134F60
  0
LINE
  5
134F61
  8
SLIM
 10
7932.1509011500939
 20
-276.82935497097282
 30
0.0
 11
7937.9999999999936
 21
-270.980256121075
 31
0.0
1001
GRADIENTCOLOR1ACI
1070
     5
1001
GRADIENTCOLOR2ACI
1070
     2
1001
ACAD
1010
0.0
1020
0.0
1030
0.0
1001
ACDBBLOCKREPETAG
1070
     1
1071
      295
1005
134F61
  0
LINE
  5
134F62
  8
SLIM
 10
8070.980256121069
 20
-137.99999999999901
 30
0.0
 11
8076.8293549709733
 21
-132.15090115009451
 31
0.0
1001
GRADIENTCOLOR1ACI
1070
     5
1001
GRADIENTCOLOR2ACI
1070
     2
1001
ACAD
1010
0.0
1020
0.0
1030
0.0
1001
ACDBBLOCKREPETAG
1070
     1
1071
      296
1005
134F62
  0
LINE
  5
134F63
  8
SLIM
 10
7937.0603006149649
 20
-280.90021162717238
 30
0.0
 11
7937.9999999999955
 21
-279.9605122421421
 31
0.0
1001
GRADIENTCOLOR1ACI
1070
     5
1001
GRADIENTCOLOR2ACI
1070
     2
1001
ACAD
1010
0.0
1020
0.0
1030
0.0
1001
ACDBBLOCKREPETAG
1070
     1
1071
      297
1005
134F63
  0
LINE
  5
134F64
  8
SLIM
 10
8079.9605122421362
 20
-137.99999999999901
 30
0.0
 11
8080.9002116271704
 21
-137.06030061496409
 31
0.0
1001
GRADIENTCOLOR1ACI
1070
     5
1001
GRADIENTCOLOR2ACI
1070
     2
1001
ACAD
1010
0.0
1020
0.0
1030
0.0
1001
ACDBBLOCKREPETAG
1070
     1
1071
      298
1005
134F64
  0
LINE
  5
134F65
  8
SLIM
 10
8062.0000000000018
 20
-272.70384181603538
 30
0.0
 11
8072.7038418160373
 21
-261.99999999999909
 31
0.0
1001
GRADIENTCOLOR1ACI
1070
     5
1001
GRADIENTCOLOR2ACI
1070
     2
1001
ACAD
1010
0.0
1020
0.0
1030
0.0
1001
ACDBBLOCKREPETAG
1070
     1
1071
      299
1005
134F65
  0
LINE
  5
134F66
  8
SLIM
 10
8062.2584692615746
 20
-281.4256286755305
 30
0.0
 11
8081.4256286755299
 21
-262.25846926157431
 31
0.0
1001
GRADIENTCOLOR1ACI
1070
     5
1001
GRADIENTCOLOR2ACI
1070
     2
1001
ACAD
1010
0.0
1020
0.0
1030
0.0
1001
ACDBBLOCKREPETAG
1070
     1
1071
      300
1005
134F66
  0
LINE
  5
134F67
  8
OBJECT
 10
8068.6458301719767
 20
-137.99999999999909
 30
0.0
 11
8100.0
 21
-137.99999999999909
 31
0.0
1001
ACDBBLOCKREPETAG
1070
     1
1071
      242
1005
134F67
  0
LINE
  5
134F68
  8
OBJECT
 10
8068.6458301719767
 20
-261.99999999999909
 30
0.0
 11
8100.0000000000064
 21
-261.99999999999909
 31
0.0
1001
ACDBBLOCKREPETAG
1070
     1
1071
      243
1005
134F68
  0
LINE
  5
134F69
  8
OBJECT
 10
8062.0
 20
-268.64583017197862
 30
0.0
 11
8062.00000000001
 21
-299.99999999999898
 31
0.0
1001
ACDBBLOCKREPETAG
1070
     1
1071
      244
1005
134F69
  0
LINE
  5
134F6A
  8
OBJECT
 10
7937.9999999999891
 20
-268.64583017197492
 30
0.0
 11
7938.0
 21
-299.99999999999898
 31
0.0
1001
ACDBBLOCKREPETAG
1070
     1
1071
      245
1005
134F6A
  0
LINE
  5
134F6B
  8
OBJECT
 10
7931.354169828026
 20
-261.99999999999909
 30
0.0
 11
7899.9999999999909
 21
-261.99999999999909
 31
0.0
1001
ACDBBLOCKREPETAG
1070
     1
1071
      246
1005
134F6B
  0
LINE
  5
134F6C
  8
OBJECT
 10
7931.354169828026
 20
-137.99999999999909
 30
0.0
 11
7899.9999999999909
 21
-137.99999999999909
 31
0.0
1001
ACDBBLOCKREPETAG
1070
     1
1071
      247
1005
134F6C
  0
LINE
  5
134F6D
  8
CENTER
 10
7900.0
 20
-199.99999999999909
 30
0.0
 11
8100.0
 21
-199.99999999999909
 31
0.0
1001
ACDBBLOCKREPETAG
1070
     1
1071
      251
1005
134F6D
  0
LINE
  5
134F6E
  8
CENTER
 10
8000.0
 20
-82.499999999999091
 30
0.0
 11
8000.0
 21
-299.99999999999898
 31
0.0
1001
ACDBBLOCKREPETAG
1070
     1
1071
      252
1005
134F6E
  0
ARC
  5
134F6F
  8
OBJECT
 10
8000.0
 20
-199.99999999999909
 30
0.0
 40
102.5
 50
37.220066868561332
 51
142.77993313143861
1001
ACDBBLOCKREPETAG
1070
     1
1071
      256
1005
134F6F
  0
ARC
  5
134F70
  8
OBJECT
 10
8000.0
 20
-199.99999999999909
 30
0.0
 40
102.5
 50
217.2200668685613
 51
232.7799331314061
1001
ACDBBLOCKREPETAG
1070
     1
1071
      257
1005
134F70
  0
ARC
  5
134F71
  8
OBJECT
 10
8000.0
 20
-199.99999999999909
 30
0.0
 40
102.5
 50
307.2200668685939
 51
322.77993313143872
1001
ACDBBLOCKREPETAG
1070
     1
1071
      258
1005
134F71
  0
ARC
  5
134F72
  8
OBJECT
 10
7973.8931207053256
 20
-173.82438331578209
 30
0.0
 40
90.0
 50
274.21795726566182
 51
281.60300086768922
1001
ACDBBLOCKREPETAG
1070
     1
1071
      261
1005
134F72
  0
LINE
  5
134F73
  8
OBJECT
 10
7991.994750999992
 20
-261.98520799999727
 30
0.0
 11
7996.6424319999942
 21
-248.3387539999994
 31
0.0
1001
ACDBBLOCKREPETAG
1070
     1
1071
      262
1005
134F73
  0
LINE
  5
134F74
  8
OBJECT
 10
7955.2887960976786
 20
-207.0733020425842
 30
0.0
 11
7935.6054186421097
 21
-216.60084009147889
 31
0.0
1001
ACDBBLOCKREPETAG
1070
     1
1071
      263
1005
134F74
  0
LINE
  5
134F75
  8
OBJECT
 10
7937.3350639238643
 20
-222.25658973369261
 30
0.0
 11
7961.7560738851162
 21
-210.43584915155679
 31
0.0
1001
ACDBBLOCKREPETAG
1070
     1
1071
      264
1005
134F75
  0
LINE
  5
134F76
  8
OBJECT
 10
7996.6424319999942
 20
-248.3387539999994
 30
0.0
 11
7970.3289245926408
 21
-210.9660806555467
 31
0.0
1001
ACDBBLOCKREPETAG
1070
     1
1071
      265
1005
134F76
  0
ARC
  5
134F77
  8
OBJECT
 10
7960.5170048000518
 20
-217.87449798398211
 30
0.0
 40
12.0
 50
35.148769561161963
 51
115.8288295732624
1001
ACDBBLOCKREPETAG
1070
     1
1071
      266
1005
134F77
  0
ARC
  5
134F78
  8
OBJECT
 10
7965.2415463179786
 20
-217.63664646295089
 30
0.0
 40
8.0
 50
35.148769561161963
 51
115.8288292916689
1001
ACDBBLOCKREPETAG
1070
     1
1071
      267
1005
134F78
  0
ARC
  5
134F79
  8
OBJECT
 10
8000.0
 20
-199.99999999999909
 30
0.0
 40
90.0
 50
201.08359599996521
 51
248.91640400002939
1001
ACDBBLOCKREPETAG
1070
     1
1071
      273
1005
134F79
  0
ARC
  5
134F7A
  8
OBJECT
 10
8000.0
 20
-199.99999999999909
 30
0.0
 40
90.0
 50
111.0835959999705
 51
158.91640347115251
1001
ACDBBLOCKREPETAG
1070
     1
1071
      274
1005
134F7A
  0
LINE
  5
134F7B
  8
OBJECT
 10
7916.0249094448664
 20
-167.62432755513231
 30
0.0
 11
7908.2370465822614
 21
-175.41219041773809
 31
0.0
1001
ACDBBLOCKREPETAG
1070
     1
1071
      275
1005
134F7B
  0
LINE
  5
134F7C
  8
OBJECT
 10
7916.0249089999988
 20
-232.37567199999921
 30
0.0
 11
7908.2370469998141
 21
-224.58781114059909
 31
0.0
1001
ACDBBLOCKREPETAG
1070
     1
1071
      276
1005
134F7C
  0
ARC
  5
134F7D
  8
OBJECT
 10
8000.0
 20
-199.99999999999909
 30
0.0
 40
95.0
 50
164.99999981411651
 51
195.00000115873701
1001
ACDBBLOCKREPETAG
1070
     1
1071
      277
1005
134F7D
  0
ARC
  5
134F7E
  8
OBJECT
 10
8000.0
 20
-199.99999999999909
 30
0.0
 40
92.5
 50
287.80189678391901
 51
342.1981035993042
1001
ACDBBLOCKREPETAG
1070
     1
1071
      209
1005
134F7E
  0
ARC
  5
134F7F
  8
OBJECT
 10
8000.0
 20
-199.99999999999909
 30
0.0
 40
90.0
 50
291.08359599997061
 51
338.91640400003479
1001
ACDBBLOCKREPETAG
1070
     1
1071
      211
1005
134F7F
  0
CIRCLE
  5
134F80
  8
OBJECT
 10
8000.0
 20
-199.99999999999909
 30
0.0
 40
80.0
1001
ACDBBLOCKREPETAG
1070
     1
1071
      212
1005
134F80
  0
ARC
  5
134F81
  8
OBJECT
 10
8000.0
 20
-199.99999999999909
 30
0.0
 40
90.0
 50
21.08359652884743
 51
68.916404000029431
1001
ACDBBLOCKREPETAG
1070
     1
1071
      213
1005
134F81
  0
CIRCLE
  5
134F82
  8
OBJECT
 10
8000.0
 20
-199.99999999999909
 30
0.0
 40
66.5
1001
ACDBBLOCKREPETAG
1070
     1
1071
      215
1005
134F82
  0
LINE
  5
134F83
  8
OBJECT
 10
8083.9750905551327
 20
-167.62432755513231
 30
0.0
 11
8091.7629534177404
 21
-175.4121904177382
 31
0.0
1001
ACDBBLOCKREPETAG
1070
     1
1071
      216
1005
134F83
  0
LINE
  5
134F84
  8
OBJECT
 10
8083.9750910000021
 20
-232.37567199999921
 30
0.0
 11
8091.7629530001877
 21
-224.58781114059909
 31
0.0
1001
ACDBBLOCKREPETAG
1070
     1
1071
      217
1005
134F84
  0
ARC
  5
134F85
  8
OBJECT
 10
8000.0
 20
-199.99999999999909
 30
0.0
 40
95.0
 50
344.99999884126299
 51
15.00000018588349
1001
ACDBBLOCKREPETAG
1070
     1
1071
      218
1005
134F85
  0
LINE
  5
134F86
  8
OBJECT
 10
8032.375672999995
 20
-283.9750909999994
 30
0.0
 11
8024.587810948281
 21
-291.76295305171419
 31
0.0
1001
ACDBBLOCKREPETAG
1070
     1
1071
      219
1005
134F86
  0
LINE
  5
134F87
  8
OBJECT
 10
7967.6243279999981
 20
-283.9750909999994
 30
0.0
 11
7975.4121904177382
 21
-291.76295341774039
 31
0.0
1001
ACDBBLOCKREPETAG
1070
     1
1071
      220
1005
134F87
  0
ARC
  5
134F88
  8
OBJECT
 10
8000.0
 20
-199.99999999999909
 30
0.0
 40
95.0
 50
254.99999981420709
 51
285.00000103861061
1001
ACDBBLOCKREPETAG
1070
     1
1071
      221
1005
134F88
  0
LINE
  5
134F89
  8
OBJECT
 10
8032.375672999995
 20
-116.0249099999992
 30
0.0
 11
8024.5878095822618
 21
-108.2370465822578
 31
0.0
1001
ACDBBLOCKREPETAG
1070
     1
1071
      222
1005
134F89
  0
ARC
  5
134F8A
  8
OBJECT
 10
8000.0
 20
-199.99999999999909
 30
0.0
 40
95.0
 50
74.999999814207143
 51
104.99999933254421
1001
ACDBBLOCKREPETAG
1070
     1
1071
      223
1005
134F8A
  0
LINE
  5
134F8B
  8
OBJECT
 10
7967.6243279999981
 20
-116.0249099999992
 30
0.0
 11
7975.4121917837692
 21
-108.2370462162316
 31
0.0
1001
ACDBBLOCKREPETAG
1070
     1
1071
      224
1005
134F8B
  0
LINE
  5
134F8C
  8
OBJECT
 10
8055.1784370000023
 20
-162.884098999998
 30
0.0
 11
8032.5345701092747
 21
-178.11554723457169
 31
0.0
1001
ACDBBLOCKREPETAG
1070
     1
1071
      225
1005
134F8C
  0
LINE
  5
134F8D
  8
OBJECT
 10
7944.804121000001
 20
-162.88106899999821
 30
0.0
 11
8032.5345701092747
 21
-178.11554723457169
 31
0.0
1001
ACDBBLOCKREPETAG
1070
     1
1071
      226
1005
134F8D
  0
ARC
  5
134F8E
  8
OBJECT
 10
8000.0
 20
-199.99999999999909
 30
0.0
 40
92.5
 50
197.8018954425261
 51
252.19810417408729
1001
ACDBBLOCKREPETAG
1070
     1
1071
      230
1005
134F8E
  0
ARC
  5
134F8F
  8
OBJECT
 10
8000.0
 20
-199.99999999999909
 30
0.0
 40
92.5
 50
107.80189486746769
 51
162.19810513270031
1001
ACDBBLOCKREPETAG
1070
     1
1071
      231
1005
134F8F
  0
ARC
  5
134F90
  8
OBJECT
 10
8000.0
 20
-199.99999999999909
 30
0.0
 40
92.5
 50
17.801895825711568
 51
72.19810417408732
1001
ACDBBLOCKREPETAG
1070
     1
1071
      232
1005
134F90
  0
ARC
  5
134F91
  8
OBJECT
 10
8000.0
 20
-199.99999999999909
 30
0.0
 40
62.5
 50
144.42390307805491
 51
193.7174643726803
1001
ACDBBLOCKREPETAG
1070
     1
1071
      234
1005
134F91
  0
ARC
  5
134F92
  8
OBJECT
 10
8000.0
 20
-199.99999999999909
 30
0.0
 40
62.5
 50
262.64111297834887
 51
33.92683896333525
1001
ACDBBLOCKREPETAG
1070
     1
1071
      235
1005
134F92
  0
POINT
  5
134F93
  8
DOTS
 10
8000.0
 20
-199.99999999999909
 30
0.0
1001
ACDBBLOCKREPETAG
1070
     1
1071
      280
1005
134F93
  0
LINE
  5
134F94
  8
OBJECT
 10
8134.0
 20
-582.99999999999761
 30
0.0
 11
8134.0
 21
-580.99999999999761
 31
0.0
1001
ACDBBLOCKREPETAG
1070
     1
1071
      157
1005
134F94
  0
ARC
  5
134F95
  8
OBJECT
 10
8175.1865574982548
 20
-600.99999999999761
 30
0.0
 40
59.0
 50
229.20276883323919
 51
270.0
1001
ACDBBLOCKREPETAG
1070
     1
1071
      158
1005
134F95
  0
LINE
  5
134F96
  8
OBJECT
 10
8244.0
 20
-589.49999999999761
 30
0.0
 11
8109.0
 21
-589.49999999999761
 31
0.0
1001
ACDBBLOCKREPETAG
1070
     1
1071
      159
1005
134F96
  0
LINE
  5
134F97
  8
OBJECT
 10
8109.0
 20
-602.49999999999761
 30
0.0
 11
8244.0
 21
-602.49999999999761
 31
0.0
1001
ACDBBLOCKREPETAG
1070
     1
1071
      160
1005
134F97
  0
LINE
  5
134F98
  8
OBJECT
 10
8109.0
 20
-589.49999999999761
 30
0.0
 11
8109.0
 21
-602.49999999999761
 31
0.0
1001
ACDBBLOCKREPETAG
1070
     1
1071
      161
1005
134F98
  0
LINE
  5
134F99
  8
OBJECT
 10
8116.0
 20
-611.49999999999761
 30
0.0
 11
8116.0
 21
-602.49999999999761
 31
0.0
1001
ACDBBLOCKREPETAG
1070
     1
1071
      162
1005
134F99
  0
LINE
  5
134F9A
  8
OBJECT
 10
8134.0
 20
-614.99999999999761
 30
0.0
 11
8134.0
 21
-602.49999999999761
 31
0.0
1001
ACDBBLOCKREPETAG
1070
     1
1071
      163
1005
134F9A
  0
LINE
  5
134F9B
  8
OBJECT
 10
8224.0
 20
-611.49999999999761
 30
0.0
 11
8224.0
 21
-602.49999999999761
 31
0.0
1001
ACDBBLOCKREPETAG
1070
     1
1071
      164
1005
134F9B
  0
LINE
  5
134F9C
  8
OBJECT
 10
8244.0
 20
-589.49999999999761
 30
0.0
 11
8244.0
 21
-602.49999999999761
 31
0.0
1001
ACDBBLOCKREPETAG
1070
     1
1071
      165
1005
134F9C
  0
LINE
  5
134F9D
  8
OBJECT
 10
8142.0
 20
-614.99999999999761
 30
0.0
 11
8142.0
 21
-602.49999999999761
 31
0.0
1001
ACDBBLOCKREPETAG
1070
     1
1071
      166
1005
134F9D
  0
LINE
  5
134F9E
  8
OBJECT
 10
8134.0
 20
-611.49999999999761
 30
0.0
 11
8115.0
 21
-611.49999999999761
 31
0.0
1001
ACDBBLOCKREPETAG
1070
     1
1071
      167
1005
134F9E
  0
LINE
  5
134F9F
  8
OBJECT
 10
8115.0
 20
-614.99999999999761
 30
0.0
 11
8115.0
 21
-611.49999999999761
 31
0.0
1001
ACDBBLOCKREPETAG
1070
     1
1071
      168
1005
134F9F
  0
LINE
  5
134FA0
  8
OBJECT
 10
8142.0
 20
-611.49999999999761
 30
0.0
 11
8225.0
 21
-611.49999999999761
 31
0.0
1001
ACDBBLOCKREPETAG
1070
     1
1071
      169
1005
134FA0
  0
LINE
  5
134FA1
  8
OBJECT
 10
8225.0
 20
-611.49999999999761
 30
0.0
 11
8225.0
 21
-614.99999999999761
 31
0.0
1001
ACDBBLOCKREPETAG
1070
     1
1071
      170
1005
134FA1
  0
LINE
  5
134FA2
  8
OBJECT
 10
8130.4944465005328
 20
-589.49999999999761
 30
0.0
 11
8130.4944465005328
 21
-582.99999999999761
 31
0.0
1001
ACDBBLOCKREPETAG
1070
     1
1071
      171
1005
134FA2
  0
LINE
  5
134FA3
  8
OBJECT
 10
8129.0
 20
-627.99999999999761
 30
0.0
 11
8129.0
 21
-632.99999999999761
 31
0.0
1001
ACDBBLOCKREPETAG
1070
     1
1071
      172
1005
134FA3
  0
LINE
  5
134FA4
  8
OBJECT
 10
8129.0
 20
-632.99999999999761
 30
0.0
 11
8147.0
 21
-632.99999999999761
 31
0.0
1001
ACDBBLOCKREPETAG
1070
     1
1071
      173
1005
134FA4
  0
LINE
  5
134FA5
  8
OBJECT
 10
8147.0
 20
-627.99999999999761
 30
0.0
 11
8147.0
 21
-632.99999999999761
 31
0.0
1001
ACDBBLOCKREPETAG
1070
     1
1071
      174
1005
134FA5
  0
LINE
  5
134FA6
  8
OBJECT
 10
8109.0000000000027
 20
-614.99999999999761
 30
0.0
 11
8244.0
 21
-614.99999999999761
 31
0.0
1001
ACDBBLOCKREPETAG
1070
     1
1071
      175
1005
134FA6
  0
LINE
  5
134FA7
  8
OBJECT
 10
8244.0
 20
-614.99999999999761
 30
0.0
 11
8244.0
 21
-627.99999999999761
 31
0.0
1001
ACDBBLOCKREPETAG
1070
     1
1071
      176
1005
134FA7
  0
LINE
  5
134FA8
  8
OBJECT
 10
8136.6369002447645
 20
-645.66457125774514
 30
0.0
 11
8116.1702980000027
 21
-627.99999999999761
 31
0.0
1001
ACDBBLOCKREPETAG
1070
     1
1071
      177
1005
134FA8
  0
LINE
  5
134FA9
  8
OBJECT
 10
8221.0000000000018
 20
-635.65708264965485
 30
0.0
 11
8221.0000000000018
 21
-659.99999999999761
 31
0.0
1001
ACDBBLOCKREPETAG
1070
     1
1071
      178
1005
134FA9
  0
LINE
  5
134FAA
  8
OBJECT
 10
8175.1865574982548
 20
-659.99999999999761
 30
0.0
 11
8221.0000000000018
 21
-659.99999999999761
 31
0.0
1001
ACDBBLOCKREPETAG
1070
     1
1071
      179
1005
134FAA
  0
ARC
  5
134FAB
  8
OBJECT
 10
8130.5000000000027
 20
-661.49999999999761
 30
0.0
 40
84.0
 50
277.05348487097029
 51
1.023193303671255
1001
ACDBBLOCKREPETAG
1070
     1
1071
      180
1005
134FAB
  0
LINE
  5
134FAC
  8
OBJECT
 10
8106.0
 20
-749.17200317020843
 30
0.0
 11
8140.8148488128809
 21
-744.86428428270153
 31
0.0
1001
ACDBBLOCKREPETAG
1070
     1
1071
      181
1005
134FAC
  0
LINE
  5
134FAD
  8
OBJECT
 10
8106.0000000000027
 20
-749.99999999999852
 30
0.0
 11
8106.0000000000027
 21
-628.99999999999761
 31
0.0
1001
ACDBBLOCKREPETAG
1070
     1
1071
      182
1005
134FAD
  0
ARC
  5
134FAE
  8
OBJECT
 10
8103.0000000000027
 20
-749.99999999999852
 30
0.0
 40
3.0
 50
270.0
 51
0.0
1001
ACDBBLOCKREPETAG
1070
     1
1071
      183
1005
134FAE
  0
LINE
  5
134FAF
  8
OBJECT
 10
8116.1702980000027
 20
-627.99999999999761
 30
0.0
 11
8244.0
 21
-627.99999999999761
 31
0.0
1001
ACDBBLOCKREPETAG
1070
     1
1071
      184
1005
134FAF
  0
LINE
  5
134FB0
  8
OBJECT
 10
8125.0539138517261
 20
-635.65708264965485
 30
0.0
 11
8221.0000000000018
 21
-635.65708264965485
 31
0.0
1001
ACDBBLOCKREPETAG
1070
     1
1071
      185
1005
134FB0
  0
LINE
  5
134FB1
  8
OBJECT
 10
8225.0
 20
-630.89006764214673
 30
0.0
 11
8221.0000000000018
 21
-635.65708264965485
 31
0.0
1001
ACDBBLOCKREPETAG
1070
     1
1071
      186
1005
134FB1
  0
LINE
  5
134FB2
  8
OBJECT
 10
8109.0000000000027
 20
-614.99999999999761
 30
0.0
 11
8109.0000000000073
 21
-628.99999999999761
 31
0.0
1001
ACDBBLOCKREPETAG
1070
     1
1071
      187
1005
134FB2
  0
LINE
  5
134FB3
  8
HIDDEN
 10
8125.5
 20
-654.9999999999975
 30
0.0
 11
8214.4999999999982
 21
-654.9999999999975
 31
0.0
1001
ACDBBLOCKREPETAG
1070
     1
1071
      188
1005
134FB3
  0
LINE
  5
134FB4
  8
OBJECT
 10
8134.0
 20
-580.99999999999761
 30
0.0
 11
8142.0
 21
-580.99999999999761
 31
0.0
1001
ACDBBLOCKREPETAG
1070
     1
1071
      189
1005
134FB4
  0
LINE
  5
134FB5
  8
OBJECT
 10
8142.0
 20
-582.99999999999761
 30
0.0
 11
8142.0
 21
-580.99999999999761
 31
0.0
1001
ACDBBLOCKREPETAG
1070
     1
1071
      190
1005
134FB5
  0
LINE
  5
134FB6
  8
OBJECT
 10
8130.4944465005328
 20
-582.99999999999761
 30
0.0
 11
8145.5055534994644
 21
-582.99999999999761
 31
0.0
1001
ACDBBLOCKREPETAG
1070
     1
1071
      191
1005
134FB6
  0
LINE
  5
134FB7
  8
CENTER
 10
8170.0
 20
-674.77158855533025
 30
0.0
 11
8170.0
 21
-574.49999999999761
 31
0.0
1001
ACDBBLOCKREPETAG
1070
     1
1071
      193
1005
134FB7
  0
LINE
  5
134FB8
  8
OBJECT
 10
8100.0
 20
-752.99999999999773
 30
0.0
 11
8103.0000000000027
 21
-752.99999999999852
 31
0.0
1001
ACDBBLOCKREPETAG
1070
     1
1071
      194
1005
134FB8
  0
LINE
  5
134FB9
  8
OBJECT
 10
8100.0
 20
-628.99999999999761
 30
0.0
 11
8109.0000000000073
 21
-628.99999999999761
 31
0.0
1001
ACDBBLOCKREPETAG
1070
     1
1071
      195
1005
134FB9
  0
LINE
  5
134FBA
  8
OBJECT
 10
8134.2471969783937
 20
-589.49998110540889
 30
0.0
 11
8134.2471969783937
 21
-582.99998110540901
 31
0.0
1001
ACDBBLOCKREPETAG
1070
     1
1071
      196
1005
134FBA
  0
LINE
  5
134FBB
  8
OBJECT
 10
8145.5055534994644
 20
-589.49999999999761
 30
0.0
 11
8145.5055534994644
 21
-582.99999999999761
 31
0.0
1001
ACDBBLOCKREPETAG
1070
     1
1071
      197
1005
134FBB
  0
LINE
  5
134FBC
  8
OBJECT
 10
8141.7528030216063
 20
-589.49998110540889
 30
0.0
 11
8141.7528030216063
 21
-582.99998110540901
 31
0.0
1001
ACDBBLOCKREPETAG
1070
     1
1071
      198
1005
134FBC
  0
LINE
  5
134FBD
  8
OBJECT
 10
8230.0
 20
-582.99999999999761
 30
0.0
 11
8230.0
 21
-580.99999999999761
 31
0.0
1001
ACDBBLOCKREPETAG
1070
     1
1071
      199
1005
134FBD
  0
LINE
  5
134FBE
  8
OBJECT
 10
8230.0
 20
-614.99999999999761
 30
0.0
 11
8230.0
 21
-602.49999999999761
 31
0.0
1001
ACDBBLOCKREPETAG
1070
     1
1071
      200
1005
134FBE
  0
LINE
  5
134FBF
  8
OBJECT
 10
8238.0
 20
-614.99999999999761
 30
0.0
 11
8238.0
 21
-602.49999999999761
 31
0.0
1001
ACDBBLOCKREPETAG
1070
     1
1071
      201
1005
134FBF
  0
LINE
  5
134FC0
  8
OBJECT
 10
8226.4944465005337
 20
-589.49999999999761
 30
0.0
 11
8226.4944465005337
 21
-582.99999999999761
 31
0.0
1001
ACDBBLOCKREPETAG
1070
     1
1071
      202
1005
134FC0
  0
LINE
  5
134FC1
  8
OBJECT
 10
8225.0
 20
-627.99999999999761
 30
0.0
 11
8225.0
 21
-632.99999999999761
 31
0.0
1001
ACDBBLOCKREPETAG
1070
     1
1071
      203
1005
134FC1
  0
LINE
  5
134FC2
  8
OBJECT
 10
8225.0
 20
-632.99999999999761
 30
0.0
 11
8243.0
 21
-632.99999999999761
 31
0.0
1001
ACDBBLOCKREPETAG
1070
     1
1071
      204
1005
134FC2
  0
LINE
  5
134FC3
  8
OBJECT
 10
8243.0
 20
-627.99999999999761
 30
0.0
 11
8243.0
 21
-632.99999999999761
 31
0.0
1001
ACDBBLOCKREPETAG
1070
     1
1071
      205
1005
134FC3
  0
LINE
  5
134FC4
  8
OBJECT
 10
8230.0
 20
-580.99999999999761
 30
0.0
 11
8238.0
 21
-580.99999999999761
 31
0.0
1001
ACDBBLOCKREPETAG
1070
     1
1071
      206
1005
134FC4
  0
LINE
  5
134FC5
  8
OBJECT
 10
8238.0
 20
-582.99999999999761
 30
0.0
 11
8238.0
 21
-580.99999999999761
 31
0.0
1001
ACDBBLOCKREPETAG
1070
     1
1071
      207
1005
134FC5
  0
LINE
  5
134FC6
  8
OBJECT
 10
8226.4944465005337
 20
-582.99999999999761
 30
0.0
 11
8241.5055534994644
 21
-582.99999999999761
 31
0.0
1001
ACDBBLOCKREPETAG
1070
     1
1071
      208
1005
134FC6
  0
LINE
  5
134FC7
  8
OBJECT
 10
8230.2471969783928
 20
-589.49998110540889
 30
0.0
 11
8230.2471969783928
 21
-582.99998110540901
 31
0.0
1001
ACDBBLOCKREPETAG
1070
     1
1071
      209
1005
134FC7
  0
LINE
  5
134FC8
  8
OBJECT
 10
8241.5055534994644
 20
-589.49999999999761
 30
0.0
 11
8241.5055534994644
 21
-582.99999999999761
 31
0.0
1001
ACDBBLOCKREPETAG
1070
     1
1071
      210
1005
134FC8
  0
LINE
  5
134FC9
  8
OBJECT
 10
8237.7528030216054
 20
-589.49998110540889
 30
0.0
 11
8237.7528030216054
 21
-582.99998110540901
 31
0.0
1001
ACDBBLOCKREPETAG
1070
     1
1071
      211
1005
134FC9
  0
LINE
  5
134FCA
  8
CENTER
 10
8100.0
 20
-199.99999999999909
 30
0.0
 11
8259.0
 21
-199.99999999999909
 31
0.0
1001
ACDBBLOCKREPETAG
1070
     1
1071
      155
1005
134FCA
  0
LINE
  5
134FCB
  8
OBJECT
 10
8100.0
 20
-261.99999999999909
 30
0.0
 11
8103.0
 21
-261.99999999999909
 31
0.0
1001
ACDBBLOCKREPETAG
1070
     1
1071
      156
1005
134FCB
  0
ARC
  5
134FCC
  8
OBJECT
 10
8103.0
 20
-258.99999999999909
 30
0.0
 40
3.0
 50
270.0
 51
0.0
1001
ACDBBLOCKREPETAG
1070
     1
1071
      157
1005
134FCC
  0
LINE
  5
134FCD
  8
OBJECT
 10
8100.0
 20
-138.0000000000027
 30
0.0
 11
8103.0
 21
-138.0000000000027
 31
0.0
1001
ACDBBLOCKREPETAG
1070
     1
1071
      158
1005
134FCD
  0
LINE
  5
134FCE
  8
OBJECT
 10
8106.0
 20
-140.99999999999909
 30
0.0
 11
8128.6547275935327
 21
-140.9999999999954
 31
0.0
1001
ACDBBLOCKREPETAG
1070
     1
1071
      159
1005
134FCE
  0
LINE
  5
134FCF
  8
OBJECT
 10
8106.0
 20
-259.00000000000267
 30
0.0
 11
8128.6547275935327
 21
-258.99999999999909
 31
0.0
1001
ACDBBLOCKREPETAG
1070
     1
1071
      160
1005
134FCF
  0
LINE
  5
134FD0
  8
CENTER
 10
8170.0
 20
-123.5195984073716
 30
0.0
 11
8170.0
 21
-276.48040159262649
 31
0.0
1001
ACDBBLOCKREPETAG
1070
     1
1071
      161
1005
134FD0
  0
LINE
  5
134FD1
  8
OBJECT
 10
8106.0
 20
-141.0000000000027
 30
0.0
 11
8106.0
 21
-258.99999999999909
 31
0.0
1001
ACDBBLOCKREPETAG
1070
     1
1071
      162
1005
134FD1
  0
ARC
  5
134FD2
  8
OBJECT
 10
8103.0
 20
-141.0000000000027
 30
0.0
 40
3.0
 50
0.0
 51
90.0
1001
ACDBBLOCKREPETAG
1070
     1
1071
      163
1005
134FD2
  0
ARC
  5
134FD3
  8
OBJECT
 10
8170.0
 20
-199.99999999999909
 30
0.0
 40
61.0
 50
37.167285461274467
 51
82.832714538705744
1001
ACDBBLOCKREPETAG
1070
     1
1071
      165
1005
134FD3
  0
ARC
  5
134FD4
  8
OBJECT
 10
8170.0
 20
-199.99999999999909
 30
0.0
 40
61.0
 50
157.16728546127851
 51
202.83271453872149
1001
ACDBBLOCKREPETAG
1070
     1
1071
      166
1005
134FD4
  0
ARC
  5
134FD5
  8
OBJECT
 10
8170.0
 20
-199.99999999999909
 30
0.0
 40
61.0
 50
277.16728546129423
 51
322.83271453872419
1001
ACDBBLOCKREPETAG
1070
     1
1071
      167
1005
134FD5
  0
CIRCLE
  5
134FD6
  8
SLIM
 10
8234.0
 20
-199.99999999999909
 30
0.0
 40
4.0
1001
ACDBBLOCKREPETAG
1070
     1
1071
      168
1005
134FD6
  0
ARC
  5
134FD7
  8
OBJECT
 10
8234.0
 20
-199.99999999999909
 30
0.0
 40
10.0
 50
322.83271453872419
 51
37.167285461274467
1001
ACDBBLOCKREPETAG
1070
     1
1071
      169
1005
134FD7
  0
LINE
  5
134FD8
  8
OBJECT
 10
8218.6093749999964
 20
-163.14720279124501
 30
0.0
 11
8241.9687499999982
 21
-193.9585578346296
 31
0.0
1001
ACDBBLOCKREPETAG
1070
     1
1071
      170
1005
134FD8
  0
LINE
  5
134FD9
  8
OBJECT
 10
8218.6093749999964
 20
-236.8527972087532
 30
0.0
 11
8241.9687499999982
 21
-206.04144216536861
 31
0.0
1001
ACDBBLOCKREPETAG
1070
     1
1071
      171
1005
134FD9
  0
CIRCLE
  5
134FDA
  8
SLIM
 10
8138.0
 20
-144.5743741577962
 30
0.0
 40
3.9999999999999991
1001
ACDBBLOCKREPETAG
1070
     1
1071
      172
1005
134FDA
  0
ARC
  5
134FDB
  8
OBJECT
 10
8138.0
 20
-144.5743741577962
 30
0.0
 40
9.9999999999999982
 50
82.832714538705744
 51
157.16728546127851
1001
ACDBBLOCKREPETAG
1070
     1
1071
      173
1005
134FDB
  0
LINE
  5
134FDC
  8
OBJECT
 10
8113.779853916707
 20
-176.32944499229319
 30
0.0
 11
8128.783582609296
 21
-140.6939553040711
 31
0.0
1001
ACDBBLOCKREPETAG
1070
     1
1071
      174
1005
134FDC
  0
LINE
  5
134FDD
  8
OBJECT
 10
8177.6107710832994
 20
-139.47664778353919
 30
0.0
 11
8139.2476673907031
 21
-134.65251313870161
 31
0.0
1001
ACDBBLOCKREPETAG
1070
     1
1071
      175
1005
134FDD
  0
CIRCLE
  5
134FDE
  8
SLIM
 10
8138.0
 20
-255.4256258422019
 30
0.0
 40
4.0
1001
ACDBBLOCKREPETAG
1070
     1
1071
      176
1005
134FDE
  0
ARC
  5
134FDF
  8
OBJECT
 10
8138.0
 20
-255.4256258422019
 30
0.0
 40
10.0
 50
202.83271453872149
 51
277.16728546129423
1001
ACDBBLOCKREPETAG
1070
     1
1071
      177
1005
134FDF
  0
LINE
  5
134FE0
  8
OBJECT
 10
8177.6107710832994
 20
-260.52335221645899
 30
0.0
 11
8139.2476673907031
 21
-265.3474868612966
 31
0.0
1001
ACDBBLOCKREPETAG
1070
     1
1071
      178
1005
134FE0
  0
LINE
  5
134FE1
  8
OBJECT
 10
8113.779853916707
 20
-223.67055500770491
 30
0.0
 11
8128.783582609296
 21
-259.30604469592708
 31
0.0
1001
ACDBBLOCKREPETAG
1070
     1
1071
      179
1005
134FE1
  0
CIRCLE
  5
134FE2
  8
OBJECT
 10
8170.0
 20
-199.99999999999909
 30
0.0
 40
46.0
1001
ACDBBLOCKREPETAG
1070
     1
1071
      180
1005
134FE2
  0
POLYLINE
  5
134FE3
  8
SLIM
 66
     1
 10
0.0
 20
0.0
 30
0.0
 70
     1
1001
ACDBBLOCKREPETAG
1070
     1
1071
      181
1005
134FE3
  0
VERTEX
  5
135645
  8
SLIM
 10
8230.247223250266
 20
-193.49999999999909
 30
0.0
  0
VERTEX
  5
135646
  8
SLIM
 10
8226.4944465005337
 20
-199.99999999999909
 30
0.0
  0
VERTEX
  5
135647
  8
SLIM
 10
8230.247223250266
 20
-206.49999999999909
 30
0.0
  0
VERTEX
  5
135648
  8
SLIM
 10
8237.7527767497359
 20
-206.49999999999909
 30
0.0
  0
VERTEX
  5
135649
  8
SLIM
 10
8241.5055534994644
 20
-199.99999999999909
 30
0.0
  0
VERTEX
  5
13564A
  8
SLIM
 10
8237.7527767497359
 20
-193.49999999999909
 30
0.0
  0
SEQEND
  5
13564B
  8
SLIM
  0
POLYLINE
  5
134FE4
  8
SLIM
 66
     1
 10
0.0
 20
0.0
 30
0.0
 70
     1
1001
ACDBBLOCKREPETAG
1070
     1
1071
      182
1005
134FE4
  0
VERTEX
  5
13564C
  8
SLIM
 10
8134.2472232502678
 20
-151.0743741577962
 30
0.0
  0
VERTEX
  5
13564D
  8
SLIM
 10
8141.7527767497377
 20
-151.0743741577962
 30
0.0
  0
VERTEX
  5
13564E
  8
SLIM
 10
8145.5055534994644
 20
-144.5743741577962
 30
0.0
  0
VERTEX
  5
13564F
  8
SLIM
 10
8141.7527767497313
 20
-138.07437415779259
 30
0.0
  0
VERTEX
  5
135650
  8
SLIM
 10
8134.2472232502678
 20
-138.0743741577962
 30
0.0
  0
VERTEX
  5
135651
  8
SLIM
 10
8130.4944465005328
 20
-144.57437415779259
 30
0.0
  0
SEQEND
  5
135652
  8
SLIM
  0
POLYLINE
  5
134FE5
  8
SLIM
 66
     1
 10
0.0
 20
0.0
 30
0.0
 70
     1
1001
ACDBBLOCKREPETAG
1070
     1
1071
      183
1005
134FE5
  0
VERTEX
  5
135653
  8
SLIM
 10
8145.5055534994644
 20
-255.4256258422019
 30
0.0
  0
VERTEX
  5
135654
  8
SLIM
 10
8141.7527767497313
 20
-248.9256258422019
 30
0.0
  0
VERTEX
  5
135655
  8
SLIM
 10
8134.2472232502678
 20
-248.9256258422019
 30
0.0
  0
VERTEX
  5
135656
  8
SLIM
 10
8130.4944465005328
 20
-255.42562584220559
 30
0.0
  0
VERTEX
  5
135657
  8
SLIM
 10
8134.247223250266
 20
-261.9256258422019
 30
0.0
  0
VERTEX
  5
135658
  8
SLIM
 10
8141.7527767497313
 20
-261.92562584220559
 30
0.0
  0
SEQEND
  5
135659
  8
SLIM
  0
LINE
  5
134FE6
  8
SLIM
 10
7897.5000000000928
 20
-766.05282860997045
 30
0.0
 11
7913.5528286100662
 21
-749.99999999999773
 31
0.0
1001
ACAD
1010
0.0
1020
0.0
1030
0.0
  0
LINE
  5
134FE7
  8
SLIM
 10
7897.5000000000928
 20
-784.01334085210874
 30
0.0
 11
7931.5133408522042
 21
-749.99999999999773
 31
0.0
1001
ACAD
1010
0.0
1020
0.0
1030
0.0
  0
LINE
  5
134FE8
  8
SLIM
 10
7897.5000000000928
 20
-801.97385309424703
 30
0.0
 11
7949.4738530943423
 21
-749.99999999999773
 31
0.0
1001
ACAD
1010
0.0
1020
0.0
1030
0.0
  0
LINE
  5
134FE9
  8
SLIM
 10
7897.5000000000928
 20
-819.93436533638555
 30
0.0
 11
7967.4343653364804
 21
-749.99999999999773
 31
0.0
1001
ACAD
1010
0.0
1020
0.0
1030
0.0
  0
LINE
  5
134FEA
  8
SLIM
 10
7897.5000000000928
 20
-837.89487757852385
 30
0.0
 11
7985.3948775786184
 21
-749.99999999999773
 31
0.0
1001
ACAD
1010
0.0
1020
0.0
1030
0.0
  0
LINE
  5
134FEB
  8
SLIM
 10
7897.5000000000928
 20
-855.85538982066203
 30
0.0
 11
8003.3553898207574
 21
-749.99999999999773
 31
0.0
1001
ACAD
1010
0.0
1020
0.0
1030
0.0
  0
LINE
  5
134FEC
  8
SLIM
 10
7897.5000000000928
 20
-873.81590206280032
 30
0.0
 11
8021.3159020628946
 21
-749.99999999999773
 31
0.0
1001
ACAD
1010
0.0
1020
0.0
1030
0.0
  0
LINE
  5
134FED
  8
SLIM
 10
7897.5000000000928
 20
-891.7764143049385
 30
0.0
 11
8039.2764143050317
 21
-749.99999999999773
 31
0.0
1001
ACAD
1010
0.0
1020
0.0
1030
0.0
  0
LINE
  5
134FEE
  8
SLIM
 10
7897.5000000000928
 20
-909.73692654707668
 30
0.0
 11
8057.2369265471707
 21
-749.99999999999773
 31
0.0
1001
ACAD
1010
0.0
1020
0.0
1030
0.0
  0
LINE
  5
134FEF
  8
SLIM
 10
7897.5000000000928
 20
-927.69743878921508
 30
0.0
 11
8075.1974387893106
 21
-749.99999999999773
 31
0.0
1001
ACAD
1010
0.0
1020
0.0
1030
0.0
  0
LINE
  5
134FF0
  8
SLIM
 10
7897.5000000000928
 20
-945.6579510313536
 30
0.0
 11
8093.1579510314468
 21
-749.99999999999773
 31
0.0
1001
ACAD
1010
0.0
1020
0.0
1030
0.0
  0
LINE
  5
134FF1
  8
SLIM
 10
7897.5000000000928
 20
-963.61846327349156
 30
0.0
 11
8102.4999999999063
 21
-758.61846327367755
 31
0.0
1001
ACAD
1010
0.0
1020
0.0
1030
0.0
  0
LINE
  5
134FF2
  8
SLIM
 10
7897.5000000000928
 20
-981.57897551563019
 30
0.0
 11
8102.4999999999063
 21
-776.57897551581561
 31
0.0
1001
ACAD
1010
0.0
1020
0.0
1030
0.0
  0
LINE
  5
134FF3
  8
SLIM
 10
7898.5898389662798
 20
-998.44964879158101
 30
0.0
 11
8102.4999999999063
 21
-794.53948775795391
 31
0.0
1001
ACAD
1010
0.0
1020
0.0
1030
0.0
  0
LINE
  5
134FF4
  8
SLIM
 10
7900.8041486947632
 20
-1014.1958513052371
 30
0.0
 11
8102.4999999999063
 21
-812.50000000009231
 31
0.0
1001
ACAD
1010
0.0
1020
0.0
1030
0.0
  0
LINE
  5
134FF5
  8
SLIM
 10
7903.0184584232438
 20
-1029.942053818892
 30
0.0
 11
8102.4999999999063
 21
-830.46051224223049
 31
0.0
1001
ACAD
1010
0.0
1020
0.0
1030
0.0
  0
LINE
  5
134FF6
  8
SLIM
 10
7905.2327681517281
 20
-1045.688256332548
 30
0.0
 11
8102.4999999999063
 21
-848.4210244843689
 31
0.0
1001
ACAD
1010
0.0
1020
0.0
1030
0.0
  0
LINE
  5
134FF7
  8
SLIM
 10
7907.4470778802124
 20
-1061.4344588462029
 30
0.0
 11
8102.4999999999063
 21
-866.38153672650731
 31
0.0
1001
ACAD
1010
0.0
1020
0.0
1030
0.0
  0
LINE
  5
134FF8
  8
SLIM
 10
7909.6613876086958
 20
-1077.180661359858
 30
0.0
 11
8102.4999999999063
 21
-884.3420489686456
 31
0.0
1001
ACAD
1010
0.0
1020
0.0
1030
0.0
  0
LINE
  5
134FF9
  8
SLIM
 10
7911.8756973371737
 20
-1092.9268638735141
 30
0.0
 11
8102.4999999999063
 21
-902.30256121078355
 31
0.0
1001
ACAD
1010
0.0
1020
0.0
1030
0.0
  0
LINE
  5
134FFA
  8
SLIM
 10
7914.0900070656589
 20
-1108.6730663871699
 30
0.0
 11
8102.4999999999063
 21
-920.26307345292196
 31
0.0
1001
ACAD
1010
0.0
1020
0.0
1030
0.0
  0
LINE
  5
134FFB
  8
SLIM
 10
7916.3043167941414
 20
-1124.419268900825
 30
0.0
 11
8102.4999999999063
 21
-938.22358569506036
 31
0.0
1001
ACAD
1010
0.0
1020
0.0
1030
0.0
  0
LINE
  5
134FFC
  8
SLIM
 10
7918.5186265226248
 20
-1140.1654714144811
 30
0.0
 11
8102.4999999999063
 21
-956.18409793719877
 31
0.0
1001
ACAD
1010
0.0
1020
0.0
1030
0.0
  0
LINE
  5
134FFD
  8
SLIM
 10
7920.0
 20
-1156.644610179244
 30
0.0
 11
8102.4999999999063
 21
-974.14461017933684
 31
0.0
1001
ACAD
1010
0.0
1020
0.0
1030
0.0
  0
LINE
  5
134FFE
  8
SLIM
 10
7929.6051224213852
 20
-1164.999999999998
 30
0.0
 11
8102.2700189725447
 21
-992.33510344883939
 31
0.0
1001
ACAD
1010
0.0
1020
0.0
1030
0.0
  0
LINE
  5
134FFF
  8
SLIM
 10
7930.0
 20
-1182.565634663521
 30
0.0
 11
7947.5656346635233
 21
-1164.999999999998
 31
0.0
1001
ACAD
1010
0.0
1020
0.0
1030
0.0
  0
LINE
  5
135000
  8
SLIM
 10
7947.5656346635233
 20
-1164.999999999998
 30
0.0
 11
8099.3310260601947
 21
-1013.234608603328
 31
0.0
1001
ACAD
1010
0.0
1020
0.0
1030
0.0
  0
LINE
  5
135001
  8
SLIM
 10
7940.5261469056613
 20
-1189.999999999997
 30
0.0
 11
7965.5261469056613
 21
-1164.999999999998
 31
0.0
1001
ACAD
1010
0.0
1020
0.0
1030
0.0
  0
LINE
  5
135002
  8
SLIM
 10
7965.5261469056613
 20
-1164.999999999998
 30
0.0
 11
8096.392033147843
 21
-1034.1341137578161
 31
0.0
1001
ACAD
1010
0.0
1020
0.0
1030
0.0
  0
LINE
  5
135003
  8
SLIM
 10
7958.4866591477976
 20
-1189.999999999997
 30
0.0
 11
7983.4866591477967
 21
-1164.999999999998
 31
0.0
1001
ACAD
1010
0.0
1020
0.0
1030
0.0
  0
LINE
  5
135004
  8
SLIM
 10
7983.4866591477967
 20
-1164.999999999998
 30
0.0
 11
8093.4530402354931
 21
-1055.0336189123041
 31
0.0
1001
ACAD
1010
0.0
1020
0.0
1030
0.0
  0
LINE
  5
135005
  8
SLIM
 10
7976.4471713899384
 20
-1189.999999999997
 30
0.0
 11
8001.4471713899393
 21
-1164.999999999998
 31
0.0
1001
ACAD
1010
0.0
1020
0.0
1030
0.0
  0
LINE
  5
135006
  8
SLIM
 10
8001.4471713899393
 20
-1164.999999999998
 30
0.0
 11
8090.5140473231431
 21
-1075.9331240667921
 31
0.0
1001
ACAD
1010
0.0
1020
0.0
1030
0.0
  0
LINE
  5
135007
  8
SLIM
 10
7994.4076836320764
 20
-1189.999999999997
 30
0.0
 11
8019.4076836320764
 21
-1164.999999999998
 31
0.0
1001
ACAD
1010
0.0
1020
0.0
1030
0.0
  0
LINE
  5
135008
  8
SLIM
 10
8019.4076836320764
 20
-1164.999999999998
 30
0.0
 11
8087.5750544107932
 21
-1096.8326292212801
 31
0.0
1001
ACAD
1010
0.0
1020
0.0
1030
0.0
  0
LINE
  5
135009
  8
SLIM
 10
8012.3681958742154
 20
-1189.999999999997
 30
0.0
 11
8037.3681958742127
 21
-1164.999999999998
 31
0.0
1001
ACAD
1010
0.0
1020
0.0
1030
0.0
  0
LINE
  5
13500A
  8
SLIM
 10
8037.3681958742127
 20
-1164.999999999998
 30
0.0
 11
8084.6360614984433
 21
-1117.732134375769
 31
0.0
1001
ACAD
1010
0.0
1020
0.0
1030
0.0
  0
LINE
  5
13500B
  8
SLIM
 10
8030.3287081163526
 20
-1189.999999999997
 30
0.0
 11
8055.3287081163544
 21
-1164.999999999998
 31
0.0
1001
ACAD
1010
0.0
1020
0.0
1030
0.0
  0
LINE
  5
13500C
  8
SLIM
 10
8055.3287081163544
 20
-1164.999999999998
 30
0.0
 11
8081.6970685860933
 21
-1138.631639530257
 31
0.0
1001
ACAD
1010
0.0
1020
0.0
1030
0.0
  0
LINE
  5
13500D
  8
SLIM
 10
8048.2892203584888
 20
-1189.999999999997
 30
0.0
 11
8070.0
 21
-1168.289220358489
 31
0.0
1001
ACAD
1010
0.0
1020
0.0
1030
0.0
  0
LINE
  5
13500E
  8
SLIM
 10
8073.2892203584888
 20
-1164.999999999998
 30
0.0
 11
8080.0
 21
-1158.289220358489
 31
0.0
1001
ACAD
1010
0.0
1020
0.0
1030
0.0
  0
LINE
  5
13500F
  8
SLIM
 10
8066.2497326006278
 20
-1189.999999999997
 30
0.0
 11
8070.0
 21
-1186.2497326006271
 31
0.0
1001
ACAD
1010
0.0
1020
0.0
1030
0.0
  0
LINE
  5
135010
  8
OBJECT
 10
7897.5000000000928
 20
-749.99999999999773
 30
0.0
 11
8102.4999999999063
 21
-749.99999999999773
 31
0.0
  0
LINE
  5
135011
  8
OBJECT
 10
8102.4999999999063
 20
-749.99999999999773
 30
0.0
 11
8102.4999999999063
 21
-990.69968280980572
 31
0.0
  0
LINE
  5
135012
  8
OBJECT
 10
8102.4999999999063
 20
-990.69968280980572
 30
0.0
 11
8080.0
 21
-1150.699682809146
 31
0.0
  0
LINE
  5
135013
  8
OBJECT
 10
8080.0
 20
-1150.699682809146
 30
0.0
 11
8080.0
 21
-1164.999999999998
 31
0.0
  0
LINE
  5
135014
  8
OBJECT
 10
8080.0
 20
-1164.999999999998
 30
0.0
 11
7920.0
 21
-1164.999999999998
 31
0.0
  0
LINE
  5
135015
  8
OBJECT
 10
7920.0
 20
-1164.999999999998
 30
0.0
 11
7920.0
 21
-1150.699682809146
 31
0.0
  0
LINE
  5
135016
  8
OBJECT
 10
7920.0
 20
-1150.699682809146
 30
0.0
 11
7897.5000000000928
 21
-990.69968280980572
 31
0.0
  0
LINE
  5
135017
  8
OBJECT
 10
7897.5000000000928
 20
-990.69968280980572
 30
0.0
 11
7897.5000000000928
 21
-749.99999999999773
 31
0.0
  0
LINE
  5
135018
  8
OBJECT
 10
7930.0
 20
-1164.999999999998
 30
0.0
 11
7930.0
 21
-1189.999999999997
 31
0.0
  0
LINE
  5
135019
  8
OBJECT
 10
7930.0
 20
-1189.999999999997
 30
0.0
 11
8070.0
 21
-1189.999999999997
 31
0.0
  0
LINE
  5
13501A
  8
OBJECT
 10
8070.0
 20
-1189.999999999997
 30
0.0
 11
8070.0
 21
-1164.999999999998
 31
0.0
  0
LINE
  5
13501B
  8
OBJECT
 10
5866.0
 20
-582.99999999999761
 30
0.0
 11
5866.0
 21
-580.99999999999761
 31
0.0
1001
ACDBBLOCKREPETAG
1070
     1
1071
      157
1005
13501B
  0
ARC
  5
13501C
  8
OBJECT
 10
5824.8134425017461
 20
-600.99999999999761
 30
0.0
 40
59.0
 50
270.0
 51
310.7972311667607
1001
ACDBBLOCKREPETAG
1070
     1
1071
      158
1005
13501C
  0
LINE
  5
13501D
  8
OBJECT
 10
5756.0
 20
-589.49999999999761
 30
0.0
 11
5891.0
 21
-589.49999999999761
 31
0.0
1001
ACDBBLOCKREPETAG
1070
     1
1071
      159
1005
13501D
  0
LINE
  5
13501E
  8
OBJECT
 10
5891.0
 20
-602.49999999999761
 30
0.0
 11
5756.0
 21
-602.49999999999761
 31
0.0
1001
ACDBBLOCKREPETAG
1070
     1
1071
      160
1005
13501E
  0
LINE
  5
13501F
  8
OBJECT
 10
5891.0
 20
-589.49999999999761
 30
0.0
 11
5891.0
 21
-602.49999999999761
 31
0.0
1001
ACDBBLOCKREPETAG
1070
     1
1071
      161
1005
13501F
  0
LINE
  5
135020
  8
OBJECT
 10
5884.0
 20
-611.49999999999761
 30
0.0
 11
5884.0
 21
-602.49999999999761
 31
0.0
1001
ACDBBLOCKREPETAG
1070
     1
1071
      162
1005
135020
  0
LINE
  5
135021
  8
OBJECT
 10
5866.0
 20
-614.99999999999761
 30
0.0
 11
5866.0
 21
-602.49999999999761
 31
0.0
1001
ACDBBLOCKREPETAG
1070
     1
1071
      163
1005
135021
  0
LINE
  5
135022
  8
OBJECT
 10
5776.0
 20
-611.49999999999761
 30
0.0
 11
5776.0
 21
-602.49999999999761
 31
0.0
1001
ACDBBLOCKREPETAG
1070
     1
1071
      164
1005
135022
  0
LINE
  5
135023
  8
OBJECT
 10
5756.0
 20
-589.49999999999761
 30
0.0
 11
5756.0
 21
-602.49999999999761
 31
0.0
1001
ACDBBLOCKREPETAG
1070
     1
1071
      165
1005
135023
  0
LINE
  5
135024
  8
OBJECT
 10
5858.0
 20
-614.99999999999761
 30
0.0
 11
5858.0
 21
-602.49999999999761
 31
0.0
1001
ACDBBLOCKREPETAG
1070
     1
1071
      166
1005
135024
  0
LINE
  5
135025
  8
OBJECT
 10
5866.0
 20
-611.49999999999761
 30
0.0
 11
5885.0
 21
-611.49999999999761
 31
0.0
1001
ACDBBLOCKREPETAG
1070
     1
1071
      167
1005
135025
  0
LINE
  5
135026
  8
OBJECT
 10
5885.0
 20
-614.99999999999761
 30
0.0
 11
5885.0
 21
-611.49999999999761
 31
0.0
1001
ACDBBLOCKREPETAG
1070
     1
1071
      168
1005
135026
  0
LINE
  5
135027
  8
OBJECT
 10
5858.0
 20
-611.49999999999761
 30
0.0
 11
5775.0
 21
-611.49999999999761
 31
0.0
1001
ACDBBLOCKREPETAG
1070
     1
1071
      169
1005
135027
  0
LINE
  5
135028
  8
OBJECT
 10
5775.0
 20
-611.49999999999761
 30
0.0
 11
5775.0
 21
-614.99999999999761
 31
0.0
1001
ACDBBLOCKREPETAG
1070
     1
1071
      170
1005
135028
  0
LINE
  5
135029
  8
OBJECT
 10
5869.5055534994653
 20
-589.49999999999761
 30
0.0
 11
5869.5055534994653
 21
-582.99999999999761
 31
0.0
1001
ACDBBLOCKREPETAG
1070
     1
1071
      171
1005
135029
  0
LINE
  5
13502A
  8
OBJECT
 10
5871.0
 20
-627.99999999999761
 30
0.0
 11
5871.0
 21
-632.99999999999761
 31
0.0
1001
ACDBBLOCKREPETAG
1070
     1
1071
      172
1005
13502A
  0
LINE
  5
13502B
  8
OBJECT
 10
5871.0
 20
-632.99999999999761
 30
0.0
 11
5853.0
 21
-632.99999999999761
 31
0.0
1001
ACDBBLOCKREPETAG
1070
     1
1071
      173
1005
13502B
  0
LINE
  5
13502C
  8
OBJECT
 10
5853.0
 20
-627.99999999999761
 30
0.0
 11
5853.0
 21
-632.99999999999761
 31
0.0
1001
ACDBBLOCKREPETAG
1070
     1
1071
      174
1005
13502C
  0
LINE
  5
13502D
  8
OBJECT
 10
5890.9999999999982
 20
-614.99999999999761
 30
0.0
 11
5756.0
 21
-614.99999999999761
 31
0.0
1001
ACDBBLOCKREPETAG
1070
     1
1071
      175
1005
13502D
  0
LINE
  5
13502E
  8
OBJECT
 10
5756.0
 20
-614.99999999999761
 30
0.0
 11
5756.0
 21
-627.99999999999761
 31
0.0
1001
ACDBBLOCKREPETAG
1070
     1
1071
      176
1005
13502E
  0
LINE
  5
13502F
  8
OBJECT
 10
5863.3630997552364
 20
-645.66457125774514
 30
0.0
 11
5883.8297019999991
 21
-627.99999999999761
 31
0.0
1001
ACDBBLOCKREPETAG
1070
     1
1071
      177
1005
13502F
  0
LINE
  5
135030
  8
OBJECT
 10
5778.9999999999973
 20
-635.65708264965485
 30
0.0
 11
5778.9999999999973
 21
-659.99999999999761
 31
0.0
1001
ACDBBLOCKREPETAG
1070
     1
1071
      178
1005
135030
  0
LINE
  5
135031
  8
OBJECT
 10
5824.8134425017461
 20
-659.99999999999761
 30
0.0
 11
5778.9999999999973
 21
-659.99999999999761
 31
0.0
1001
ACDBBLOCKREPETAG
1070
     1
1071
      179
1005
135031
  0
ARC
  5
135032
  8
OBJECT
 10
5869.5
 20
-661.49999999999761
 30
0.0
 40
84.0
 50
178.97680669632871
 51
262.94651512902959
1001
ACDBBLOCKREPETAG
1070
     1
1071
      180
1005
135032
  0
LINE
  5
135033
  8
OBJECT
 10
5894.0
 20
-749.17200317020843
 30
0.0
 11
5859.1851511871182
 21
-744.86428428270153
 31
0.0
1001
ACDBBLOCKREPETAG
1070
     1
1071
      181
1005
135033
  0
LINE
  5
135034
  8
OBJECT
 10
5893.9999999999982
 20
-749.99999999999852
 30
0.0
 11
5893.9999999999982
 21
-628.99999999999761
 31
0.0
1001
ACDBBLOCKREPETAG
1070
     1
1071
      182
1005
135034
  0
ARC
  5
135035
  8
OBJECT
 10
5896.9999999999973
 20
-749.99999999999852
 30
0.0
 40
3.0
 50
180.0
 51
270.0
1001
ACDBBLOCKREPETAG
1070
     1
1071
      183
1005
135035
  0
LINE
  5
135036
  8
OBJECT
 10
5883.8297019999991
 20
-627.99999999999761
 30
0.0
 11
5756.0
 21
-627.99999999999761
 31
0.0
1001
ACDBBLOCKREPETAG
1070
     1
1071
      184
1005
135036
  0
LINE
  5
135037
  8
OBJECT
 10
5874.9460861482767
 20
-635.65708264965485
 30
0.0
 11
5778.9999999999973
 21
-635.65708264965485
 31
0.0
1001
ACDBBLOCKREPETAG
1070
     1
1071
      185
1005
135037
  0
LINE
  5
135038
  8
OBJECT
 10
5775.0
 20
-630.89006764214673
 30
0.0
 11
5778.9999999999973
 21
-635.65708264965485
 31
0.0
1001
ACDBBLOCKREPETAG
1070
     1
1071
      186
1005
135038
  0
LINE
  5
135039
  8
OBJECT
 10
5890.9999999999982
 20
-614.99999999999761
 30
0.0
 11
5890.9999999999918
 21
-628.99999999999761
 31
0.0
1001
ACDBBLOCKREPETAG
1070
     1
1071
      187
1005
135039
  0
LINE
  5
13503A
  8
HIDDEN
 10
5874.5000000000009
 20
-654.9999999999975
 30
0.0
 11
5785.5
 21
-654.9999999999975
 31
0.0
1001
ACDBBLOCKREPETAG
1070
     1
1071
      188
1005
13503A
  0
LINE
  5
13503B
  8
OBJECT
 10
5866.0
 20
-580.99999999999761
 30
0.0
 11
5858.0
 21
-580.99999999999761
 31
0.0
1001
ACDBBLOCKREPETAG
1070
     1
1071
      189
1005
13503B
  0
LINE
  5
13503C
  8
OBJECT
 10
5858.0
 20
-582.99999999999761
 30
0.0
 11
5858.0
 21
-580.99999999999761
 31
0.0
1001
ACDBBLOCKREPETAG
1070
     1
1071
      190
1005
13503C
  0
LINE
  5
13503D
  8
OBJECT
 10
5869.5055534994653
 20
-582.99999999999761
 30
0.0
 11
5854.4944465005347
 21
-582.99999999999761
 31
0.0
1001
ACDBBLOCKREPETAG
1070
     1
1071
      191
1005
13503D
  0
LINE
  5
13503E
  8
CENTER
 10
5830.0
 20
-674.77158855533025
 30
0.0
 11
5830.0
 21
-574.49999999999761
 31
0.0
1001
ACDBBLOCKREPETAG
1070
     1
1071
      193
1005
13503E
  0
LINE
  5
13503F
  8
OBJECT
 10
5900.0
 20
-752.99999999999773
 30
0.0
 11
5896.9999999999973
 21
-752.99999999999852
 31
0.0
1001
ACDBBLOCKREPETAG
1070
     1
1071
      194
1005
13503F
  0
LINE
  5
135040
  8
OBJECT
 10
5900.0
 20
-628.99999999999761
 30
0.0
 11
5890.9999999999918
 21
-628.99999999999761
 31
0.0
1001
ACDBBLOCKREPETAG
1070
     1
1071
      195
1005
135040
  0
LINE
  5
135041
  8
OBJECT
 10
5865.7528030216072
 20
-589.49998110540889
 30
0.0
 11
5865.7528030216072
 21
-582.99998110540901
 31
0.0
1001
ACDBBLOCKREPETAG
1070
     1
1071
      196
1005
135041
  0
LINE
  5
135042
  8
OBJECT
 10
5854.4944465005347
 20
-589.49999999999761
 30
0.0
 11
5854.4944465005347
 21
-582.99999999999761
 31
0.0
1001
ACDBBLOCKREPETAG
1070
     1
1071
      197
1005
135042
  0
LINE
  5
135043
  8
OBJECT
 10
5858.2471969783937
 20
-589.49998110540889
 30
0.0
 11
5858.2471969783937
 21
-582.99998110540901
 31
0.0
1001
ACDBBLOCKREPETAG
1070
     1
1071
      198
1005
135043
  0
LINE
  5
135044
  8
OBJECT
 10
5770.0
 20
-582.99999999999761
 30
0.0
 11
5770.0
 21
-580.99999999999761
 31
0.0
1001
ACDBBLOCKREPETAG
1070
     1
1071
      199
1005
135044
  0
LINE
  5
135045
  8
OBJECT
 10
5770.0
 20
-614.99999999999761
 30
0.0
 11
5770.0
 21
-602.49999999999761
 31
0.0
1001
ACDBBLOCKREPETAG
1070
     1
1071
      200
1005
135045
  0
LINE
  5
135046
  8
OBJECT
 10
5762.0
 20
-614.99999999999761
 30
0.0
 11
5762.0
 21
-602.49999999999761
 31
0.0
1001
ACDBBLOCKREPETAG
1070
     1
1071
      201
1005
135046
  0
LINE
  5
135047
  8
OBJECT
 10
5773.5055534994653
 20
-589.49999999999761
 30
0.0
 11
5773.5055534994653
 21
-582.99999999999761
 31
0.0
1001
ACDBBLOCKREPETAG
1070
     1
1071
      202
1005
135047
  0
LINE
  5
135048
  8
OBJECT
 10
5775.0
 20
-627.99999999999761
 30
0.0
 11
5775.0
 21
-632.99999999999761
 31
0.0
1001
ACDBBLOCKREPETAG
1070
     1
1071
      203
1005
135048
  0
LINE
  5
135049
  8
OBJECT
 10
5775.0
 20
-632.99999999999761
 30
0.0
 11
5757.0
 21
-632.99999999999761
 31
0.0
1001
ACDBBLOCKREPETAG
1070
     1
1071
      204
1005
135049
  0
LINE
  5
13504A
  8
OBJECT
 10
5757.0
 20
-627.99999999999761
 30
0.0
 11
5757.0
 21
-632.99999999999761
 31
0.0
1001
ACDBBLOCKREPETAG
1070
     1
1071
      205
1005
13504A
  0
LINE
  5
13504B
  8
OBJECT
 10
5770.0
 20
-580.99999999999761
 30
0.0
 11
5762.0
 21
-580.99999999999761
 31
0.0
1001
ACDBBLOCKREPETAG
1070
     1
1071
      206
1005
13504B
  0
LINE
  5
13504C
  8
OBJECT
 10
5762.0
 20
-582.99999999999761
 30
0.0
 11
5762.0
 21
-580.99999999999761
 31
0.0
1001
ACDBBLOCKREPETAG
1070
     1
1071
      207
1005
13504C
  0
LINE
  5
13504D
  8
OBJECT
 10
5773.5055534994653
 20
-582.99999999999761
 30
0.0
 11
5758.4944465005337
 21
-582.99999999999761
 31
0.0
1001
ACDBBLOCKREPETAG
1070
     1
1071
      208
1005
13504D
  0
LINE
  5
13504E
  8
OBJECT
 10
5769.7528030216063
 20
-589.49998110540889
 30
0.0
 11
5769.7528030216063
 21
-582.99998110540901
 31
0.0
1001
ACDBBLOCKREPETAG
1070
     1
1071
      209
1005
13504E
  0
LINE
  5
13504F
  8
OBJECT
 10
5758.4944465005337
 20
-589.49999999999761
 30
0.0
 11
5758.4944465005337
 21
-582.99999999999761
 31
0.0
1001
ACDBBLOCKREPETAG
1070
     1
1071
      210
1005
13504F
  0
LINE
  5
135050
  8
OBJECT
 10
5762.2471969783928
 20
-589.49998110540889
 30
0.0
 11
5762.2471969783928
 21
-582.99998110540901
 31
0.0
1001
ACDBBLOCKREPETAG
1070
     1
1071
      211
1005
135050
  0
CIRCLE
  5
135051
  8
OBJECT
 10
6000.0
 20
-690.99999999999761
 30
0.0
 40
62.0
1001
ACDBBLOCKREPETAG
1070
     1
1071
        0
1005
135051
  0
LINE
  5
135052
  8
OBJECT
 10
6095.0
 20
-569.99999999999955
 30
0.0
 11
5905.0
 21
-569.99999999999955
 31
0.0
1001
ACDBBLOCKREPETAG
1070
     1
1071
        0
1005
135052
  0
LINE
  5
135053
  8
OBJECT
 10
6095.0
 20
-549.99999999999955
 30
0.0
 11
5905.0
 21
-549.99999999999955
 31
0.0
1001
ACDBBLOCKREPETAG
1070
     1
1071
        1
1005
135053
  0
LINE
  5
135054
  8
OBJECT
 10
5902.4999999999991
 20
-914.99999999999955
 30
0.0
 11
6097.5
 21
-914.99999999999955
 31
0.0
1001
ACDBBLOCKREPETAG
1070
     1
1071
        2
1005
135054
  0
LINE
  5
135055
  8
OBJECT
 10
5908.237046000002
 20
-549.99999999999955
 30
0.0
 11
5908.2370465822614
 21
-569.99999999999955
 31
0.0
1001
ACDBBLOCKREPETAG
1070
     1
1071
        3
1005
135055
  0
LINE
  5
135056
  8
OBJECT
 10
5905.0
 20
-549.99999999999955
 30
0.0
 11
5905.0
 21
-569.99999999999955
 31
0.0
1001
ACDBBLOCKREPETAG
1070
     1
1071
        4
1005
135056
  0
LINE
  5
135057
  8
OBJECT
 10
5916.0249089999998
 20
-549.99999999999955
 30
0.0
 11
5916.0249089999998
 21
-569.99999999999955
 31
0.0
1001
ACDBBLOCKREPETAG
1070
     1
1071
        5
1005
135057
  0
LINE
  5
135058
  8
OBJECT
 10
5967.6243270000023
 20
-549.99999999999955
 30
0.0
 11
5967.6243270000023
 21
-569.99999999999955
 31
0.0
1001
ACDBBLOCKREPETAG
1070
     1
1071
        6
1005
135058
  0
LINE
  5
135059
  8
OBJECT
 10
5975.41219
 20
-549.99999999999955
 30
0.0
 11
5975.41219
 21
-569.99999999999955
 31
0.0
1001
ACDBBLOCKREPETAG
1070
     1
1071
        7
1005
135059
  0
LINE
  5
13505A
  8
OBJECT
 10
6024.5878089999987
 20
-549.99999999999955
 30
0.0
 11
6024.5878089999987
 21
-569.99999999999955
 31
0.0
1001
ACDBBLOCKREPETAG
1070
     1
1071
        8
1005
13505A
  0
LINE
  5
13505B
  8
OBJECT
 10
6032.3756720000029
 20
-549.99999999999955
 30
0.0
 11
6032.3756720000029
 21
-569.99999999999955
 31
0.0
1001
ACDBBLOCKREPETAG
1070
     1
1071
        9
1005
13505B
  0
LINE
  5
13505C
  8
OBJECT
 10
6083.9750910000012
 20
-549.99999999999955
 30
0.0
 11
6083.9750910000012
 21
-569.99999999999955
 31
0.0
1001
ACDBBLOCKREPETAG
1070
     1
1071
       10
1005
13505C
  0
LINE
  5
13505D
  8
OBJECT
 10
6091.762953999998
 20
-549.99999999999955
 30
0.0
 11
6091.7629534177431
 21
-569.99999999999955
 31
0.0
1001
ACDBBLOCKREPETAG
1070
     1
1071
       11
1005
13505D
  0
LINE
  5
13505E
  8
OBJECT
 10
6095.0
 20
-549.99999999999955
 30
0.0
 11
6095.0
 21
-569.99999999999955
 31
0.0
1001
ACDBBLOCKREPETAG
1070
     1
1071
       12
1005
13505E
  0
LINE
  5
13505F
  8
OBJECT
 10
6100.0
 20
-628.99999999999955
 30
0.0
 11
5900.0
 21
-628.99999999999955
 31
0.0
1001
ACDBBLOCKREPETAG
1070
     1
1071
       13
1005
13505F
  0
LINE
  5
135060
  8
OBJECT
 10
6100.0
 20
-752.99999999999773
 30
0.0
 11
6092.5000000000009
 21
-752.99999999999773
 31
0.0
1001
ACDBBLOCKREPETAG
1070
     1
1071
       14
1005
135060
  0
LINE
  5
135061
  8
OBJECT
 10
5902.4999999999991
 20
-914.99999999999955
 30
0.0
 11
5902.4999999999991
 21
-902.99999999999784
 31
0.0
1001
ACDBBLOCKREPETAG
1070
     1
1071
       15
1005
135061
  0
LINE
  5
135062
  8
OBJECT
 10
6097.5
 20
-914.99999999999955
 30
0.0
 11
6097.5
 21
-902.99999999999784
 31
0.0
1001
ACDBBLOCKREPETAG
1070
     1
1071
       16
1005
135062
  0
LINE
  5
135063
  8
OBJECT
 10
5902.4999999999991
 20
-902.99999999999784
 30
0.0
 11
6097.5
 21
-902.99999999999784
 31
0.0
1001
ACDBBLOCKREPETAG
1070
     1
1071
       17
1005
135063
  0
LINE
  5
135064
  8
HIDDEN
 10
5930.0
 20
-624.99999999999955
 30
0.0
 11
6070.0
 21
-624.99999999999955
 31
0.0
1001
ACDBBLOCKREPETAG
1070
     1
1071
       18
1005
135064
  0
LINE
  5
135065
  8
CENTER
 10
6000.0
 20
-534.99999999999955
 30
0.0
 11
6000.0
 21
-914.99999999999955
 31
0.0
1001
ACDBBLOCKREPETAG
1070
     1
1071
       19
1005
135065
  0
LINE
  5
135066
  8
OBJECT
 10
6092.5000000000009
 20
-752.99999999999773
 30
0.0
 11
6092.5000000000009
 21
-902.99999999999784
 31
0.0
1001
ACDBBLOCKREPETAG
1070
     1
1071
       20
1005
135066
  0
LINE
  5
135067
  8
OBJECT
 10
5914.5
 20
-569.99999999999955
 30
0.0
 11
5914.5
 21
-628.99999999999955
 31
0.0
1001
ACDBBLOCKREPETAG
1070
     1
1071
       21
1005
135067
  0
LINE
  5
135068
  8
OBJECT
 10
6085.5
 20
-569.99999999999955
 30
0.0
 11
6085.5
 21
-628.99999999999955
 31
0.0
1001
ACDBBLOCKREPETAG
1070
     1
1071
       22
1005
135068
  0
POINT
  5
135069
  8
DOTS
 10
6000.0
 20
-749.99999999999955
 30
0.0
1001
ACDBBLOCKREPETAG
1070
     1
1071
       24
1005
135069
  0
LINE
  5
13506A
  8
OBJECT
 10
5900.0
 20
-752.99999999999773
 30
0.0
 11
5907.5
 21
-752.99999999999773
 31
0.0
1001
ACDBBLOCKREPETAG
1070
     1
1071
       25
1005
13506A
  0
LINE
  5
13506B
  8
OBJECT
 10
5907.5
 20
-752.99999999999773
 30
0.0
 11
5907.5
 21
-902.99999999999784
 31
0.0
1001
ACDBBLOCKREPETAG
1070
     1
1071
       26
1005
13506B
  0
ARC
  5
13506C
  8
OBJECT
 10
6214.4155190291494
 20
-715.62073879202455
 30
0.0
 40
149.554492306393
 50
144.60628028468801
 51
164.2211863995189
1001
ACDBBLOCKREPETAG
1070
     1
1071
       28
1005
13506C
  0
ARC
  5
13506D
  8
OBJECT
 10
6139.1422781245274
 20
-690.99999999999761
 30
0.0
 40
70.496447952551449
 50
166.8426918235858
 51
193.15730817641409
1001
ACDBBLOCKREPETAG
1070
     1
1071
       29
1005
13506D
  0
ARC
  5
13506E
  8
OBJECT
 10
6214.4155190291494
 20
-666.3792612079701
 30
0.0
 40
149.55449230639621
 50
195.7788136004809
 51
215.3937197153119
1001
ACDBBLOCKREPETAG
1070
     1
1071
       30
1005
13506E
  0
ARC
  5
13506F
  8
OBJECT
 10
5785.5844809708497
 20
-715.62073879202455
 30
0.0
 40
149.554492306393
 50
15.778813600524931
 51
35.393719715228642
1001
ACDBBLOCKREPETAG
1070
     1
1071
       31
1005
13506F
  0
ARC
  5
135070
  8
OBJECT
 10
5860.8577218754717
 20
-690.99999999999761
 30
0.0
 40
70.496447952551449
 50
346.84269182358582
 51
13.15730817641421
1001
ACDBBLOCKREPETAG
1070
     1
1071
       32
1005
135070
  0
ARC
  5
135071
  8
OBJECT
 10
5785.5844809708497
 20
-666.3792612079701
 30
0.0
 40
149.55449230639621
 50
324.60628028477117
 51
344.22118639947507
1001
ACDBBLOCKREPETAG
1070
     1
1071
       33
1005
135071
  0
LINE
  5
135072
  8
CENTER
 10
5899.9999999999973
 20
-199.99999999999909
 30
0.0
 11
5740.9999999999973
 21
-199.99999999999909
 31
0.0
1001
ACDBBLOCKREPETAG
1070
     1
1071
      155
1005
135072
  0
LINE
  5
135073
  8
OBJECT
 10
5899.9999999999973
 20
-261.99999999999909
 30
0.0
 11
5896.9999999999973
 21
-261.99999999999909
 31
0.0
1001
ACDBBLOCKREPETAG
1070
     1
1071
      156
1005
135073
  0
ARC
  5
135074
  8
OBJECT
 10
5896.9999999999973
 20
-258.99999999999909
 30
0.0
 40
3.0
 50
180.0
 51
270.0
1001
ACDBBLOCKREPETAG
1070
     1
1071
      157
1005
135074
  0
LINE
  5
135075
  8
OBJECT
 10
5899.9999999999973
 20
-138.0000000000027
 30
0.0
 11
5896.9999999999973
 21
-138.0000000000027
 31
0.0
1001
ACDBBLOCKREPETAG
1070
     1
1071
      158
1005
135075
  0
LINE
  5
135076
  8
OBJECT
 10
5893.9999999999982
 20
-140.99999999999909
 30
0.0
 11
5871.3452724064628
 21
-140.9999999999954
 31
0.0
1001
ACDBBLOCKREPETAG
1070
     1
1071
      159
1005
135076
  0
LINE
  5
135077
  8
OBJECT
 10
5893.9999999999982
 20
-259.00000000000267
 30
0.0
 11
5871.3452724064628
 21
-258.99999999999909
 31
0.0
1001
ACDBBLOCKREPETAG
1070
     1
1071
      160
1005
135077
  0
LINE
  5
135078
  8
CENTER
 10
5829.9999999999982
 20
-123.5195984073716
 30
0.0
 11
5829.9999999999982
 21
-276.48040159262649
 31
0.0
1001
ACDBBLOCKREPETAG
1070
     1
1071
      161
1005
135078
  0
LINE
  5
135079
  8
OBJECT
 10
5893.9999999999982
 20
-141.0000000000027
 30
0.0
 11
5893.9999999999982
 21
-258.99999999999909
 31
0.0
1001
ACDBBLOCKREPETAG
1070
     1
1071
      162
1005
135079
  0
ARC
  5
13507A
  8
OBJECT
 10
5896.9999999999973
 20
-141.0000000000027
 30
0.0
 40
3.0
 50
90.0
 51
180.0
1001
ACDBBLOCKREPETAG
1070
     1
1071
      163
1005
13507A
  0
ARC
  5
13507B
  8
OBJECT
 10
5829.9999999999982
 20
-199.99999999999909
 30
0.0
 40
61.0
 50
97.16728546129427
 51
142.83271453872419
1001
ACDBBLOCKREPETAG
1070
     1
1071
      165
1005
13507B
  0
ARC
  5
13507C
  8
OBJECT
 10
5829.9999999999982
 20
-199.99999999999909
 30
0.0
 40
61.0
 50
337.1672854612342
 51
22.83271453876576
1001
ACDBBLOCKREPETAG
1070
     1
1071
      166
1005
13507C
  0
ARC
  5
13507D
  8
OBJECT
 10
5829.9999999999982
 20
-199.99999999999909
 30
0.0
 40
61.0
 50
217.16728546127581
 51
262.83271453870572
1001
ACDBBLOCKREPETAG
1070
     1
1071
      167
1005
13507D
  0
CIRCLE
  5
13507E
  8
SLIM
 10
5765.9999999999982
 20
-199.99999999999909
 30
0.0
 40
4.0
1001
ACDBBLOCKREPETAG
1070
     1
1071
      168
1005
13507E
  0
ARC
  5
13507F
  8
OBJECT
 10
5765.9999999999982
 20
-199.99999999999909
 30
0.0
 40
10.0
 50
142.83271453872419
 51
217.16728546127581
1001
ACDBBLOCKREPETAG
1070
     1
1071
      169
1005
13507F
  0
LINE
  5
135080
  8
OBJECT
 10
5781.390625
 20
-163.14720279124501
 30
0.0
 11
5758.0312499999982
 21
-193.9585578346296
 31
0.0
1001
ACDBBLOCKREPETAG
1070
     1
1071
      170
1005
135080
  0
LINE
  5
135081
  8
OBJECT
 10
5781.390625
 20
-236.8527972087532
 30
0.0
 11
5758.0312499999982
 21
-206.04144216536861
 31
0.0
1001
ACDBBLOCKREPETAG
1070
     1
1071
      171
1005
135081
  0
CIRCLE
  5
135082
  8
SLIM
 10
5861.9999999999982
 20
-144.5743741577962
 30
0.0
 40
3.9999999999999991
1001
ACDBBLOCKREPETAG
1070
     1
1071
      172
1005
135082
  0
ARC
  5
135083
  8
OBJECT
 10
5861.9999999999982
 20
-144.5743741577962
 30
0.0
 40
9.9999999999999982
 50
22.83271453876576
 51
97.16728546129427
1001
ACDBBLOCKREPETAG
1070
     1
1071
      173
1005
135083
  0
LINE
  5
135084
  8
OBJECT
 10
5886.2201460832912
 20
-176.32944499229319
 30
0.0
 11
5871.2164173907013
 21
-140.6939553040711
 31
0.0
1001
ACDBBLOCKREPETAG
1070
     1
1071
      174
1005
135084
  0
LINE
  5
135085
  8
OBJECT
 10
5822.3892289166979
 20
-139.47664778353919
 30
0.0
 11
5860.7523326092933
 21
-134.65251313870161
 31
0.0
1001
ACDBBLOCKREPETAG
1070
     1
1071
      175
1005
135085
  0
CIRCLE
  5
135086
  8
SLIM
 10
5861.9999999999982
 20
-255.4256258422019
 30
0.0
 40
4.0
1001
ACDBBLOCKREPETAG
1070
     1
1071
      176
1005
135086
  0
ARC
  5
135087
  8
OBJECT
 10
5861.9999999999982
 20
-255.4256258422019
 30
0.0
 40
10.0
 50
262.83271453870572
 51
337.1672854612342
1001
ACDBBLOCKREPETAG
1070
     1
1071
      177
1005
135087
  0
LINE
  5
135088
  8
OBJECT
 10
5822.3892289166979
 20
-260.52335221645899
 30
0.0
 11
5860.7523326092933
 21
-265.3474868612966
 31
0.0
1001
ACDBBLOCKREPETAG
1070
     1
1071
      178
1005
135088
  0
LINE
  5
135089
  8
OBJECT
 10
5886.2201460832912
 20
-223.67055500770491
 30
0.0
 11
5871.2164173907013
 21
-259.30604469592708
 31
0.0
1001
ACDBBLOCKREPETAG
1070
     1
1071
      179
1005
135089
  0
CIRCLE
  5
13508A
  8
OBJECT
 10
5829.9999999999982
 20
-199.99999999999909
 30
0.0
 40
46.0
1001
ACDBBLOCKREPETAG
1070
     1
1071
      180
1005
13508A
  0
POLYLINE
  5
13508B
  8
SLIM
 66
     1
 10
0.0
 20
0.0
 30
0.0
 70
     1
1001
ACDBBLOCKREPETAG
1070
     1
1071
      181
1005
13508B
  0
VERTEX
  5
13565A
  8
SLIM
 10
5769.7527767497304
 20
-193.49999999999909
 30
0.0
  0
VERTEX
  5
13565B
  8
SLIM
 10
5773.5055534994608
 20
-199.99999999999909
 30
0.0
  0
VERTEX
  5
13565C
  8
SLIM
 10
5769.7527767497304
 20
-206.49999999999909
 30
0.0
  0
VERTEX
  5
13565D
  8
SLIM
 10
5762.2472232502632
 20
-206.49999999999909
 30
0.0
  0
VERTEX
  5
13565E
  8
SLIM
 10
5758.4944465005319
 20
-199.99999999999909
 30
0.0
  0
VERTEX
  5
13565F
  8
SLIM
 10
5762.2472232502632
 20
-193.49999999999909
 30
0.0
  0
SEQEND
  5
135660
  8
SLIM
  0
POLYLINE
  5
13508C
  8
SLIM
 66
     1
 10
0.0
 20
0.0
 30
0.0
 70
     1
1001
ACDBBLOCKREPETAG
1070
     1
1071
      182
1005
13508C
  0
VERTEX
  5
135661
  8
SLIM
 10
5865.7527767497268
 20
-151.0743741577962
 30
0.0
  0
VERTEX
  5
135662
  8
SLIM
 10
5858.2472232502632
 20
-151.0743741577962
 30
0.0
  0
VERTEX
  5
135663
  8
SLIM
 10
5854.4944465005319
 20
-144.5743741577962
 30
0.0
  0
VERTEX
  5
135664
  8
SLIM
 10
5858.247223250266
 20
-138.07437415779259
 30
0.0
  0
VERTEX
  5
135665
  8
SLIM
 10
5865.7527767497268
 20
-138.0743741577962
 30
0.0
  0
VERTEX
  5
135666
  8
SLIM
 10
5869.5055534994608
 20
-144.57437415779259
 30
0.0
  0
SEQEND
  5
135667
  8
SLIM
  0
POLYLINE
  5
13508D
  8
SLIM
 66
     1
 10
0.0
 20
0.0
 30
0.0
 70
     1
1001
ACDBBLOCKREPETAG
1070
     1
1071
      183
1005
13508D
  0
VERTEX
  5
135668
  8
SLIM
 10
5854.4944465005319
 20
-255.4256258422019
 30
0.0
  0
VERTEX
  5
135669
  8
SLIM
 10
5858.247223250266
 20
-248.9256258422019
 30
0.0
  0
VERTEX
  5
13566A
  8
SLIM
 10
5865.7527767497268
 20
-248.9256258422019
 30
0.0
  0
VERTEX
  5
13566B
  8
SLIM
 10
5869.5055534994608
 20
-255.42562584220559
 30
0.0
  0
VERTEX
  5
13566C
  8
SLIM
 10
5865.7527767497304
 20
-261.9256258422019
 30
0.0
  0
VERTEX
  5
13566D
  8
SLIM
 10
5858.247223250266
 20
-261.92562584220559
 30
0.0
  0
SEQEND
  5
13566E
  8
SLIM
  0
LINE
  5
13508E
  8
CENTER
 10
6000.0000000000027
 20
-320.99999999999898
 30
0.0
 11
6000.0000000000027
 21
-299.99999999999898
 31
0.0
1001
ACDBBLOCKREPETAG
1070
     1
1071
        0
1005
13508E
  0
LINE
  5
13508F
  8
OBJECT
 10
6062.0000000000036
 20
-303.0
 30
0.0
 11
6062.0000000000036
 21
-299.99999999999898
 31
0.0
1001
ACDBBLOCKREPETAG
1070
     1
1071
        1
1005
13508F
  0
ARC
  5
135090
  8
OBJECT
 10
6059.0000000000036
 20
-303.0
 30
0.0
 40
3.0
 50
270.0
 51
0.0
1001
ACDBBLOCKREPETAG
1070
     1
1071
        2
1005
135090
  0
LINE
  5
135091
  8
OBJECT
 10
5938.0000000000036
 20
-299.99999999999898
 30
0.0
 11
5938.0000000000036
 21
-302.99999999999818
 31
0.0
1001
ACDBBLOCKREPETAG
1070
     1
1071
        3
1005
135091
  0
ARC
  5
135092
  8
OBJECT
 10
5941.0000000000036
 20
-302.99999999999818
 30
0.0
 40
3.0
 50
180.0
 51
270.0
1001
ACDBBLOCKREPETAG
1070
     1
1071
        4
1005
135092
  0
LINE
  5
135093
  8
OBJECT
 10
5941.0000000000036
 20
-305.99999999999818
 30
0.0
 11
6059.0000000000036
 21
-306.0
 31
0.0
1001
ACDBBLOCKREPETAG
1070
     1
1071
        5
1005
135093
  0
LINE
  5
135094
  8
SLIM
 10
5918.5743713244692
 20
-137.74153073842379
 30
0.0
 11
5937.7415307384244
 21
-118.5743713244679
 31
0.0
1001
GRADIENTCOLOR1ACI
1070
     5
1001
GRADIENTCOLOR2ACI
1070
     2
1001
ACAD
1010
0.0
1020
0.0
1030
0.0
1001
ACDBBLOCKREPETAG
1070
     1
1071
      301
1005
135094
  0
LINE
  5
135095
  8
SLIM
 10
5927.2961581839627
 20
-137.99999999999909
 30
0.0
 11
5959.4220169794125
 21
-105.8741412045496
 31
0.0
1001
GRADIENTCOLOR1ACI
1070
     5
1001
GRADIENTCOLOR2ACI
1070
     2
1001
ACAD
1010
0.0
1020
0.0
1030
0.0
1001
ACDBBLOCKREPETAG
1070
     1
1071
      302
1005
135095
  0
LINE
  5
135096
  8
SLIM
 10
5955.2080715681668
 20
-119.0683427368643
 30
0.0
 11
5973.2147923567727
 21
-101.06162194825821
 31
0.0
1001
GRADIENTCOLOR1ACI
1070
     5
1001
GRADIENTCOLOR2ACI
1070
     2
1001
ACAD
1010
0.0
1020
0.0
1030
0.0
1001
ACDBBLOCKREPETAG
1070
     1
1071
      303
1005
135096
  0
LINE
  5
135097
  8
SLIM
 10
5971.1389053532557
 20
-112.11776507284389
 30
0.0
 11
5984.5919680901698
 21
-98.664702335928993
 31
0.0
1001
GRADIENTCOLOR1ACI
1070
     5
1001
GRADIENTCOLOR2ACI
1070
     2
1001
ACAD
1010
0.0
1020
0.0
1030
0.0
1001
ACDBBLOCKREPETAG
1070
     1
1071
      304
1005
135097
  0
LINE
  5
135098
  8
SLIM
 10
5986.2342955596041
 20
-106.0026309875652
 30
0.0
 11
5994.5942819876618
 21
-97.642644559507801
 31
0.0
1001
GRADIENTCOLOR1ACI
1070
     5
1001
GRADIENTCOLOR2ACI
1070
     2
1001
ACAD
1010
0.0
1020
0.0
1030
0.0
1001
ACDBBLOCKREPETAG
1070
     1
1071
      278
1005
135098
  0
LINE
  5
135099
  8
SLIM
 10
5996.1386775409328
 20
-105.0785051273038
 30
0.0
 11
6000.0
 21
-101.21718266823839
 31
0.0
1001
GRADIENTCOLOR1ACI
1070
     5
1001
GRADIENTCOLOR2ACI
1070
     2
1001
ACAD
1010
0.0
1020
0.0
1030
0.0
1001
ACDBBLOCKREPETAG
1070
     1
1071
      305
1005
135099
  0
LINE
  5
13509A
  8
SLIM
 10
6000.0
 20
-101.21718266823839
 30
0.0
 11
6003.6520994194652
 21
-97.565083248774314
 31
0.0
1001
GRADIENTCOLOR1ACI
1070
     5
1001
GRADIENTCOLOR2ACI
1070
     2
1001
ACAD
1010
0.0
1020
0.0
1030
0.0
1001
ACDBBLOCKREPETAG
1070
     1
1071
      306
1005
13509A
  0
LINE
  5
13509B
  8
SLIM
 10
6005.0624562444937
 20
-105.13498254481389
 30
0.0
 11
6011.993358860951
 21
-98.204079928355625
 31
0.0
1001
GRADIENTCOLOR1ACI
1070
     5
1001
GRADIENTCOLOR2ACI
1070
     2
1001
ACAD
1010
0.0
1020
0.0
1030
0.0
1001
ACDBBLOCKREPETAG
1070
     1
1071
      307
1005
13509B
  0
LINE
  5
13509C
  8
SLIM
 10
6013.2492495222623
 20
-105.9284453881143
 30
0.0
 11
6019.7558130592479
 21
-99.421881851129058
 31
0.0
1001
GRADIENTCOLOR1ACI
1070
     5
1001
GRADIENTCOLOR2ACI
1070
     2
1001
ACAD
1010
0.0
1020
0.0
1030
0.0
1001
ACDBBLOCKREPETAG
1070
     1
1071
      282
1005
13509C
  0
LINE
  5
13509D
  8
SLIM
 10
6020.8432248281188
 20
-107.31472620332499
 30
0.0
 11
6027.0297896486654
 21
-101.1281613827821
 31
0.0
1001
GRADIENTCOLOR1ACI
1070
     5
1001
GRADIENTCOLOR2ACI
1070
     2
1001
ACAD
1010
0.0
1020
0.0
1030
0.0
1001
ACDBBLOCKREPETAG
1070
     1
1071
      283
1005
13509D
  0
LINE
  5
13509E
  8
SLIM
 10
6026.7444850762586
 20
-110.3937220762563
 30
0.0
 11
6033.8777840865841
 21
-103.2604230659298
 31
0.0
1001
GRADIENTCOLOR1ACI
1070
     5
1001
GRADIENTCOLOR2ACI
1070
     2
1001
ACAD
1010
0.0
1020
0.0
1030
0.0
1001
ACDBBLOCKREPETAG
1070
     1
1071
      284
1005
13509E
  0
LINE
  5
13509F
  8
SLIM
 10
6032.6605739035567
 20
-113.4578893700272
 30
0.0
 11
6040.3445940865859
 21
-105.7738691869987
 31
0.0
1001
GRADIENTCOLOR1ACI
1070
     5
1001
GRADIENTCOLOR2ACI
1070
     2
1001
ACAD
1010
0.0
1020
0.0
1030
0.0
1001
ACDBBLOCKREPETAG
1070
     1
1071
      285
1005
13509F
  0
LINE
  5
1350A0
  8
SLIM
 10
6038.9830129339689
 20
-116.115706460684
 30
0.0
 11
6046.4630285156381
 21
-108.63569087901411
 31
0.0
1001
GRADIENTCOLOR1ACI
1070
     5
1001
GRADIENTCOLOR2ACI
1070
     2
1001
ACAD
1010
0.0
1020
0.0
1030
0.0
1001
ACDBBLOCKREPETAG
1070
     1
1071
      286
1005
1350A0
  0
LINE
  5
1350A1
  8
SLIM
 10
6044.9326113883499
 20
-119.1463641273716
 30
0.0
 11
6052.2573273714534
 21
-111.8216481442697
 31
0.0
1001
GRADIENTCOLOR1ACI
1070
     5
1001
GRADIENTCOLOR2ACI
1070
     2
1001
ACAD
1010
0.0
1020
0.0
1030
0.0
1001
ACDBBLOCKREPETAG
1070
     1
1071
      287
1005
1350A1
  0
LINE
  5
1350A2
  8
SLIM
 10
6050.5348792738341
 20
-122.5243523629576
 30
0.0
 11
6057.7453005374236
 21
-115.3139310993673
 31
0.0
1001
GRADIENTCOLOR1ACI
1070
     5
1001
GRADIENTCOLOR2ACI
1070
     2
1001
ACAD
1010
0.0
1020
0.0
1030
0.0
1001
ACDBBLOCKREPETAG
1070
     1
1071
      288
1005
1350A2
  0
LINE
  5
1350A3
  8
SLIM
 10
5919.0997883728251
 20
-262.93969938503398
 30
0.0
 11
5920.039487757861
 21
-261.99999999999909
 31
0.0
1001
GRADIENTCOLOR1ACI
1070
     5
1001
GRADIENTCOLOR2ACI
1070
     2
1001
ACAD
1010
0.0
1020
0.0
1030
0.0
1001
ACDBBLOCKREPETAG
1070
     1
1071
      289
1005
1350A3
  0
LINE
  5
1350A4
  8
SLIM
 10
6055.807705723706
 20
-126.2317820341551
 30
0.0
 11
6062.9396993850351
 21
-119.0997883728258
 31
0.0
1001
GRADIENTCOLOR1ACI
1070
     5
1001
GRADIENTCOLOR2ACI
1070
     2
1001
ACAD
1010
0.0
1020
0.0
1030
0.0
1001
ACDBBLOCKREPETAG
1070
     1
1071
      290
1005
1350A4
  0
LINE
  5
1350A5
  8
SLIM
 10
5923.1706450290258
 20
-267.84909884990361
 30
0.0
 11
5929.0197438789319
 21
-261.99999999999909
 31
0.0
1001
GRADIENTCOLOR1ACI
1070
     5
1001
GRADIENTCOLOR2ACI
1070
     2
1001
ACAD
1010
0.0
1020
0.0
1030
0.0
1001
ACDBBLOCKREPETAG
1070
     1
1071
      291
1005
1350A5
  0
LINE
  5
1350A6
  8
SLIM
 10
6060.762946579669
 20
-130.25679729926071
 30
0.0
 11
6067.8490988499043
 21
-123.17064502902539
 31
0.0
1001
GRADIENTCOLOR1ACI
1070
     5
1001
GRADIENTCOLOR2ACI
1070
     2
1001
ACAD
1010
0.0
1020
0.0
1030
0.0
1001
ACDBBLOCKREPETAG
1070
     1
1071
      292
1005
1350A6
  0
LINE
  5
1350A7
  8
SLIM
 10
5927.5215549283794
 20
-272.47844507162011
 30
0.0
 11
5934.5926227402442
 21
-265.40737725975481
 31
0.0
1001
GRADIENTCOLOR1ACI
1070
     5
1001
GRADIENTCOLOR2ACI
1070
     2
1001
ACAD
1010
0.0
1020
0.0
1030
0.0
1001
ACDBBLOCKREPETAG
1070
     1
1071
      293
1005
1350A7
  0
LINE
  5
1350A8
  8
SLIM
 10
6065.4073772597558
 20
-134.5926227402434
 30
0.0
 11
6072.4784450716206
 21
-127.52155492837799
 31
0.0
1001
GRADIENTCOLOR1ACI
1070
     5
1001
GRADIENTCOLOR2ACI
1070
     2
1001
ACAD
1010
0.0
1020
0.0
1030
0.0
1001
ACDBBLOCKREPETAG
1070
     1
1071
      294
1005
1350A8
  0
LINE
  5
1350A9
  8
SLIM
 10
5932.1509011500948
 20
-276.82935497097282
 30
0.0
 11
5937.9999999999936
 21
-270.980256121075
 31
0.0
1001
GRADIENTCOLOR1ACI
1070
     5
1001
GRADIENTCOLOR2ACI
1070
     2
1001
ACAD
1010
0.0
1020
0.0
1030
0.0
1001
ACDBBLOCKREPETAG
1070
     1
1071
      295
1005
1350A9
  0
LINE
  5
1350AA
  8
SLIM
 10
6070.980256121069
 20
-137.99999999999901
 30
0.0
 11
6076.8293549709733
 21
-132.15090115009451
 31
0.0
1001
GRADIENTCOLOR1ACI
1070
     5
1001
GRADIENTCOLOR2ACI
1070
     2
1001
ACAD
1010
0.0
1020
0.0
1030
0.0
1001
ACDBBLOCKREPETAG
1070
     1
1071
      296
1005
1350AA
  0
LINE
  5
1350AB
  8
SLIM
 10
5937.0603006149649
 20
-280.90021162717238
 30
0.0
 11
5937.9999999999973
 21
-279.9605122421421
 31
0.0
1001
GRADIENTCOLOR1ACI
1070
     5
1001
GRADIENTCOLOR2ACI
1070
     2
1001
ACAD
1010
0.0
1020
0.0
1030
0.0
1001
ACDBBLOCKREPETAG
1070
     1
1071
      297
1005
1350AB
  0
LINE
  5
1350AC
  8
SLIM
 10
6079.9605122421381
 20
-137.99999999999901
 30
0.0
 11
6080.900211627174
 21
-137.06030061496409
 31
0.0
1001
GRADIENTCOLOR1ACI
1070
     5
1001
GRADIENTCOLOR2ACI
1070
     2
1001
ACAD
1010
0.0
1020
0.0
1030
0.0
1001
ACDBBLOCKREPETAG
1070
     1
1071
      298
1005
1350AC
  0
LINE
  5
1350AD
  8
SLIM
 10
6062.0000000000009
 20
-272.70384181603538
 30
0.0
 11
6072.7038418160373
 21
-261.99999999999909
 31
0.0
1001
GRADIENTCOLOR1ACI
1070
     5
1001
GRADIENTCOLOR2ACI
1070
     2
1001
ACAD
1010
0.0
1020
0.0
1030
0.0
1001
ACDBBLOCKREPETAG
1070
     1
1071
      299
1005
1350AD
  0
LINE
  5
1350AE
  8
SLIM
 10
6062.2584692615746
 20
-281.4256286755305
 30
0.0
 11
6081.4256286755299
 21
-262.25846926157431
 31
0.0
1001
GRADIENTCOLOR1ACI
1070
     5
1001
GRADIENTCOLOR2ACI
1070
     2
1001
ACAD
1010
0.0
1020
0.0
1030
0.0
1001
ACDBBLOCKREPETAG
1070
     1
1071
      300
1005
1350AE
  0
LINE
  5
1350AF
  8
OBJECT
 10
6068.6458301719767
 20
-137.99999999999909
 30
0.0
 11
6100.0
 21
-137.99999999999909
 31
0.0
1001
ACDBBLOCKREPETAG
1070
     1
1071
      242
1005
1350AF
  0
LINE
  5
1350B0
  8
OBJECT
 10
6068.6458301719767
 20
-261.99999999999909
 30
0.0
 11
6100.0000000000073
 21
-261.99999999999909
 31
0.0
1001
ACDBBLOCKREPETAG
1070
     1
1071
      243
1005
1350B0
  0
LINE
  5
1350B1
  8
OBJECT
 10
6062.0
 20
-268.64583017197862
 30
0.0
 11
6062.0000000000082
 21
-299.99999999999898
 31
0.0
1001
ACDBBLOCKREPETAG
1070
     1
1071
      244
1005
1350B1
  0
LINE
  5
1350B2
  8
OBJECT
 10
5937.9999999999927
 20
-268.64583017197492
 30
0.0
 11
5938.0
 21
-299.99999999999898
 31
0.0
1001
ACDBBLOCKREPETAG
1070
     1
1071
      245
1005
1350B2
  0
LINE
  5
1350B3
  8
OBJECT
 10
5931.3541698280233
 20
-261.99999999999909
 30
0.0
 11
5899.9999999999927
 21
-261.99999999999909
 31
0.0
1001
ACDBBLOCKREPETAG
1070
     1
1071
      246
1005
1350B3
  0
LINE
  5
1350B4
  8
OBJECT
 10
5931.3541698280233
 20
-137.99999999999909
 30
0.0
 11
5899.9999999999927
 21
-137.99999999999909
 31
0.0
1001
ACDBBLOCKREPETAG
1070
     1
1071
      247
1005
1350B4
  0
LINE
  5
1350B5
  8
CENTER
 10
5900.0
 20
-199.99999999999909
 30
0.0
 11
6100.0
 21
-199.99999999999909
 31
0.0
1001
ACDBBLOCKREPETAG
1070
     1
1071
      251
1005
1350B5
  0
LINE
  5
1350B6
  8
CENTER
 10
6000.0
 20
-82.499999999999091
 30
0.0
 11
6000.0
 21
-299.99999999999898
 31
0.0
1001
ACDBBLOCKREPETAG
1070
     1
1071
      252
1005
1350B6
  0
ARC
  5
1350B7
  8
OBJECT
 10
6000.0
 20
-199.99999999999909
 30
0.0
 40
102.5
 50
37.220066868561332
 51
142.77993313143861
1001
ACDBBLOCKREPETAG
1070
     1
1071
      256
1005
1350B7
  0
ARC
  5
1350B8
  8
OBJECT
 10
6000.0
 20
-199.99999999999909
 30
0.0
 40
102.5
 50
217.2200668685613
 51
232.7799331314061
1001
ACDBBLOCKREPETAG
1070
     1
1071
      257
1005
1350B8
  0
ARC
  5
1350B9
  8
OBJECT
 10
6000.0
 20
-199.99999999999909
 30
0.0
 40
102.5
 50
307.2200668685939
 51
322.77993313143872
1001
ACDBBLOCKREPETAG
1070
     1
1071
      258
1005
1350B9
  0
ARC
  5
1350BA
  8
OBJECT
 10
5973.8931207053247
 20
-173.82438331578209
 30
0.0
 40
90.0
 50
274.21795726566182
 51
281.60300086768922
1001
ACDBBLOCKREPETAG
1070
     1
1071
      261
1005
1350BA
  0
LINE
  5
1350BB
  8
OBJECT
 10
5991.994750999992
 20
-261.98520799999727
 30
0.0
 11
5996.6424319999924
 21
-248.3387539999994
 31
0.0
1001
ACDBBLOCKREPETAG
1070
     1
1071
      262
1005
1350BB
  0
LINE
  5
1350BC
  8
OBJECT
 10
5955.2887960976786
 20
-207.0733020425842
 30
0.0
 11
5935.6054186421097
 21
-216.60084009147889
 31
0.0
1001
ACDBBLOCKREPETAG
1070
     1
1071
      263
1005
1350BC
  0
LINE
  5
1350BD
  8
OBJECT
 10
5937.3350639238643
 20
-222.25658973369261
 30
0.0
 11
5961.7560738851171
 21
-210.43584915155679
 31
0.0
1001
ACDBBLOCKREPETAG
1070
     1
1071
      264
1005
1350BD
  0
LINE
  5
1350BE
  8
OBJECT
 10
5996.6424319999924
 20
-248.3387539999994
 30
0.0
 11
5970.3289245926417
 21
-210.9660806555467
 31
0.0
1001
ACDBBLOCKREPETAG
1070
     1
1071
      265
1005
1350BE
  0
ARC
  5
1350BF
  8
OBJECT
 10
5960.51700480005
 20
-217.87449798398211
 30
0.0
 40
12.0
 50
35.148769561161963
 51
115.8288295732624
1001
ACDBBLOCKREPETAG
1070
     1
1071
      266
1005
1350BF
  0
ARC
  5
1350C0
  8
OBJECT
 10
5965.2415463179786
 20
-217.63664646295089
 30
0.0
 40
8.0
 50
35.148769561161963
 51
115.8288292916689
1001
ACDBBLOCKREPETAG
1070
     1
1071
      267
1005
1350C0
  0
ARC
  5
1350C1
  8
OBJECT
 10
6000.0
 20
-199.99999999999909
 30
0.0
 40
90.0
 50
201.08359599996521
 51
248.91640400002939
1001
ACDBBLOCKREPETAG
1070
     1
1071
      273
1005
1350C1
  0
ARC
  5
1350C2
  8
OBJECT
 10
6000.0
 20
-199.99999999999909
 30
0.0
 40
90.0
 50
111.0835959999705
 51
158.91640347115251
1001
ACDBBLOCKREPETAG
1070
     1
1071
      274
1005
1350C2
  0
LINE
  5
1350C3
  8
OBJECT
 10
5916.0249094448682
 20
-167.62432755513231
 30
0.0
 11
5908.2370465822614
 21
-175.41219041773809
 31
0.0
1001
ACDBBLOCKREPETAG
1070
     1
1071
      275
1005
1350C3
  0
LINE
  5
1350C4
  8
OBJECT
 10
5916.0249089999998
 20
-232.37567199999921
 30
0.0
 11
5908.2370469998132
 21
-224.58781114059909
 31
0.0
1001
ACDBBLOCKREPETAG
1070
     1
1071
      276
1005
1350C4
  0
ARC
  5
1350C5
  8
OBJECT
 10
6000.0
 20
-199.99999999999909
 30
0.0
 40
95.0
 50
164.99999981411651
 51
195.00000115873701
1001
ACDBBLOCKREPETAG
1070
     1
1071
      277
1005
1350C5
  0
ARC
  5
1350C6
  8
OBJECT
 10
6000.0
 20
-199.99999999999909
 30
0.0
 40
92.5
 50
287.80189678391901
 51
342.1981035993042
1001
ACDBBLOCKREPETAG
1070
     1
1071
      209
1005
1350C6
  0
ARC
  5
1350C7
  8
OBJECT
 10
6000.0
 20
-199.99999999999909
 30
0.0
 40
90.0
 50
291.08359599997061
 51
338.91640400003479
1001
ACDBBLOCKREPETAG
1070
     1
1071
      211
1005
1350C7
  0
CIRCLE
  5
1350C8
  8
OBJECT
 10
6000.0
 20
-199.99999999999909
 30
0.0
 40
80.0
1001
ACDBBLOCKREPETAG
1070
     1
1071
      212
1005
1350C8
  0
ARC
  5
1350C9
  8
OBJECT
 10
6000.0
 20
-199.99999999999909
 30
0.0
 40
90.0
 50
21.08359652884743
 51
68.916404000029431
1001
ACDBBLOCKREPETAG
1070
     1
1071
      213
1005
1350C9
  0
CIRCLE
  5
1350CA
  8
OBJECT
 10
6000.0
 20
-199.99999999999909
 30
0.0
 40
66.5
1001
ACDBBLOCKREPETAG
1070
     1
1071
      215
1005
1350CA
  0
LINE
  5
1350CB
  8
OBJECT
 10
6083.9750905551346
 20
-167.62432755513231
 30
0.0
 11
6091.7629534177377
 21
-175.4121904177382
 31
0.0
1001
ACDBBLOCKREPETAG
1070
     1
1071
      216
1005
1350CB
  0
LINE
  5
1350CC
  8
OBJECT
 10
6083.9750910000012
 20
-232.37567199999921
 30
0.0
 11
6091.7629530001859
 21
-224.58781114059909
 31
0.0
1001
ACDBBLOCKREPETAG
1070
     1
1071
      217
1005
1350CC
  0
ARC
  5
1350CD
  8
OBJECT
 10
6000.0
 20
-199.99999999999909
 30
0.0
 40
95.0
 50
344.99999884126299
 51
15.00000018588349
1001
ACDBBLOCKREPETAG
1070
     1
1071
      218
1005
1350CD
  0
LINE
  5
1350CE
  8
OBJECT
 10
6032.375672999995
 20
-283.9750909999994
 30
0.0
 11
6024.5878109482801
 21
-291.76295305171419
 31
0.0
1001
ACDBBLOCKREPETAG
1070
     1
1071
      219
1005
1350CE
  0
LINE
  5
1350CF
  8
OBJECT
 10
5967.6243279999971
 20
-283.9750909999994
 30
0.0
 11
5975.4121904177373
 21
-291.76295341774039
 31
0.0
1001
ACDBBLOCKREPETAG
1070
     1
1071
      220
1005
1350CF
  0
ARC
  5
1350D0
  8
OBJECT
 10
6000.0
 20
-199.99999999999909
 30
0.0
 40
95.0
 50
254.99999981420709
 51
285.00000103861061
1001
ACDBBLOCKREPETAG
1070
     1
1071
      221
1005
1350D0
  0
LINE
  5
1350D1
  8
OBJECT
 10
6032.375672999995
 20
-116.0249099999992
 30
0.0
 11
6024.5878095822618
 21
-108.2370465822578
 31
0.0
1001
ACDBBLOCKREPETAG
1070
     1
1071
      222
1005
1350D1
  0
ARC
  5
1350D2
  8
OBJECT
 10
6000.0
 20
-199.99999999999909
 30
0.0
 40
95.0
 50
74.999999814207143
 51
104.99999933254421
1001
ACDBBLOCKREPETAG
1070
     1
1071
      223
1005
1350D2
  0
LINE
  5
1350D3
  8
OBJECT
 10
5967.6243279999971
 20
-116.0249099999992
 30
0.0
 11
5975.4121917837692
 21
-108.2370462162316
 31
0.0
1001
ACDBBLOCKREPETAG
1070
     1
1071
      224
1005
1350D3
  0
LINE
  5
1350D4
  8
OBJECT
 10
6055.1784370000023
 20
-162.884098999998
 30
0.0
 11
6032.5345701092729
 21
-178.11554723457169
 31
0.0
1001
ACDBBLOCKREPETAG
1070
     1
1071
      225
1005
1350D4
  0
LINE
  5
1350D5
  8
OBJECT
 10
5944.804121000001
 20
-162.88106899999821
 30
0.0
 11
6032.5345701092729
 21
-178.11554723457169
 31
0.0
1001
ACDBBLOCKREPETAG
1070
     1
1071
      226
1005
1350D5
  0
ARC
  5
1350D6
  8
OBJECT
 10
6000.0
 20
-199.99999999999909
 30
0.0
 40
92.5
 50
197.8018954425261
 51
252.19810417408729
1001
ACDBBLOCKREPETAG
1070
     1
1071
      230
1005
1350D6
  0
ARC
  5
1350D7
  8
OBJECT
 10
6000.0
 20
-199.99999999999909
 30
0.0
 40
92.5
 50
107.80189486746769
 51
162.19810513270031
1001
ACDBBLOCKREPETAG
1070
     1
1071
      231
1005
1350D7
  0
ARC
  5
1350D8
  8
OBJECT
 10
6000.0
 20
-199.99999999999909
 30
0.0
 40
92.5
 50
17.801895825711568
 51
72.19810417408732
1001
ACDBBLOCKREPETAG
1070
     1
1071
      232
1005
1350D8
  0
ARC
  5
1350D9
  8
OBJECT
 10
6000.0
 20
-199.99999999999909
 30
0.0
 40
62.5
 50
144.42390307805491
 51
193.7174643726803
1001
ACDBBLOCKREPETAG
1070
     1
1071
      234
1005
1350D9
  0
ARC
  5
1350DA
  8
OBJECT
 10
6000.0
 20
-199.99999999999909
 30
0.0
 40
62.5
 50
262.64111297834887
 51
33.92683896333525
1001
ACDBBLOCKREPETAG
1070
     1
1071
      235
1005
1350DA
  0
POINT
  5
1350DB
  8
DOTS
 10
6000.0
 20
-199.99999999999909
 30
0.0
1001
ACDBBLOCKREPETAG
1070
     1
1071
      280
1005
1350DB
  0
LINE
  5
1350DC
  8
OBJECT
 10
6134.0
 20
-582.99999999999761
 30
0.0
 11
6134.0
 21
-580.99999999999761
 31
0.0
1001
ACDBBLOCKREPETAG
1070
     1
1071
      157
1005
1350DC
  0
ARC
  5
1350DD
  8
OBJECT
 10
6175.1865574982548
 20
-600.99999999999761
 30
0.0
 40
59.0
 50
229.20276883323919
 51
270.0
1001
ACDBBLOCKREPETAG
1070
     1
1071
      158
1005
1350DD
  0
LINE
  5
1350DE
  8
OBJECT
 10
6244.0
 20
-589.49999999999761
 30
0.0
 11
6109.0
 21
-589.49999999999761
 31
0.0
1001
ACDBBLOCKREPETAG
1070
     1
1071
      159
1005
1350DE
  0
LINE
  5
1350DF
  8
OBJECT
 10
6109.0
 20
-602.49999999999761
 30
0.0
 11
6244.0
 21
-602.49999999999761
 31
0.0
1001
ACDBBLOCKREPETAG
1070
     1
1071
      160
1005
1350DF
  0
LINE
  5
1350E0
  8
OBJECT
 10
6109.0
 20
-589.49999999999761
 30
0.0
 11
6109.0
 21
-602.49999999999761
 31
0.0
1001
ACDBBLOCKREPETAG
1070
     1
1071
      161
1005
1350E0
  0
LINE
  5
1350E1
  8
OBJECT
 10
6116.0
 20
-611.49999999999761
 30
0.0
 11
6116.0
 21
-602.49999999999761
 31
0.0
1001
ACDBBLOCKREPETAG
1070
     1
1071
      162
1005
1350E1
  0
LINE
  5
1350E2
  8
OBJECT
 10
6134.0
 20
-614.99999999999761
 30
0.0
 11
6134.0
 21
-602.49999999999761
 31
0.0
1001
ACDBBLOCKREPETAG
1070
     1
1071
      163
1005
1350E2
  0
LINE
  5
1350E3
  8
OBJECT
 10
6224.0
 20
-611.49999999999761
 30
0.0
 11
6224.0
 21
-602.49999999999761
 31
0.0
1001
ACDBBLOCKREPETAG
1070
     1
1071
      164
1005
1350E3
  0
LINE
  5
1350E4
  8
OBJECT
 10
6244.0
 20
-589.49999999999761
 30
0.0
 11
6244.0
 21
-602.49999999999761
 31
0.0
1001
ACDBBLOCKREPETAG
1070
     1
1071
      165
1005
1350E4
  0
LINE
  5
1350E5
  8
OBJECT
 10
6142.0
 20
-614.99999999999761
 30
0.0
 11
6142.0
 21
-602.49999999999761
 31
0.0
1001
ACDBBLOCKREPETAG
1070
     1
1071
      166
1005
1350E5
  0
LINE
  5
1350E6
  8
OBJECT
 10
6134.0
 20
-611.49999999999761
 30
0.0
 11
6115.0
 21
-611.49999999999761
 31
0.0
1001
ACDBBLOCKREPETAG
1070
     1
1071
      167
1005
1350E6
  0
LINE
  5
1350E7
  8
OBJECT
 10
6115.0
 20
-614.99999999999761
 30
0.0
 11
6115.0
 21
-611.49999999999761
 31
0.0
1001
ACDBBLOCKREPETAG
1070
     1
1071
      168
1005
1350E7
  0
LINE
  5
1350E8
  8
OBJECT
 10
6142.0
 20
-611.49999999999761
 30
0.0
 11
6225.0
 21
-611.49999999999761
 31
0.0
1001
ACDBBLOCKREPETAG
1070
     1
1071
      169
1005
1350E8
  0
LINE
  5
1350E9
  8
OBJECT
 10
6225.0
 20
-611.49999999999761
 30
0.0
 11
6225.0
 21
-614.99999999999761
 31
0.0
1001
ACDBBLOCKREPETAG
1070
     1
1071
      170
1005
1350E9
  0
LINE
  5
1350EA
  8
OBJECT
 10
6130.4944465005337
 20
-589.49999999999761
 30
0.0
 11
6130.4944465005337
 21
-582.99999999999761
 31
0.0
1001
ACDBBLOCKREPETAG
1070
     1
1071
      171
1005
1350EA
  0
LINE
  5
1350EB
  8
OBJECT
 10
6129.0
 20
-627.99999999999761
 30
0.0
 11
6129.0
 21
-632.99999999999761
 31
0.0
1001
ACDBBLOCKREPETAG
1070
     1
1071
      172
1005
1350EB
  0
LINE
  5
1350EC
  8
OBJECT
 10
6129.0
 20
-632.99999999999761
 30
0.0
 11
6147.0
 21
-632.99999999999761
 31
0.0
1001
ACDBBLOCKREPETAG
1070
     1
1071
      173
1005
1350EC
  0
LINE
  5
1350ED
  8
OBJECT
 10
6147.0
 20
-627.99999999999761
 30
0.0
 11
6147.0
 21
-632.99999999999761
 31
0.0
1001
ACDBBLOCKREPETAG
1070
     1
1071
      174
1005
1350ED
  0
LINE
  5
1350EE
  8
OBJECT
 10
6109.0000000000036
 20
-614.99999999999761
 30
0.0
 11
6244.0
 21
-614.99999999999761
 31
0.0
1001
ACDBBLOCKREPETAG
1070
     1
1071
      175
1005
1350EE
  0
LINE
  5
1350EF
  8
OBJECT
 10
6244.0
 20
-614.99999999999761
 30
0.0
 11
6244.0
 21
-627.99999999999761
 31
0.0
1001
ACDBBLOCKREPETAG
1070
     1
1071
      176
1005
1350EF
  0
LINE
  5
1350F0
  8
OBJECT
 10
6136.6369002447645
 20
-645.66457125774514
 30
0.0
 11
6116.1702980000009
 21
-627.99999999999761
 31
0.0
1001
ACDBBLOCKREPETAG
1070
     1
1071
      177
1005
1350F0
  0
LINE
  5
1350F1
  8
OBJECT
 10
6221.0000000000027
 20
-635.65708264965485
 30
0.0
 11
6221.0000000000027
 21
-659.99999999999761
 31
0.0
1001
ACDBBLOCKREPETAG
1070
     1
1071
      178
1005
1350F1
  0
LINE
  5
1350F2
  8
OBJECT
 10
6175.1865574982548
 20
-659.99999999999761
 30
0.0
 11
6221.0000000000027
 21
-659.99999999999761
 31
0.0
1001
ACDBBLOCKREPETAG
1070
     1
1071
      179
1005
1350F2
  0
ARC
  5
1350F3
  8
OBJECT
 10
6130.5
 20
-661.49999999999761
 30
0.0
 40
84.0
 50
277.05348487097029
 51
1.023193303671255
1001
ACDBBLOCKREPETAG
1070
     1
1071
      180
1005
1350F3
  0
LINE
  5
1350F4
  8
OBJECT
 10
6106.0
 20
-749.17200317020843
 30
0.0
 11
6140.8148488128809
 21
-744.86428428270153
 31
0.0
1001
ACDBBLOCKREPETAG
1070
     1
1071
      181
1005
1350F4
  0
LINE
  5
1350F5
  8
OBJECT
 10
6106.0000000000036
 20
-749.99999999999852
 30
0.0
 11
6106.0000000000036
 21
-628.99999999999761
 31
0.0
1001
ACDBBLOCKREPETAG
1070
     1
1071
      182
1005
1350F5
  0
ARC
  5
1350F6
  8
OBJECT
 10
6103.0000000000036
 20
-749.99999999999852
 30
0.0
 40
3.0
 50
270.0
 51
0.0
1001
ACDBBLOCKREPETAG
1070
     1
1071
      183
1005
1350F6
  0
LINE
  5
1350F7
  8
OBJECT
 10
6116.1702980000009
 20
-627.99999999999761
 30
0.0
 11
6244.0
 21
-627.99999999999761
 31
0.0
1001
ACDBBLOCKREPETAG
1070
     1
1071
      184
1005
1350F7
  0
LINE
  5
1350F8
  8
OBJECT
 10
6125.0539138517224
 20
-635.65708264965485
 30
0.0
 11
6221.0000000000027
 21
-635.65708264965485
 31
0.0
1001
ACDBBLOCKREPETAG
1070
     1
1071
      185
1005
1350F8
  0
LINE
  5
1350F9
  8
OBJECT
 10
6225.0
 20
-630.89006764214673
 30
0.0
 11
6221.0000000000027
 21
-635.65708264965485
 31
0.0
1001
ACDBBLOCKREPETAG
1070
     1
1071
      186
1005
1350F9
  0
LINE
  5
1350FA
  8
OBJECT
 10
6109.0000000000036
 20
-614.99999999999761
 30
0.0
 11
6109.0000000000073
 21
-628.99999999999761
 31
0.0
1001
ACDBBLOCKREPETAG
1070
     1
1071
      187
1005
1350FA
  0
LINE
  5
1350FB
  8
HIDDEN
 10
6125.5
 20
-654.9999999999975
 30
0.0
 11
6214.5000000000009
 21
-654.9999999999975
 31
0.0
1001
ACDBBLOCKREPETAG
1070
     1
1071
      188
1005
1350FB
  0
LINE
  5
1350FC
  8
OBJECT
 10
6134.0
 20
-580.99999999999761
 30
0.0
 11
6142.0
 21
-580.99999999999761
 31
0.0
1001
ACDBBLOCKREPETAG
1070
     1
1071
      189
1005
1350FC
  0
LINE
  5
1350FD
  8
OBJECT
 10
6142.0
 20
-582.99999999999761
 30
0.0
 11
6142.0
 21
-580.99999999999761
 31
0.0
1001
ACDBBLOCKREPETAG
1070
     1
1071
      190
1005
1350FD
  0
LINE
  5
1350FE
  8
OBJECT
 10
6130.4944465005337
 20
-582.99999999999761
 30
0.0
 11
6145.5055534994644
 21
-582.99999999999761
 31
0.0
1001
ACDBBLOCKREPETAG
1070
     1
1071
      191
1005
1350FE
  0
LINE
  5
1350FF
  8
CENTER
 10
6170.0
 20
-674.77158855533025
 30
0.0
 11
6170.0
 21
-574.49999999999761
 31
0.0
1001
ACDBBLOCKREPETAG
1070
     1
1071
      193
1005
1350FF
  0
LINE
  5
135100
  8
OBJECT
 10
6100.0
 20
-752.99999999999773
 30
0.0
 11
6103.0000000000036
 21
-752.99999999999852
 31
0.0
1001
ACDBBLOCKREPETAG
1070
     1
1071
      194
1005
135100
  0
LINE
  5
135101
  8
OBJECT
 10
6100.0
 20
-628.99999999999761
 30
0.0
 11
6109.0000000000073
 21
-628.99999999999761
 31
0.0
1001
ACDBBLOCKREPETAG
1070
     1
1071
      195
1005
135101
  0
LINE
  5
135102
  8
OBJECT
 10
6134.2471969783928
 20
-589.49998110540889
 30
0.0
 11
6134.2471969783928
 21
-582.99998110540901
 31
0.0
1001
ACDBBLOCKREPETAG
1070
     1
1071
      196
1005
135102
  0
LINE
  5
135103
  8
OBJECT
 10
6145.5055534994644
 20
-589.49999999999761
 30
0.0
 11
6145.5055534994644
 21
-582.99999999999761
 31
0.0
1001
ACDBBLOCKREPETAG
1070
     1
1071
      197
1005
135103
  0
LINE
  5
135104
  8
OBJECT
 10
6141.7528030216054
 20
-589.49998110540889
 30
0.0
 11
6141.7528030216054
 21
-582.99998110540901
 31
0.0
1001
ACDBBLOCKREPETAG
1070
     1
1071
      198
1005
135104
  0
LINE
  5
135105
  8
OBJECT
 10
6230.0
 20
-582.99999999999761
 30
0.0
 11
6230.0
 21
-580.99999999999761
 31
0.0
1001
ACDBBLOCKREPETAG
1070
     1
1071
      199
1005
135105
  0
LINE
  5
135106
  8
OBJECT
 10
6230.0
 20
-614.99999999999761
 30
0.0
 11
6230.0
 21
-602.49999999999761
 31
0.0
1001
ACDBBLOCKREPETAG
1070
     1
1071
      200
1005
135106
  0
LINE
  5
135107
  8
OBJECT
 10
6238.0
 20
-614.99999999999761
 30
0.0
 11
6238.0
 21
-602.49999999999761
 31
0.0
1001
ACDBBLOCKREPETAG
1070
     1
1071
      201
1005
135107
  0
LINE
  5
135108
  8
OBJECT
 10
6226.4944465005337
 20
-589.49999999999761
 30
0.0
 11
6226.4944465005337
 21
-582.99999999999761
 31
0.0
1001
ACDBBLOCKREPETAG
1070
     1
1071
      202
1005
135108
  0
LINE
  5
135109
  8
OBJECT
 10
6225.0
 20
-627.99999999999761
 30
0.0
 11
6225.0
 21
-632.99999999999761
 31
0.0
1001
ACDBBLOCKREPETAG
1070
     1
1071
      203
1005
135109
  0
LINE
  5
13510A
  8
OBJECT
 10
6225.0
 20
-632.99999999999761
 30
0.0
 11
6243.0
 21
-632.99999999999761
 31
0.0
1001
ACDBBLOCKREPETAG
1070
     1
1071
      204
1005
13510A
  0
LINE
  5
13510B
  8
OBJECT
 10
6243.0
 20
-627.99999999999761
 30
0.0
 11
6243.0
 21
-632.99999999999761
 31
0.0
1001
ACDBBLOCKREPETAG
1070
     1
1071
      205
1005
13510B
  0
LINE
  5
13510C
  8
OBJECT
 10
6230.0
 20
-580.99999999999761
 30
0.0
 11
6238.0
 21
-580.99999999999761
 31
0.0
1001
ACDBBLOCKREPETAG
1070
     1
1071
      206
1005
13510C
  0
LINE
  5
13510D
  8
OBJECT
 10
6238.0
 20
-582.99999999999761
 30
0.0
 11
6238.0
 21
-580.99999999999761
 31
0.0
1001
ACDBBLOCKREPETAG
1070
     1
1071
      207
1005
13510D
  0
LINE
  5
13510E
  8
OBJECT
 10
6226.4944465005337
 20
-582.99999999999761
 30
0.0
 11
6241.5055534994653
 21
-582.99999999999761
 31
0.0
1001
ACDBBLOCKREPETAG
1070
     1
1071
      208
1005
13510E
  0
LINE
  5
13510F
  8
OBJECT
 10
6230.2471969783928
 20
-589.49998110540889
 30
0.0
 11
6230.2471969783928
 21
-582.99998110540901
 31
0.0
1001
ACDBBLOCKREPETAG
1070
     1
1071
      209
1005
13510F
  0
LINE
  5
135110
  8
OBJECT
 10
6241.5055534994653
 20
-589.49999999999761
 30
0.0
 11
6241.5055534994653
 21
-582.99999999999761
 31
0.0
1001
ACDBBLOCKREPETAG
1070
     1
1071
      210
1005
135110
  0
LINE
  5
135111
  8
OBJECT
 10
6237.7528030216063
 20
-589.49998110540889
 30
0.0
 11
6237.7528030216063
 21
-582.99998110540901
 31
0.0
1001
ACDBBLOCKREPETAG
1070
     1
1071
      211
1005
135111
  0
LINE
  5
135112
  8
CENTER
 10
6100.0
 20
-199.99999999999909
 30
0.0
 11
6259.0
 21
-199.99999999999909
 31
0.0
1001
ACDBBLOCKREPETAG
1070
     1
1071
      155
1005
135112
  0
LINE
  5
135113
  8
OBJECT
 10
6100.0
 20
-261.99999999999909
 30
0.0
 11
6103.0
 21
-261.99999999999909
 31
0.0
1001
ACDBBLOCKREPETAG
1070
     1
1071
      156
1005
135113
  0
ARC
  5
135114
  8
OBJECT
 10
6103.0
 20
-258.99999999999909
 30
0.0
 40
3.0
 50
270.0
 51
0.0
1001
ACDBBLOCKREPETAG
1070
     1
1071
      157
1005
135114
  0
LINE
  5
135115
  8
OBJECT
 10
6100.0
 20
-138.0000000000027
 30
0.0
 11
6103.0
 21
-138.0000000000027
 31
0.0
1001
ACDBBLOCKREPETAG
1070
     1
1071
      158
1005
135115
  0
LINE
  5
135116
  8
OBJECT
 10
6106.0
 20
-140.99999999999909
 30
0.0
 11
6128.6547275935327
 21
-140.9999999999954
 31
0.0
1001
ACDBBLOCKREPETAG
1070
     1
1071
      159
1005
135116
  0
LINE
  5
135117
  8
OBJECT
 10
6106.0
 20
-259.00000000000267
 30
0.0
 11
6128.6547275935327
 21
-258.99999999999909
 31
0.0
1001
ACDBBLOCKREPETAG
1070
     1
1071
      160
1005
135117
  0
LINE
  5
135118
  8
CENTER
 10
6170.0
 20
-123.5195984073716
 30
0.0
 11
6170.0
 21
-276.48040159262649
 31
0.0
1001
ACDBBLOCKREPETAG
1070
     1
1071
      161
1005
135118
  0
LINE
  5
135119
  8
OBJECT
 10
6106.0
 20
-141.0000000000027
 30
0.0
 11
6106.0
 21
-258.99999999999909
 31
0.0
1001
ACDBBLOCKREPETAG
1070
     1
1071
      162
1005
135119
  0
ARC
  5
13511A
  8
OBJECT
 10
6103.0
 20
-141.0000000000027
 30
0.0
 40
3.0
 50
0.0
 51
90.0
1001
ACDBBLOCKREPETAG
1070
     1
1071
      163
1005
13511A
  0
ARC
  5
13511B
  8
OBJECT
 10
6170.0
 20
-199.99999999999909
 30
0.0
 40
61.0
 50
37.167285461274467
 51
82.832714538705744
1001
ACDBBLOCKREPETAG
1070
     1
1071
      165
1005
13511B
  0
ARC
  5
13511C
  8
OBJECT
 10
6170.0
 20
-199.99999999999909
 30
0.0
 40
61.0
 50
157.16728546127851
 51
202.83271453872149
1001
ACDBBLOCKREPETAG
1070
     1
1071
      166
1005
13511C
  0
ARC
  5
13511D
  8
OBJECT
 10
6170.0
 20
-199.99999999999909
 30
0.0
 40
61.0
 50
277.16728546129423
 51
322.83271453872419
1001
ACDBBLOCKREPETAG
1070
     1
1071
      167
1005
13511D
  0
CIRCLE
  5
13511E
  8
SLIM
 10
6234.0
 20
-199.99999999999909
 30
0.0
 40
4.0
1001
ACDBBLOCKREPETAG
1070
     1
1071
      168
1005
13511E
  0
ARC
  5
13511F
  8
OBJECT
 10
6234.0
 20
-199.99999999999909
 30
0.0
 40
10.0
 50
322.83271453872419
 51
37.167285461274467
1001
ACDBBLOCKREPETAG
1070
     1
1071
      169
1005
13511F
  0
LINE
  5
135120
  8
OBJECT
 10
6218.6093749999973
 20
-163.14720279124501
 30
0.0
 11
6241.96875
 21
-193.9585578346296
 31
0.0
1001
ACDBBLOCKREPETAG
1070
     1
1071
      170
1005
135120
  0
LINE
  5
135121
  8
OBJECT
 10
6218.6093749999973
 20
-236.8527972087532
 30
0.0
 11
6241.96875
 21
-206.04144216536861
 31
0.0
1001
ACDBBLOCKREPETAG
1070
     1
1071
      171
1005
135121
  0
CIRCLE
  5
135122
  8
SLIM
 10
6138.0
 20
-144.5743741577962
 30
0.0
 40
3.9999999999999991
1001
ACDBBLOCKREPETAG
1070
     1
1071
      172
1005
135122
  0
ARC
  5
135123
  8
OBJECT
 10
6138.0
 20
-144.5743741577962
 30
0.0
 40
9.9999999999999982
 50
82.832714538705744
 51
157.16728546127851
1001
ACDBBLOCKREPETAG
1070
     1
1071
      173
1005
135123
  0
LINE
  5
135124
  8
OBJECT
 10
6113.7798539167052
 20
-176.32944499229319
 30
0.0
 11
6128.783582609296
 21
-140.6939553040711
 31
0.0
1001
ACDBBLOCKREPETAG
1070
     1
1071
      174
1005
135124
  0
LINE
  5
135125
  8
OBJECT
 10
6177.6107710832994
 20
-139.47664778353919
 30
0.0
 11
6139.247667390704
 21
-134.65251313870161
 31
0.0
1001
ACDBBLOCKREPETAG
1070
     1
1071
      175
1005
135125
  0
CIRCLE
  5
135126
  8
SLIM
 10
6138.0
 20
-255.4256258422019
 30
0.0
 40
4.0
1001
ACDBBLOCKREPETAG
1070
     1
1071
      176
1005
135126
  0
ARC
  5
135127
  8
OBJECT
 10
6138.0
 20
-255.4256258422019
 30
0.0
 40
10.0
 50
202.83271453872149
 51
277.16728546129423
1001
ACDBBLOCKREPETAG
1070
     1
1071
      177
1005
135127
  0
LINE
  5
135128
  8
OBJECT
 10
6177.6107710832994
 20
-260.52335221645899
 30
0.0
 11
6139.247667390704
 21
-265.3474868612966
 31
0.0
1001
ACDBBLOCKREPETAG
1070
     1
1071
      178
1005
135128
  0
LINE
  5
135129
  8
OBJECT
 10
6113.7798539167052
 20
-223.67055500770491
 30
0.0
 11
6128.783582609296
 21
-259.30604469592708
 31
0.0
1001
ACDBBLOCKREPETAG
1070
     1
1071
      179
1005
135129
  0
CIRCLE
  5
13512A
  8
OBJECT
 10
6170.0
 20
-199.99999999999909
 30
0.0
 40
46.0
1001
ACDBBLOCKREPETAG
1070
     1
1071
      180
1005
13512A
  0
POLYLINE
  5
13512B
  8
SLIM
 66
     1
 10
0.0
 20
0.0
 30
0.0
 70
     1
1001
ACDBBLOCKREPETAG
1070
     1
1071
      181
1005
13512B
  0
VERTEX
  5
13566F
  8
SLIM
 10
6230.247223250266
 20
-193.49999999999909
 30
0.0
  0
VERTEX
  5
135670
  8
SLIM
 10
6226.4944465005337
 20
-199.99999999999909
 30
0.0
  0
VERTEX
  5
135671
  8
SLIM
 10
6230.247223250266
 20
-206.49999999999909
 30
0.0
  0
VERTEX
  5
135672
  8
SLIM
 10
6237.752776749734
 20
-206.49999999999909
 30
0.0
  0
VERTEX
  5
135673
  8
SLIM
 10
6241.5055534994653
 20
-199.99999999999909
 30
0.0
  0
VERTEX
  5
135674
  8
SLIM
 10
6237.752776749734
 20
-193.49999999999909
 30
0.0
  0
SEQEND
  5
135675
  8
SLIM
  0
POLYLINE
  5
13512C
  8
SLIM
 66
     1
 10
0.0
 20
0.0
 30
0.0
 70
     1
1001
ACDBBLOCKREPETAG
1070
     1
1071
      182
1005
13512C
  0
VERTEX
  5
135676
  8
SLIM
 10
6134.2472232502696
 20
-151.0743741577962
 30
0.0
  0
VERTEX
  5
135677
  8
SLIM
 10
6141.752776749734
 20
-151.0743741577962
 30
0.0
  0
VERTEX
  5
135678
  8
SLIM
 10
6145.5055534994644
 20
-144.5743741577962
 30
0.0
  0
VERTEX
  5
135679
  8
SLIM
 10
6141.7527767497304
 20
-138.07437415779259
 30
0.0
  0
VERTEX
  5
13567A
  8
SLIM
 10
6134.2472232502696
 20
-138.0743741577962
 30
0.0
  0
VERTEX
  5
13567B
  8
SLIM
 10
6130.4944465005337
 20
-144.57437415779259
 30
0.0
  0
SEQEND
  5
13567C
  8
SLIM
  0
POLYLINE
  5
13512D
  8
SLIM
 66
     1
 10
0.0
 20
0.0
 30
0.0
 70
     1
1001
ACDBBLOCKREPETAG
1070
     1
1071
      183
1005
13512D
  0
VERTEX
  5
13567D
  8
SLIM
 10
6145.5055534994644
 20
-255.4256258422019
 30
0.0
  0
VERTEX
  5
13567E
  8
SLIM
 10
6141.7527767497304
 20
-248.9256258422019
 30
0.0
  0
VERTEX
  5
13567F
  8
SLIM
 10
6134.2472232502696
 20
-248.9256258422019
 30
0.0
  0
VERTEX
  5
135680
  8
SLIM
 10
6130.4944465005337
 20
-255.42562584220559
 30
0.0
  0
VERTEX
  5
135681
  8
SLIM
 10
6134.247223250266
 20
-261.9256258422019
 30
0.0
  0
VERTEX
  5
135682
  8
SLIM
 10
6141.7527767497304
 20
-261.92562584220559
 30
0.0
  0
SEQEND
  5
135683
  8
SLIM
  0
LINE
  5
13512E
  8
OBJECT
 10
3866.0
 20
-582.99999999999761
 30
0.0
 11
3866.0
 21
-580.99999999999761
 31
0.0
1001
ACDBBLOCKREPETAG
1070
     1
1071
      157
1005
13512E
  0
ARC
  5
13512F
  8
OBJECT
 10
3824.8134425017461
 20
-600.99999999999761
 30
0.0
 40
59.0
 50
270.0
 51
310.7972311667607
1001
ACDBBLOCKREPETAG
1070
     1
1071
      158
1005
13512F
  0
LINE
  5
135130
  8
OBJECT
 10
3756.0
 20
-589.49999999999761
 30
0.0
 11
3891.0
 21
-589.49999999999761
 31
0.0
1001
ACDBBLOCKREPETAG
1070
     1
1071
      159
1005
135130
  0
LINE
  5
135131
  8
OBJECT
 10
3891.0
 20
-602.49999999999761
 30
0.0
 11
3756.0
 21
-602.49999999999761
 31
0.0
1001
ACDBBLOCKREPETAG
1070
     1
1071
      160
1005
135131
  0
LINE
  5
135132
  8
OBJECT
 10
3891.0
 20
-589.49999999999761
 30
0.0
 11
3891.0
 21
-602.49999999999761
 31
0.0
1001
ACDBBLOCKREPETAG
1070
     1
1071
      161
1005
135132
  0
LINE
  5
135133
  8
OBJECT
 10
3884.0
 20
-611.49999999999761
 30
0.0
 11
3884.0
 21
-602.49999999999761
 31
0.0
1001
ACDBBLOCKREPETAG
1070
     1
1071
      162
1005
135133
  0
LINE
  5
135134
  8
OBJECT
 10
3866.0
 20
-614.99999999999761
 30
0.0
 11
3866.0
 21
-602.49999999999761
 31
0.0
1001
ACDBBLOCKREPETAG
1070
     1
1071
      163
1005
135134
  0
LINE
  5
135135
  8
OBJECT
 10
3776.0
 20
-611.49999999999761
 30
0.0
 11
3776.0
 21
-602.49999999999761
 31
0.0
1001
ACDBBLOCKREPETAG
1070
     1
1071
      164
1005
135135
  0
LINE
  5
135136
  8
OBJECT
 10
3756.0
 20
-589.49999999999761
 30
0.0
 11
3756.0
 21
-602.49999999999761
 31
0.0
1001
ACDBBLOCKREPETAG
1070
     1
1071
      165
1005
135136
  0
LINE
  5
135137
  8
OBJECT
 10
3858.0
 20
-614.99999999999761
 30
0.0
 11
3858.0
 21
-602.49999999999761
 31
0.0
1001
ACDBBLOCKREPETAG
1070
     1
1071
      166
1005
135137
  0
LINE
  5
135138
  8
OBJECT
 10
3866.0
 20
-611.49999999999761
 30
0.0
 11
3885.0
 21
-611.49999999999761
 31
0.0
1001
ACDBBLOCKREPETAG
1070
     1
1071
      167
1005
135138
  0
LINE
  5
135139
  8
OBJECT
 10
3885.0
 20
-614.99999999999761
 30
0.0
 11
3885.0
 21
-611.49999999999761
 31
0.0
1001
ACDBBLOCKREPETAG
1070
     1
1071
      168
1005
135139
  0
LINE
  5
13513A
  8
OBJECT
 10
3858.0
 20
-611.49999999999761
 30
0.0
 11
3775.0
 21
-611.49999999999761
 31
0.0
1001
ACDBBLOCKREPETAG
1070
     1
1071
      169
1005
13513A
  0
LINE
  5
13513B
  8
OBJECT
 10
3775.0
 20
-611.49999999999761
 30
0.0
 11
3775.0
 21
-614.99999999999761
 31
0.0
1001
ACDBBLOCKREPETAG
1070
     1
1071
      170
1005
13513B
  0
LINE
  5
13513C
  8
OBJECT
 10
3869.5055534994649
 20
-589.49999999999761
 30
0.0
 11
3869.5055534994649
 21
-582.99999999999761
 31
0.0
1001
ACDBBLOCKREPETAG
1070
     1
1071
      171
1005
13513C
  0
LINE
  5
13513D
  8
OBJECT
 10
3871.0
 20
-627.99999999999761
 30
0.0
 11
3871.0
 21
-632.99999999999761
 31
0.0
1001
ACDBBLOCKREPETAG
1070
     1
1071
      172
1005
13513D
  0
LINE
  5
13513E
  8
OBJECT
 10
3871.0
 20
-632.99999999999761
 30
0.0
 11
3853.0
 21
-632.99999999999761
 31
0.0
1001
ACDBBLOCKREPETAG
1070
     1
1071
      173
1005
13513E
  0
LINE
  5
13513F
  8
OBJECT
 10
3853.0
 20
-627.99999999999761
 30
0.0
 11
3853.0
 21
-632.99999999999761
 31
0.0
1001
ACDBBLOCKREPETAG
1070
     1
1071
      174
1005
13513F
  0
LINE
  5
135140
  8
OBJECT
 10
3890.9999999999959
 20
-614.99999999999761
 30
0.0
 11
3756.0
 21
-614.99999999999761
 31
0.0
1001
ACDBBLOCKREPETAG
1070
     1
1071
      175
1005
135140
  0
LINE
  5
135141
  8
OBJECT
 10
3756.0
 20
-614.99999999999761
 30
0.0
 11
3756.0
 21
-627.99999999999761
 31
0.0
1001
ACDBBLOCKREPETAG
1070
     1
1071
      176
1005
135141
  0
LINE
  5
135142
  8
OBJECT
 10
3863.363099755235
 20
-645.66457125774514
 30
0.0
 11
3883.8297019999982
 21
-627.99999999999761
 31
0.0
1001
ACDBBLOCKREPETAG
1070
     1
1071
      177
1005
135142
  0
LINE
  5
135143
  8
OBJECT
 10
3778.9999999999959
 20
-635.65708264965485
 30
0.0
 11
3778.9999999999959
 21
-659.99999999999761
 31
0.0
1001
ACDBBLOCKREPETAG
1070
     1
1071
      178
1005
135143
  0
LINE
  5
135144
  8
OBJECT
 10
3824.8134425017461
 20
-659.99999999999761
 30
0.0
 11
3778.9999999999959
 21
-659.99999999999761
 31
0.0
1001
ACDBBLOCKREPETAG
1070
     1
1071
      179
1005
135144
  0
ARC
  5
135145
  8
OBJECT
 10
3869.5
 20
-661.49999999999761
 30
0.0
 40
84.0
 50
178.97680669632871
 51
262.94651512902959
1001
ACDBBLOCKREPETAG
1070
     1
1071
      180
1005
135145
  0
LINE
  5
135146
  8
OBJECT
 10
3894.0
 20
-749.17200317020843
 30
0.0
 11
3859.1851511871191
 21
-744.86428428270153
 31
0.0
1001
ACDBBLOCKREPETAG
1070
     1
1071
      181
1005
135146
  0
LINE
  5
135147
  8
OBJECT
 10
3893.9999999999959
 20
-749.99999999999852
 30
0.0
 11
3893.9999999999959
 21
-628.99999999999761
 31
0.0
1001
ACDBBLOCKREPETAG
1070
     1
1071
      182
1005
135147
  0
ARC
  5
135148
  8
OBJECT
 10
3896.9999999999968
 20
-749.99999999999852
 30
0.0
 40
3.0
 50
180.0
 51
270.0
1001
ACDBBLOCKREPETAG
1070
     1
1071
      183
1005
135148
  0
LINE
  5
135149
  8
OBJECT
 10
3883.8297019999982
 20
-627.99999999999761
 30
0.0
 11
3756.0
 21
-627.99999999999761
 31
0.0
1001
ACDBBLOCKREPETAG
1070
     1
1071
      184
1005
135149
  0
LINE
  5
13514A
  8
OBJECT
 10
3874.9460861482771
 20
-635.65708264965485
 30
0.0
 11
3778.9999999999959
 21
-635.65708264965485
 31
0.0
1001
ACDBBLOCKREPETAG
1070
     1
1071
      185
1005
13514A
  0
LINE
  5
13514B
  8
OBJECT
 10
3775.0
 20
-630.89006764214673
 30
0.0
 11
3778.9999999999959
 21
-635.65708264965485
 31
0.0
1001
ACDBBLOCKREPETAG
1070
     1
1071
      186
1005
13514B
  0
LINE
  5
13514C
  8
OBJECT
 10
3890.9999999999959
 20
-614.99999999999761
 30
0.0
 11
3890.9999999999932
 21
-628.99999999999761
 31
0.0
1001
ACDBBLOCKREPETAG
1070
     1
1071
      187
1005
13514C
  0
LINE
  5
13514D
  8
HIDDEN
 10
3874.5
 20
-654.9999999999975
 30
0.0
 11
3785.5000000000009
 21
-654.9999999999975
 31
0.0
1001
ACDBBLOCKREPETAG
1070
     1
1071
      188
1005
13514D
  0
LINE
  5
13514E
  8
OBJECT
 10
3866.0
 20
-580.99999999999761
 30
0.0
 11
3858.0
 21
-580.99999999999761
 31
0.0
1001
ACDBBLOCKREPETAG
1070
     1
1071
      189
1005
13514E
  0
LINE
  5
13514F
  8
OBJECT
 10
3858.0
 20
-582.99999999999761
 30
0.0
 11
3858.0
 21
-580.99999999999761
 31
0.0
1001
ACDBBLOCKREPETAG
1070
     1
1071
      190
1005
13514F
  0
LINE
  5
135150
  8
OBJECT
 10
3869.5055534994649
 20
-582.99999999999761
 30
0.0
 11
3854.494446500536
 21
-582.99999999999761
 31
0.0
1001
ACDBBLOCKREPETAG
1070
     1
1071
      191
1005
135150
  0
LINE
  5
135151
  8
CENTER
 10
3830.0
 20
-674.77158855533025
 30
0.0
 11
3830.0
 21
-574.49999999999761
 31
0.0
1001
ACDBBLOCKREPETAG
1070
     1
1071
      193
1005
135151
  0
LINE
  5
135152
  8
OBJECT
 10
3900.0
 20
-752.99999999999773
 30
0.0
 11
3896.9999999999968
 21
-752.99999999999852
 31
0.0
1001
ACDBBLOCKREPETAG
1070
     1
1071
      194
1005
135152
  0
LINE
  5
135153
  8
OBJECT
 10
3900.0
 20
-628.99999999999761
 30
0.0
 11
3890.9999999999932
 21
-628.99999999999761
 31
0.0
1001
ACDBBLOCKREPETAG
1070
     1
1071
      195
1005
135153
  0
LINE
  5
135154
  8
OBJECT
 10
3865.7528030216058
 20
-589.49998110540889
 30
0.0
 11
3865.7528030216058
 21
-582.99998110540901
 31
0.0
1001
ACDBBLOCKREPETAG
1070
     1
1071
      196
1005
135154
  0
LINE
  5
135155
  8
OBJECT
 10
3854.494446500536
 20
-589.49999999999761
 30
0.0
 11
3854.494446500536
 21
-582.99999999999761
 31
0.0
1001
ACDBBLOCKREPETAG
1070
     1
1071
      197
1005
135155
  0
LINE
  5
135156
  8
OBJECT
 10
3858.2471969783951
 20
-589.49998110540889
 30
0.0
 11
3858.2471969783951
 21
-582.99998110540901
 31
0.0
1001
ACDBBLOCKREPETAG
1070
     1
1071
      198
1005
135156
  0
LINE
  5
135157
  8
OBJECT
 10
3770.0
 20
-582.99999999999761
 30
0.0
 11
3770.0
 21
-580.99999999999761
 31
0.0
1001
ACDBBLOCKREPETAG
1070
     1
1071
      199
1005
135157
  0
LINE
  5
135158
  8
OBJECT
 10
3770.0
 20
-614.99999999999761
 30
0.0
 11
3770.0
 21
-602.49999999999761
 31
0.0
1001
ACDBBLOCKREPETAG
1070
     1
1071
      200
1005
135158
  0
LINE
  5
135159
  8
OBJECT
 10
3762.0
 20
-614.99999999999761
 30
0.0
 11
3762.0
 21
-602.49999999999761
 31
0.0
1001
ACDBBLOCKREPETAG
1070
     1
1071
      201
1005
135159
  0
LINE
  5
13515A
  8
OBJECT
 10
3773.5055534994649
 20
-589.49999999999761
 30
0.0
 11
3773.5055534994649
 21
-582.99999999999761
 31
0.0
1001
ACDBBLOCKREPETAG
1070
     1
1071
      202
1005
13515A
  0
LINE
  5
13515B
  8
OBJECT
 10
3775.0
 20
-627.99999999999761
 30
0.0
 11
3775.0
 21
-632.99999999999761
 31
0.0
1001
ACDBBLOCKREPETAG
1070
     1
1071
      203
1005
13515B
  0
LINE
  5
13515C
  8
OBJECT
 10
3775.0
 20
-632.99999999999761
 30
0.0
 11
3757.0
 21
-632.99999999999761
 31
0.0
1001
ACDBBLOCKREPETAG
1070
     1
1071
      204
1005
13515C
  0
LINE
  5
13515D
  8
OBJECT
 10
3757.0
 20
-627.99999999999761
 30
0.0
 11
3757.0
 21
-632.99999999999761
 31
0.0
1001
ACDBBLOCKREPETAG
1070
     1
1071
      205
1005
13515D
  0
LINE
  5
13515E
  8
OBJECT
 10
3770.0
 20
-580.99999999999761
 30
0.0
 11
3762.0
 21
-580.99999999999761
 31
0.0
1001
ACDBBLOCKREPETAG
1070
     1
1071
      206
1005
13515E
  0
LINE
  5
13515F
  8
OBJECT
 10
3762.0
 20
-582.99999999999761
 30
0.0
 11
3762.0
 21
-580.99999999999761
 31
0.0
1001
ACDBBLOCKREPETAG
1070
     1
1071
      207
1005
13515F
  0
LINE
  5
135160
  8
OBJECT
 10
3773.5055534994649
 20
-582.99999999999761
 30
0.0
 11
3758.4944465005369
 21
-582.99999999999761
 31
0.0
1001
ACDBBLOCKREPETAG
1070
     1
1071
      208
1005
135160
  0
LINE
  5
135161
  8
OBJECT
 10
3769.7528030216058
 20
-589.49998110540889
 30
0.0
 11
3769.7528030216058
 21
-582.99998110540901
 31
0.0
1001
ACDBBLOCKREPETAG
1070
     1
1071
      209
1005
135161
  0
LINE
  5
135162
  8
OBJECT
 10
3758.4944465005369
 20
-589.49999999999761
 30
0.0
 11
3758.4944465005369
 21
-582.99999999999761
 31
0.0
1001
ACDBBLOCKREPETAG
1070
     1
1071
      210
1005
135162
  0
LINE
  5
135163
  8
OBJECT
 10
3762.2471969783951
 20
-589.49998110540889
 30
0.0
 11
3762.2471969783951
 21
-582.99998110540901
 31
0.0
1001
ACDBBLOCKREPETAG
1070
     1
1071
      211
1005
135163
  0
CIRCLE
  5
135164
  8
OBJECT
 10
4000.0
 20
-690.99999999999761
 30
0.0
 40
62.0
1001
ACDBBLOCKREPETAG
1070
     1
1071
        0
1005
135164
  0
LINE
  5
135165
  8
OBJECT
 10
4095.0
 20
-569.99999999999955
 30
0.0
 11
3905.0
 21
-569.99999999999955
 31
0.0
1001
ACDBBLOCKREPETAG
1070
     1
1071
        0
1005
135165
  0
LINE
  5
135166
  8
OBJECT
 10
4095.0
 20
-549.99999999999955
 30
0.0
 11
3905.0
 21
-549.99999999999955
 31
0.0
1001
ACDBBLOCKREPETAG
1070
     1
1071
        1
1005
135166
  0
LINE
  5
135167
  8
OBJECT
 10
3902.5
 20
-914.99999999999955
 30
0.0
 11
4097.5
 21
-914.99999999999955
 31
0.0
1001
ACDBBLOCKREPETAG
1070
     1
1071
        2
1005
135167
  0
LINE
  5
135168
  8
OBJECT
 10
3908.237046000002
 20
-549.99999999999955
 30
0.0
 11
3908.237046582261
 21
-569.99999999999955
 31
0.0
1001
ACDBBLOCKREPETAG
1070
     1
1071
        3
1005
135168
  0
LINE
  5
135169
  8
OBJECT
 10
3905.0
 20
-549.99999999999955
 30
0.0
 11
3905.0
 21
-569.99999999999955
 31
0.0
1001
ACDBBLOCKREPETAG
1070
     1
1071
        4
1005
135169
  0
LINE
  5
13516A
  8
OBJECT
 10
3916.0249090000002
 20
-549.99999999999955
 30
0.0
 11
3916.0249090000002
 21
-569.99999999999955
 31
0.0
1001
ACDBBLOCKREPETAG
1070
     1
1071
        5
1005
13516A
  0
LINE
  5
13516B
  8
OBJECT
 10
3967.6243270000018
 20
-549.99999999999955
 30
0.0
 11
3967.6243270000018
 21
-569.99999999999955
 31
0.0
1001
ACDBBLOCKREPETAG
1070
     1
1071
        6
1005
13516B
  0
LINE
  5
13516C
  8
OBJECT
 10
3975.41219
 20
-549.99999999999955
 30
0.0
 11
3975.41219
 21
-569.99999999999955
 31
0.0
1001
ACDBBLOCKREPETAG
1070
     1
1071
        7
1005
13516C
  0
LINE
  5
13516D
  8
OBJECT
 10
4024.5878090000001
 20
-549.99999999999955
 30
0.0
 11
4024.5878090000001
 21
-569.99999999999955
 31
0.0
1001
ACDBBLOCKREPETAG
1070
     1
1071
        8
1005
13516D
  0
LINE
  5
13516E
  8
OBJECT
 10
4032.375672000001
 20
-549.99999999999955
 30
0.0
 11
4032.375672000001
 21
-569.99999999999955
 31
0.0
1001
ACDBBLOCKREPETAG
1070
     1
1071
        9
1005
13516E
  0
LINE
  5
13516F
  8
OBJECT
 10
4083.9750910000012
 20
-549.99999999999955
 30
0.0
 11
4083.9750910000012
 21
-569.99999999999955
 31
0.0
1001
ACDBBLOCKREPETAG
1070
     1
1071
       10
1005
13516F
  0
LINE
  5
135170
  8
OBJECT
 10
4091.762953999998
 20
-549.99999999999955
 30
0.0
 11
4091.7629534177431
 21
-569.99999999999955
 31
0.0
1001
ACDBBLOCKREPETAG
1070
     1
1071
       11
1005
135170
  0
LINE
  5
135171
  8
OBJECT
 10
4095.0
 20
-549.99999999999955
 30
0.0
 11
4095.0
 21
-569.99999999999955
 31
0.0
1001
ACDBBLOCKREPETAG
1070
     1
1071
       12
1005
135171
  0
LINE
  5
135172
  8
OBJECT
 10
4100.0
 20
-628.99999999999955
 30
0.0
 11
3900.0
 21
-628.99999999999955
 31
0.0
1001
ACDBBLOCKREPETAG
1070
     1
1071
       13
1005
135172
  0
LINE
  5
135173
  8
OBJECT
 10
4100.0
 20
-752.99999999999773
 30
0.0
 11
4092.5
 21
-752.99999999999773
 31
0.0
1001
ACDBBLOCKREPETAG
1070
     1
1071
       14
1005
135173
  0
LINE
  5
135174
  8
OBJECT
 10
3902.5
 20
-914.99999999999955
 30
0.0
 11
3902.5
 21
-902.99999999999784
 31
0.0
1001
ACDBBLOCKREPETAG
1070
     1
1071
       15
1005
135174
  0
LINE
  5
135175
  8
OBJECT
 10
4097.5
 20
-914.99999999999955
 30
0.0
 11
4097.5
 21
-902.99999999999784
 31
0.0
1001
ACDBBLOCKREPETAG
1070
     1
1071
       16
1005
135175
  0
LINE
  5
135176
  8
OBJECT
 10
3902.5
 20
-902.99999999999784
 30
0.0
 11
4097.5
 21
-902.99999999999784
 31
0.0
1001
ACDBBLOCKREPETAG
1070
     1
1071
       17
1005
135176
  0
LINE
  5
135177
  8
HIDDEN
 10
3930.0
 20
-624.99999999999955
 30
0.0
 11
4070.0
 21
-624.99999999999955
 31
0.0
1001
ACDBBLOCKREPETAG
1070
     1
1071
       18
1005
135177
  0
LINE
  5
135178
  8
CENTER
 10
4000.0
 20
-534.99999999999955
 30
0.0
 11
4000.0
 21
-914.99999999999955
 31
0.0
1001
ACDBBLOCKREPETAG
1070
     1
1071
       19
1005
135178
  0
LINE
  5
135179
  8
OBJECT
 10
4092.5
 20
-752.99999999999773
 30
0.0
 11
4092.5
 21
-902.99999999999784
 31
0.0
1001
ACDBBLOCKREPETAG
1070
     1
1071
       20
1005
135179
  0
LINE
  5
13517A
  8
OBJECT
 10
3914.5
 20
-569.99999999999955
 30
0.0
 11
3914.5
 21
-628.99999999999955
 31
0.0
1001
ACDBBLOCKREPETAG
1070
     1
1071
       21
1005
13517A
  0
LINE
  5
13517B
  8
OBJECT
 10
4085.5
 20
-569.99999999999955
 30
0.0
 11
4085.5
 21
-628.99999999999955
 31
0.0
1001
ACDBBLOCKREPETAG
1070
     1
1071
       22
1005
13517B
  0
POINT
  5
13517C
  8
DOTS
 10
4000.0
 20
-749.99999999999955
 30
0.0
1001
ACDBBLOCKREPETAG
1070
     1
1071
       24
1005
13517C
  0
LINE
  5
13517D
  8
OBJECT
 10
3900.0
 20
-752.99999999999773
 30
0.0
 11
3907.5
 21
-752.99999999999773
 31
0.0
1001
ACDBBLOCKREPETAG
1070
     1
1071
       25
1005
13517D
  0
LINE
  5
13517E
  8
OBJECT
 10
3907.5
 20
-752.99999999999773
 30
0.0
 11
3907.5
 21
-902.99999999999784
 31
0.0
1001
ACDBBLOCKREPETAG
1070
     1
1071
       26
1005
13517E
  0
ARC
  5
13517F
  8
OBJECT
 10
4214.4155190291494
 20
-715.62073879202455
 30
0.0
 40
149.554492306393
 50
144.60628028468801
 51
164.2211863995189
1001
ACDBBLOCKREPETAG
1070
     1
1071
       28
1005
13517F
  0
ARC
  5
135180
  8
OBJECT
 10
4139.1422781245283
 20
-690.99999999999761
 30
0.0
 40
70.496447952551449
 50
166.8426918235858
 51
193.15730817641409
1001
ACDBBLOCKREPETAG
1070
     1
1071
       29
1005
135180
  0
ARC
  5
135181
  8
OBJECT
 10
4214.4155190291494
 20
-666.3792612079701
 30
0.0
 40
149.55449230639621
 50
195.7788136004809
 51
215.3937197153119
1001
ACDBBLOCKREPETAG
1070
     1
1071
       30
1005
135181
  0
ARC
  5
135182
  8
OBJECT
 10
3785.584480970851
 20
-715.62073879202455
 30
0.0
 40
149.554492306393
 50
15.778813600532009
 51
35.393719715228642
1001
ACDBBLOCKREPETAG
1070
     1
1071
       31
1005
135182
  0
ARC
  5
135183
  8
OBJECT
 10
3860.8577218754722
 20
-690.99999999999761
 30
0.0
 40
70.496447952551449
 50
346.84269182358582
 51
13.15730817641421
1001
ACDBBLOCKREPETAG
1070
     1
1071
       32
1005
135183
  0
ARC
  5
135184
  8
OBJECT
 10
3785.584480970851
 20
-666.3792612079701
 30
0.0
 40
149.55449230639621
 50
324.60628028477117
 51
344.22118639946802
1001
ACDBBLOCKREPETAG
1070
     1
1071
       33
1005
135184
  0
LINE
  5
135185
  8
CENTER
 10
3899.9999999999968
 20
-199.99999999999909
 30
0.0
 11
3740.9999999999959
 21
-199.99999999999909
 31
0.0
1001
ACDBBLOCKREPETAG
1070
     1
1071
      155
1005
135185
  0
LINE
  5
135186
  8
OBJECT
 10
3899.9999999999968
 20
-261.99999999999909
 30
0.0
 11
3896.9999999999968
 21
-261.99999999999909
 31
0.0
1001
ACDBBLOCKREPETAG
1070
     1
1071
      156
1005
135186
  0
ARC
  5
135187
  8
OBJECT
 10
3896.9999999999968
 20
-258.99999999999909
 30
0.0
 40
3.0
 50
180.0
 51
270.0
1001
ACDBBLOCKREPETAG
1070
     1
1071
      157
1005
135187
  0
LINE
  5
135188
  8
OBJECT
 10
3899.9999999999968
 20
-138.0000000000027
 30
0.0
 11
3896.9999999999968
 21
-138.0000000000027
 31
0.0
1001
ACDBBLOCKREPETAG
1070
     1
1071
      158
1005
135188
  0
LINE
  5
135189
  8
OBJECT
 10
3893.9999999999959
 20
-140.99999999999909
 30
0.0
 11
3871.3452724064632
 21
-140.9999999999954
 31
0.0
1001
ACDBBLOCKREPETAG
1070
     1
1071
      159
1005
135189
  0
LINE
  5
13518A
  8
OBJECT
 10
3893.9999999999959
 20
-259.00000000000267
 30
0.0
 11
3871.3452724064632
 21
-258.99999999999909
 31
0.0
1001
ACDBBLOCKREPETAG
1070
     1
1071
      160
1005
13518A
  0
LINE
  5
13518B
  8
CENTER
 10
3829.9999999999959
 20
-123.5195984073716
 30
0.0
 11
3829.9999999999959
 21
-276.48040159262649
 31
0.0
1001
ACDBBLOCKREPETAG
1070
     1
1071
      161
1005
13518B
  0
LINE
  5
13518C
  8
OBJECT
 10
3893.9999999999959
 20
-141.0000000000027
 30
0.0
 11
3893.9999999999959
 21
-258.99999999999909
 31
0.0
1001
ACDBBLOCKREPETAG
1070
     1
1071
      162
1005
13518C
  0
ARC
  5
13518D
  8
OBJECT
 10
3896.9999999999968
 20
-141.0000000000027
 30
0.0
 40
3.0
 50
90.0
 51
180.0
1001
ACDBBLOCKREPETAG
1070
     1
1071
      163
1005
13518D
  0
ARC
  5
13518E
  8
OBJECT
 10
3829.9999999999959
 20
-199.99999999999909
 30
0.0
 40
61.0
 50
97.16728546129427
 51
142.83271453872419
1001
ACDBBLOCKREPETAG
1070
     1
1071
      165
1005
13518E
  0
ARC
  5
13518F
  8
OBJECT
 10
3829.9999999999959
 20
-199.99999999999909
 30
0.0
 40
61.0
 50
337.16728546124438
 51
22.832714538755649
1001
ACDBBLOCKREPETAG
1070
     1
1071
      166
1005
13518F
  0
ARC
  5
135190
  8
OBJECT
 10
3829.9999999999959
 20
-199.99999999999909
 30
0.0
 40
61.0
 50
217.16728546127581
 51
262.83271453870572
1001
ACDBBLOCKREPETAG
1070
     1
1071
      167
1005
135190
  0
CIRCLE
  5
135191
  8
SLIM
 10
3765.9999999999959
 20
-199.99999999999909
 30
0.0
 40
4.0
1001
ACDBBLOCKREPETAG
1070
     1
1071
      168
1005
135191
  0
ARC
  5
135192
  8
OBJECT
 10
3765.9999999999959
 20
-199.99999999999909
 30
0.0
 40
10.0
 50
142.83271453872419
 51
217.16728546127581
1001
ACDBBLOCKREPETAG
1070
     1
1071
      169
1005
135192
  0
LINE
  5
135193
  8
OBJECT
 10
3781.390625
 20
-163.14720279124501
 30
0.0
 11
3758.0312499999968
 21
-193.9585578346296
 31
0.0
1001
ACDBBLOCKREPETAG
1070
     1
1071
      170
1005
135193
  0
LINE
  5
135194
  8
OBJECT
 10
3781.390625
 20
-236.8527972087532
 30
0.0
 11
3758.0312499999968
 21
-206.04144216536861
 31
0.0
1001
ACDBBLOCKREPETAG
1070
     1
1071
      171
1005
135194
  0
CIRCLE
  5
135195
  8
SLIM
 10
3861.9999999999959
 20
-144.5743741577962
 30
0.0
 40
3.9999999999999991
1001
ACDBBLOCKREPETAG
1070
     1
1071
      172
1005
135195
  0
ARC
  5
135196
  8
OBJECT
 10
3861.9999999999959
 20
-144.5743741577962
 30
0.0
 40
9.9999999999999982
 50
22.832714538755649
 51
97.16728546129427
1001
ACDBBLOCKREPETAG
1070
     1
1071
      173
1005
135196
  0
LINE
  5
135197
  8
OBJECT
 10
3886.2201460832912
 20
-176.32944499229319
 30
0.0
 11
3871.2164173907008
 21
-140.6939553040711
 31
0.0
1001
ACDBBLOCKREPETAG
1070
     1
1071
      174
1005
135197
  0
LINE
  5
135198
  8
OBJECT
 10
3822.3892289166979
 20
-139.47664778353919
 30
0.0
 11
3860.7523326092928
 21
-134.65251313870161
 31
0.0
1001
ACDBBLOCKREPETAG
1070
     1
1071
      175
1005
135198
  0
CIRCLE
  5
135199
  8
SLIM
 10
3861.9999999999959
 20
-255.4256258422019
 30
0.0
 40
4.0
1001
ACDBBLOCKREPETAG
1070
     1
1071
      176
1005
135199
  0
ARC
  5
13519A
  8
OBJECT
 10
3861.9999999999959
 20
-255.4256258422019
 30
0.0
 40
10.0
 50
262.83271453870572
 51
337.16728546124438
1001
ACDBBLOCKREPETAG
1070
     1
1071
      177
1005
13519A
  0
LINE
  5
13519B
  8
OBJECT
 10
3822.3892289166979
 20
-260.52335221645899
 30
0.0
 11
3860.7523326092928
 21
-265.3474868612966
 31
0.0
1001
ACDBBLOCKREPETAG
1070
     1
1071
      178
1005
13519B
  0
LINE
  5
13519C
  8
OBJECT
 10
3886.2201460832912
 20
-223.67055500770491
 30
0.0
 11
3871.2164173907008
 21
-259.30604469592708
 31
0.0
1001
ACDBBLOCKREPETAG
1070
     1
1071
      179
1005
13519C
  0
CIRCLE
  5
13519D
  8
OBJECT
 10
3829.9999999999959
 20
-199.99999999999909
 30
0.0
 40
46.0
1001
ACDBBLOCKREPETAG
1070
     1
1071
      180
1005
13519D
  0
POLYLINE
  5
13519E
  8
SLIM
 66
     1
 10
0.0
 20
0.0
 30
0.0
 70
     1
1001
ACDBBLOCKREPETAG
1070
     1
1071
      181
1005
13519E
  0
VERTEX
  5
135684
  8
SLIM
 10
3769.7527767497309
 20
-193.49999999999909
 30
0.0
  0
VERTEX
  5
135685
  8
SLIM
 10
3773.5055534994608
 20
-199.99999999999909
 30
0.0
  0
VERTEX
  5
135686
  8
SLIM
 10
3769.7527767497309
 20
-206.49999999999909
 30
0.0
  0
VERTEX
  5
135687
  8
SLIM
 10
3762.2472232502628
 20
-206.49999999999909
 30
0.0
  0
VERTEX
  5
135688
  8
SLIM
 10
3758.4944465005319
 20
-199.99999999999909
 30
0.0
  0
VERTEX
  5
135689
  8
SLIM
 10
3762.2472232502628
 20
-193.49999999999909
 30
0.0
  0
SEQEND
  5
13568A
  8
SLIM
  0
POLYLINE
  5
13519F
  8
SLIM
 66
     1
 10
0.0
 20
0.0
 30
0.0
 70
     1
1001
ACDBBLOCKREPETAG
1070
     1
1071
      182
1005
13519F
  0
VERTEX
  5
13568B
  8
SLIM
 10
3865.7527767497272
 20
-151.0743741577962
 30
0.0
  0
VERTEX
  5
13568C
  8
SLIM
 10
3858.2472232502628
 20
-151.0743741577962
 30
0.0
  0
VERTEX
  5
13568D
  8
SLIM
 10
3854.4944465005319
 20
-144.5743741577962
 30
0.0
  0
VERTEX
  5
13568E
  8
SLIM
 10
3858.247223250266
 20
-138.07437415779259
 30
0.0
  0
VERTEX
  5
13568F
  8
SLIM
 10
3865.7527767497272
 20
-138.0743741577962
 30
0.0
  0
VERTEX
  5
135690
  8
SLIM
 10
3869.5055534994608
 20
-144.57437415779259
 30
0.0
  0
SEQEND
  5
135691
  8
SLIM
  0
POLYLINE
  5
1351A0
  8
SLIM
 66
     1
 10
0.0
 20
0.0
 30
0.0
 70
     1
1001
ACDBBLOCKREPETAG
1070
     1
1071
      183
1005
1351A0
  0
VERTEX
  5
135692
  8
SLIM
 10
3854.4944465005319
 20
-255.4256258422019
 30
0.0
  0
VERTEX
  5
135693
  8
SLIM
 10
3858.247223250266
 20
-248.9256258422019
 30
0.0
  0
VERTEX
  5
135694
  8
SLIM
 10
3865.7527767497272
 20
-248.9256258422019
 30
0.0
  0
VERTEX
  5
135695
  8
SLIM
 10
3869.5055534994608
 20
-255.42562584220559
 30
0.0
  0
VERTEX
  5
135696
  8
SLIM
 10
3865.7527767497309
 20
-261.9256258422019
 30
0.0
  0
VERTEX
  5
135697
  8
SLIM
 10
3858.247223250266
 20
-261.92562584220559
 30
0.0
  0
SEQEND
  5
135698
  8
SLIM
  0
LINE
  5
1351A1
  8
CENTER
 10
4000.0000000000032
 20
-320.99999999999898
 30
0.0
 11
4000.0000000000032
 21
-299.99999999999898
 31
0.0
1001
ACDBBLOCKREPETAG
1070
     1
1071
        0
1005
1351A1
  0
LINE
  5
1351A2
  8
OBJECT
 10
4062.0000000000032
 20
-303.0
 30
0.0
 11
4062.0000000000032
 21
-299.99999999999898
 31
0.0
1001
ACDBBLOCKREPETAG
1070
     1
1071
        1
1005
1351A2
  0
ARC
  5
1351A3
  8
OBJECT
 10
4059.0000000000032
 20
-303.0
 30
0.0
 40
3.0
 50
270.0
 51
0.0
1001
ACDBBLOCKREPETAG
1070
     1
1071
        2
1005
1351A3
  0
LINE
  5
1351A4
  8
OBJECT
 10
3938.000000000005
 20
-299.99999999999898
 30
0.0
 11
3938.000000000005
 21
-302.99999999999818
 31
0.0
1001
ACDBBLOCKREPETAG
1070
     1
1071
        3
1005
1351A4
  0
ARC
  5
1351A5
  8
OBJECT
 10
3941.0000000000041
 20
-302.99999999999818
 30
0.0
 40
3.0
 50
180.0
 51
270.0
1001
ACDBBLOCKREPETAG
1070
     1
1071
        4
1005
1351A5
  0
LINE
  5
1351A6
  8
OBJECT
 10
3941.0000000000041
 20
-305.99999999999818
 30
0.0
 11
4059.0000000000032
 21
-306.0
 31
0.0
1001
ACDBBLOCKREPETAG
1070
     1
1071
        5
1005
1351A6
  0
ARC
  5
1351A7
  8
OBJECT
 10
3973.8931207053251
 20
-173.82438331578209
 30
0.0
 40
90.0
 50
274.21795726566182
 51
281.60300086771468
1001
ACDBBLOCKREPETAG
1070
     1
1071
        0
1005
1351A7
  0
LINE
  5
1351A8
  8
OBJECT
 10
3991.994750999992
 20
-261.98520799999727
 30
0.0
 11
3996.6424319999928
 21
-248.3387539999994
 31
0.0
1001
ACDBBLOCKREPETAG
1070
     1
1071
       28
1005
1351A8
  0
LINE
  5
1351A9
  8
OBJECT
 10
3955.2887960976809
 20
-207.0733020425842
 30
0.0
 11
3935.6054186421102
 21
-216.60084009147889
 31
0.0
1001
ACDBBLOCKREPETAG
1070
     1
1071
       29
1005
1351A9
  0
LINE
  5
1351AA
  8
OBJECT
 10
3937.3350639238638
 20
-222.25658973369261
 30
0.0
 11
3961.756073885118
 21
-210.43584915155679
 31
0.0
1001
ACDBBLOCKREPETAG
1070
     1
1071
       30
1005
1351AA
  0
LINE
  5
1351AB
  8
OBJECT
 10
3996.6424319999928
 20
-248.3387539999994
 30
0.0
 11
3970.3289245926439
 21
-210.9660806555467
 31
0.0
1001
ACDBBLOCKREPETAG
1070
     1
1071
       31
1005
1351AB
  0
ARC
  5
1351AC
  8
OBJECT
 10
3960.51700480005
 20
-217.87449798398211
 30
0.0
 40
12.0
 50
35.148769561176962
 51
115.8288295732624
1001
ACDBBLOCKREPETAG
1070
     1
1071
      259
1005
1351AC
  0
ARC
  5
1351AD
  8
OBJECT
 10
3965.2415463179791
 20
-217.63664646295089
 30
0.0
 40
8.0
 50
35.148769561176962
 51
115.8288292916689
1001
ACDBBLOCKREPETAG
1070
     1
1071
      260
1005
1351AD
  0
ARC
  5
1351AE
  8
OBJECT
 10
4000.0
 20
-199.99999999999909
 30
0.0
 40
90.0
 50
201.08359599996669
 51
248.9164040000301
1001
ACDBBLOCKREPETAG
1070
     1
1071
      268
1005
1351AE
  0
ARC
  5
1351AF
  8
OBJECT
 10
4000.0
 20
-199.99999999999909
 30
0.0
 40
90.0
 50
111.0835959999699
 51
158.9164034710258
1001
ACDBBLOCKREPETAG
1070
     1
1071
      269
1005
1351AF
  0
LINE
  5
1351B0
  8
OBJECT
 10
3916.0249094448668
 20
-167.62432755513231
 30
0.0
 11
3908.237046582261
 21
-175.4121904177382
 31
0.0
1001
ACDBBLOCKREPETAG
1070
     1
1071
      270
1005
1351B0
  0
LINE
  5
1351B1
  8
OBJECT
 10
3916.0249090000002
 20
-232.37567199999921
 30
0.0
 11
3908.2370469998132
 21
-224.58781114059909
 31
0.0
1001
ACDBBLOCKREPETAG
1070
     1
1071
      271
1005
1351B1
  0
ARC
  5
1351B2
  8
OBJECT
 10
4000.0
 20
-199.99999999999909
 30
0.0
 40
95.0
 50
164.99999981420299
 51
195.00000115869909
1001
ACDBBLOCKREPETAG
1070
     1
1071
      272
1005
1351B2
  0
ARC
  5
1351B3
  8
OBJECT
 10
4000.0
 20
-199.99999999999909
 30
0.0
 40
92.5
 50
287.80189678392043
 51
342.19810359941607
1001
ACDBBLOCKREPETAG
1070
     1
1071
        1
1005
1351B3
  0
ARC
  5
1351B4
  8
OBJECT
 10
4000.0
 20
-199.99999999999909
 30
0.0
 40
90.0
 50
291.08359599996987
 51
338.9164040000332
1001
ACDBBLOCKREPETAG
1070
     1
1071
        3
1005
1351B4
  0
CIRCLE
  5
1351B5
  8
OBJECT
 10
4000.0
 20
-199.99999999999909
 30
0.0
 40
80.0
1001
ACDBBLOCKREPETAG
1070
     1
1071
        4
1005
1351B5
  0
ARC
  5
1351B6
  8
OBJECT
 10
4000.0
 20
-199.99999999999909
 30
0.0
 40
90.0
 50
21.083596528974049
 51
68.916404000030013
1001
ACDBBLOCKREPETAG
1070
     1
1071
        5
1005
1351B6
  0
CIRCLE
  5
1351B7
  8
OBJECT
 10
4000.0
 20
-199.99999999999909
 30
0.0
 40
66.5
1001
ACDBBLOCKREPETAG
1070
     1
1071
        7
1005
1351B7
  0
LINE
  5
1351B8
  8
OBJECT
 10
4083.9750905551332
 20
-167.62432755513231
 30
0.0
 11
4091.762953417739
 21
-175.4121904177382
 31
0.0
1001
ACDBBLOCKREPETAG
1070
     1
1071
        8
1005
1351B8
  0
LINE
  5
1351B9
  8
OBJECT
 10
4083.9750910000012
 20
-232.37567199999921
 30
0.0
 11
4091.7629530001868
 21
-224.58781114059909
 31
0.0
1001
ACDBBLOCKREPETAG
1070
     1
1071
        9
1005
1351B9
  0
ARC
  5
1351BA
  8
OBJECT
 10
4000.0
 20
-199.99999999999909
 30
0.0
 40
95.0
 50
344.99999884130068
 51
15.000000185796971
1001
ACDBBLOCKREPETAG
1070
     1
1071
       10
1005
1351BA
  0
LINE
  5
1351BB
  8
OBJECT
 10
4032.3756729999982
 20
-283.9750909999994
 30
0.0
 11
4024.5878109482819
 21
-291.76295305171419
 31
0.0
1001
ACDBBLOCKREPETAG
1070
     1
1071
       11
1005
1351BB
  0
LINE
  5
1351BC
  8
OBJECT
 10
3967.624327999999
 20
-283.9750909999994
 30
0.0
 11
3975.4121904177409
 21
-291.76295341774039
 31
0.0
1001
ACDBBLOCKREPETAG
1070
     1
1071
       12
1005
1351BC
  0
ARC
  5
1351BD
  8
OBJECT
 10
4000.0
 20
-199.99999999999909
 30
0.0
 40
95.0
 50
254.999999814208
 51
285.0000010386097
1001
ACDBBLOCKREPETAG
1070
     1
1071
       13
1005
1351BD
  0
LINE
  5
1351BE
  8
OBJECT
 10
4032.3756729999982
 20
-116.0249099999992
 30
0.0
 11
4024.5878095822591
 21
-108.2370465822578
 31
0.0
1001
ACDBBLOCKREPETAG
1070
     1
1071
       14
1005
1351BE
  0
ARC
  5
1351BF
  8
OBJECT
 10
4000.0
 20
-199.99999999999909
 30
0.0
 40
95.0
 50
74.999999814207953
 51
104.9999993327599
1001
ACDBBLOCKREPETAG
1070
     1
1071
       15
1005
1351BF
  0
LINE
  5
1351C0
  8
OBJECT
 10
3967.624327999999
 20
-116.0249099999992
 30
0.0
 11
3975.412191783766
 21
-108.2370462162316
 31
0.0
1001
ACDBBLOCKREPETAG
1070
     1
1071
       16
1005
1351C0
  0
LINE
  5
1351C1
  8
OBJECT
 10
4055.1784370000009
 20
-162.884098999998
 30
0.0
 11
4032.534570109272
 21
-178.11554723457169
 31
0.0
1001
ACDBBLOCKREPETAG
1070
     1
1071
       17
1005
1351C1
  0
LINE
  5
1351C2
  8
OBJECT
 10
3944.8041210000019
 20
-162.88106899999821
 30
0.0
 11
4032.534570109272
 21
-178.11554723457169
 31
0.0
1001
ACDBBLOCKREPETAG
1070
     1
1071
       18
1005
1351C2
  0
ARC
  5
1351C3
  8
OBJECT
 10
4000.0
 20
-199.99999999999909
 30
0.0
 40
92.5
 50
197.80189544246551
 51
252.19810417430571
1001
ACDBBLOCKREPETAG
1070
     1
1071
       22
1005
1351C3
  0
ARC
  5
1351C4
  8
OBJECT
 10
4000.0
 20
-199.99999999999909
 30
0.0
 40
92.5
 50
107.80189486746769
 51
162.1981051326415
1001
ACDBBLOCKREPETAG
1070
     1
1071
       23
1005
1351C4
  0
ARC
  5
1351C5
  8
OBJECT
 10
4000.0
 20
-199.99999999999909
 30
0.0
 40
92.5
 50
17.80189582568811
 51
72.198104174305684
1001
ACDBBLOCKREPETAG
1070
     1
1071
       24
1005
1351C5
  0
ARC
  5
1351C6
  8
OBJECT
 10
4000.0
 20
-199.99999999999909
 30
0.0
 40
62.5
 50
144.42390307809791
 51
193.7174643727642
1001
ACDBBLOCKREPETAG
1070
     1
1071
       26
1005
1351C6
  0
ARC
  5
1351C7
  8
OBJECT
 10
4000.0
 20
-199.99999999999909
 30
0.0
 40
62.5
 50
262.64111297834887
 51
33.92683896333525
1001
ACDBBLOCKREPETAG
1070
     1
1071
       27
1005
1351C7
  0
LINE
  5
1351C8
  8
OBJECT
 10
4068.6458301719758
 20
-137.99999999999909
 30
0.0
 11
4100.0
 21
-137.99999999999909
 31
0.0
1001
ACDBBLOCKREPETAG
1070
     1
1071
       33
1005
1351C8
  0
LINE
  5
1351C9
  8
OBJECT
 10
4068.6458301719758
 20
-261.99999999999909
 30
0.0
 11
4100.0000000000036
 21
-261.99999999999909
 31
0.0
1001
ACDBBLOCKREPETAG
1070
     1
1071
       34
1005
1351C9
  0
LINE
  5
1351CA
  8
OBJECT
 10
4062.0
 20
-268.64583017197862
 30
0.0
 11
4062.0000000000032
 21
-299.99999999999898
 31
0.0
1001
ACDBBLOCKREPETAG
1070
     1
1071
       35
1005
1351CA
  0
LINE
  5
1351CB
  8
OBJECT
 10
3937.9999999999968
 20
-268.64583017197492
 30
0.0
 11
3938.0
 21
-299.99999999999898
 31
0.0
1001
ACDBBLOCKREPETAG
1070
     1
1071
       36
1005
1351CB
  0
LINE
  5
1351CC
  8
OBJECT
 10
3931.3541698280242
 20
-261.99999999999909
 30
0.0
 11
3899.9999999999968
 21
-261.99999999999909
 31
0.0
1001
ACDBBLOCKREPETAG
1070
     1
1071
       37
1005
1351CC
  0
LINE
  5
1351CD
  8
OBJECT
 10
3931.3541698280219
 20
-137.99999999999909
 30
0.0
 11
3899.9999999999968
 21
-137.99999999999909
 31
0.0
1001
ACDBBLOCKREPETAG
1070
     1
1071
       38
1005
1351CD
  0
ARC
  5
1351CE
  8
OBJECT
 10
4000.0
 20
-199.99999999999909
 30
0.0
 40
97.5
 50
39.48657743384517
 51
140.51342256615479
1001
ACDBBLOCKREPETAG
1070
     1
1071
       39
1005
1351CE
  0
ARC
  5
1351CF
  8
OBJECT
 10
4000.0
 20
-199.99999999999909
 30
0.0
 40
97.5
 50
219.48657743384521
 51
230.51342256616741
1001
ACDBBLOCKREPETAG
1070
     1
1071
       40
1005
1351CF
  0
ARC
  5
1351D0
  8
OBJECT
 10
4000.0
 20
-199.99999999999909
 30
0.0
 40
97.5
 50
309.48657743383143
 51
320.51342256615482
1001
ACDBBLOCKREPETAG
1070
     1
1071
       41
1005
1351D0
  0
LINE
  5
1351D1
  8
CENTER
 10
3900.0
 20
-199.99999999999909
 30
0.0
 11
4100.0
 21
-199.99999999999909
 31
0.0
1001
ACDBBLOCKREPETAG
1070
     1
1071
       42
1005
1351D1
  0
LINE
  5
1351D2
  8
CENTER
 10
4000.0
 20
-86.499999999999091
 30
0.0
 11
4000.0
 21
-299.99999999999898
 31
0.0
1001
ACDBBLOCKREPETAG
1070
     1
1071
       43
1005
1351D2
  0
POINT
  5
1351D3
  8
DOTS
 10
4000.0
 20
-199.99999999999909
 30
0.0
1001
ACDBBLOCKREPETAG
1070
     1
1071
      281
1005
1351D3
  0
LINE
  5
1351D4
  8
OBJECT
 10
4134.0
 20
-582.99999999999761
 30
0.0
 11
4134.0
 21
-580.99999999999761
 31
0.0
1001
ACDBBLOCKREPETAG
1070
     1
1071
      157
1005
1351D4
  0
ARC
  5
1351D5
  8
OBJECT
 10
4175.1865574982548
 20
-600.99999999999761
 30
0.0
 40
59.0
 50
229.20276883323919
 51
270.0
1001
ACDBBLOCKREPETAG
1070
     1
1071
      158
1005
1351D5
  0
LINE
  5
1351D6
  8
OBJECT
 10
4244.0
 20
-589.49999999999761
 30
0.0
 11
4109.0
 21
-589.49999999999761
 31
0.0
1001
ACDBBLOCKREPETAG
1070
     1
1071
      159
1005
1351D6
  0
LINE
  5
1351D7
  8
OBJECT
 10
4109.0
 20
-602.49999999999761
 30
0.0
 11
4244.0
 21
-602.49999999999761
 31
0.0
1001
ACDBBLOCKREPETAG
1070
     1
1071
      160
1005
1351D7
  0
LINE
  5
1351D8
  8
OBJECT
 10
4109.0
 20
-589.49999999999761
 30
0.0
 11
4109.0
 21
-602.49999999999761
 31
0.0
1001
ACDBBLOCKREPETAG
1070
     1
1071
      161
1005
1351D8
  0
LINE
  5
1351D9
  8
OBJECT
 10
4116.0
 20
-611.49999999999761
 30
0.0
 11
4116.0
 21
-602.49999999999761
 31
0.0
1001
ACDBBLOCKREPETAG
1070
     1
1071
      162
1005
1351D9
  0
LINE
  5
1351DA
  8
OBJECT
 10
4134.0
 20
-614.99999999999761
 30
0.0
 11
4134.0
 21
-602.49999999999761
 31
0.0
1001
ACDBBLOCKREPETAG
1070
     1
1071
      163
1005
1351DA
  0
LINE
  5
1351DB
  8
OBJECT
 10
4224.0
 20
-611.49999999999761
 30
0.0
 11
4224.0
 21
-602.49999999999761
 31
0.0
1001
ACDBBLOCKREPETAG
1070
     1
1071
      164
1005
1351DB
  0
LINE
  5
1351DC
  8
OBJECT
 10
4244.0
 20
-589.49999999999761
 30
0.0
 11
4244.0
 21
-602.49999999999761
 31
0.0
1001
ACDBBLOCKREPETAG
1070
     1
1071
      165
1005
1351DC
  0
LINE
  5
1351DD
  8
OBJECT
 10
4142.0
 20
-614.99999999999761
 30
0.0
 11
4142.0
 21
-602.49999999999761
 31
0.0
1001
ACDBBLOCKREPETAG
1070
     1
1071
      166
1005
1351DD
  0
LINE
  5
1351DE
  8
OBJECT
 10
4134.0
 20
-611.49999999999761
 30
0.0
 11
4115.0
 21
-611.49999999999761
 31
0.0
1001
ACDBBLOCKREPETAG
1070
     1
1071
      167
1005
1351DE
  0
LINE
  5
1351DF
  8
OBJECT
 10
4115.0
 20
-614.99999999999761
 30
0.0
 11
4115.0
 21
-611.49999999999761
 31
0.0
1001
ACDBBLOCKREPETAG
1070
     1
1071
      168
1005
1351DF
  0
LINE
  5
1351E0
  8
OBJECT
 10
4142.0
 20
-611.49999999999761
 30
0.0
 11
4225.0
 21
-611.49999999999761
 31
0.0
1001
ACDBBLOCKREPETAG
1070
     1
1071
      169
1005
1351E0
  0
LINE
  5
1351E1
  8
OBJECT
 10
4225.0
 20
-611.49999999999761
 30
0.0
 11
4225.0
 21
-614.99999999999761
 31
0.0
1001
ACDBBLOCKREPETAG
1070
     1
1071
      170
1005
1351E1
  0
LINE
  5
1351E2
  8
OBJECT
 10
4130.4944465005347
 20
-589.49999999999761
 30
0.0
 11
4130.4944465005347
 21
-582.99999999999761
 31
0.0
1001
ACDBBLOCKREPETAG
1070
     1
1071
      171
1005
1351E2
  0
LINE
  5
1351E3
  8
OBJECT
 10
4129.0
 20
-627.99999999999761
 30
0.0
 11
4129.0
 21
-632.99999999999761
 31
0.0
1001
ACDBBLOCKREPETAG
1070
     1
1071
      172
1005
1351E3
  0
LINE
  5
1351E4
  8
OBJECT
 10
4129.0
 20
-632.99999999999761
 30
0.0
 11
4147.0
 21
-632.99999999999761
 31
0.0
1001
ACDBBLOCKREPETAG
1070
     1
1071
      173
1005
1351E4
  0
LINE
  5
1351E5
  8
OBJECT
 10
4147.0
 20
-627.99999999999761
 30
0.0
 11
4147.0
 21
-632.99999999999761
 31
0.0
1001
ACDBBLOCKREPETAG
1070
     1
1071
      174
1005
1351E5
  0
LINE
  5
1351E6
  8
OBJECT
 10
4109.0000000000036
 20
-614.99999999999761
 30
0.0
 11
4244.0
 21
-614.99999999999761
 31
0.0
1001
ACDBBLOCKREPETAG
1070
     1
1071
      175
1005
1351E6
  0
LINE
  5
1351E7
  8
OBJECT
 10
4244.0
 20
-614.99999999999761
 30
0.0
 11
4244.0
 21
-627.99999999999761
 31
0.0
1001
ACDBBLOCKREPETAG
1070
     1
1071
      176
1005
1351E7
  0
LINE
  5
1351E8
  8
OBJECT
 10
4136.6369002447664
 20
-645.66457125774514
 30
0.0
 11
4116.1702980000009
 21
-627.99999999999761
 31
0.0
1001
ACDBBLOCKREPETAG
1070
     1
1071
      177
1005
1351E8
  0
LINE
  5
1351E9
  8
OBJECT
 10
4221.0000000000018
 20
-635.65708264965485
 30
0.0
 11
4221.0000000000018
 21
-659.99999999999761
 31
0.0
1001
ACDBBLOCKREPETAG
1070
     1
1071
      178
1005
1351E9
  0
LINE
  5
1351EA
  8
OBJECT
 10
4175.1865574982548
 20
-659.99999999999761
 30
0.0
 11
4221.0000000000018
 21
-659.99999999999761
 31
0.0
1001
ACDBBLOCKREPETAG
1070
     1
1071
      179
1005
1351EA
  0
ARC
  5
1351EB
  8
OBJECT
 10
4130.5
 20
-661.49999999999761
 30
0.0
 40
84.0
 50
277.05348487097029
 51
1.023193303671255
1001
ACDBBLOCKREPETAG
1070
     1
1071
      180
1005
1351EB
  0
LINE
  5
1351EC
  8
OBJECT
 10
4106.0
 20
-749.17200317020843
 30
0.0
 11
4140.8148488128809
 21
-744.86428428270153
 31
0.0
1001
ACDBBLOCKREPETAG
1070
     1
1071
      181
1005
1351EC
  0
LINE
  5
1351ED
  8
OBJECT
 10
4106.0000000000036
 20
-749.99999999999852
 30
0.0
 11
4106.0000000000036
 21
-628.99999999999761
 31
0.0
1001
ACDBBLOCKREPETAG
1070
     1
1071
      182
1005
1351ED
  0
ARC
  5
1351EE
  8
OBJECT
 10
4103.0000000000036
 20
-749.99999999999852
 30
0.0
 40
3.0
 50
270.0
 51
0.0
1001
ACDBBLOCKREPETAG
1070
     1
1071
      183
1005
1351EE
  0
LINE
  5
1351EF
  8
OBJECT
 10
4116.1702980000009
 20
-627.99999999999761
 30
0.0
 11
4244.0
 21
-627.99999999999761
 31
0.0
1001
ACDBBLOCKREPETAG
1070
     1
1071
      184
1005
1351EF
  0
LINE
  5
1351F0
  8
OBJECT
 10
4125.0539138517233
 20
-635.65708264965485
 30
0.0
 11
4221.0000000000018
 21
-635.65708264965485
 31
0.0
1001
ACDBBLOCKREPETAG
1070
     1
1071
      185
1005
1351F0
  0
LINE
  5
1351F1
  8
OBJECT
 10
4225.0
 20
-630.89006764214673
 30
0.0
 11
4221.0000000000018
 21
-635.65708264965485
 31
0.0
1001
ACDBBLOCKREPETAG
1070
     1
1071
      186
1005
1351F1
  0
LINE
  5
1351F2
  8
OBJECT
 10
4109.0000000000036
 20
-614.99999999999761
 30
0.0
 11
4109.0000000000073
 21
-628.99999999999761
 31
0.0
1001
ACDBBLOCKREPETAG
1070
     1
1071
      187
1005
1351F2
  0
LINE
  5
1351F3
  8
HIDDEN
 10
4125.5
 20
-654.9999999999975
 30
0.0
 11
4214.5
 21
-654.9999999999975
 31
0.0
1001
ACDBBLOCKREPETAG
1070
     1
1071
      188
1005
1351F3
  0
LINE
  5
1351F4
  8
OBJECT
 10
4134.0
 20
-580.99999999999761
 30
0.0
 11
4142.0
 21
-580.99999999999761
 31
0.0
1001
ACDBBLOCKREPETAG
1070
     1
1071
      189
1005
1351F4
  0
LINE
  5
1351F5
  8
OBJECT
 10
4142.0
 20
-582.99999999999761
 30
0.0
 11
4142.0
 21
-580.99999999999761
 31
0.0
1001
ACDBBLOCKREPETAG
1070
     1
1071
      190
1005
1351F5
  0
LINE
  5
1351F6
  8
OBJECT
 10
4130.4944465005347
 20
-582.99999999999761
 30
0.0
 11
4145.5055534994644
 21
-582.99999999999761
 31
0.0
1001
ACDBBLOCKREPETAG
1070
     1
1071
      191
1005
1351F6
  0
LINE
  5
1351F7
  8
CENTER
 10
4170.0
 20
-674.77158855533025
 30
0.0
 11
4170.0
 21
-574.49999999999761
 31
0.0
1001
ACDBBLOCKREPETAG
1070
     1
1071
      193
1005
1351F7
  0
LINE
  5
1351F8
  8
OBJECT
 10
4100.0
 20
-752.99999999999773
 30
0.0
 11
4103.0000000000036
 21
-752.99999999999852
 31
0.0
1001
ACDBBLOCKREPETAG
1070
     1
1071
      194
1005
1351F8
  0
LINE
  5
1351F9
  8
OBJECT
 10
4100.0
 20
-628.99999999999761
 30
0.0
 11
4109.0000000000073
 21
-628.99999999999761
 31
0.0
1001
ACDBBLOCKREPETAG
1070
     1
1071
      195
1005
1351F9
  0
LINE
  5
1351FA
  8
OBJECT
 10
4134.2471969783946
 20
-589.49998110540889
 30
0.0
 11
4134.2471969783946
 21
-582.99998110540901
 31
0.0
1001
ACDBBLOCKREPETAG
1070
     1
1071
      196
1005
1351FA
  0
LINE
  5
1351FB
  8
OBJECT
 10
4145.5055534994644
 20
-589.49999999999761
 30
0.0
 11
4145.5055534994644
 21
-582.99999999999761
 31
0.0
1001
ACDBBLOCKREPETAG
1070
     1
1071
      197
1005
1351FB
  0
LINE
  5
1351FC
  8
OBJECT
 10
4141.7528030216054
 20
-589.49998110540889
 30
0.0
 11
4141.7528030216054
 21
-582.99998110540901
 31
0.0
1001
ACDBBLOCKREPETAG
1070
     1
1071
      198
1005
1351FC
  0
LINE
  5
1351FD
  8
OBJECT
 10
4230.0
 20
-582.99999999999761
 30
0.0
 11
4230.0
 21
-580.99999999999761
 31
0.0
1001
ACDBBLOCKREPETAG
1070
     1
1071
      199
1005
1351FD
  0
LINE
  5
1351FE
  8
OBJECT
 10
4230.0
 20
-614.99999999999761
 30
0.0
 11
4230.0
 21
-602.49999999999761
 31
0.0
1001
ACDBBLOCKREPETAG
1070
     1
1071
      200
1005
1351FE
  0
LINE
  5
1351FF
  8
OBJECT
 10
4238.0
 20
-614.99999999999761
 30
0.0
 11
4238.0
 21
-602.49999999999761
 31
0.0
1001
ACDBBLOCKREPETAG
1070
     1
1071
      201
1005
1351FF
  0
LINE
  5
135200
  8
OBJECT
 10
4226.4944465005347
 20
-589.49999999999761
 30
0.0
 11
4226.4944465005347
 21
-582.99999999999761
 31
0.0
1001
ACDBBLOCKREPETAG
1070
     1
1071
      202
1005
135200
  0
LINE
  5
135201
  8
OBJECT
 10
4225.0
 20
-627.99999999999761
 30
0.0
 11
4225.0
 21
-632.99999999999761
 31
0.0
1001
ACDBBLOCKREPETAG
1070
     1
1071
      203
1005
135201
  0
LINE
  5
135202
  8
OBJECT
 10
4225.0
 20
-632.99999999999761
 30
0.0
 11
4243.0
 21
-632.99999999999761
 31
0.0
1001
ACDBBLOCKREPETAG
1070
     1
1071
      204
1005
135202
  0
LINE
  5
135203
  8
OBJECT
 10
4243.0
 20
-627.99999999999761
 30
0.0
 11
4243.0
 21
-632.99999999999761
 31
0.0
1001
ACDBBLOCKREPETAG
1070
     1
1071
      205
1005
135203
  0
LINE
  5
135204
  8
OBJECT
 10
4230.0
 20
-580.99999999999761
 30
0.0
 11
4238.0
 21
-580.99999999999761
 31
0.0
1001
ACDBBLOCKREPETAG
1070
     1
1071
      206
1005
135204
  0
LINE
  5
135205
  8
OBJECT
 10
4238.0
 20
-582.99999999999761
 30
0.0
 11
4238.0
 21
-580.99999999999761
 31
0.0
1001
ACDBBLOCKREPETAG
1070
     1
1071
      207
1005
135205
  0
LINE
  5
135206
  8
OBJECT
 10
4226.4944465005347
 20
-582.99999999999761
 30
0.0
 11
4241.5055534994644
 21
-582.99999999999761
 31
0.0
1001
ACDBBLOCKREPETAG
1070
     1
1071
      208
1005
135206
  0
LINE
  5
135207
  8
OBJECT
 10
4230.2471969783928
 20
-589.49998110540889
 30
0.0
 11
4230.2471969783928
 21
-582.99998110540901
 31
0.0
1001
ACDBBLOCKREPETAG
1070
     1
1071
      209
1005
135207
  0
LINE
  5
135208
  8
OBJECT
 10
4241.5055534994644
 20
-589.49999999999761
 30
0.0
 11
4241.5055534994644
 21
-582.99999999999761
 31
0.0
1001
ACDBBLOCKREPETAG
1070
     1
1071
      210
1005
135208
  0
LINE
  5
135209
  8
OBJECT
 10
4237.7528030216063
 20
-589.49998110540889
 30
0.0
 11
4237.7528030216063
 21
-582.99998110540901
 31
0.0
1001
ACDBBLOCKREPETAG
1070
     1
1071
      211
1005
135209
  0
LINE
  5
13520A
  8
CENTER
 10
4100.0
 20
-199.99999999999909
 30
0.0
 11
4259.0
 21
-199.99999999999909
 31
0.0
1001
ACDBBLOCKREPETAG
1070
     1
1071
      155
1005
13520A
  0
LINE
  5
13520B
  8
OBJECT
 10
4100.0
 20
-261.99999999999909
 30
0.0
 11
4103.0
 21
-261.99999999999909
 31
0.0
1001
ACDBBLOCKREPETAG
1070
     1
1071
      156
1005
13520B
  0
ARC
  5
13520C
  8
OBJECT
 10
4103.0
 20
-258.99999999999909
 30
0.0
 40
3.0
 50
270.0
 51
0.0
1001
ACDBBLOCKREPETAG
1070
     1
1071
      157
1005
13520C
  0
LINE
  5
13520D
  8
OBJECT
 10
4100.0
 20
-138.0000000000027
 30
0.0
 11
4103.0
 21
-138.0000000000027
 31
0.0
1001
ACDBBLOCKREPETAG
1070
     1
1071
      158
1005
13520D
  0
LINE
  5
13520E
  8
OBJECT
 10
4106.0
 20
-140.99999999999909
 30
0.0
 11
4128.6547275935327
 21
-140.9999999999954
 31
0.0
1001
ACDBBLOCKREPETAG
1070
     1
1071
      159
1005
13520E
  0
LINE
  5
13520F
  8
OBJECT
 10
4106.0
 20
-259.00000000000267
 30
0.0
 11
4128.6547275935327
 21
-258.99999999999909
 31
0.0
1001
ACDBBLOCKREPETAG
1070
     1
1071
      160
1005
13520F
  0
LINE
  5
135210
  8
CENTER
 10
4170.0
 20
-123.5195984073716
 30
0.0
 11
4170.0
 21
-276.48040159262649
 31
0.0
1001
ACDBBLOCKREPETAG
1070
     1
1071
      161
1005
135210
  0
LINE
  5
135211
  8
OBJECT
 10
4106.0
 20
-141.0000000000027
 30
0.0
 11
4106.0
 21
-258.99999999999909
 31
0.0
1001
ACDBBLOCKREPETAG
1070
     1
1071
      162
1005
135211
  0
ARC
  5
135212
  8
OBJECT
 10
4103.0
 20
-141.0000000000027
 30
0.0
 40
3.0
 50
0.0
 51
90.0
1001
ACDBBLOCKREPETAG
1070
     1
1071
      163
1005
135212
  0
ARC
  5
135213
  8
OBJECT
 10
4170.0
 20
-199.99999999999909
 30
0.0
 40
61.0
 50
37.167285461274467
 51
82.832714538705744
1001
ACDBBLOCKREPETAG
1070
     1
1071
      165
1005
135213
  0
ARC
  5
135214
  8
OBJECT
 10
4170.0
 20
-199.99999999999909
 30
0.0
 40
61.0
 50
157.16728546127851
 51
202.83271453872149
1001
ACDBBLOCKREPETAG
1070
     1
1071
      166
1005
135214
  0
ARC
  5
135215
  8
OBJECT
 10
4170.0
 20
-199.99999999999909
 30
0.0
 40
61.0
 50
277.16728546129423
 51
322.83271453872419
1001
ACDBBLOCKREPETAG
1070
     1
1071
      167
1005
135215
  0
CIRCLE
  5
135216
  8
SLIM
 10
4234.0
 20
-199.99999999999909
 30
0.0
 40
4.0
1001
ACDBBLOCKREPETAG
1070
     1
1071
      168
1005
135216
  0
ARC
  5
135217
  8
OBJECT
 10
4234.0
 20
-199.99999999999909
 30
0.0
 40
10.0
 50
322.83271453872419
 51
37.167285461274467
1001
ACDBBLOCKREPETAG
1070
     1
1071
      169
1005
135217
  0
LINE
  5
135218
  8
OBJECT
 10
4218.6093749999973
 20
-163.14720279124501
 30
0.0
 11
4241.96875
 21
-193.9585578346296
 31
0.0
1001
ACDBBLOCKREPETAG
1070
     1
1071
      170
1005
135218
  0
LINE
  5
135219
  8
OBJECT
 10
4218.6093749999973
 20
-236.8527972087532
 30
0.0
 11
4241.96875
 21
-206.04144216536861
 31
0.0
1001
ACDBBLOCKREPETAG
1070
     1
1071
      171
1005
135219
  0
CIRCLE
  5
13521A
  8
SLIM
 10
4138.0
 20
-144.5743741577962
 30
0.0
 40
3.9999999999999991
1001
ACDBBLOCKREPETAG
1070
     1
1071
      172
1005
13521A
  0
ARC
  5
13521B
  8
OBJECT
 10
4138.0
 20
-144.5743741577962
 30
0.0
 40
9.9999999999999982
 50
82.832714538705744
 51
157.16728546127851
1001
ACDBBLOCKREPETAG
1070
     1
1071
      173
1005
13521B
  0
LINE
  5
13521C
  8
OBJECT
 10
4113.7798539167043
 20
-176.32944499229319
 30
0.0
 11
4128.783582609296
 21
-140.6939553040711
 31
0.0
1001
ACDBBLOCKREPETAG
1070
     1
1071
      174
1005
13521C
  0
LINE
  5
13521D
  8
OBJECT
 10
4177.6107710832994
 20
-139.47664778353919
 30
0.0
 11
4139.247667390704
 21
-134.65251313870161
 31
0.0
1001
ACDBBLOCKREPETAG
1070
     1
1071
      175
1005
13521D
  0
CIRCLE
  5
13521E
  8
SLIM
 10
4138.0
 20
-255.4256258422019
 30
0.0
 40
4.0
1001
ACDBBLOCKREPETAG
1070
     1
1071
      176
1005
13521E
  0
ARC
  5
13521F
  8
OBJECT
 10
4138.0
 20
-255.4256258422019
 30
0.0
 40
10.0
 50
202.83271453872149
 51
277.16728546129423
1001
ACDBBLOCKREPETAG
1070
     1
1071
      177
1005
13521F
  0
LINE
  5
135220
  8
OBJECT
 10
4177.6107710832994
 20
-260.52335221645899
 30
0.0
 11
4139.247667390704
 21
-265.3474868612966
 31
0.0
1001
ACDBBLOCKREPETAG
1070
     1
1071
      178
1005
135220
  0
LINE
  5
135221
  8
OBJECT
 10
4113.7798539167043
 20
-223.67055500770491
 30
0.0
 11
4128.783582609296
 21
-259.30604469592708
 31
0.0
1001
ACDBBLOCKREPETAG
1070
     1
1071
      179
1005
135221
  0
CIRCLE
  5
135222
  8
OBJECT
 10
4170.0
 20
-199.99999999999909
 30
0.0
 40
46.0
1001
ACDBBLOCKREPETAG
1070
     1
1071
      180
1005
135222
  0
POLYLINE
  5
135223
  8
SLIM
 66
     1
 10
0.0
 20
0.0
 30
0.0
 70
     1
1001
ACDBBLOCKREPETAG
1070
     1
1071
      181
1005
135223
  0
VERTEX
  5
135699
  8
SLIM
 10
4230.2472232502651
 20
-193.49999999999909
 30
0.0
  0
VERTEX
  5
13569A
  8
SLIM
 10
4226.4944465005347
 20
-199.99999999999909
 30
0.0
  0
VERTEX
  5
13569B
  8
SLIM
 10
4230.2472232502651
 20
-206.49999999999909
 30
0.0
  0
VERTEX
  5
13569C
  8
SLIM
 10
4237.752776749734
 20
-206.49999999999909
 30
0.0
  0
VERTEX
  5
13569D
  8
SLIM
 10
4241.5055534994644
 20
-199.99999999999909
 30
0.0
  0
VERTEX
  5
13569E
  8
SLIM
 10
4237.752776749734
 20
-193.49999999999909
 30
0.0
  0
SEQEND
  5
13569F
  8
SLIM
  0
POLYLINE
  5
135224
  8
SLIM
 66
     1
 10
0.0
 20
0.0
 30
0.0
 70
     1
1001
ACDBBLOCKREPETAG
1070
     1
1071
      182
1005
135224
  0
VERTEX
  5
1356A0
  8
SLIM
 10
4134.2472232502687
 20
-151.0743741577962
 30
0.0
  0
VERTEX
  5
1356A1
  8
SLIM
 10
4141.752776749734
 20
-151.0743741577962
 30
0.0
  0
VERTEX
  5
1356A2
  8
SLIM
 10
4145.5055534994644
 20
-144.5743741577962
 30
0.0
  0
VERTEX
  5
1356A3
  8
SLIM
 10
4141.7527767497286
 20
-138.07437415779259
 30
0.0
  0
VERTEX
  5
1356A4
  8
SLIM
 10
4134.2472232502687
 20
-138.0743741577962
 30
0.0
  0
VERTEX
  5
1356A5
  8
SLIM
 10
4130.4944465005347
 20
-144.57437415779259
 30
0.0
  0
SEQEND
  5
1356A6
  8
SLIM
  0
POLYLINE
  5
135225
  8
SLIM
 66
     1
 10
0.0
 20
0.0
 30
0.0
 70
     1
1001
ACDBBLOCKREPETAG
1070
     1
1071
      183
1005
135225
  0
VERTEX
  5
1356A7
  8
SLIM
 10
4145.5055534994644
 20
-255.4256258422019
 30
0.0
  0
VERTEX
  5
1356A8
  8
SLIM
 10
4141.7527767497286
 20
-248.9256258422019
 30
0.0
  0
VERTEX
  5
1356A9
  8
SLIM
 10
4134.2472232502687
 20
-248.9256258422019
 30
0.0
  0
VERTEX
  5
1356AA
  8
SLIM
 10
4130.4944465005347
 20
-255.42562584220559
 30
0.0
  0
VERTEX
  5
1356AB
  8
SLIM
 10
4134.2472232502651
 20
-261.9256258422019
 30
0.0
  0
VERTEX
  5
1356AC
  8
SLIM
 10
4141.7527767497286
 20
-261.92562584220559
 30
0.0
  0
SEQEND
  5
1356AD
  8
SLIM
  0
TEXT
  5
135226
  8
SLIM
 10
5824.6000000000004
 20
-1589.0000000000009
 30
0.0
 40
28.0
  1
※ 対応スラブ厚　180～405
 41
0.75
  0
TEXT
  5
135227
  8
SLIM
 10
5598.8999999999996
 20
-1682.3333333333339
 30
0.0
 40
28.0
  1
国土交通大臣認定・（一財）日本消防設備安全センター性能評定取得品
 41
0.75
  0
TEXT
  5
135228
  8
SLIM
 10
5631.1000000000004
 20
-1729.0
 30
0.0
 40
28.0
  1
注）ご採用にあたり、認定書及び評定書の内容をご確認ください。
 41
0.75
  0
LINE
  5
135229
  8
SLIM
 10
7897.5000000000928
 20
-766.05282860997045
 30
0.0
 11
7913.5528286100662
 21
-749.99999999999773
 31
0.0
1001
ACAD
1010
0.0
1020
0.0
1030
0.0
  0
LINE
  5
13522A
  8
SLIM
 10
7897.5000000000928
 20
-784.01334085210874
 30
0.0
 11
7931.5133408522042
 21
-749.99999999999773
 31
0.0
1001
ACAD
1010
0.0
1020
0.0
1030
0.0
  0
LINE
  5
13522B
  8
SLIM
 10
7897.5000000000928
 20
-801.97385309424703
 30
0.0
 11
7949.4738530943423
 21
-749.99999999999773
 31
0.0
1001
ACAD
1010
0.0
1020
0.0
1030
0.0
  0
LINE
  5
13522C
  8
SLIM
 10
7897.5000000000928
 20
-819.93436533638555
 30
0.0
 11
7967.4343653364804
 21
-749.99999999999773
 31
0.0
1001
ACAD
1010
0.0
1020
0.0
1030
0.0
  0
LINE
  5
13522D
  8
SLIM
 10
7897.5000000000928
 20
-837.89487757852385
 30
0.0
 11
7985.3948775786184
 21
-749.99999999999773
 31
0.0
1001
ACAD
1010
0.0
1020
0.0
1030
0.0
  0
LINE
  5
13522E
  8
SLIM
 10
7897.5000000000928
 20
-855.85538982066203
 30
0.0
 11
8003.3553898207574
 21
-749.99999999999773
 31
0.0
1001
ACAD
1010
0.0
1020
0.0
1030
0.0
  0
LINE
  5
13522F
  8
SLIM
 10
7897.5000000000928
 20
-873.81590206280032
 30
0.0
 11
8021.3159020628946
 21
-749.99999999999773
 31
0.0
1001
ACAD
1010
0.0
1020
0.0
1030
0.0
  0
LINE
  5
135230
  8
SLIM
 10
7897.5000000000928
 20
-891.7764143049385
 30
0.0
 11
8039.2764143050317
 21
-749.99999999999773
 31
0.0
1001
ACAD
1010
0.0
1020
0.0
1030
0.0
  0
LINE
  5
135231
  8
SLIM
 10
7897.5000000000928
 20
-909.73692654707668
 30
0.0
 11
8057.2369265471707
 21
-749.99999999999773
 31
0.0
1001
ACAD
1010
0.0
1020
0.0
1030
0.0
  0
LINE
  5
135232
  8
SLIM
 10
7897.5000000000928
 20
-927.69743878921508
 30
0.0
 11
8075.1974387893106
 21
-749.99999999999773
 31
0.0
1001
ACAD
1010
0.0
1020
0.0
1030
0.0
  0
LINE
  5
135233
  8
SLIM
 10
7897.5000000000928
 20
-945.6579510313536
 30
0.0
 11
8093.1579510314468
 21
-749.99999999999773
 31
0.0
1001
ACAD
1010
0.0
1020
0.0
1030
0.0
  0
LINE
  5
135234
  8
SLIM
 10
7897.5000000000928
 20
-963.61846327349156
 30
0.0
 11
8102.4999999999063
 21
-758.61846327367755
 31
0.0
1001
ACAD
1010
0.0
1020
0.0
1030
0.0
  0
LINE
  5
135235
  8
SLIM
 10
7897.5000000000928
 20
-981.57897551563019
 30
0.0
 11
8102.4999999999063
 21
-776.57897551581561
 31
0.0
1001
ACAD
1010
0.0
1020
0.0
1030
0.0
  0
LINE
  5
135236
  8
SLIM
 10
7898.5898389662798
 20
-998.44964879158101
 30
0.0
 11
8102.4999999999063
 21
-794.53948775795391
 31
0.0
1001
ACAD
1010
0.0
1020
0.0
1030
0.0
  0
LINE
  5
135237
  8
SLIM
 10
7900.8041486947632
 20
-1014.1958513052371
 30
0.0
 11
8102.4999999999063
 21
-812.50000000009231
 31
0.0
1001
ACAD
1010
0.0
1020
0.0
1030
0.0
  0
LINE
  5
135238
  8
SLIM
 10
7903.0184584232438
 20
-1029.942053818892
 30
0.0
 11
8102.4999999999063
 21
-830.46051224223049
 31
0.0
1001
ACAD
1010
0.0
1020
0.0
1030
0.0
  0
LINE
  5
135239
  8
SLIM
 10
7905.2327681517281
 20
-1045.688256332548
 30
0.0
 11
8102.4999999999063
 21
-848.4210244843689
 31
0.0
1001
ACAD
1010
0.0
1020
0.0
1030
0.0
  0
LINE
  5
13523A
  8
SLIM
 10
7907.4470778802124
 20
-1061.4344588462029
 30
0.0
 11
8102.4999999999063
 21
-866.38153672650731
 31
0.0
1001
ACAD
1010
0.0
1020
0.0
1030
0.0
  0
LINE
  5
13523B
  8
SLIM
 10
7909.6613876086958
 20
-1077.180661359858
 30
0.0
 11
8102.4999999999063
 21
-884.3420489686456
 31
0.0
1001
ACAD
1010
0.0
1020
0.0
1030
0.0
  0
LINE
  5
13523C
  8
SLIM
 10
7911.8756973371737
 20
-1092.9268638735141
 30
0.0
 11
8102.4999999999063
 21
-902.30256121078355
 31
0.0
1001
ACAD
1010
0.0
1020
0.0
1030
0.0
  0
LINE
  5
13523D
  8
SLIM
 10
7914.0900070656589
 20
-1108.6730663871699
 30
0.0
 11
8102.4999999999063
 21
-920.26307345292196
 31
0.0
1001
ACAD
1010
0.0
1020
0.0
1030
0.0
  0
LINE
  5
13523E
  8
SLIM
 10
7916.3043167941414
 20
-1124.419268900825
 30
0.0
 11
8102.4999999999063
 21
-938.22358569506036
 31
0.0
1001
ACAD
1010
0.0
1020
0.0
1030
0.0
  0
LINE
  5
13523F
  8
SLIM
 10
7918.5186265226248
 20
-1140.1654714144811
 30
0.0
 11
8102.4999999999063
 21
-956.18409793719877
 31
0.0
1001
ACAD
1010
0.0
1020
0.0
1030
0.0
  0
LINE
  5
135240
  8
SLIM
 10
7920.0
 20
-1156.644610179244
 30
0.0
 11
8102.4999999999063
 21
-974.14461017933684
 31
0.0
1001
ACAD
1010
0.0
1020
0.0
1030
0.0
  0
LINE
  5
135241
  8
SLIM
 10
7929.6051224213852
 20
-1164.999999999998
 30
0.0
 11
8102.2700189725447
 21
-992.33510344883939
 31
0.0
1001
ACAD
1010
0.0
1020
0.0
1030
0.0
  0
LINE
  5
135242
  8
SLIM
 10
7930.0
 20
-1182.565634663521
 30
0.0
 11
7947.5656346635233
 21
-1164.999999999998
 31
0.0
1001
ACAD
1010
0.0
1020
0.0
1030
0.0
  0
LINE
  5
135243
  8
SLIM
 10
7947.5656346635233
 20
-1164.999999999998
 30
0.0
 11
8099.3310260601947
 21
-1013.234608603328
 31
0.0
1001
ACAD
1010
0.0
1020
0.0
1030
0.0
  0
LINE
  5
135244
  8
SLIM
 10
7940.5261469056613
 20
-1189.999999999997
 30
0.0
 11
7965.5261469056613
 21
-1164.999999999998
 31
0.0
1001
ACAD
1010
0.0
1020
0.0
1030
0.0
  0
LINE
  5
135245
  8
SLIM
 10
7965.5261469056613
 20
-1164.999999999998
 30
0.0
 11
8096.392033147843
 21
-1034.1341137578161
 31
0.0
1001
ACAD
1010
0.0
1020
0.0
1030
0.0
  0
LINE
  5
135246
  8
SLIM
 10
7958.4866591477976
 20
-1189.999999999997
 30
0.0
 11
7983.4866591477967
 21
-1164.999999999998
 31
0.0
1001
ACAD
1010
0.0
1020
0.0
1030
0.0
  0
LINE
  5
135247
  8
SLIM
 10
7983.4866591477967
 20
-1164.999999999998
 30
0.0
 11
8093.4530402354931
 21
-1055.0336189123041
 31
0.0
1001
ACAD
1010
0.0
1020
0.0
1030
0.0
  0
LINE
  5
135248
  8
SLIM
 10
7976.4471713899384
 20
-1189.999999999997
 30
0.0
 11
8001.4471713899393
 21
-1164.999999999998
 31
0.0
1001
ACAD
1010
0.0
1020
0.0
1030
0.0
  0
LINE
  5
135249
  8
SLIM
 10
8001.4471713899393
 20
-1164.999999999998
 30
0.0
 11
8090.5140473231431
 21
-1075.9331240667921
 31
0.0
1001
ACAD
1010
0.0
1020
0.0
1030
0.0
  0
LINE
  5
13524A
  8
SLIM
 10
7994.4076836320764
 20
-1189.999999999997
 30
0.0
 11
8019.4076836320764
 21
-1164.999999999998
 31
0.0
1001
ACAD
1010
0.0
1020
0.0
1030
0.0
  0
LINE
  5
13524B
  8
SLIM
 10
8019.4076836320764
 20
-1164.999999999998
 30
0.0
 11
8087.5750544107932
 21
-1096.8326292212801
 31
0.0
1001
ACAD
1010
0.0
1020
0.0
1030
0.0
  0
LINE
  5
13524C
  8
SLIM
 10
8012.3681958742154
 20
-1189.999999999997
 30
0.0
 11
8037.3681958742127
 21
-1164.999999999998
 31
0.0
1001
ACAD
1010
0.0
1020
0.0
1030
0.0
  0
LINE
  5
13524D
  8
SLIM
 10
8037.3681958742127
 20
-1164.999999999998
 30
0.0
 11
8084.6360614984433
 21
-1117.732134375769
 31
0.0
1001
ACAD
1010
0.0
1020
0.0
1030
0.0
  0
LINE
  5
13524E
  8
SLIM
 10
8030.3287081163526
 20
-1189.999999999997
 30
0.0
 11
8055.3287081163544
 21
-1164.999999999998
 31
0.0
1001
ACAD
1010
0.0
1020
0.0
1030
0.0
  0
LINE
  5
13524F
  8
SLIM
 10
8055.3287081163544
 20
-1164.999999999998
 30
0.0
 11
8081.6970685860933
 21
-1138.631639530257
 31
0.0
1001
ACAD
1010
0.0
1020
0.0
1030
0.0
  0
LINE
  5
135250
  8
SLIM
 10
8048.2892203584888
 20
-1189.999999999997
 30
0.0
 11
8070.0
 21
-1168.289220358489
 31
0.0
1001
ACAD
1010
0.0
1020
0.0
1030
0.0
  0
LINE
  5
135251
  8
SLIM
 10
8073.2892203584888
 20
-1164.999999999998
 30
0.0
 11
8080.0
 21
-1158.289220358489
 31
0.0
1001
ACAD
1010
0.0
1020
0.0
1030
0.0
  0
LINE
  5
135252
  8
SLIM
 10
8066.2497326006278
 20
-1189.999999999997
 30
0.0
 11
8070.0
 21
-1186.2497326006271
 31
0.0
1001
ACAD
1010
0.0
1020
0.0
1030
0.0
  0
LINE
  5
135253
  8
OBJECT
 10
7897.5000000000928
 20
-749.99999999999773
 30
0.0
 11
8102.4999999999063
 21
-749.99999999999773
 31
0.0
  0
LINE
  5
135254
  8
OBJECT
 10
8102.4999999999063
 20
-749.99999999999773
 30
0.0
 11
8102.4999999999063
 21
-990.69968280980572
 31
0.0
  0
LINE
  5
135255
  8
OBJECT
 10
8102.4999999999063
 20
-990.69968280980572
 30
0.0
 11
8080.0
 21
-1150.699682809146
 31
0.0
  0
LINE
  5
135256
  8
OBJECT
 10
8080.0
 20
-1150.699682809146
 30
0.0
 11
8080.0
 21
-1164.999999999998
 31
0.0
  0
LINE
  5
135257
  8
OBJECT
 10
8080.0
 20
-1164.999999999998
 30
0.0
 11
7920.0
 21
-1164.999999999998
 31
0.0
  0
LINE
  5
135258
  8
OBJECT
 10
7920.0
 20
-1164.999999999998
 30
0.0
 11
7920.0
 21
-1150.699682809146
 31
0.0
  0
LINE
  5
135259
  8
OBJECT
 10
7920.0
 20
-1150.699682809146
 30
0.0
 11
7897.5000000000928
 21
-990.69968280980572
 31
0.0
  0
LINE
  5
13525A
  8
OBJECT
 10
7897.5000000000928
 20
-990.69968280980572
 30
0.0
 11
7897.5000000000928
 21
-749.99999999999773
 31
0.0
  0
LINE
  5
13525B
  8
OBJECT
 10
7930.0
 20
-1164.999999999998
 30
0.0
 11
7930.0
 21
-1189.999999999997
 31
0.0
  0
LINE
  5
13525C
  8
OBJECT
 10
7930.0
 20
-1189.999999999997
 30
0.0
 11
8070.0
 21
-1189.999999999997
 31
0.0
  0
LINE
  5
13525D
  8
OBJECT
 10
8070.0
 20
-1189.999999999997
 30
0.0
 11
8070.0
 21
-1164.999999999998
 31
0.0
  0
LINE
  5
13525E
  8
SLIM
 10
5897.5000000000928
 20
-766.05282860997045
 30
0.0
 11
5913.5528286100653
 21
-749.99999999999773
 31
0.0
1001
ACAD
1010
0.0
1020
0.0
1030
0.0
  0
LINE
  5
13525F
  8
SLIM
 10
5897.5000000000928
 20
-784.01334085210874
 30
0.0
 11
5931.5133408522042
 21
-749.99999999999773
 31
0.0
1001
ACAD
1010
0.0
1020
0.0
1030
0.0
  0
LINE
  5
135260
  8
SLIM
 10
5897.5000000000928
 20
-801.97385309424703
 30
0.0
 11
5949.4738530943423
 21
-749.99999999999773
 31
0.0
1001
ACAD
1010
0.0
1020
0.0
1030
0.0
  0
LINE
  5
135261
  8
SLIM
 10
5897.5000000000928
 20
-819.93436533638555
 30
0.0
 11
5967.4343653364804
 21
-749.99999999999773
 31
0.0
1001
ACAD
1010
0.0
1020
0.0
1030
0.0
  0
LINE
  5
135262
  8
SLIM
 10
5897.5000000000928
 20
-837.89487757852385
 30
0.0
 11
5985.3948775786184
 21
-749.99999999999773
 31
0.0
1001
ACAD
1010
0.0
1020
0.0
1030
0.0
  0
LINE
  5
135263
  8
SLIM
 10
5897.5000000000928
 20
-855.85538982066203
 30
0.0
 11
6003.3553898207574
 21
-749.99999999999773
 31
0.0
1001
ACAD
1010
0.0
1020
0.0
1030
0.0
  0
LINE
  5
135264
  8
SLIM
 10
5897.5000000000928
 20
-873.81590206280032
 30
0.0
 11
6021.3159020628946
 21
-749.99999999999773
 31
0.0
1001
ACAD
1010
0.0
1020
0.0
1030
0.0
  0
LINE
  5
135265
  8
SLIM
 10
5897.5000000000928
 20
-891.7764143049385
 30
0.0
 11
6039.2764143050326
 21
-749.99999999999773
 31
0.0
1001
ACAD
1010
0.0
1020
0.0
1030
0.0
  0
LINE
  5
135266
  8
SLIM
 10
5897.5000000000928
 20
-909.73692654707668
 30
0.0
 11
6057.2369265471707
 21
-749.99999999999773
 31
0.0
1001
ACAD
1010
0.0
1020
0.0
1030
0.0
  0
LINE
  5
135267
  8
SLIM
 10
5897.5000000000928
 20
-927.69743878921508
 30
0.0
 11
6075.1974387893097
 21
-749.99999999999773
 31
0.0
1001
ACAD
1010
0.0
1020
0.0
1030
0.0
  0
LINE
  5
135268
  8
SLIM
 10
5897.5000000000928
 20
-945.6579510313536
 30
0.0
 11
6093.1579510314468
 21
-749.99999999999773
 31
0.0
1001
ACAD
1010
0.0
1020
0.0
1030
0.0
  0
LINE
  5
135269
  8
SLIM
 10
5897.5000000000928
 20
-963.61846327349156
 30
0.0
 11
6102.4999999999072
 21
-758.61846327367755
 31
0.0
1001
ACAD
1010
0.0
1020
0.0
1030
0.0
  0
LINE
  5
13526A
  8
SLIM
 10
5897.5000000000928
 20
-981.57897551563019
 30
0.0
 11
6102.4999999999072
 21
-776.57897551581561
 31
0.0
1001
ACAD
1010
0.0
1020
0.0
1030
0.0
  0
LINE
  5
13526B
  8
SLIM
 10
5898.5898389662798
 20
-998.44964879158101
 30
0.0
 11
6102.4999999999072
 21
-794.53948775795391
 31
0.0
1001
ACAD
1010
0.0
1020
0.0
1030
0.0
  0
LINE
  5
13526C
  8
SLIM
 10
5900.8041486947632
 20
-1014.1958513052371
 30
0.0
 11
6102.4999999999072
 21
-812.50000000009231
 31
0.0
1001
ACAD
1010
0.0
1020
0.0
1030
0.0
  0
LINE
  5
13526D
  8
SLIM
 10
5903.0184584232456
 20
-1029.942053818892
 30
0.0
 11
6102.4999999999072
 21
-830.46051224223049
 31
0.0
1001
ACAD
1010
0.0
1020
0.0
1030
0.0
  0
LINE
  5
13526E
  8
SLIM
 10
5905.2327681517281
 20
-1045.688256332548
 30
0.0
 11
6102.4999999999072
 21
-848.4210244843689
 31
0.0
1001
ACAD
1010
0.0
1020
0.0
1030
0.0
  0
LINE
  5
13526F
  8
SLIM
 10
5907.4470778802097
 20
-1061.4344588462029
 30
0.0
 11
6102.4999999999072
 21
-866.38153672650731
 31
0.0
1001
ACAD
1010
0.0
1020
0.0
1030
0.0
  0
LINE
  5
135270
  8
SLIM
 10
5909.661387608694
 20
-1077.180661359858
 30
0.0
 11
6102.4999999999072
 21
-884.3420489686456
 31
0.0
1001
ACAD
1010
0.0
1020
0.0
1030
0.0
  0
LINE
  5
135271
  8
SLIM
 10
5911.8756973371756
 20
-1092.9268638735141
 30
0.0
 11
6102.4999999999072
 21
-902.30256121078355
 31
0.0
1001
ACAD
1010
0.0
1020
0.0
1030
0.0
  0
LINE
  5
135272
  8
SLIM
 10
5914.0900070656589
 20
-1108.6730663871699
 30
0.0
 11
6102.4999999999072
 21
-920.26307345292196
 31
0.0
1001
ACAD
1010
0.0
1020
0.0
1030
0.0
  0
LINE
  5
135273
  8
SLIM
 10
5916.3043167941432
 20
-1124.419268900825
 30
0.0
 11
6102.4999999999072
 21
-938.22358569506036
 31
0.0
1001
ACAD
1010
0.0
1020
0.0
1030
0.0
  0
LINE
  5
135274
  8
SLIM
 10
5918.5186265226248
 20
-1140.1654714144811
 30
0.0
 11
6102.4999999999072
 21
-956.18409793719877
 31
0.0
1001
ACAD
1010
0.0
1020
0.0
1030
0.0
  0
LINE
  5
135275
  8
SLIM
 10
5920.0
 20
-1156.644610179244
 30
0.0
 11
6102.4999999999072
 21
-974.14461017933684
 31
0.0
1001
ACAD
1010
0.0
1020
0.0
1030
0.0
  0
LINE
  5
135276
  8
SLIM
 10
5929.6051224213852
 20
-1164.999999999998
 30
0.0
 11
6102.2700189725429
 21
-992.33510344883939
 31
0.0
1001
ACAD
1010
0.0
1020
0.0
1030
0.0
  0
LINE
  5
135277
  8
SLIM
 10
5930.0
 20
-1182.565634663521
 30
0.0
 11
5947.5656346635233
 21
-1164.999999999998
 31
0.0
1001
ACAD
1010
0.0
1020
0.0
1030
0.0
  0
LINE
  5
135278
  8
SLIM
 10
5947.5656346635233
 20
-1164.999999999998
 30
0.0
 11
6099.3310260601929
 21
-1013.234608603328
 31
0.0
1001
ACAD
1010
0.0
1020
0.0
1030
0.0
  0
LINE
  5
135279
  8
SLIM
 10
5940.5261469056613
 20
-1189.999999999997
 30
0.0
 11
5965.5261469056604
 21
-1164.999999999998
 31
0.0
1001
ACAD
1010
0.0
1020
0.0
1030
0.0
  0
LINE
  5
13527A
  8
SLIM
 10
5965.5261469056604
 20
-1164.999999999998
 30
0.0
 11
6096.392033147843
 21
-1034.1341137578161
 31
0.0
1001
ACAD
1010
0.0
1020
0.0
1030
0.0
  0
LINE
  5
13527B
  8
SLIM
 10
5958.4866591478003
 20
-1189.999999999997
 30
0.0
 11
5983.4866591478003
 21
-1164.999999999998
 31
0.0
1001
ACAD
1010
0.0
1020
0.0
1030
0.0
  0
LINE
  5
13527C
  8
SLIM
 10
5983.4866591478003
 20
-1164.999999999998
 30
0.0
 11
6093.4530402354931
 21
-1055.0336189123041
 31
0.0
1001
ACAD
1010
0.0
1020
0.0
1030
0.0
  0
LINE
  5
13527D
  8
SLIM
 10
5976.4471713899384
 20
-1189.999999999997
 30
0.0
 11
6001.4471713899366
 21
-1164.999999999998
 31
0.0
1001
ACAD
1010
0.0
1020
0.0
1030
0.0
  0
LINE
  5
13527E
  8
SLIM
 10
6001.4471713899366
 20
-1164.999999999998
 30
0.0
 11
6090.5140473231431
 21
-1075.9331240667921
 31
0.0
1001
ACAD
1010
0.0
1020
0.0
1030
0.0
  0
LINE
  5
13527F
  8
SLIM
 10
5994.4076836320764
 20
-1189.999999999997
 30
0.0
 11
6019.4076836320774
 21
-1164.999999999998
 31
0.0
1001
ACAD
1010
0.0
1020
0.0
1030
0.0
  0
LINE
  5
135280
  8
SLIM
 10
6019.4076836320774
 20
-1164.999999999998
 30
0.0
 11
6087.5750544107932
 21
-1096.8326292212801
 31
0.0
1001
ACAD
1010
0.0
1020
0.0
1030
0.0
  0
LINE
  5
135281
  8
SLIM
 10
6012.3681958742163
 20
-1189.999999999997
 30
0.0
 11
6037.3681958742172
 21
-1164.999999999998
 31
0.0
1001
ACAD
1010
0.0
1020
0.0
1030
0.0
  0
LINE
  5
135282
  8
SLIM
 10
6037.3681958742172
 20
-1164.999999999998
 30
0.0
 11
6084.6360614984433
 21
-1117.732134375769
 31
0.0
1001
ACAD
1010
0.0
1020
0.0
1030
0.0
  0
LINE
  5
135283
  8
SLIM
 10
6030.3287081163526
 20
-1189.999999999997
 30
0.0
 11
6055.3287081163517
 21
-1164.999999999998
 31
0.0
1001
ACAD
1010
0.0
1020
0.0
1030
0.0
  0
LINE
  5
135284
  8
SLIM
 10
6055.3287081163517
 20
-1164.999999999998
 30
0.0
 11
6081.6970685860952
 21
-1138.631639530257
 31
0.0
1001
ACAD
1010
0.0
1020
0.0
1030
0.0
  0
LINE
  5
135285
  8
SLIM
 10
6048.2892203584897
 20
-1189.999999999997
 30
0.0
 11
6070.0
 21
-1168.289220358489
 31
0.0
1001
ACAD
1010
0.0
1020
0.0
1030
0.0
  0
LINE
  5
135286
  8
SLIM
 10
6073.2892203584934
 20
-1164.999999999998
 30
0.0
 11
6080.0
 21
-1158.289220358489
 31
0.0
1001
ACAD
1010
0.0
1020
0.0
1030
0.0
  0
LINE
  5
135287
  8
SLIM
 10
6066.2497326006287
 20
-1189.999999999997
 30
0.0
 11
6070.0
 21
-1186.2497326006271
 31
0.0
1001
ACAD
1010
0.0
1020
0.0
1030
0.0
  0
LINE
  5
135288
  8
OBJECT
 10
5897.5000000000928
 20
-749.99999999999773
 30
0.0
 11
6102.4999999999072
 21
-749.99999999999773
 31
0.0
  0
LINE
  5
135289
  8
OBJECT
 10
6102.4999999999072
 20
-749.99999999999773
 30
0.0
 11
6102.4999999999072
 21
-990.69968280980572
 31
0.0
  0
LINE
  5
13528A
  8
OBJECT
 10
6102.4999999999072
 20
-990.69968280980572
 30
0.0
 11
6080.0
 21
-1150.699682809146
 31
0.0
  0
LINE
  5
13528B
  8
OBJECT
 10
6080.0
 20
-1150.699682809146
 30
0.0
 11
6080.0
 21
-1164.999999999998
 31
0.0
  0
LINE
  5
13528C
  8
OBJECT
 10
6080.0
 20
-1164.999999999998
 30
0.0
 11
5920.0
 21
-1164.999999999998
 31
0.0
  0
LINE
  5
13528D
  8
OBJECT
 10
5920.0
 20
-1164.999999999998
 30
0.0
 11
5920.0
 21
-1150.699682809146
 31
0.0
  0
LINE
  5
13528E
  8
OBJECT
 10
5920.0
 20
-1150.699682809146
 30
0.0
 11
5897.5000000000928
 21
-990.69968280980572
 31
0.0
  0
LINE
  5
13528F
  8
OBJECT
 10
5897.5000000000928
 20
-990.69968280980572
 30
0.0
 11
5897.5000000000928
 21
-749.99999999999773
 31
0.0
  0
LINE
  5
135290
  8
OBJECT
 10
5930.0
 20
-1164.999999999998
 30
0.0
 11
5930.0
 21
-1189.999999999997
 31
0.0
  0
LINE
  5
135291
  8
OBJECT
 10
5930.0
 20
-1189.999999999997
 30
0.0
 11
6070.0
 21
-1189.999999999997
 31
0.0
  0
LINE
  5
135292
  8
OBJECT
 10
6070.0
 20
-1189.999999999997
 30
0.0
 11
6070.0
 21
-1164.999999999998
 31
0.0
  0
LINE
  5
135293
  8
CENTER
 10
8000.0
 20
-1643.9999999999991
 30
0.0
 11
8000.0
 21
-1417.9999999999991
 31
0.0
1001
ACDBBLOCKREPETAG
1070
     1
1071
        0
1005
135293
  0
LINE
  5
135294
  8
CENTER
 10
7894.7678858541567
 20
-1538.9999999999991
 30
0.0
 11
8105.2321141458424
 21
-1538.9999999999991
 31
0.0
1001
ACDBBLOCKREPETAG
1070
     1
1071
        1
1005
135294
  0
CIRCLE
  5
135295
  8
OBJECT
 10
8000.0
 20
-1538.9999999999991
 30
0.0
 40
62.5
1001
ACDBBLOCKREPETAG
1070
     1
1071
        2
1005
135295
  0
CIRCLE
  5
135296
  8
OBJECT
 10
8000.0
 20
-1538.9999999999991
 30
0.0
 40
75.0
1001
ACDBBLOCKREPETAG
1070
     1
1071
        3
1005
135296
  0
ARC
  5
135297
  8
OBJECT
 10
8000.0
 20
-1538.9999999999991
 30
0.0
 40
90.0
 50
124.11056017877129
 51
175.8894398211431
1001
ACDBBLOCKREPETAG
1070
     1
1071
        4
1005
135297
  0
ARC
  5
135298
  8
OBJECT
 10
8000.0
 20
-1538.9999999999991
 30
0.0
 40
90.0
 50
244.1105601790079
 51
295.88943982099198
1001
ACDBBLOCKREPETAG
1070
     1
1071
        5
1005
135298
  0
ARC
  5
135299
  8
OBJECT
 10
8000.0
 20
-1538.9999999999991
 30
0.0
 40
90.0
 50
4.1105601788568462
 51
55.889439821228699
1001
ACDBBLOCKREPETAG
1070
     1
1071
        6
1005
135299
  0
CIRCLE
  5
13529A
  8
SLIM
 10
8000.0
 20
-1445.9999999999991
 30
0.0
 40
6.0
1001
ACDBBLOCKREPETAG
1070
     1
1071
        7
1005
13529A
  0
ARC
  5
13529B
  8
OBJECT
 10
8000.0
 20
-1445.9999999999991
 30
0.0
 40
13.0
 50
55.889439821228699
 51
124.11056017877129
1001
ACDBBLOCKREPETAG
1070
     1
1071
        8
1005
13529B
  0
LINE
  5
13529C
  8
OBJECT
 10
7949.5287555726281
 20
-1464.483870967742
 30
0.0
 11
7992.7097091382657
 21
-1435.2365591397861
 31
0.0
1001
ACDBBLOCKREPETAG
1070
     1
1071
        9
1005
13529C
  0
LINE
  5
13529D
  8
OBJECT
 10
8050.4712444273764
 20
-1464.483870967742
 30
0.0
 11
8007.2902908617298
 21
-1435.2365591397861
 31
0.0
1001
ACDBBLOCKREPETAG
1070
     1
1071
       10
1005
13529D
  0
POLYLINE
  5
13529E
  8
SLIM
 66
     1
 10
0.0
 20
0.0
 30
0.0
 70
     1
1001
ACDBBLOCKREPETAG
1070
     1
1071
       11
1005
13529E
  0
VERTEX
  5
1356AE
  8
SLIM
 10
7990.5
 20
-1451.484827557302
 30
0.0
  0
VERTEX
  5
1356AF
  8
SLIM
 10
8000.0
 20
-1456.9696551146039
 30
0.0
  0
VERTEX
  5
1356B0
  8
SLIM
 10
8009.5
 20
-1451.484827557302
 30
0.0
  0
VERTEX
  5
1356B1
  8
SLIM
 10
8009.5
 20
-1440.5151724426969
 30
0.0
  0
VERTEX
  5
1356B2
  8
SLIM
 10
8000.0
 20
-1435.0303448853949
 30
0.0
  0
VERTEX
  5
1356B3
  8
SLIM
 10
7990.5
 20
-1440.5151724426969
 30
0.0
  0
SEQEND
  5
1356B4
  8
SLIM
  0
CIRCLE
  5
13529F
  8
SLIM
 10
7919.4596374480507
 20
-1585.4999999999991
 30
0.0
 40
5.9999999999999991
1001
ACDBBLOCKREPETAG
1070
     1
1071
       12
1005
13529F
  0
ARC
  5
1352A0
  8
OBJECT
 10
7919.4596374480507
 20
-1585.4999999999991
 30
0.0
 40
13.0
 50
175.8894398211431
 51
244.1105601790079
1001
ACDBBLOCKREPETAG
1070
     1
1071
       13
1005
1352A0
  0
LINE
  5
1352A1
  8
OBJECT
 10
7960.7027614800709
 20
-1619.9674443508479
 30
0.0
 11
7913.7833696618336
 21
-1597.195297517344
 31
0.0
1001
ACDBBLOCKREPETAG
1070
     1
1071
       14
1005
1352A1
  0
LINE
  5
1352A2
  8
OBJECT
 10
7910.2315170527017
 20
-1532.5486846814081
 30
0.0
 11
7906.4930788001029
 21
-1584.5681433428681
 31
0.0
1001
ACDBBLOCKREPETAG
1070
     1
1071
       15
1005
1352A2
  0
POLYLINE
  5
1352A3
  8
SLIM
 66
     1
 10
0.0
 20
0.0
 30
0.0
 70
     1
1001
ACDBBLOCKREPETAG
1070
     1
1071
       16
1005
1352A3
  0
VERTEX
  5
1356B5
  8
SLIM
 10
7928.9596374480507
 20
-1590.9848275573011
 30
0.0
  0
VERTEX
  5
1356B6
  8
SLIM
 10
7928.9596374480507
 20
-1580.0151724426969
 30
0.0
  0
VERTEX
  5
1356B7
  8
SLIM
 10
7919.4596374480507
 20
-1574.5303448853949
 30
0.0
  0
VERTEX
  5
1356B8
  8
SLIM
 10
7909.9596374480461
 20
-1580.0151724426969
 30
0.0
  0
VERTEX
  5
1356B9
  8
SLIM
 10
7909.9596374480461
 20
-1590.9848275573011
 30
0.0
  0
VERTEX
  5
1356BA
  8
SLIM
 10
7919.459637448047
 20
-1596.4696551146039
 30
0.0
  0
SEQEND
  5
1356BB
  8
SLIM
  0
CIRCLE
  5
1352A4
  8
SLIM
 10
8080.5403625519548
 20
-1585.4999999999991
 30
0.0
 40
6.0
1001
ACDBBLOCKREPETAG
1070
     1
1071
       17
1005
1352A4
  0
ARC
  5
1352A5
  8
OBJECT
 10
8080.5403625519548
 20
-1585.4999999999991
 30
0.0
 40
13.0
 50
295.88943982099198
 51
4.1105601788568462
1001
ACDBBLOCKREPETAG
1070
     1
1071
       18
1005
1352A5
  0
LINE
  5
1352A6
  8
OBJECT
 10
8089.7684829473019
 20
-1532.5486846814081
 30
0.0
 11
8093.5069211998962
 21
-1584.5681433428681
 31
0.0
1001
ACDBBLOCKREPETAG
1070
     1
1071
       19
1005
1352A6
  0
LINE
  5
1352A7
  8
OBJECT
 10
8039.2972385199282
 20
-1619.9674443508479
 30
0.0
 11
8086.2166303381618
 21
-1597.195297517344
 31
0.0
1001
ACDBBLOCKREPETAG
1070
     1
1071
       20
1005
1352A7
  0
POLYLINE
  5
1352A8
  8
SLIM
 66
     1
 10
0.0
 20
0.0
 30
0.0
 70
     1
1001
ACDBBLOCKREPETAG
1070
     1
1071
       21
1005
1352A8
  0
VERTEX
  5
1356BC
  8
SLIM
 10
8080.5403625519548
 20
-1574.5303448853949
 30
0.0
  0
VERTEX
  5
1356BD
  8
SLIM
 10
8071.0403625519557
 20
-1580.0151724426969
 30
0.0
  0
VERTEX
  5
1356BE
  8
SLIM
 10
8071.0403625519557
 20
-1590.9848275573011
 30
0.0
  0
VERTEX
  5
1356BF
  8
SLIM
 10
8080.5403625519548
 20
-1596.4696551146039
 30
0.0
  0
VERTEX
  5
1356C0
  8
SLIM
 10
8090.0403625519557
 20
-1590.9848275573011
 30
0.0
  0
VERTEX
  5
1356C1
  8
SLIM
 10
8090.0403625519557
 20
-1580.0151724426969
 30
0.0
  0
SEQEND
  5
1356C2
  8
SLIM
  0
LINE
  5
1352A9
  8
CENTER
 10
4000.0
 20
-1643.9999999999991
 30
0.0
 11
4000.0
 21
-1417.9999999999991
 31
0.0
1001
ACDBBLOCKREPETAG
1070
     1
1071
        0
1005
1352A9
  0
LINE
  5
1352AA
  8
CENTER
 10
3894.7678858541599
 20
-1538.9999999999991
 30
0.0
 11
4105.2321141458406
 21
-1538.9999999999991
 31
0.0
1001
ACDBBLOCKREPETAG
1070
     1
1071
        1
1005
1352AA
  0
CIRCLE
  5
1352AB
  8
OBJECT
 10
4000.0
 20
-1538.9999999999991
 30
0.0
 40
62.5
1001
ACDBBLOCKREPETAG
1070
     1
1071
        2
1005
1352AB
  0
CIRCLE
  5
1352AC
  8
OBJECT
 10
4000.0
 20
-1538.9999999999991
 30
0.0
 40
75.0
1001
ACDBBLOCKREPETAG
1070
     1
1071
        3
1005
1352AC
  0
ARC
  5
1352AD
  8
OBJECT
 10
4000.0
 20
-1538.9999999999991
 30
0.0
 40
90.0
 50
124.11056017877129
 51
175.8894398211431
1001
ACDBBLOCKREPETAG
1070
     1
1071
        4
1005
1352AD
  0
ARC
  5
1352AE
  8
OBJECT
 10
4000.0
 20
-1538.9999999999991
 30
0.0
 40
90.0
 50
244.11056017898451
 51
295.88943982101551
1001
ACDBBLOCKREPETAG
1070
     1
1071
        5
1005
1352AE
  0
ARC
  5
1352AF
  8
OBJECT
 10
4000.0
 20
-1538.9999999999991
 30
0.0
 40
90.0
 50
4.1105601788568462
 51
55.889439821228699
1001
ACDBBLOCKREPETAG
1070
     1
1071
        6
1005
1352AF
  0
CIRCLE
  5
1352B0
  8
SLIM
 10
4000.0
 20
-1445.9999999999991
 30
0.0
 40
6.0
1001
ACDBBLOCKREPETAG
1070
     1
1071
        7
1005
1352B0
  0
ARC
  5
1352B1
  8
OBJECT
 10
4000.0
 20
-1445.9999999999991
 30
0.0
 40
13.0
 50
55.889439821228699
 51
124.11056017877129
1001
ACDBBLOCKREPETAG
1070
     1
1071
        8
1005
1352B1
  0
LINE
  5
1352B2
  8
OBJECT
 10
3949.5287555726291
 20
-1464.483870967742
 30
0.0
 11
3992.709709138268
 21
-1435.2365591397861
 31
0.0
1001
ACDBBLOCKREPETAG
1070
     1
1071
        9
1005
1352B2
  0
LINE
  5
1352B3
  8
OBJECT
 10
4050.471244427376
 20
-1464.483870967742
 30
0.0
 11
4007.290290861732
 21
-1435.2365591397861
 31
0.0
1001
ACDBBLOCKREPETAG
1070
     1
1071
       10
1005
1352B3
  0
POLYLINE
  5
1352B4
  8
SLIM
 66
     1
 10
0.0
 20
0.0
 30
0.0
 70
     1
1001
ACDBBLOCKREPETAG
1070
     1
1071
       11
1005
1352B4
  0
VERTEX
  5
1356C3
  8
SLIM
 10
3990.5
 20
-1451.484827557302
 30
0.0
  0
VERTEX
  5
1356C4
  8
SLIM
 10
4000.0
 20
-1456.9696551146039
 30
0.0
  0
VERTEX
  5
1356C5
  8
SLIM
 10
4009.5
 20
-1451.484827557302
 30
0.0
  0
VERTEX
  5
1356C6
  8
SLIM
 10
4009.5
 20
-1440.5151724426969
 30
0.0
  0
VERTEX
  5
1356C7
  8
SLIM
 10
4000.0
 20
-1435.0303448853949
 30
0.0
  0
VERTEX
  5
1356C8
  8
SLIM
 10
3990.5
 20
-1440.5151724426969
 30
0.0
  0
SEQEND
  5
1356C9
  8
SLIM
  0
CIRCLE
  5
1352B5
  8
SLIM
 10
3919.4596374480502
 20
-1585.4999999999991
 30
0.0
 40
5.9999999999999991
1001
ACDBBLOCKREPETAG
1070
     1
1071
       12
1005
1352B5
  0
ARC
  5
1352B6
  8
OBJECT
 10
3919.4596374480502
 20
-1585.4999999999991
 30
0.0
 40
13.0
 50
175.8894398211431
 51
244.11056017898451
1001
ACDBBLOCKREPETAG
1070
     1
1071
       13
1005
1352B6
  0
LINE
  5
1352B7
  8
OBJECT
 10
3960.7027614800718
 20
-1619.9674443508479
 30
0.0
 11
3913.7833696618368
 21
-1597.195297517344
 31
0.0
1001
ACDBBLOCKREPETAG
1070
     1
1071
       14
1005
1352B7
  0
LINE
  5
1352B8
  8
OBJECT
 10
3910.2315170527008
 20
-1532.5486846814081
 30
0.0
 11
3906.4930788001038
 21
-1584.5681433428681
 31
0.0
1001
ACDBBLOCKREPETAG
1070
     1
1071
       15
1005
1352B8
  0
POLYLINE
  5
1352B9
  8
SLIM
 66
     1
 10
0.0
 20
0.0
 30
0.0
 70
     1
1001
ACDBBLOCKREPETAG
1070
     1
1071
       16
1005
1352B9
  0
VERTEX
  5
1356CA
  8
SLIM
 10
3928.9596374480502
 20
-1590.9848275573011
 30
0.0
  0
VERTEX
  5
1356CB
  8
SLIM
 10
3928.9596374480502
 20
-1580.0151724426969
 30
0.0
  0
VERTEX
  5
1356CC
  8
SLIM
 10
3919.4596374480502
 20
-1574.5303448853949
 30
0.0
  0
VERTEX
  5
1356CD
  8
SLIM
 10
3909.9596374480461
 20
-1580.0151724426969
 30
0.0
  0
VERTEX
  5
1356CE
  8
SLIM
 10
3909.9596374480461
 20
-1590.9848275573011
 30
0.0
  0
VERTEX
  5
1356CF
  8
SLIM
 10
3919.4596374480461
 20
-1596.4696551146039
 30
0.0
  0
SEQEND
  5
1356D0
  8
SLIM
  0
CIRCLE
  5
1352BA
  8
SLIM
 10
4080.5403625519521
 20
-1585.4999999999991
 30
0.0
 40
6.0
1001
ACDBBLOCKREPETAG
1070
     1
1071
       17
1005
1352BA
  0
ARC
  5
1352BB
  8
OBJECT
 10
4080.5403625519521
 20
-1585.4999999999991
 30
0.0
 40
13.0
 50
295.88943982101551
 51
4.1105601788568462
1001
ACDBBLOCKREPETAG
1070
     1
1071
       18
1005
1352BB
  0
LINE
  5
1352BC
  8
OBJECT
 10
4089.7684829473019
 20
-1532.5486846814081
 30
0.0
 11
4093.5069211998962
 21
-1584.5681433428681
 31
0.0
1001
ACDBBLOCKREPETAG
1070
     1
1071
       19
1005
1352BC
  0
LINE
  5
1352BD
  8
OBJECT
 10
4039.2972385199269
 20
-1619.9674443508479
 30
0.0
 11
4086.2166303381632
 21
-1597.195297517344
 31
0.0
1001
ACDBBLOCKREPETAG
1070
     1
1071
       20
1005
1352BD
  0
POLYLINE
  5
1352BE
  8
SLIM
 66
     1
 10
0.0
 20
0.0
 30
0.0
 70
     1
1001
ACDBBLOCKREPETAG
1070
     1
1071
       21
1005
1352BE
  0
VERTEX
  5
1356D1
  8
SLIM
 10
4080.5403625519521
 20
-1574.5303448853949
 30
0.0
  0
VERTEX
  5
1356D2
  8
SLIM
 10
4071.040362551953
 20
-1580.0151724426969
 30
0.0
  0
VERTEX
  5
1356D3
  8
SLIM
 10
4071.040362551953
 20
-1590.9848275573011
 30
0.0
  0
VERTEX
  5
1356D4
  8
SLIM
 10
4080.5403625519521
 20
-1596.4696551146039
 30
0.0
  0
VERTEX
  5
1356D5
  8
SLIM
 10
4090.040362551953
 20
-1590.9848275573011
 30
0.0
  0
VERTEX
  5
1356D6
  8
SLIM
 10
4090.040362551953
 20
-1580.0151724426969
 30
0.0
  0
SEQEND
  5
1356D7
  8
SLIM
  0
LINE
  5
1352BF
  8
OBJECT
 10
8092.4999999999973
 20
-989.99999999999955
 30
0.0
 11
8092.4999999999973
 21
-914.99999999999955
 31
0.0
1001
ACDBBLOCKREPETAG
1070
     1
1071
       12
1005
1352BF
  0
LINE
  5
1352C0
  8
OBJECT
 10
8093.5403615519499
 20
-1264.9999999999991
 30
0.0
 11
7906.4596374480461
 21
-1264.9999999999991
 31
0.0
1001
ACDBBLOCKREPETAG
1070
     1
1071
       13
1005
1352C0
  0
LINE
  5
1352C1
  8
OBJECT
 10
7906.4596374480498
 20
-1291.5
 30
0.0
 11
8093.5403625519502
 21
-1291.5
 31
0.0
1001
ACDBBLOCKREPETAG
1070
     1
1071
       14
1005
1352C1
  0
LINE
  5
1352C2
  8
OBJECT
 10
8093.5403625519502
 20
-1275.5000000000009
 30
0.0
 11
7906.4596374480498
 21
-1275.5000000000009
 31
0.0
1001
ACDBBLOCKREPETAG
1070
     1
1071
       15
1005
1352C2
  0
LINE
  5
1352C3
  8
OBJECT
 10
8005.9999999999982
 20
-1306.999999999997
 30
0.0
 11
8005.9999999999982
 21
-1301.5
 31
0.0
1001
ACDBBLOCKREPETAG
1070
     1
1071
       16
1005
1352C3
  0
LINE
  5
1352C4
  8
OBJECT
 10
7993.9999999999973
 20
-1306.999999999997
 30
0.0
 11
7993.9999999999973
 21
-1301.5
 31
0.0
1001
ACDBBLOCKREPETAG
1070
     1
1071
       17
1005
1352C4
  0
LINE
  5
1352C5
  8
OBJECT
 10
7993.9999999999973
 20
-1306.999999999997
 30
0.0
 11
8005.9999999999982
 21
-1306.999999999997
 31
0.0
1001
ACDBBLOCKREPETAG
1070
     1
1071
       18
1005
1352C5
  0
LINE
  5
1352C6
  8
OBJECT
 10
7993.9999999999973
 20
-1275.5000000000009
 30
0.0
 11
7993.9999999999973
 21
-1264.9999999999991
 31
0.0
1001
ACDBBLOCKREPETAG
1070
     1
1071
       19
1005
1352C6
  0
LINE
  5
1352C7
  8
OBJECT
 10
8005.9999999999982
 20
-1275.5000000000009
 30
0.0
 11
8005.9999999999982
 21
-1264.9999999999991
 31
0.0
1001
ACDBBLOCKREPETAG
1070
     1
1071
       20
1005
1352C7
  0
LINE
  5
1352C8
  8
OBJECT
 10
8016.4999999999982
 20
-1244.499999999997
 30
0.0
 11
8016.4999999999982
 21
-1246.999999999998
 31
0.0
1001
ACDBBLOCKREPETAG
1070
     1
1071
       21
1005
1352C8
  0
LINE
  5
1352C9
  8
OBJECT
 10
7989.9999999999982
 20
-1241.0
 30
0.0
 11
7989.9999999999982
 21
-1246.999999999998
 31
0.0
1001
ACDBBLOCKREPETAG
1070
     1
1071
       22
1005
1352C9
  0
LINE
  5
1352CA
  8
OBJECT
 10
8008.4999999999973
 20
-1241.0
 30
0.0
 11
7989.9999999999982
 21
-1241.0
 31
0.0
1001
ACDBBLOCKREPETAG
1070
     1
1071
       23
1005
1352CA
  0
LINE
  5
1352CB
  8
OBJECT
 10
8093.5403615519499
 20
-1246.999999999998
 30
0.0
 11
7906.4596374480461
 21
-1246.999999999998
 31
0.0
1001
ACDBBLOCKREPETAG
1070
     1
1071
       24
1005
1352CB
  0
LINE
  5
1352CC
  8
OBJECT
 10
8016.4999999999982
 20
-1244.499999999997
 30
0.0
 11
8008.4999999999973
 21
-1241.0
 31
0.0
1001
ACDBBLOCKREPETAG
1070
     1
1071
       25
1005
1352CC
  0
LINE
  5
1352CD
  8
HIDDEN
 10
7930.0
 20
-1224.9999999999991
 30
0.0
 11
8070.0
 21
-1224.9999999999991
 31
0.0
1001
ACDBBLOCKREPETAG
1070
     1
1071
       26
1005
1352CD
  0
LINE
  5
1352CE
  8
CENTER
 10
8000.0
 20
-914.99999999999955
 30
0.0
 11
8000.0
 21
-1321.999999999998
 31
0.0
1001
ACDBBLOCKREPETAG
1070
     1
1071
       27
1005
1352CE
  0
LINE
  5
1352CF
  8
OBJECT
 10
7918.5
 20
-1264.9999999999991
 30
0.0
 11
7918.5
 21
-1275.5000000000009
 31
0.0
1001
ACDBBLOCKREPETAG
1070
     1
1071
       28
1005
1352CF
  0
LINE
  5
1352D0
  8
OBJECT
 10
8081.5
 20
-1264.9999999999991
 30
0.0
 11
8081.5
 21
-1275.5000000000009
 31
0.0
1001
ACDBBLOCKREPETAG
1070
     1
1071
       29
1005
1352D0
  0
LINE
  5
1352D1
  8
OBJECT
 10
7930.0
 20
-1149.9999999999991
 30
0.0
 11
7930.0
 21
-1213.9999999999991
 31
0.0
1001
ACDBBLOCKREPETAG
1070
     1
1071
       30
1005
1352D1
  0
LINE
  5
1352D2
  8
OBJECT
 10
8070.0
 20
-1149.9999999999991
 30
0.0
 11
8070.0
 21
-1213.9999999999991
 31
0.0
1001
ACDBBLOCKREPETAG
1070
     1
1071
       31
1005
1352D2
  0
LINE
  5
1352D3
  8
OBJECT
 10
7930.0
 20
-1149.9999999999991
 30
0.0
 11
8070.0
 21
-1149.9999999999991
 31
0.0
1001
ACDBBLOCKREPETAG
1070
     1
1071
       32
1005
1352D3
  0
LINE
  5
1352D4
  8
OBJECT
 10
7919.4999999999982
 20
-1213.9999999999991
 30
0.0
 11
8080.5000000000036
 21
-1213.9999999999991
 31
0.0
1001
ACDBBLOCKREPETAG
1070
     1
1071
       33
1005
1352D4
  0
LINE
  5
1352D5
  8
OBJECT
 10
7907.5
 20
-989.99999999999955
 30
0.0
 11
7907.5
 21
-914.99999999999955
 31
0.0
1001
ACDBBLOCKREPETAG
1070
     1
1071
       34
1005
1352D5
  0
LINE
  5
1352D6
  8
OBJECT
 10
8092.4999999999973
 20
-989.99999999999955
 30
0.0
 11
7907.5
 21
-989.99999999999955
 31
0.0
1001
ACDBBLOCKREPETAG
1070
     1
1071
       35
1005
1352D6
  0
LINE
  5
1352D7
  8
OBJECT
 10
7907.5
 20
-989.99999999999955
 30
0.0
 11
7930.0
 21
-1149.9999999999991
 31
0.0
1001
ACDBBLOCKREPETAG
1070
     1
1071
       36
1005
1352D7
  0
LINE
  5
1352D8
  8
OBJECT
 10
8070.0
 20
-1149.9999999999991
 30
0.0
 11
8092.4999999999973
 21
-989.99999999999955
 31
0.0
1001
ACDBBLOCKREPETAG
1070
     1
1071
       37
1005
1352D8
  0
LINE
  5
1352D9
  8
OBJECT
 10
8080.5
 20
-1213.9999999999991
 30
0.0
 11
8080.5
 21
-1246.999999999998
 31
0.0
1001
ACDBBLOCKREPETAG
1070
     1
1071
       38
1005
1352D9
  0
LINE
  5
1352DA
  8
OBJECT
 10
7919.5000000000027
 20
-1213.9999999999991
 30
0.0
 11
7919.5000000000027
 21
-1246.999999999998
 31
0.0
1001
ACDBBLOCKREPETAG
1070
     1
1071
       39
1005
1352DA
  0
LINE
  5
1352DB
  8
OBJECT
 10
8010.9696549999944
 20
-1291.5
 30
0.0
 11
8010.9696549999944
 21
-1301.5
 31
0.0
1001
ACDBBLOCKREPETAG
1070
     1
1071
       40
1005
1352DB
  0
LINE
  5
1352DC
  8
OBJECT
 10
8005.4848269999939
 20
-1291.5
 30
0.0
 11
8005.4848269999939
 21
-1301.5
 31
0.0
1001
ACDBBLOCKREPETAG
1070
     1
1071
       41
1005
1352DC
  0
LINE
  5
1352DD
  8
OBJECT
 10
7994.5151719999976
 20
-1291.5
 30
0.0
 11
7994.5151719999976
 21
-1301.5
 31
0.0
1001
ACDBBLOCKREPETAG
1070
     1
1071
       42
1005
1352DD
  0
LINE
  5
1352DE
  8
OBJECT
 10
7989.0303449999947
 20
-1291.5
 30
0.0
 11
7989.0303449999947
 21
-1301.5
 31
0.0
1001
ACDBBLOCKREPETAG
1070
     1
1071
       43
1005
1352DE
  0
LINE
  5
1352DF
  8
OBJECT
 10
7989.0303449999947
 20
-1301.5
 30
0.0
 11
8010.9696549999944
 21
-1301.5
 31
0.0
1001
ACDBBLOCKREPETAG
1070
     1
1071
       44
1005
1352DF
  0
LINE
  5
1352E0
  8
OBJECT
 10
7906.4596374480461
 20
-1246.999999999998
 30
0.0
 11
7906.4596374480461
 21
-1264.9999999999991
 31
0.0
1001
ACDBBLOCKREPETAG
1070
     1
1071
       45
1005
1352E0
  0
LINE
  5
1352E1
  8
OBJECT
 10
7906.4596374480498
 20
-1275.5000000000009
 30
0.0
 11
7906.4596374480498
 21
-1291.5
 31
0.0
1001
ACDBBLOCKREPETAG
1070
     1
1071
       46
1005
1352E1
  0
LINE
  5
1352E2
  8
OBJECT
 10
8093.540362551953
 20
-1246.999999999998
 30
0.0
 11
8093.540362551953
 21
-1264.9999999999991
 31
0.0
1001
ACDBBLOCKREPETAG
1070
     1
1071
       47
1005
1352E2
  0
LINE
  5
1352E3
  8
OBJECT
 10
8093.5403625519502
 20
-1275.5000000000009
 30
0.0
 11
8093.5403625519502
 21
-1291.5
 31
0.0
1001
ACDBBLOCKREPETAG
1070
     1
1071
       48
1005
1352E3
  0
LINE
  5
1352E4
  8
OBJECT
 10
7925.4596374480407
 20
-1306.999999999997
 30
0.0
 11
7925.4596374480407
 21
-1301.5
 31
0.0
1001
ACDBBLOCKREPETAG
1070
     1
1071
       49
1005
1352E4
  0
LINE
  5
1352E5
  8
OBJECT
 10
7913.4596374480416
 20
-1306.999999999997
 30
0.0
 11
7913.4596374480416
 21
-1301.5
 31
0.0
1001
ACDBBLOCKREPETAG
1070
     1
1071
       50
1005
1352E5
  0
LINE
  5
1352E6
  8
OBJECT
 10
7913.4596374480416
 20
-1306.999999999997
 30
0.0
 11
7925.4596374480407
 21
-1306.999999999997
 31
0.0
1001
ACDBBLOCKREPETAG
1070
     1
1071
       51
1005
1352E6
  0
LINE
  5
1352E7
  8
OBJECT
 10
7913.4596374480416
 20
-1275.5000000000009
 30
0.0
 11
7913.4596374480416
 21
-1264.9999999999991
 31
0.0
1001
ACDBBLOCKREPETAG
1070
     1
1071
       52
1005
1352E7
  0
LINE
  5
1352E8
  8
OBJECT
 10
7930.4292924480387
 20
-1291.5
 30
0.0
 11
7930.4292924480387
 21
-1301.5
 31
0.0
1001
ACDBBLOCKREPETAG
1070
     1
1071
       53
1005
1352E8
  0
LINE
  5
1352E9
  8
OBJECT
 10
7924.9444644480382
 20
-1291.5
 30
0.0
 11
7924.9444644480382
 21
-1301.5
 31
0.0
1001
ACDBBLOCKREPETAG
1070
     1
1071
       54
1005
1352E9
  0
LINE
  5
1352EA
  8
OBJECT
 10
7913.9748094480419
 20
-1291.5
 30
0.0
 11
7913.9748094480419
 21
-1301.5
 31
0.0
1001
ACDBBLOCKREPETAG
1070
     1
1071
       55
1005
1352EA
  0
LINE
  5
1352EB
  8
OBJECT
 10
7908.4899824480417
 20
-1291.5
 30
0.0
 11
7908.4899824480417
 21
-1301.5
 31
0.0
1001
ACDBBLOCKREPETAG
1070
     1
1071
       56
1005
1352EB
  0
LINE
  5
1352EC
  8
OBJECT
 10
7908.4899824480417
 20
-1301.5
 30
0.0
 11
7930.4292924480387
 21
-1301.5
 31
0.0
1001
ACDBBLOCKREPETAG
1070
     1
1071
       57
1005
1352EC
  0
LINE
  5
1352ED
  8
OBJECT
 10
7911.4596374480443
 20
-1241.0
 30
0.0
 11
7911.4596374480443
 21
-1246.999999999998
 31
0.0
1001
ACDBBLOCKREPETAG
1070
     1
1071
       58
1005
1352ED
  0
LINE
  5
1352EE
  8
OBJECT
 10
7919.5000000000027
 20
-1241.0
 30
0.0
 11
7911.4596374480443
 21
-1241.0
 31
0.0
1001
ACDBBLOCKREPETAG
1070
     1
1071
       59
1005
1352EE
  0
LINE
  5
1352EF
  8
OBJECT
 10
8074.5403625519548
 20
-1306.999999999997
 30
0.0
 11
8074.5403625519548
 21
-1301.5
 31
0.0
1001
ACDBBLOCKREPETAG
1070
     1
1071
       60
1005
1352EF
  0
LINE
  5
1352F0
  8
OBJECT
 10
8086.5403625519548
 20
-1306.999999999997
 30
0.0
 11
8086.5403625519548
 21
-1301.5
 31
0.0
1001
ACDBBLOCKREPETAG
1070
     1
1071
       61
1005
1352F0
  0
LINE
  5
1352F1
  8
OBJECT
 10
8086.5403625519548
 20
-1306.999999999997
 30
0.0
 11
8074.5403625519548
 21
-1306.999999999997
 31
0.0
1001
ACDBBLOCKREPETAG
1070
     1
1071
       62
1005
1352F1
  0
LINE
  5
1352F2
  8
OBJECT
 10
8086.5403625519548
 20
-1275.5000000000009
 30
0.0
 11
8086.5403625519548
 21
-1264.9999999999991
 31
0.0
1001
ACDBBLOCKREPETAG
1070
     1
1071
       63
1005
1352F2
  0
LINE
  5
1352F3
  8
OBJECT
 10
8069.5707075519604
 20
-1291.5
 30
0.0
 11
8069.5707075519604
 21
-1301.5
 31
0.0
1001
ACDBBLOCKREPETAG
1070
     1
1071
       64
1005
1352F3
  0
LINE
  5
1352F4
  8
OBJECT
 10
8075.0555355519591
 20
-1291.5
 30
0.0
 11
8075.0555355519591
 21
-1301.5
 31
0.0
1001
ACDBBLOCKREPETAG
1070
     1
1071
       65
1005
1352F4
  0
LINE
  5
1352F5
  8
OBJECT
 10
8086.0251905519572
 20
-1291.5
 30
0.0
 11
8086.0251905519572
 21
-1301.5
 31
0.0
1001
ACDBBLOCKREPETAG
1070
     1
1071
       66
1005
1352F5
  0
LINE
  5
1352F6
  8
OBJECT
 10
8091.5100175519592
 20
-1291.5
 30
0.0
 11
8091.5100175519592
 21
-1301.5
 31
0.0
1001
ACDBBLOCKREPETAG
1070
     1
1071
       67
1005
1352F6
  0
LINE
  5
1352F7
  8
OBJECT
 10
8091.5100175519592
 20
-1301.5
 30
0.0
 11
8069.5707075519604
 21
-1301.5
 31
0.0
1001
ACDBBLOCKREPETAG
1070
     1
1071
       68
1005
1352F7
  0
LINE
  5
1352F8
  8
OBJECT
 10
8088.5403625519584
 20
-1241.0
 30
0.0
 11
8088.5403625519584
 21
-1246.999999999998
 31
0.0
1001
ACDBBLOCKREPETAG
1070
     1
1071
       69
1005
1352F8
  0
LINE
  5
1352F9
  8
OBJECT
 10
8080.5
 20
-1241.0
 30
0.0
 11
8088.5403625519584
 21
-1241.0
 31
0.0
1001
ACDBBLOCKREPETAG
1070
     1
1071
       70
1005
1352F9
  0
LINE
  5
1352FA
  8
OBJECT
 10
5930.0
 20
-1149.9999999999991
 30
0.0
 11
5930.0
 21
-1264.9999999999991
 31
0.0
1001
ACDBBLOCKREPETAG
1070
     1
1071
        0
1005
1352FA
  0
LINE
  5
1352FB
  8
OBJECT
 10
5930.0
 20
-1149.9999999999991
 30
0.0
 11
6070.0
 21
-1149.9999999999991
 31
0.0
1001
ACDBBLOCKREPETAG
1070
     1
1071
        1
1005
1352FB
  0
LINE
  5
1352FC
  8
OBJECT
 10
6092.5000000000009
 20
-989.99999999999955
 30
0.0
 11
5907.5
 21
-989.99999999999955
 31
0.0
1001
ACDBBLOCKREPETAG
1070
     1
1071
        2
1005
1352FC
  0
LINE
  5
1352FD
  8
OBJECT
 10
6092.5000000000009
 20
-989.99999999999955
 30
0.0
 11
6092.5000000000009
 21
-914.99999999999955
 31
0.0
1001
ACDBBLOCKREPETAG
1070
     1
1071
        3
1005
1352FD
  0
LINE
  5
1352FE
  8
OBJECT
 10
5907.5
 20
-989.99999999999955
 30
0.0
 11
5907.5
 21
-914.99999999999955
 31
0.0
1001
ACDBBLOCKREPETAG
1070
     1
1071
        4
1005
1352FE
  0
LINE
  5
1352FF
  8
OBJECT
 10
5930.0
 20
-1264.9999999999991
 30
0.0
 11
6070.0
 21
-1264.9999999999991
 31
0.0
1001
ACDBBLOCKREPETAG
1070
     1
1071
        5
1005
1352FF
  0
LINE
  5
135300
  8
OBJECT
 10
6070.0
 20
-1149.9999999999991
 30
0.0
 11
6070.0
 21
-1264.9999999999991
 31
0.0
1001
ACDBBLOCKREPETAG
1070
     1
1071
        6
1005
135300
  0
LINE
  5
135301
  8
OBJECT
 10
5907.5
 20
-989.99999999999955
 30
0.0
 11
5930.0
 21
-1149.9999999999991
 31
0.0
1001
ACDBBLOCKREPETAG
1070
     1
1071
        7
1005
135301
  0
LINE
  5
135302
  8
OBJECT
 10
6070.0
 20
-1149.9999999999991
 30
0.0
 11
6092.5000000000009
 21
-989.99999999999955
 31
0.0
1001
ACDBBLOCKREPETAG
1070
     1
1071
        8
1005
135302
  0
LINE
  5
135303
  8
HIDDEN
 10
5937.5
 20
-1149.9999999999991
 30
0.0
 11
5937.5
 21
-1264.9999999999991
 31
0.0
1001
ACDBBLOCKREPETAG
1070
     1
1071
        9
1005
135303
  0
LINE
  5
135304
  8
HIDDEN
 10
6062.5
 20
-1149.9999999999991
 30
0.0
 11
6062.5
 21
-1264.9999999999991
 31
0.0
1001
ACDBBLOCKREPETAG
1070
     1
1071
       10
1005
135304
  0
LINE
  5
135305
  8
CENTER
 10
6000.0
 20
-914.99999999999955
 30
0.0
 11
6000.0
 21
-1279.9999999999991
 31
0.0
1001
ACDBBLOCKREPETAG
1070
     1
1071
       11
1005
135305
  0
LINE
  5
135306
  8
OBJECT
 10
4092.5
 20
-989.99999999999955
 30
0.0
 11
4092.5
 21
-914.99999999999955
 31
0.0
1001
ACDBBLOCKREPETAG
1070
     1
1071
       12
1005
135306
  0
LINE
  5
135307
  8
OBJECT
 10
4093.5403615519499
 20
-1264.9999999999991
 30
0.0
 11
3906.4596374480461
 21
-1264.9999999999991
 31
0.0
1001
ACDBBLOCKREPETAG
1070
     1
1071
       13
1005
135307
  0
LINE
  5
135308
  8
OBJECT
 10
3906.4596374480502
 20
-1291.5
 30
0.0
 11
4093.5403625519511
 21
-1291.5
 31
0.0
1001
ACDBBLOCKREPETAG
1070
     1
1071
       14
1005
135308
  0
LINE
  5
135309
  8
OBJECT
 10
4093.5403625519511
 20
-1275.5000000000009
 30
0.0
 11
3906.4596374480502
 21
-1275.5000000000009
 31
0.0
1001
ACDBBLOCKREPETAG
1070
     1
1071
       15
1005
135309
  0
LINE
  5
13530A
  8
OBJECT
 10
4005.999999999995
 20
-1306.999999999997
 30
0.0
 11
4005.999999999995
 21
-1301.5
 31
0.0
1001
ACDBBLOCKREPETAG
1070
     1
1071
       16
1005
13530A
  0
LINE
  5
13530B
  8
OBJECT
 10
3993.9999999999959
 20
-1306.999999999997
 30
0.0
 11
3993.9999999999959
 21
-1301.5
 31
0.0
1001
ACDBBLOCKREPETAG
1070
     1
1071
       17
1005
13530B
  0
LINE
  5
13530C
  8
OBJECT
 10
3993.9999999999959
 20
-1306.999999999997
 30
0.0
 11
4005.999999999995
 21
-1306.999999999997
 31
0.0
1001
ACDBBLOCKREPETAG
1070
     1
1071
       18
1005
13530C
  0
LINE
  5
13530D
  8
OBJECT
 10
3993.9999999999959
 20
-1275.5000000000009
 30
0.0
 11
3993.9999999999959
 21
-1264.9999999999991
 31
0.0
1001
ACDBBLOCKREPETAG
1070
     1
1071
       19
1005
13530D
  0
LINE
  5
13530E
  8
OBJECT
 10
4005.999999999995
 20
-1275.5000000000009
 30
0.0
 11
4005.999999999995
 21
-1264.9999999999991
 31
0.0
1001
ACDBBLOCKREPETAG
1070
     1
1071
       20
1005
13530E
  0
LINE
  5
13530F
  8
OBJECT
 10
4016.4999999999959
 20
-1244.499999999997
 30
0.0
 11
4016.4999999999959
 21
-1246.999999999998
 31
0.0
1001
ACDBBLOCKREPETAG
1070
     1
1071
       21
1005
13530F
  0
LINE
  5
135310
  8
OBJECT
 10
3989.9999999999968
 20
-1241.0
 30
0.0
 11
3989.9999999999968
 21
-1246.999999999998
 31
0.0
1001
ACDBBLOCKREPETAG
1070
     1
1071
       22
1005
135310
  0
LINE
  5
135311
  8
OBJECT
 10
4008.4999999999968
 20
-1241.0
 30
0.0
 11
3989.9999999999968
 21
-1241.0
 31
0.0
1001
ACDBBLOCKREPETAG
1070
     1
1071
       23
1005
135311
  0
LINE
  5
135312
  8
OBJECT
 10
4093.5403615519499
 20
-1246.999999999998
 30
0.0
 11
3906.4596374480461
 21
-1246.999999999998
 31
0.0
1001
ACDBBLOCKREPETAG
1070
     1
1071
       24
1005
135312
  0
LINE
  5
135313
  8
OBJECT
 10
4016.4999999999959
 20
-1244.499999999997
 30
0.0
 11
4008.4999999999968
 21
-1241.0
 31
0.0
1001
ACDBBLOCKREPETAG
1070
     1
1071
       25
1005
135313
  0
LINE
  5
135314
  8
HIDDEN
 10
3930.0
 20
-1224.9999999999991
 30
0.0
 11
4070.0
 21
-1224.9999999999991
 31
0.0
1001
ACDBBLOCKREPETAG
1070
     1
1071
       26
1005
135314
  0
LINE
  5
135315
  8
CENTER
 10
4000.0
 20
-914.99999999999955
 30
0.0
 11
4000.0
 21
-1321.999999999998
 31
0.0
1001
ACDBBLOCKREPETAG
1070
     1
1071
       27
1005
135315
  0
LINE
  5
135316
  8
OBJECT
 10
3918.5
 20
-1264.9999999999991
 30
0.0
 11
3918.5
 21
-1275.5000000000009
 31
0.0
1001
ACDBBLOCKREPETAG
1070
     1
1071
       28
1005
135316
  0
LINE
  5
135317
  8
OBJECT
 10
4081.5
 20
-1264.9999999999991
 30
0.0
 11
4081.5
 21
-1275.5000000000009
 31
0.0
1001
ACDBBLOCKREPETAG
1070
     1
1071
       29
1005
135317
  0
LINE
  5
135318
  8
OBJECT
 10
3930.0
 20
-1149.9999999999991
 30
0.0
 11
3930.0
 21
-1213.9999999999991
 31
0.0
1001
ACDBBLOCKREPETAG
1070
     1
1071
       30
1005
135318
  0
LINE
  5
135319
  8
OBJECT
 10
4070.0
 20
-1149.9999999999991
 30
0.0
 11
4070.0
 21
-1213.9999999999991
 31
0.0
1001
ACDBBLOCKREPETAG
1070
     1
1071
       31
1005
135319
  0
LINE
  5
13531A
  8
OBJECT
 10
3930.0
 20
-1149.9999999999991
 30
0.0
 11
4070.0
 21
-1149.9999999999991
 31
0.0
1001
ACDBBLOCKREPETAG
1070
     1
1071
       32
1005
13531A
  0
LINE
  5
13531B
  8
OBJECT
 10
3919.4999999999968
 20
-1213.9999999999991
 30
0.0
 11
4080.5000000000032
 21
-1213.9999999999991
 31
0.0
1001
ACDBBLOCKREPETAG
1070
     1
1071
       33
1005
13531B
  0
LINE
  5
13531C
  8
OBJECT
 10
3907.5
 20
-989.99999999999955
 30
0.0
 11
3907.5
 21
-914.99999999999955
 31
0.0
1001
ACDBBLOCKREPETAG
1070
     1
1071
       34
1005
13531C
  0
LINE
  5
13531D
  8
OBJECT
 10
4092.5
 20
-989.99999999999955
 30
0.0
 11
3907.5
 21
-989.99999999999955
 31
0.0
1001
ACDBBLOCKREPETAG
1070
     1
1071
       35
1005
13531D
  0
LINE
  5
13531E
  8
OBJECT
 10
3907.5
 20
-989.99999999999955
 30
0.0
 11
3930.0
 21
-1149.9999999999991
 31
0.0
1001
ACDBBLOCKREPETAG
1070
     1
1071
       36
1005
13531E
  0
LINE
  5
13531F
  8
OBJECT
 10
4070.0
 20
-1149.9999999999991
 30
0.0
 11
4092.5
 21
-989.99999999999955
 31
0.0
1001
ACDBBLOCKREPETAG
1070
     1
1071
       37
1005
13531F
  0
LINE
  5
135320
  8
OBJECT
 10
4080.4999999999982
 20
-1213.9999999999991
 30
0.0
 11
4080.4999999999982
 21
-1246.999999999998
 31
0.0
1001
ACDBBLOCKREPETAG
1070
     1
1071
       38
1005
135320
  0
LINE
  5
135321
  8
OBJECT
 10
3919.5
 20
-1213.9999999999991
 30
0.0
 11
3919.5
 21
-1246.999999999998
 31
0.0
1001
ACDBBLOCKREPETAG
1070
     1
1071
       39
1005
135321
  0
LINE
  5
135322
  8
OBJECT
 10
4010.969654999994
 20
-1291.5
 30
0.0
 11
4010.969654999994
 21
-1301.5
 31
0.0
1001
ACDBBLOCKREPETAG
1070
     1
1071
       40
1005
135322
  0
LINE
  5
135323
  8
OBJECT
 10
4005.484826999992
 20
-1291.5
 30
0.0
 11
4005.484826999992
 21
-1301.5
 31
0.0
1001
ACDBBLOCKREPETAG
1070
     1
1071
       41
1005
135323
  0
LINE
  5
135324
  8
OBJECT
 10
3994.5151719999958
 20
-1291.5
 30
0.0
 11
3994.5151719999958
 21
-1301.5
 31
0.0
1001
ACDBBLOCKREPETAG
1070
     1
1071
       42
1005
135324
  0
LINE
  5
135325
  8
OBJECT
 10
3989.030344999996
 20
-1291.5
 30
0.0
 11
3989.030344999996
 21
-1301.5
 31
0.0
1001
ACDBBLOCKREPETAG
1070
     1
1071
       43
1005
135325
  0
LINE
  5
135326
  8
OBJECT
 10
3989.030344999996
 20
-1301.5
 30
0.0
 11
4010.969654999994
 21
-1301.5
 31
0.0
1001
ACDBBLOCKREPETAG
1070
     1
1071
       44
1005
135326
  0
LINE
  5
135327
  8
OBJECT
 10
3906.4596374480461
 20
-1246.999999999998
 30
0.0
 11
3906.4596374480461
 21
-1264.9999999999991
 31
0.0
1001
ACDBBLOCKREPETAG
1070
     1
1071
       45
1005
135327
  0
LINE
  5
135328
  8
OBJECT
 10
3906.4596374480502
 20
-1275.5000000000009
 30
0.0
 11
3906.4596374480502
 21
-1291.5
 31
0.0
1001
ACDBBLOCKREPETAG
1070
     1
1071
       46
1005
135328
  0
LINE
  5
135329
  8
OBJECT
 10
4093.5403625519539
 20
-1246.999999999998
 30
0.0
 11
4093.5403625519539
 21
-1264.9999999999991
 31
0.0
1001
ACDBBLOCKREPETAG
1070
     1
1071
       47
1005
135329
  0
LINE
  5
13532A
  8
OBJECT
 10
4093.5403625519511
 20
-1275.5000000000009
 30
0.0
 11
4093.5403625519511
 21
-1291.5
 31
0.0
1001
ACDBBLOCKREPETAG
1070
     1
1071
       48
1005
13532A
  0
LINE
  5
13532B
  8
OBJECT
 10
3925.4596374480429
 20
-1306.999999999997
 30
0.0
 11
3925.4596374480429
 21
-1301.5
 31
0.0
1001
ACDBBLOCKREPETAG
1070
     1
1071
       49
1005
13532B
  0
LINE
  5
13532C
  8
OBJECT
 10
3913.459637448042
 20
-1306.999999999997
 30
0.0
 11
3913.459637448042
 21
-1301.5
 31
0.0
1001
ACDBBLOCKREPETAG
1070
     1
1071
       50
1005
13532C
  0
LINE
  5
13532D
  8
OBJECT
 10
3913.459637448042
 20
-1306.999999999997
 30
0.0
 11
3925.4596374480429
 21
-1306.999999999997
 31
0.0
1001
ACDBBLOCKREPETAG
1070
     1
1071
       51
1005
13532D
  0
LINE
  5
13532E
  8
OBJECT
 10
3913.459637448042
 20
-1275.5000000000009
 30
0.0
 11
3913.459637448042
 21
-1264.9999999999991
 31
0.0
1001
ACDBBLOCKREPETAG
1070
     1
1071
       52
1005
13532E
  0
LINE
  5
13532F
  8
OBJECT
 10
3930.4292924480401
 20
-1291.5
 30
0.0
 11
3930.4292924480401
 21
-1301.5
 31
0.0
1001
ACDBBLOCKREPETAG
1070
     1
1071
       53
1005
13532F
  0
LINE
  5
135330
  8
OBJECT
 10
3924.9444644480391
 20
-1291.5
 30
0.0
 11
3924.9444644480391
 21
-1301.5
 31
0.0
1001
ACDBBLOCKREPETAG
1070
     1
1071
       54
1005
135330
  0
LINE
  5
135331
  8
OBJECT
 10
3913.9748094480419
 20
-1291.5
 30
0.0
 11
3913.9748094480419
 21
-1301.5
 31
0.0
1001
ACDBBLOCKREPETAG
1070
     1
1071
       55
1005
135331
  0
LINE
  5
135332
  8
OBJECT
 10
3908.4899824480422
 20
-1291.5
 30
0.0
 11
3908.4899824480422
 21
-1301.5
 31
0.0
1001
ACDBBLOCKREPETAG
1070
     1
1071
       56
1005
135332
  0
LINE
  5
135333
  8
OBJECT
 10
3908.4899824480422
 20
-1301.5
 30
0.0
 11
3930.4292924480401
 21
-1301.5
 31
0.0
1001
ACDBBLOCKREPETAG
1070
     1
1071
       57
1005
135333
  0
LINE
  5
135334
  8
OBJECT
 10
3911.4596374480429
 20
-1241.0
 30
0.0
 11
3911.4596374480429
 21
-1246.999999999998
 31
0.0
1001
ACDBBLOCKREPETAG
1070
     1
1071
       58
1005
135334
  0
LINE
  5
135335
  8
OBJECT
 10
3919.5
 20
-1241.0
 30
0.0
 11
3911.4596374480429
 21
-1241.0
 31
0.0
1001
ACDBBLOCKREPETAG
1070
     1
1071
       59
1005
135335
  0
LINE
  5
135336
  8
OBJECT
 10
4074.540362551958
 20
-1306.999999999997
 30
0.0
 11
4074.540362551958
 21
-1301.5
 31
0.0
1001
ACDBBLOCKREPETAG
1070
     1
1071
       60
1005
135336
  0
LINE
  5
135337
  8
OBJECT
 10
4086.5403625519562
 20
-1306.999999999997
 30
0.0
 11
4086.5403625519562
 21
-1301.5
 31
0.0
1001
ACDBBLOCKREPETAG
1070
     1
1071
       61
1005
135337
  0
LINE
  5
135338
  8
OBJECT
 10
4086.5403625519562
 20
-1306.999999999997
 30
0.0
 11
4074.540362551958
 21
-1306.999999999997
 31
0.0
1001
ACDBBLOCKREPETAG
1070
     1
1071
       62
1005
135338
  0
LINE
  5
135339
  8
OBJECT
 10
4086.5403625519562
 20
-1275.5000000000009
 30
0.0
 11
4086.5403625519562
 21
-1264.9999999999991
 31
0.0
1001
ACDBBLOCKREPETAG
1070
     1
1071
       63
1005
135339
  0
LINE
  5
13533A
  8
OBJECT
 10
4069.570707551959
 20
-1291.5
 30
0.0
 11
4069.570707551959
 21
-1301.5
 31
0.0
1001
ACDBBLOCKREPETAG
1070
     1
1071
       64
1005
13533A
  0
LINE
  5
13533B
  8
OBJECT
 10
4075.05553555196
 20
-1291.5
 30
0.0
 11
4075.05553555196
 21
-1301.5
 31
0.0
1001
ACDBBLOCKREPETAG
1070
     1
1071
       65
1005
13533B
  0
LINE
  5
13533C
  8
OBJECT
 10
4086.0251905519581
 20
-1291.5
 30
0.0
 11
4086.0251905519581
 21
-1301.5
 31
0.0
1001
ACDBBLOCKREPETAG
1070
     1
1071
       66
1005
13533C
  0
LINE
  5
13533D
  8
OBJECT
 10
4091.5100175519569
 20
-1291.5
 30
0.0
 11
4091.5100175519569
 21
-1301.5
 31
0.0
1001
ACDBBLOCKREPETAG
1070
     1
1071
       67
1005
13533D
  0
LINE
  5
13533E
  8
OBJECT
 10
4091.5100175519569
 20
-1301.5
 30
0.0
 11
4069.570707551959
 21
-1301.5
 31
0.0
1001
ACDBBLOCKREPETAG
1070
     1
1071
       68
1005
13533E
  0
LINE
  5
13533F
  8
OBJECT
 10
4088.540362551958
 20
-1241.0
 30
0.0
 11
4088.540362551958
 21
-1246.999999999998
 31
0.0
1001
ACDBBLOCKREPETAG
1070
     1
1071
       69
1005
13533F
  0
LINE
  5
135340
  8
OBJECT
 10
4080.4999999999982
 20
-1241.0
 30
0.0
 11
4088.540362551958
 21
-1241.0
 31
0.0
1001
ACDBBLOCKREPETAG
1070
     1
1071
       70
1005
135340
  0
LINE
  5
135341
  8
OBJECT
 10
1930.0
 20
-1149.9999999999991
 30
0.0
 11
1930.0
 21
-1264.9999999999991
 31
0.0
1001
ACDBBLOCKREPETAG
1070
     1
1071
        0
1005
135341
  0
LINE
  5
135342
  8
OBJECT
 10
1930.0
 20
-1149.9999999999991
 30
0.0
 11
2070.0
 21
-1149.9999999999991
 31
0.0
1001
ACDBBLOCKREPETAG
1070
     1
1071
        1
1005
135342
  0
LINE
  5
135343
  8
OBJECT
 10
2092.5
 20
-989.99999999999955
 30
0.0
 11
1907.5
 21
-989.99999999999955
 31
0.0
1001
ACDBBLOCKREPETAG
1070
     1
1071
        2
1005
135343
  0
LINE
  5
135344
  8
OBJECT
 10
2092.5
 20
-989.99999999999955
 30
0.0
 11
2092.5
 21
-914.99999999999955
 31
0.0
1001
ACDBBLOCKREPETAG
1070
     1
1071
        3
1005
135344
  0
LINE
  5
135345
  8
OBJECT
 10
1907.5
 20
-989.99999999999955
 30
0.0
 11
1907.5
 21
-914.99999999999955
 31
0.0
1001
ACDBBLOCKREPETAG
1070
     1
1071
        4
1005
135345
  0
LINE
  5
135346
  8
OBJECT
 10
1930.0
 20
-1264.9999999999991
 30
0.0
 11
2070.0
 21
-1264.9999999999991
 31
0.0
1001
ACDBBLOCKREPETAG
1070
     1
1071
        5
1005
135346
  0
LINE
  5
135347
  8
OBJECT
 10
2070.0
 20
-1149.9999999999991
 30
0.0
 11
2070.0
 21
-1264.9999999999991
 31
0.0
1001
ACDBBLOCKREPETAG
1070
     1
1071
        6
1005
135347
  0
LINE
  5
135348
  8
OBJECT
 10
1907.5
 20
-989.99999999999955
 30
0.0
 11
1930.0
 21
-1149.9999999999991
 31
0.0
1001
ACDBBLOCKREPETAG
1070
     1
1071
        7
1005
135348
  0
LINE
  5
135349
  8
OBJECT
 10
2070.0
 20
-1149.9999999999991
 30
0.0
 11
2092.5
 21
-989.99999999999955
 31
0.0
1001
ACDBBLOCKREPETAG
1070
     1
1071
        8
1005
135349
  0
LINE
  5
13534A
  8
HIDDEN
 10
1937.5
 20
-1149.9999999999991
 30
0.0
 11
1937.5
 21
-1264.9999999999991
 31
0.0
1001
ACDBBLOCKREPETAG
1070
     1
1071
        9
1005
13534A
  0
LINE
  5
13534B
  8
HIDDEN
 10
2062.5
 20
-1149.9999999999991
 30
0.0
 11
2062.5
 21
-1264.9999999999991
 31
0.0
1001
ACDBBLOCKREPETAG
1070
     1
1071
       10
1005
13534B
  0
LINE
  5
13534C
  8
CENTER
 10
2000.0
 20
-914.99999999999955
 30
0.0
 11
2000.0
 21
-1279.9999999999991
 31
0.0
1001
ACDBBLOCKREPETAG
1070
     1
1071
       11
1005
13534C
  0
LINE
  5
13534D
  8
OBJECT
 10
1866.0
 20
-582.99999999999761
 30
0.0
 11
1866.0
 21
-580.99999999999761
 31
0.0
1001
ACDBBLOCKREPETAG
1070
     1
1071
      157
1005
13534D
  0
ARC
  5
13534E
  8
OBJECT
 10
1824.8134425017449
 20
-600.99999999999761
 30
0.0
 40
59.0
 50
270.0
 51
310.7972311667607
1001
ACDBBLOCKREPETAG
1070
     1
1071
      158
1005
13534E
  0
LINE
  5
13534F
  8
OBJECT
 10
1756.0
 20
-589.49999999999761
 30
0.0
 11
1891.0
 21
-589.49999999999761
 31
0.0
1001
ACDBBLOCKREPETAG
1070
     1
1071
      159
1005
13534F
  0
LINE
  5
135350
  8
OBJECT
 10
1891.0
 20
-602.49999999999761
 30
0.0
 11
1756.0
 21
-602.49999999999761
 31
0.0
1001
ACDBBLOCKREPETAG
1070
     1
1071
      160
1005
135350
  0
LINE
  5
135351
  8
OBJECT
 10
1891.0
 20
-589.49999999999761
 30
0.0
 11
1891.0
 21
-602.49999999999761
 31
0.0
1001
ACDBBLOCKREPETAG
1070
     1
1071
      161
1005
135351
  0
LINE
  5
135352
  8
OBJECT
 10
1884.0
 20
-611.49999999999761
 30
0.0
 11
1884.0
 21
-602.49999999999761
 31
0.0
1001
ACDBBLOCKREPETAG
1070
     1
1071
      162
1005
135352
  0
LINE
  5
135353
  8
OBJECT
 10
1866.0
 20
-614.99999999999761
 30
0.0
 11
1866.0
 21
-602.49999999999761
 31
0.0
1001
ACDBBLOCKREPETAG
1070
     1
1071
      163
1005
135353
  0
LINE
  5
135354
  8
OBJECT
 10
1776.0
 20
-611.49999999999761
 30
0.0
 11
1776.0
 21
-602.49999999999761
 31
0.0
1001
ACDBBLOCKREPETAG
1070
     1
1071
      164
1005
135354
  0
LINE
  5
135355
  8
OBJECT
 10
1756.0
 20
-589.49999999999761
 30
0.0
 11
1756.0
 21
-602.49999999999761
 31
0.0
1001
ACDBBLOCKREPETAG
1070
     1
1071
      165
1005
135355
  0
LINE
  5
135356
  8
OBJECT
 10
1858.0
 20
-614.99999999999761
 30
0.0
 11
1858.0
 21
-602.49999999999761
 31
0.0
1001
ACDBBLOCKREPETAG
1070
     1
1071
      166
1005
135356
  0
LINE
  5
135357
  8
OBJECT
 10
1866.0
 20
-611.49999999999761
 30
0.0
 11
1885.0
 21
-611.49999999999761
 31
0.0
1001
ACDBBLOCKREPETAG
1070
     1
1071
      167
1005
135357
  0
LINE
  5
135358
  8
OBJECT
 10
1885.0
 20
-614.99999999999761
 30
0.0
 11
1885.0
 21
-611.49999999999761
 31
0.0
1001
ACDBBLOCKREPETAG
1070
     1
1071
      168
1005
135358
  0
LINE
  5
135359
  8
OBJECT
 10
1858.0
 20
-611.49999999999761
 30
0.0
 11
1775.0
 21
-611.49999999999761
 31
0.0
1001
ACDBBLOCKREPETAG
1070
     1
1071
      169
1005
135359
  0
LINE
  5
13535A
  8
OBJECT
 10
1775.0
 20
-611.49999999999761
 30
0.0
 11
1775.0
 21
-614.99999999999761
 31
0.0
1001
ACDBBLOCKREPETAG
1070
     1
1071
      170
1005
13535A
  0
LINE
  5
13535B
  8
OBJECT
 10
1869.505553499464
 20
-589.49999999999761
 30
0.0
 11
1869.505553499464
 21
-582.99999999999761
 31
0.0
1001
ACDBBLOCKREPETAG
1070
     1
1071
      171
1005
13535B
  0
LINE
  5
13535C
  8
OBJECT
 10
1871.0
 20
-627.99999999999761
 30
0.0
 11
1871.0
 21
-632.99999999999761
 31
0.0
1001
ACDBBLOCKREPETAG
1070
     1
1071
      172
1005
13535C
  0
LINE
  5
13535D
  8
OBJECT
 10
1871.0
 20
-632.99999999999761
 30
0.0
 11
1853.0
 21
-632.99999999999761
 31
0.0
1001
ACDBBLOCKREPETAG
1070
     1
1071
      173
1005
13535D
  0
LINE
  5
13535E
  8
OBJECT
 10
1853.0
 20
-627.99999999999761
 30
0.0
 11
1853.0
 21
-632.99999999999761
 31
0.0
1001
ACDBBLOCKREPETAG
1070
     1
1071
      174
1005
13535E
  0
LINE
  5
13535F
  8
OBJECT
 10
1890.9999999999959
 20
-614.99999999999761
 30
0.0
 11
1756.0
 21
-614.99999999999761
 31
0.0
1001
ACDBBLOCKREPETAG
1070
     1
1071
      175
1005
13535F
  0
LINE
  5
135360
  8
OBJECT
 10
1756.0
 20
-614.99999999999761
 30
0.0
 11
1756.0
 21
-627.99999999999761
 31
0.0
1001
ACDBBLOCKREPETAG
1070
     1
1071
      176
1005
135360
  0
LINE
  5
135361
  8
OBJECT
 10
1863.363099755235
 20
-645.66457125774514
 30
0.0
 11
1883.8297019999991
 21
-627.99999999999761
 31
0.0
1001
ACDBBLOCKREPETAG
1070
     1
1071
      177
1005
135361
  0
LINE
  5
135362
  8
OBJECT
 10
1778.9999999999959
 20
-635.65708264965485
 30
0.0
 11
1778.9999999999959
 21
-659.99999999999761
 31
0.0
1001
ACDBBLOCKREPETAG
1070
     1
1071
      178
1005
135362
  0
LINE
  5
135363
  8
OBJECT
 10
1824.8134425017449
 20
-659.99999999999761
 30
0.0
 11
1778.9999999999959
 21
-659.99999999999761
 31
0.0
1001
ACDBBLOCKREPETAG
1070
     1
1071
      179
1005
135363
  0
ARC
  5
135364
  8
OBJECT
 10
1869.5
 20
-661.49999999999761
 30
0.0
 40
84.0
 50
178.97680669632871
 51
262.94651512902959
1001
ACDBBLOCKREPETAG
1070
     1
1071
      180
1005
135364
  0
LINE
  5
135365
  8
OBJECT
 10
1894.0
 20
-749.17200317020843
 30
0.0
 11
1859.1851511871159
 21
-744.86428428270153
 31
0.0
1001
ACDBBLOCKREPETAG
1070
     1
1071
      181
1005
135365
  0
LINE
  5
135366
  8
OBJECT
 10
1893.9999999999959
 20
-749.99999999999852
 30
0.0
 11
1893.9999999999959
 21
-628.99999999999761
 31
0.0
1001
ACDBBLOCKREPETAG
1070
     1
1071
      182
1005
135366
  0
ARC
  5
135367
  8
OBJECT
 10
1896.9999999999959
 20
-749.99999999999852
 30
0.0
 40
3.0
 50
180.0
 51
270.0
1001
ACDBBLOCKREPETAG
1070
     1
1071
      183
1005
135367
  0
LINE
  5
135368
  8
OBJECT
 10
1883.8297019999991
 20
-627.99999999999761
 30
0.0
 11
1756.0
 21
-627.99999999999761
 31
0.0
1001
ACDBBLOCKREPETAG
1070
     1
1071
      184
1005
135368
  0
LINE
  5
135369
  8
OBJECT
 10
1874.9460861482769
 20
-635.65708264965485
 30
0.0
 11
1778.9999999999959
 21
-635.65708264965485
 31
0.0
1001
ACDBBLOCKREPETAG
1070
     1
1071
      185
1005
135369
  0
LINE
  5
13536A
  8
OBJECT
 10
1775.0
 20
-630.89006764214673
 30
0.0
 11
1778.9999999999959
 21
-635.65708264965485
 31
0.0
1001
ACDBBLOCKREPETAG
1070
     1
1071
      186
1005
13536A
  0
LINE
  5
13536B
  8
OBJECT
 10
1890.9999999999959
 20
-614.99999999999761
 30
0.0
 11
1890.999999999993
 21
-628.99999999999761
 31
0.0
1001
ACDBBLOCKREPETAG
1070
     1
1071
      187
1005
13536B
  0
LINE
  5
13536C
  8
HIDDEN
 10
1874.5
 20
-654.9999999999975
 30
0.0
 11
1785.5
 21
-654.9999999999975
 31
0.0
1001
ACDBBLOCKREPETAG
1070
     1
1071
      188
1005
13536C
  0
LINE
  5
13536D
  8
OBJECT
 10
1866.0
 20
-580.99999999999761
 30
0.0
 11
1858.0
 21
-580.99999999999761
 31
0.0
1001
ACDBBLOCKREPETAG
1070
     1
1071
      189
1005
13536D
  0
LINE
  5
13536E
  8
OBJECT
 10
1858.0
 20
-582.99999999999761
 30
0.0
 11
1858.0
 21
-580.99999999999761
 31
0.0
1001
ACDBBLOCKREPETAG
1070
     1
1071
      190
1005
13536E
  0
LINE
  5
13536F
  8
OBJECT
 10
1869.505553499464
 20
-582.99999999999761
 30
0.0
 11
1854.4944465005351
 21
-582.99999999999761
 31
0.0
1001
ACDBBLOCKREPETAG
1070
     1
1071
      191
1005
13536F
  0
LINE
  5
135370
  8
CENTER
 10
1830.0
 20
-674.77158855533025
 30
0.0
 11
1830.0
 21
-574.49999999999761
 31
0.0
1001
ACDBBLOCKREPETAG
1070
     1
1071
      193
1005
135370
  0
LINE
  5
135371
  8
OBJECT
 10
1900.0
 20
-752.99999999999773
 30
0.0
 11
1896.9999999999959
 21
-752.99999999999852
 31
0.0
1001
ACDBBLOCKREPETAG
1070
     1
1071
      194
1005
135371
  0
LINE
  5
135372
  8
OBJECT
 10
1900.0
 20
-628.99999999999761
 30
0.0
 11
1890.999999999993
 21
-628.99999999999761
 31
0.0
1001
ACDBBLOCKREPETAG
1070
     1
1071
      195
1005
135372
  0
LINE
  5
135373
  8
OBJECT
 10
1865.752803021604
 20
-589.49998110540889
 30
0.0
 11
1865.752803021604
 21
-582.99998110540901
 31
0.0
1001
ACDBBLOCKREPETAG
1070
     1
1071
      196
1005
135373
  0
LINE
  5
135374
  8
OBJECT
 10
1854.4944465005351
 20
-589.49999999999761
 30
0.0
 11
1854.4944465005351
 21
-582.99999999999761
 31
0.0
1001
ACDBBLOCKREPETAG
1070
     1
1071
      197
1005
135374
  0
LINE
  5
135375
  8
OBJECT
 10
1858.247196978394
 20
-589.49998110540889
 30
0.0
 11
1858.247196978394
 21
-582.99998110540901
 31
0.0
1001
ACDBBLOCKREPETAG
1070
     1
1071
      198
1005
135375
  0
LINE
  5
135376
  8
OBJECT
 10
1770.0
 20
-582.99999999999761
 30
0.0
 11
1770.0
 21
-580.99999999999761
 31
0.0
1001
ACDBBLOCKREPETAG
1070
     1
1071
      199
1005
135376
  0
LINE
  5
135377
  8
OBJECT
 10
1770.0
 20
-614.99999999999761
 30
0.0
 11
1770.0
 21
-602.49999999999761
 31
0.0
1001
ACDBBLOCKREPETAG
1070
     1
1071
      200
1005
135377
  0
LINE
  5
135378
  8
OBJECT
 10
1762.0
 20
-614.99999999999761
 30
0.0
 11
1762.0
 21
-602.49999999999761
 31
0.0
1001
ACDBBLOCKREPETAG
1070
     1
1071
      201
1005
135378
  0
LINE
  5
135379
  8
OBJECT
 10
1773.505553499464
 20
-589.49999999999761
 30
0.0
 11
1773.505553499464
 21
-582.99999999999761
 31
0.0
1001
ACDBBLOCKREPETAG
1070
     1
1071
      202
1005
135379
  0
LINE
  5
13537A
  8
OBJECT
 10
1775.0
 20
-627.99999999999761
 30
0.0
 11
1775.0
 21
-632.99999999999761
 31
0.0
1001
ACDBBLOCKREPETAG
1070
     1
1071
      203
1005
13537A
  0
LINE
  5
13537B
  8
OBJECT
 10
1775.0
 20
-632.99999999999761
 30
0.0
 11
1757.0
 21
-632.99999999999761
 31
0.0
1001
ACDBBLOCKREPETAG
1070
     1
1071
      204
1005
13537B
  0
LINE
  5
13537C
  8
OBJECT
 10
1757.0
 20
-627.99999999999761
 30
0.0
 11
1757.0
 21
-632.99999999999761
 31
0.0
1001
ACDBBLOCKREPETAG
1070
     1
1071
      205
1005
13537C
  0
LINE
  5
13537D
  8
OBJECT
 10
1770.0
 20
-580.99999999999761
 30
0.0
 11
1762.0
 21
-580.99999999999761
 31
0.0
1001
ACDBBLOCKREPETAG
1070
     1
1071
      206
1005
13537D
  0
LINE
  5
13537E
  8
OBJECT
 10
1762.0
 20
-582.99999999999761
 30
0.0
 11
1762.0
 21
-580.99999999999761
 31
0.0
1001
ACDBBLOCKREPETAG
1070
     1
1071
      207
1005
13537E
  0
LINE
  5
13537F
  8
OBJECT
 10
1773.505553499464
 20
-582.99999999999761
 30
0.0
 11
1758.494446500536
 21
-582.99999999999761
 31
0.0
1001
ACDBBLOCKREPETAG
1070
     1
1071
      208
1005
13537F
  0
LINE
  5
135380
  8
OBJECT
 10
1769.7528030216049
 20
-589.49998110540889
 30
0.0
 11
1769.7528030216049
 21
-582.99998110540901
 31
0.0
1001
ACDBBLOCKREPETAG
1070
     1
1071
      209
1005
135380
  0
LINE
  5
135381
  8
OBJECT
 10
1758.494446500536
 20
-589.49999999999761
 30
0.0
 11
1758.494446500536
 21
-582.99999999999761
 31
0.0
1001
ACDBBLOCKREPETAG
1070
     1
1071
      210
1005
135381
  0
LINE
  5
135382
  8
OBJECT
 10
1762.2471969783951
 20
-589.49998110540889
 30
0.0
 11
1762.2471969783951
 21
-582.99998110540901
 31
0.0
1001
ACDBBLOCKREPETAG
1070
     1
1071
      211
1005
135382
  0
CIRCLE
  5
135383
  8
OBJECT
 10
2000.0
 20
-690.99999999999761
 30
0.0
 40
62.0
1001
ACDBBLOCKREPETAG
1070
     1
1071
        0
1005
135383
  0
LINE
  5
135384
  8
OBJECT
 10
2095.0
 20
-569.99999999999955
 30
0.0
 11
1905.0
 21
-569.99999999999955
 31
0.0
1001
ACDBBLOCKREPETAG
1070
     1
1071
        0
1005
135384
  0
LINE
  5
135385
  8
OBJECT
 10
2095.0
 20
-549.99999999999955
 30
0.0
 11
1905.0
 21
-549.99999999999955
 31
0.0
1001
ACDBBLOCKREPETAG
1070
     1
1071
        1
1005
135385
  0
LINE
  5
135386
  8
OBJECT
 10
1902.5
 20
-914.99999999999955
 30
0.0
 11
2097.5
 21
-914.99999999999955
 31
0.0
1001
ACDBBLOCKREPETAG
1070
     1
1071
        2
1005
135386
  0
LINE
  5
135387
  8
OBJECT
 10
1908.237046000002
 20
-549.99999999999955
 30
0.0
 11
1908.2370465822601
 21
-569.99999999999955
 31
0.0
1001
ACDBBLOCKREPETAG
1070
     1
1071
        3
1005
135387
  0
LINE
  5
135388
  8
OBJECT
 10
1905.0
 20
-549.99999999999955
 30
0.0
 11
1905.0
 21
-569.99999999999955
 31
0.0
1001
ACDBBLOCKREPETAG
1070
     1
1071
        4
1005
135388
  0
LINE
  5
135389
  8
OBJECT
 10
1916.024909
 20
-549.99999999999955
 30
0.0
 11
1916.024909
 21
-569.99999999999955
 31
0.0
1001
ACDBBLOCKREPETAG
1070
     1
1071
        5
1005
135389
  0
LINE
  5
13538A
  8
OBJECT
 10
1967.6243270000009
 20
-549.99999999999955
 30
0.0
 11
1967.6243270000009
 21
-569.99999999999955
 31
0.0
1001
ACDBBLOCKREPETAG
1070
     1
1071
        6
1005
13538A
  0
LINE
  5
13538B
  8
OBJECT
 10
1975.4121899999991
 20
-549.99999999999955
 30
0.0
 11
1975.4121899999991
 21
-569.99999999999955
 31
0.0
1001
ACDBBLOCKREPETAG
1070
     1
1071
        7
1005
13538B
  0
LINE
  5
13538C
  8
OBJECT
 10
2024.587809000001
 20
-549.99999999999955
 30
0.0
 11
2024.587809000001
 21
-569.99999999999955
 31
0.0
1001
ACDBBLOCKREPETAG
1070
     1
1071
        8
1005
13538C
  0
LINE
  5
13538D
  8
OBJECT
 10
2032.3756720000019
 20
-549.99999999999955
 30
0.0
 11
2032.3756720000019
 21
-569.99999999999955
 31
0.0
1001
ACDBBLOCKREPETAG
1070
     1
1071
        9
1005
13538D
  0
LINE
  5
13538E
  8
OBJECT
 10
2083.9750910000012
 20
-549.99999999999955
 30
0.0
 11
2083.9750910000012
 21
-569.99999999999955
 31
0.0
1001
ACDBBLOCKREPETAG
1070
     1
1071
       10
1005
13538E
  0
LINE
  5
13538F
  8
OBJECT
 10
2091.762953999998
 20
-549.99999999999955
 30
0.0
 11
2091.7629534177431
 21
-569.99999999999955
 31
0.0
1001
ACDBBLOCKREPETAG
1070
     1
1071
       11
1005
13538F
  0
LINE
  5
135390
  8
OBJECT
 10
2095.0
 20
-549.99999999999955
 30
0.0
 11
2095.0
 21
-569.99999999999955
 31
0.0
1001
ACDBBLOCKREPETAG
1070
     1
1071
       12
1005
135390
  0
LINE
  5
135391
  8
OBJECT
 10
2100.0
 20
-628.99999999999955
 30
0.0
 11
1900.0
 21
-628.99999999999955
 31
0.0
1001
ACDBBLOCKREPETAG
1070
     1
1071
       13
1005
135391
  0
LINE
  5
135392
  8
OBJECT
 10
2100.0
 20
-752.99999999999773
 30
0.0
 11
2092.5
 21
-752.99999999999773
 31
0.0
1001
ACDBBLOCKREPETAG
1070
     1
1071
       14
1005
135392
  0
LINE
  5
135393
  8
OBJECT
 10
1902.5
 20
-914.99999999999955
 30
0.0
 11
1902.5
 21
-902.99999999999784
 31
0.0
1001
ACDBBLOCKREPETAG
1070
     1
1071
       15
1005
135393
  0
LINE
  5
135394
  8
OBJECT
 10
2097.5
 20
-914.99999999999955
 30
0.0
 11
2097.5
 21
-902.99999999999784
 31
0.0
1001
ACDBBLOCKREPETAG
1070
     1
1071
       16
1005
135394
  0
LINE
  5
135395
  8
OBJECT
 10
1902.5
 20
-902.99999999999784
 30
0.0
 11
2097.5
 21
-902.99999999999784
 31
0.0
1001
ACDBBLOCKREPETAG
1070
     1
1071
       17
1005
135395
  0
LINE
  5
135396
  8
HIDDEN
 10
1930.0
 20
-624.99999999999955
 30
0.0
 11
2070.0
 21
-624.99999999999955
 31
0.0
1001
ACDBBLOCKREPETAG
1070
     1
1071
       18
1005
135396
  0
LINE
  5
135397
  8
CENTER
 10
2000.0
 20
-534.99999999999955
 30
0.0
 11
2000.0
 21
-914.99999999999955
 31
0.0
1001
ACDBBLOCKREPETAG
1070
     1
1071
       19
1005
135397
  0
LINE
  5
135398
  8
OBJECT
 10
2092.5
 20
-752.99999999999773
 30
0.0
 11
2092.5
 21
-902.99999999999784
 31
0.0
1001
ACDBBLOCKREPETAG
1070
     1
1071
       20
1005
135398
  0
LINE
  5
135399
  8
OBJECT
 10
1914.5
 20
-569.99999999999955
 30
0.0
 11
1914.5
 21
-628.99999999999955
 31
0.0
1001
ACDBBLOCKREPETAG
1070
     1
1071
       21
1005
135399
  0
LINE
  5
13539A
  8
OBJECT
 10
2085.5
 20
-569.99999999999955
 30
0.0
 11
2085.5
 21
-628.99999999999955
 31
0.0
1001
ACDBBLOCKREPETAG
1070
     1
1071
       22
1005
13539A
  0
POINT
  5
13539B
  8
DOTS
 10
2000.0
 20
-749.99999999999955
 30
0.0
1001
ACDBBLOCKREPETAG
1070
     1
1071
       24
1005
13539B
  0
LINE
  5
13539C
  8
OBJECT
 10
1900.0
 20
-752.99999999999773
 30
0.0
 11
1907.5
 21
-752.99999999999773
 31
0.0
1001
ACDBBLOCKREPETAG
1070
     1
1071
       25
1005
13539C
  0
LINE
  5
13539D
  8
OBJECT
 10
1907.5
 20
-752.99999999999773
 30
0.0
 11
1907.5
 21
-902.99999999999784
 31
0.0
1001
ACDBBLOCKREPETAG
1070
     1
1071
       26
1005
13539D
  0
ARC
  5
13539E
  8
OBJECT
 10
2214.4155190291499
 20
-715.62073879202455
 30
0.0
 40
149.554492306393
 50
144.60628028468801
 51
164.2211863995189
1001
ACDBBLOCKREPETAG
1070
     1
1071
       28
1005
13539E
  0
ARC
  5
13539F
  8
OBJECT
 10
2139.1422781245269
 20
-690.99999999999761
 30
0.0
 40
70.496447952551449
 50
166.84269182358281
 51
193.1573081764171
1001
ACDBBLOCKREPETAG
1070
     1
1071
       29
1005
13539F
  0
ARC
  5
1353A0
  8
OBJECT
 10
2214.4155190291499
 20
-666.3792612079701
 30
0.0
 40
149.55449230639621
 50
195.7788136004809
 51
215.3937197153119
1001
ACDBBLOCKREPETAG
1070
     1
1071
       30
1005
1353A0
  0
ARC
  5
1353A1
  8
OBJECT
 10
1785.5844809708501
 20
-715.62073879202455
 30
0.0
 40
149.554492306393
 50
15.77881360052846
 51
35.393719715228642
1001
ACDBBLOCKREPETAG
1070
     1
1071
       31
1005
1353A1
  0
ARC
  5
1353A2
  8
OBJECT
 10
1860.8577218754731
 20
-690.99999999999761
 30
0.0
 40
70.496447952551449
 50
346.84269182358292
 51
13.15730817641716
1001
ACDBBLOCKREPETAG
1070
     1
1071
       32
1005
1353A2
  0
ARC
  5
1353A3
  8
OBJECT
 10
1785.5844809708501
 20
-666.3792612079701
 30
0.0
 40
149.55449230639621
 50
324.60628028477117
 51
344.22118639947161
1001
ACDBBLOCKREPETAG
1070
     1
1071
       33
1005
1353A3
  0
LINE
  5
1353A4
  8
CENTER
 10
1899.9999999999959
 20
-199.99999999999909
 30
0.0
 11
1740.9999999999959
 21
-199.99999999999909
 31
0.0
1001
ACDBBLOCKREPETAG
1070
     1
1071
      155
1005
1353A4
  0
LINE
  5
1353A5
  8
OBJECT
 10
1899.9999999999959
 20
-261.99999999999909
 30
0.0
 11
1896.9999999999959
 21
-261.99999999999909
 31
0.0
1001
ACDBBLOCKREPETAG
1070
     1
1071
      156
1005
1353A5
  0
ARC
  5
1353A6
  8
OBJECT
 10
1896.9999999999959
 20
-258.99999999999909
 30
0.0
 40
3.0
 50
180.0
 51
270.0
1001
ACDBBLOCKREPETAG
1070
     1
1071
      157
1005
1353A6
  0
LINE
  5
1353A7
  8
OBJECT
 10
1899.9999999999959
 20
-138.0000000000027
 30
0.0
 11
1896.9999999999959
 21
-138.0000000000027
 31
0.0
1001
ACDBBLOCKREPETAG
1070
     1
1071
      158
1005
1353A7
  0
LINE
  5
1353A8
  8
OBJECT
 10
1893.9999999999959
 20
-140.99999999999909
 30
0.0
 11
1871.345272406463
 21
-140.9999999999954
 31
0.0
1001
ACDBBLOCKREPETAG
1070
     1
1071
      159
1005
1353A8
  0
LINE
  5
1353A9
  8
OBJECT
 10
1893.9999999999959
 20
-259.00000000000267
 30
0.0
 11
1871.345272406463
 21
-258.99999999999909
 31
0.0
1001
ACDBBLOCKREPETAG
1070
     1
1071
      160
1005
1353A9
  0
LINE
  5
1353AA
  8
CENTER
 10
1829.9999999999959
 20
-123.5195984073716
 30
0.0
 11
1829.9999999999959
 21
-276.48040159262649
 31
0.0
1001
ACDBBLOCKREPETAG
1070
     1
1071
      161
1005
1353AA
  0
LINE
  5
1353AB
  8
OBJECT
 10
1893.9999999999959
 20
-141.0000000000027
 30
0.0
 11
1893.9999999999959
 21
-258.99999999999909
 31
0.0
1001
ACDBBLOCKREPETAG
1070
     1
1071
      162
1005
1353AB
  0
ARC
  5
1353AC
  8
OBJECT
 10
1896.9999999999959
 20
-141.0000000000027
 30
0.0
 40
3.0
 50
90.0
 51
180.0
1001
ACDBBLOCKREPETAG
1070
     1
1071
      163
1005
1353AC
  0
ARC
  5
1353AD
  8
OBJECT
 10
1829.9999999999959
 20
-199.99999999999909
 30
0.0
 40
61.0
 50
97.16728546129427
 51
142.83271453872419
1001
ACDBBLOCKREPETAG
1070
     1
1071
      165
1005
1353AD
  0
ARC
  5
1353AE
  8
OBJECT
 10
1829.9999999999959
 20
-199.99999999999909
 30
0.0
 40
61.0
 50
337.16728546124438
 51
22.832714538755649
1001
ACDBBLOCKREPETAG
1070
     1
1071
      166
1005
1353AE
  0
ARC
  5
1353AF
  8
OBJECT
 10
1829.9999999999959
 20
-199.99999999999909
 30
0.0
 40
61.0
 50
217.16728546127581
 51
262.83271453870572
1001
ACDBBLOCKREPETAG
1070
     1
1071
      167
1005
1353AF
  0
CIRCLE
  5
1353B0
  8
SLIM
 10
1765.9999999999959
 20
-199.99999999999909
 30
0.0
 40
4.0
1001
ACDBBLOCKREPETAG
1070
     1
1071
      168
1005
1353B0
  0
ARC
  5
1353B1
  8
OBJECT
 10
1765.9999999999959
 20
-199.99999999999909
 30
0.0
 40
10.0
 50
142.83271453872419
 51
217.16728546127581
1001
ACDBBLOCKREPETAG
1070
     1
1071
      169
1005
1353B1
  0
LINE
  5
1353B2
  8
OBJECT
 10
1781.390625
 20
-163.14720279124501
 30
0.0
 11
1758.0312499999959
 21
-193.9585578346296
 31
0.0
1001
ACDBBLOCKREPETAG
1070
     1
1071
      170
1005
1353B2
  0
LINE
  5
1353B3
  8
OBJECT
 10
1781.390625
 20
-236.8527972087532
 30
0.0
 11
1758.0312499999959
 21
-206.04144216536861
 31
0.0
1001
ACDBBLOCKREPETAG
1070
     1
1071
      171
1005
1353B3
  0
CIRCLE
  5
1353B4
  8
SLIM
 10
1861.9999999999959
 20
-144.5743741577962
 30
0.0
 40
3.9999999999999991
1001
ACDBBLOCKREPETAG
1070
     1
1071
      172
1005
1353B4
  0
ARC
  5
1353B5
  8
OBJECT
 10
1861.9999999999959
 20
-144.5743741577962
 30
0.0
 40
9.9999999999999982
 50
22.832714538755649
 51
97.16728546129427
1001
ACDBBLOCKREPETAG
1070
     1
1071
      173
1005
1353B5
  0
LINE
  5
1353B6
  8
OBJECT
 10
1886.220146083291
 20
-176.32944499229319
 30
0.0
 11
1871.2164173906999
 21
-140.6939553040711
 31
0.0
1001
ACDBBLOCKREPETAG
1070
     1
1071
      174
1005
1353B6
  0
LINE
  5
1353B7
  8
OBJECT
 10
1822.389228916697
 20
-139.47664778353919
 30
0.0
 11
1860.7523326092919
 21
-134.65251313870161
 31
0.0
1001
ACDBBLOCKREPETAG
1070
     1
1071
      175
1005
1353B7
  0
CIRCLE
  5
1353B8
  8
SLIM
 10
1861.9999999999959
 20
-255.4256258422019
 30
0.0
 40
4.0
1001
ACDBBLOCKREPETAG
1070
     1
1071
      176
1005
1353B8
  0
ARC
  5
1353B9
  8
OBJECT
 10
1861.9999999999959
 20
-255.4256258422019
 30
0.0
 40
10.0
 50
262.83271453870572
 51
337.16728546124438
1001
ACDBBLOCKREPETAG
1070
     1
1071
      177
1005
1353B9
  0
LINE
  5
1353BA
  8
OBJECT
 10
1822.389228916697
 20
-260.52335221645899
 30
0.0
 11
1860.7523326092919
 21
-265.3474868612966
 31
0.0
1001
ACDBBLOCKREPETAG
1070
     1
1071
      178
1005
1353BA
  0
LINE
  5
1353BB
  8
OBJECT
 10
1886.220146083291
 20
-223.67055500770491
 30
0.0
 11
1871.2164173906999
 21
-259.30604469592708
 31
0.0
1001
ACDBBLOCKREPETAG
1070
     1
1071
      179
1005
1353BB
  0
CIRCLE
  5
1353BC
  8
OBJECT
 10
1829.9999999999959
 20
-199.99999999999909
 30
0.0
 40
46.0
1001
ACDBBLOCKREPETAG
1070
     1
1071
      180
1005
1353BC
  0
POLYLINE
  5
1353BD
  8
SLIM
 66
     1
 10
0.0
 20
0.0
 30
0.0
 70
     1
1001
ACDBBLOCKREPETAG
1070
     1
1071
      181
1005
1353BD
  0
VERTEX
  5
1356D8
  8
SLIM
 10
1769.7527767497299
 20
-193.49999999999909
 30
0.0
  0
VERTEX
  5
1356D9
  8
SLIM
 10
1773.505553499461
 20
-199.99999999999909
 30
0.0
  0
VERTEX
  5
1356DA
  8
SLIM
 10
1769.7527767497299
 20
-206.49999999999909
 30
0.0
  0
VERTEX
  5
1356DB
  8
SLIM
 10
1762.2472232502621
 20
-206.49999999999909
 30
0.0
  0
VERTEX
  5
1356DC
  8
SLIM
 10
1758.4944465005319
 20
-199.99999999999909
 30
0.0
  0
VERTEX
  5
1356DD
  8
SLIM
 10
1762.2472232502621
 20
-193.49999999999909
 30
0.0
  0
SEQEND
  5
1356DE
  8
SLIM
  0
POLYLINE
  5
1353BE
  8
SLIM
 66
     1
 10
0.0
 20
0.0
 30
0.0
 70
     1
1001
ACDBBLOCKREPETAG
1070
     1
1071
      182
1005
1353BE
  0
VERTEX
  5
1356DF
  8
SLIM
 10
1865.752776749727
 20
-151.0743741577962
 30
0.0
  0
VERTEX
  5
1356E0
  8
SLIM
 10
1858.2472232502621
 20
-151.0743741577962
 30
0.0
  0
VERTEX
  5
1356E1
  8
SLIM
 10
1854.4944465005319
 20
-144.5743741577962
 30
0.0
  0
VERTEX
  5
1356E2
  8
SLIM
 10
1858.247223250266
 20
-138.07437415779259
 30
0.0
  0
VERTEX
  5
1356E3
  8
SLIM
 10
1865.752776749727
 20
-138.0743741577962
 30
0.0
  0
VERTEX
  5
1356E4
  8
SLIM
 10
1869.505553499461
 20
-144.57437415779259
 30
0.0
  0
SEQEND
  5
1356E5
  8
SLIM
  0
POLYLINE
  5
1353BF
  8
SLIM
 66
     1
 10
0.0
 20
0.0
 30
0.0
 70
     1
1001
ACDBBLOCKREPETAG
1070
     1
1071
      183
1005
1353BF
  0
VERTEX
  5
1356E6
  8
SLIM
 10
1854.4944465005319
 20
-255.4256258422019
 30
0.0
  0
VERTEX
  5
1356E7
  8
SLIM
 10
1858.247223250266
 20
-248.9256258422019
 30
0.0
  0
VERTEX
  5
1356E8
  8
SLIM
 10
1865.752776749727
 20
-248.9256258422019
 30
0.0
  0
VERTEX
  5
1356E9
  8
SLIM
 10
1869.505553499461
 20
-255.42562584220559
 30
0.0
  0
VERTEX
  5
1356EA
  8
SLIM
 10
1865.752776749729
 20
-261.9256258422019
 30
0.0
  0
VERTEX
  5
1356EB
  8
SLIM
 10
1858.247223250266
 20
-261.92562584220559
 30
0.0
  0
SEQEND
  5
1356EC
  8
SLIM
  0
LINE
  5
1353C0
  8
CENTER
 10
2000.000000000003
 20
-320.99999999999898
 30
0.0
 11
2000.000000000003
 21
-299.99999999999898
 31
0.0
1001
ACDBBLOCKREPETAG
1070
     1
1071
        0
1005
1353C0
  0
LINE
  5
1353C1
  8
OBJECT
 10
2062.0000000000041
 20
-303.0
 30
0.0
 11
2062.0000000000041
 21
-299.99999999999898
 31
0.0
1001
ACDBBLOCKREPETAG
1070
     1
1071
        1
1005
1353C1
  0
ARC
  5
1353C2
  8
OBJECT
 10
2059.0000000000041
 20
-303.0
 30
0.0
 40
3.0
 50
270.0
 51
0.0
1001
ACDBBLOCKREPETAG
1070
     1
1071
        2
1005
1353C2
  0
LINE
  5
1353C3
  8
OBJECT
 10
1938.0000000000041
 20
-299.99999999999898
 30
0.0
 11
1938.0000000000041
 21
-302.99999999999818
 31
0.0
1001
ACDBBLOCKREPETAG
1070
     1
1071
        3
1005
1353C3
  0
ARC
  5
1353C4
  8
OBJECT
 10
1941.000000000003
 20
-302.99999999999818
 30
0.0
 40
3.0
 50
180.0
 51
270.0
1001
ACDBBLOCKREPETAG
1070
     1
1071
        4
1005
1353C4
  0
LINE
  5
1353C5
  8
OBJECT
 10
1941.000000000003
 20
-305.99999999999818
 30
0.0
 11
2059.0000000000041
 21
-306.0
 31
0.0
1001
ACDBBLOCKREPETAG
1070
     1
1071
        5
1005
1353C5
  0
ARC
  5
1353C6
  8
OBJECT
 10
1973.8931207053249
 20
-173.82438331578209
 30
0.0
 40
90.0
 50
274.21795726566182
 51
281.60300086770189
1001
ACDBBLOCKREPETAG
1070
     1
1071
        0
1005
1353C6
  0
LINE
  5
1353C7
  8
OBJECT
 10
1991.9947509999911
 20
-261.98520799999727
 30
0.0
 11
1996.6424319999919
 21
-248.3387539999994
 31
0.0
1001
ACDBBLOCKREPETAG
1070
     1
1071
       28
1005
1353C7
  0
LINE
  5
1353C8
  8
OBJECT
 10
1955.28879609768
 20
-207.0733020425842
 30
0.0
 11
1935.60541864211
 21
-216.60084009147889
 31
0.0
1001
ACDBBLOCKREPETAG
1070
     1
1071
       29
1005
1353C8
  0
LINE
  5
1353C9
  8
OBJECT
 10
1937.335063923862
 20
-222.25658973369261
 30
0.0
 11
1961.7560738851171
 21
-210.43584915155679
 31
0.0
1001
ACDBBLOCKREPETAG
1070
     1
1071
       30
1005
1353C9
  0
LINE
  5
1353CA
  8
OBJECT
 10
1996.6424319999919
 20
-248.3387539999994
 30
0.0
 11
1970.3289245926419
 21
-210.9660806555467
 31
0.0
1001
ACDBBLOCKREPETAG
1070
     1
1071
       31
1005
1353CA
  0
ARC
  5
1353CB
  8
OBJECT
 10
1960.51700480005
 20
-217.87449798398211
 30
0.0
 40
12.0
 50
35.148769561169452
 51
115.8288295732507
1001
ACDBBLOCKREPETAG
1070
     1
1071
      259
1005
1353CB
  0
ARC
  5
1353CC
  8
OBJECT
 10
1965.241546317978
 20
-217.63664646295089
 30
0.0
 40
8.0
 50
35.148769561169452
 51
115.8288292916689
1001
ACDBBLOCKREPETAG
1070
     1
1071
      260
1005
1353CC
  0
ARC
  5
1353CD
  8
OBJECT
 10
2000.0
 20
-199.99999999999909
 30
0.0
 40
90.0
 50
201.08359599996669
 51
248.9164040000301
1001
ACDBBLOCKREPETAG
1070
     1
1071
      268
1005
1353CD
  0
ARC
  5
1353CE
  8
OBJECT
 10
2000.0
 20
-199.99999999999909
 30
0.0
 40
90.0
 50
111.0835959999699
 51
158.9164034710258
1001
ACDBBLOCKREPETAG
1070
     1
1071
      269
1005
1353CE
  0
LINE
  5
1353CF
  8
OBJECT
 10
1916.024909444865
 20
-167.62432755513231
 30
0.0
 11
1908.2370465822601
 21
-175.4121904177382
 31
0.0
1001
ACDBBLOCKREPETAG
1070
     1
1071
      270
1005
1353CF
  0
LINE
  5
1353D0
  8
OBJECT
 10
1916.024909
 20
-232.37567199999921
 30
0.0
 11
1908.2370469998129
 21
-224.58781114059909
 31
0.0
1001
ACDBBLOCKREPETAG
1070
     1
1071
      271
1005
1353D0
  0
ARC
  5
1353D1
  8
OBJECT
 10
2000.0
 20
-199.99999999999909
 30
0.0
 40
95.0
 50
164.9999998142064
 51
195.00000115869909
1001
ACDBBLOCKREPETAG
1070
     1
1071
      272
1005
1353D1
  0
ARC
  5
1353D2
  8
OBJECT
 10
2000.0
 20
-199.99999999999909
 30
0.0
 40
92.5
 50
287.80189678393282
 51
342.19810359942011
1001
ACDBBLOCKREPETAG
1070
     1
1071
        1
1005
1353D2
  0
ARC
  5
1353D3
  8
OBJECT
 10
2000.0
 20
-199.99999999999909
 30
0.0
 40
90.0
 50
291.08359599996987
 51
338.9164040000332
1001
ACDBBLOCKREPETAG
1070
     1
1071
        3
1005
1353D3
  0
CIRCLE
  5
1353D4
  8
OBJECT
 10
2000.0
 20
-199.99999999999909
 30
0.0
 40
80.0
1001
ACDBBLOCKREPETAG
1070
     1
1071
        4
1005
1353D4
  0
ARC
  5
1353D5
  8
OBJECT
 10
2000.0
 20
-199.99999999999909
 30
0.0
 40
90.0
 50
21.083596528974049
 51
68.916404000030013
1001
ACDBBLOCKREPETAG
1070
     1
1071
        5
1005
1353D5
  0
CIRCLE
  5
1353D6
  8
OBJECT
 10
2000.0
 20
-199.99999999999909
 30
0.0
 40
66.5
1001
ACDBBLOCKREPETAG
1070
     1
1071
        7
1005
1353D6
  0
LINE
  5
1353D7
  8
OBJECT
 10
2083.9750905551341
 20
-167.62432755513231
 30
0.0
 11
2091.762953417739
 21
-175.4121904177382
 31
0.0
1001
ACDBBLOCKREPETAG
1070
     1
1071
        8
1005
1353D7
  0
LINE
  5
1353D8
  8
OBJECT
 10
2083.9750910000012
 20
-232.37567199999921
 30
0.0
 11
2091.7629530001868
 21
-224.58781114059909
 31
0.0
1001
ACDBBLOCKREPETAG
1070
     1
1071
        9
1005
1353D8
  0
ARC
  5
1353D9
  8
OBJECT
 10
2000.0
 20
-199.99999999999909
 30
0.0
 40
95.0
 50
344.99999884130068
 51
15.000000185793599
1001
ACDBBLOCKREPETAG
1070
     1
1071
       10
1005
1353D9
  0
LINE
  5
1353DA
  8
OBJECT
 10
2032.375672999998
 20
-283.9750909999994
 30
0.0
 11
2024.587810948284
 21
-291.76295305171419
 31
0.0
1001
ACDBBLOCKREPETAG
1070
     1
1071
       11
1005
1353DA
  0
LINE
  5
1353DB
  8
OBJECT
 10
1967.6243279999981
 20
-283.9750909999994
 30
0.0
 11
1975.41219041774
 21
-291.76295341774039
 31
0.0
1001
ACDBBLOCKREPETAG
1070
     1
1071
       12
1005
1353DB
  0
ARC
  5
1353DC
  8
OBJECT
 10
2000.0
 20
-199.99999999999909
 30
0.0
 40
95.0
 50
254.9999998142205
 51
285.00000103859719
1001
ACDBBLOCKREPETAG
1070
     1
1071
       13
1005
1353DC
  0
LINE
  5
1353DD
  8
OBJECT
 10
2032.375672999998
 20
-116.0249099999992
 30
0.0
 11
2024.5878095822591
 21
-108.2370465822578
 31
0.0
1001
ACDBBLOCKREPETAG
1070
     1
1071
       14
1005
1353DD
  0
ARC
  5
1353DE
  8
OBJECT
 10
2000.0
 20
-199.99999999999909
 30
0.0
 40
95.0
 50
74.999999814220544
 51
104.9999993327599
1001
ACDBBLOCKREPETAG
1070
     1
1071
       15
1005
1353DE
  0
LINE
  5
1353DF
  8
OBJECT
 10
1967.6243279999981
 20
-116.0249099999992
 30
0.0
 11
1975.412191783766
 21
-108.2370462162316
 31
0.0
1001
ACDBBLOCKREPETAG
1070
     1
1071
       16
1005
1353DF
  0
LINE
  5
1353E0
  8
OBJECT
 10
2055.1784370000032
 20
-162.884098999998
 30
0.0
 11
2032.534570109274
 21
-178.11554723457169
 31
0.0
1001
ACDBBLOCKREPETAG
1070
     1
1071
       17
1005
1353E0
  0
LINE
  5
1353E1
  8
OBJECT
 10
1944.804121000001
 20
-162.88106899999821
 30
0.0
 11
2032.534570109274
 21
-178.11554723457169
 31
0.0
1001
ACDBBLOCKREPETAG
1070
     1
1071
       18
1005
1353E1
  0
ARC
  5
1353E2
  8
OBJECT
 10
2000.0
 20
-199.99999999999909
 30
0.0
 40
92.5
 50
197.80189544246551
 51
252.19810417429329
1001
ACDBBLOCKREPETAG
1070
     1
1071
       22
1005
1353E2
  0
ARC
  5
1353E3
  8
OBJECT
 10
2000.0
 20
-199.99999999999909
 30
0.0
 40
92.5
 50
107.80189486746769
 51
162.1981051326415
1001
ACDBBLOCKREPETAG
1070
     1
1071
       23
1005
1353E3
  0
ARC
  5
1353E4
  8
OBJECT
 10
2000.0
 20
-199.99999999999909
 30
0.0
 40
92.5
 50
17.80189582568811
 51
72.198104174293292
1001
ACDBBLOCKREPETAG
1070
     1
1071
       24
1005
1353E4
  0
ARC
  5
1353E5
  8
OBJECT
 10
2000.0
 20
-199.99999999999909
 30
0.0
 40
62.5
 50
144.42390307809791
 51
193.7174643727671
1001
ACDBBLOCKREPETAG
1070
     1
1071
       26
1005
1353E5
  0
ARC
  5
1353E6
  8
OBJECT
 10
2000.0
 20
-199.99999999999909
 30
0.0
 40
62.5
 50
262.64111297834887
 51
33.92683896333525
1001
ACDBBLOCKREPETAG
1070
     1
1071
       27
1005
1353E6
  0
LINE
  5
1353E7
  8
OBJECT
 10
2068.6458301719758
 20
-137.99999999999909
 30
0.0
 11
2100.0
 21
-137.99999999999909
 31
0.0
1001
ACDBBLOCKREPETAG
1070
     1
1071
       33
1005
1353E7
  0
LINE
  5
1353E8
  8
OBJECT
 10
2068.6458301719758
 20
-261.99999999999909
 30
0.0
 11
2100.0000000000041
 21
-261.99999999999909
 31
0.0
1001
ACDBBLOCKREPETAG
1070
     1
1071
       34
1005
1353E8
  0
LINE
  5
1353E9
  8
OBJECT
 10
2062.0
 20
-268.64583017197862
 30
0.0
 11
2062.0000000000041
 21
-299.99999999999898
 31
0.0
1001
ACDBBLOCKREPETAG
1070
     1
1071
       35
1005
1353E9
  0
LINE
  5
1353EA
  8
OBJECT
 10
1937.9999999999959
 20
-268.64583017197492
 30
0.0
 11
1938.0
 21
-299.99999999999898
 31
0.0
1001
ACDBBLOCKREPETAG
1070
     1
1071
       36
1005
1353EA
  0
LINE
  5
1353EB
  8
OBJECT
 10
1931.3541698280239
 20
-261.99999999999909
 30
0.0
 11
1899.9999999999959
 21
-261.99999999999909
 31
0.0
1001
ACDBBLOCKREPETAG
1070
     1
1071
       37
1005
1353EB
  0
LINE
  5
1353EC
  8
OBJECT
 10
1931.3541698280201
 20
-137.99999999999909
 30
0.0
 11
1899.9999999999959
 21
-137.99999999999909
 31
0.0
1001
ACDBBLOCKREPETAG
1070
     1
1071
       38
1005
1353EC
  0
ARC
  5
1353ED
  8
OBJECT
 10
2000.0
 20
-199.99999999999909
 30
0.0
 40
97.5
 50
39.486577433836892
 51
140.51342256616309
1001
ACDBBLOCKREPETAG
1070
     1
1071
       39
1005
1353ED
  0
ARC
  5
1353EE
  8
OBJECT
 10
2000.0
 20
-199.99999999999909
 30
0.0
 40
97.5
 50
219.48657743383691
 51
230.5134225661574
1001
ACDBBLOCKREPETAG
1070
     1
1071
       40
1005
1353EE
  0
ARC
  5
1353EF
  8
OBJECT
 10
2000.0
 20
-199.99999999999909
 30
0.0
 40
97.5
 50
309.48657743384149
 51
320.51342256616311
1001
ACDBBLOCKREPETAG
1070
     1
1071
       41
1005
1353EF
  0
LINE
  5
1353F0
  8
CENTER
 10
1900.0
 20
-199.99999999999909
 30
0.0
 11
2100.0
 21
-199.99999999999909
 31
0.0
1001
ACDBBLOCKREPETAG
1070
     1
1071
       42
1005
1353F0
  0
LINE
  5
1353F1
  8
CENTER
 10
2000.0
 20
-86.499999999999091
 30
0.0
 11
2000.0
 21
-299.99999999999898
 31
0.0
1001
ACDBBLOCKREPETAG
1070
     1
1071
       43
1005
1353F1
  0
POINT
  5
1353F2
  8
DOTS
 10
2000.0
 20
-199.99999999999909
 30
0.0
1001
ACDBBLOCKREPETAG
1070
     1
1071
      281
1005
1353F2
  0
LINE
  5
1353F3
  8
OBJECT
 10
2134.0
 20
-582.99999999999761
 30
0.0
 11
2134.0
 21
-580.99999999999761
 31
0.0
1001
ACDBBLOCKREPETAG
1070
     1
1071
      157
1005
1353F3
  0
ARC
  5
1353F4
  8
OBJECT
 10
2175.1865574982548
 20
-600.99999999999761
 30
0.0
 40
59.0
 50
229.20276883323919
 51
270.0
1001
ACDBBLOCKREPETAG
1070
     1
1071
      158
1005
1353F4
  0
LINE
  5
1353F5
  8
OBJECT
 10
2244.0
 20
-589.49999999999761
 30
0.0
 11
2109.0
 21
-589.49999999999761
 31
0.0
1001
ACDBBLOCKREPETAG
1070
     1
1071
      159
1005
1353F5
  0
LINE
  5
1353F6
  8
OBJECT
 10
2109.0
 20
-602.49999999999761
 30
0.0
 11
2244.0
 21
-602.49999999999761
 31
0.0
1001
ACDBBLOCKREPETAG
1070
     1
1071
      160
1005
1353F6
  0
LINE
  5
1353F7
  8
OBJECT
 10
2109.0
 20
-589.49999999999761
 30
0.0
 11
2109.0
 21
-602.49999999999761
 31
0.0
1001
ACDBBLOCKREPETAG
1070
     1
1071
      161
1005
1353F7
  0
LINE
  5
1353F8
  8
OBJECT
 10
2116.0
 20
-611.49999999999761
 30
0.0
 11
2116.0
 21
-602.49999999999761
 31
0.0
1001
ACDBBLOCKREPETAG
1070
     1
1071
      162
1005
1353F8
  0
LINE
  5
1353F9
  8
OBJECT
 10
2134.0
 20
-614.99999999999761
 30
0.0
 11
2134.0
 21
-602.49999999999761
 31
0.0
1001
ACDBBLOCKREPETAG
1070
     1
1071
      163
1005
1353F9
  0
LINE
  5
1353FA
  8
OBJECT
 10
2224.0
 20
-611.49999999999761
 30
0.0
 11
2224.0
 21
-602.49999999999761
 31
0.0
1001
ACDBBLOCKREPETAG
1070
     1
1071
      164
1005
1353FA
  0
LINE
  5
1353FB
  8
OBJECT
 10
2244.0
 20
-589.49999999999761
 30
0.0
 11
2244.0
 21
-602.49999999999761
 31
0.0
1001
ACDBBLOCKREPETAG
1070
     1
1071
      165
1005
1353FB
  0
LINE
  5
1353FC
  8
OBJECT
 10
2142.0
 20
-614.99999999999761
 30
0.0
 11
2142.0
 21
-602.49999999999761
 31
0.0
1001
ACDBBLOCKREPETAG
1070
     1
1071
      166
1005
1353FC
  0
LINE
  5
1353FD
  8
OBJECT
 10
2134.0
 20
-611.49999999999761
 30
0.0
 11
2115.0
 21
-611.49999999999761
 31
0.0
1001
ACDBBLOCKREPETAG
1070
     1
1071
      167
1005
1353FD
  0
LINE
  5
1353FE
  8
OBJECT
 10
2115.0
 20
-614.99999999999761
 30
0.0
 11
2115.0
 21
-611.49999999999761
 31
0.0
1001
ACDBBLOCKREPETAG
1070
     1
1071
      168
1005
1353FE
  0
LINE
  5
1353FF
  8
OBJECT
 10
2142.0
 20
-611.49999999999761
 30
0.0
 11
2225.0
 21
-611.49999999999761
 31
0.0
1001
ACDBBLOCKREPETAG
1070
     1
1071
      169
1005
1353FF
  0
LINE
  5
135400
  8
OBJECT
 10
2225.0
 20
-611.49999999999761
 30
0.0
 11
2225.0
 21
-614.99999999999761
 31
0.0
1001
ACDBBLOCKREPETAG
1070
     1
1071
      170
1005
135400
  0
LINE
  5
135401
  8
OBJECT
 10
2130.494446500536
 20
-589.49999999999761
 30
0.0
 11
2130.494446500536
 21
-582.99999999999761
 31
0.0
1001
ACDBBLOCKREPETAG
1070
     1
1071
      171
1005
135401
  0
LINE
  5
135402
  8
OBJECT
 10
2129.0
 20
-627.99999999999761
 30
0.0
 11
2129.0
 21
-632.99999999999761
 31
0.0
1001
ACDBBLOCKREPETAG
1070
     1
1071
      172
1005
135402
  0
LINE
  5
135403
  8
OBJECT
 10
2129.0
 20
-632.99999999999761
 30
0.0
 11
2147.0
 21
-632.99999999999761
 31
0.0
1001
ACDBBLOCKREPETAG
1070
     1
1071
      173
1005
135403
  0
LINE
  5
135404
  8
OBJECT
 10
2147.0
 20
-627.99999999999761
 30
0.0
 11
2147.0
 21
-632.99999999999761
 31
0.0
1001
ACDBBLOCKREPETAG
1070
     1
1071
      174
1005
135404
  0
LINE
  5
135405
  8
OBJECT
 10
2109.0000000000032
 20
-614.99999999999761
 30
0.0
 11
2244.0
 21
-614.99999999999761
 31
0.0
1001
ACDBBLOCKREPETAG
1070
     1
1071
      175
1005
135405
  0
LINE
  5
135406
  8
OBJECT
 10
2244.0
 20
-614.99999999999761
 30
0.0
 11
2244.0
 21
-627.99999999999761
 31
0.0
1001
ACDBBLOCKREPETAG
1070
     1
1071
      176
1005
135406
  0
LINE
  5
135407
  8
OBJECT
 10
2136.636900244765
 20
-645.66457125774514
 30
0.0
 11
2116.1702980000009
 21
-627.99999999999761
 31
0.0
1001
ACDBBLOCKREPETAG
1070
     1
1071
      177
1005
135407
  0
LINE
  5
135408
  8
OBJECT
 10
2221.0000000000041
 20
-635.65708264965485
 30
0.0
 11
2221.0000000000041
 21
-659.99999999999761
 31
0.0
1001
ACDBBLOCKREPETAG
1070
     1
1071
      178
1005
135408
  0
LINE
  5
135409
  8
OBJECT
 10
2175.1865574982548
 20
-659.99999999999761
 30
0.0
 11
2221.0000000000041
 21
-659.99999999999761
 31
0.0
1001
ACDBBLOCKREPETAG
1070
     1
1071
      179
1005
135409
  0
ARC
  5
13540A
  8
OBJECT
 10
2130.5
 20
-661.49999999999761
 30
0.0
 40
84.0
 50
277.05348487097029
 51
1.023193303671255
1001
ACDBBLOCKREPETAG
1070
     1
1071
      180
1005
13540A
  0
LINE
  5
13540B
  8
OBJECT
 10
2106.0
 20
-749.17200317020843
 30
0.0
 11
2140.8148488128832
 21
-744.86428428270153
 31
0.0
1001
ACDBBLOCKREPETAG
1070
     1
1071
      181
1005
13540B
  0
LINE
  5
13540C
  8
OBJECT
 10
2106.0000000000041
 20
-749.99999999999852
 30
0.0
 11
2106.0000000000041
 21
-628.99999999999761
 31
0.0
1001
ACDBBLOCKREPETAG
1070
     1
1071
      182
1005
13540C
  0
ARC
  5
13540D
  8
OBJECT
 10
2103.0000000000041
 20
-749.99999999999852
 30
0.0
 40
3.0
 50
270.0
 51
0.0
1001
ACDBBLOCKREPETAG
1070
     1
1071
      183
1005
13540D
  0
LINE
  5
13540E
  8
OBJECT
 10
2116.1702980000009
 20
-627.99999999999761
 30
0.0
 11
2244.0
 21
-627.99999999999761
 31
0.0
1001
ACDBBLOCKREPETAG
1070
     1
1071
      184
1005
13540E
  0
LINE
  5
13540F
  8
OBJECT
 10
2125.0539138517229
 20
-635.65708264965485
 30
0.0
 11
2221.0000000000041
 21
-635.65708264965485
 31
0.0
1001
ACDBBLOCKREPETAG
1070
     1
1071
      185
1005
13540F
  0
LINE
  5
135410
  8
OBJECT
 10
2225.0
 20
-630.89006764214673
 30
0.0
 11
2221.0000000000041
 21
-635.65708264965485
 31
0.0
1001
ACDBBLOCKREPETAG
1070
     1
1071
      186
1005
135410
  0
LINE
  5
135411
  8
OBJECT
 10
2109.0000000000032
 20
-614.99999999999761
 30
0.0
 11
2109.0000000000068
 21
-628.99999999999761
 31
0.0
1001
ACDBBLOCKREPETAG
1070
     1
1071
      187
1005
135411
  0
LINE
  5
135412
  8
HIDDEN
 10
2125.5
 20
-654.9999999999975
 30
0.0
 11
2214.5
 21
-654.9999999999975
 31
0.0
1001
ACDBBLOCKREPETAG
1070
     1
1071
      188
1005
135412
  0
LINE
  5
135413
  8
OBJECT
 10
2134.0
 20
-580.99999999999761
 30
0.0
 11
2142.0
 21
-580.99999999999761
 31
0.0
1001
ACDBBLOCKREPETAG
1070
     1
1071
      189
1005
135413
  0
LINE
  5
135414
  8
OBJECT
 10
2142.0
 20
-582.99999999999761
 30
0.0
 11
2142.0
 21
-580.99999999999761
 31
0.0
1001
ACDBBLOCKREPETAG
1070
     1
1071
      190
1005
135414
  0
LINE
  5
135415
  8
OBJECT
 10
2130.494446500536
 20
-582.99999999999761
 30
0.0
 11
2145.505553499464
 21
-582.99999999999761
 31
0.0
1001
ACDBBLOCKREPETAG
1070
     1
1071
      191
1005
135415
  0
LINE
  5
135416
  8
CENTER
 10
2170.0
 20
-674.77158855533025
 30
0.0
 11
2170.0
 21
-574.49999999999761
 31
0.0
1001
ACDBBLOCKREPETAG
1070
     1
1071
      193
1005
135416
  0
LINE
  5
135417
  8
OBJECT
 10
2100.0
 20
-752.99999999999773
 30
0.0
 11
2103.0000000000041
 21
-752.99999999999852
 31
0.0
1001
ACDBBLOCKREPETAG
1070
     1
1071
      194
1005
135417
  0
LINE
  5
135418
  8
OBJECT
 10
2100.0
 20
-628.99999999999761
 30
0.0
 11
2109.0000000000068
 21
-628.99999999999761
 31
0.0
1001
ACDBBLOCKREPETAG
1070
     1
1071
      195
1005
135418
  0
LINE
  5
135419
  8
OBJECT
 10
2134.247196978396
 20
-589.49998110540889
 30
0.0
 11
2134.247196978396
 21
-582.99998110540901
 31
0.0
1001
ACDBBLOCKREPETAG
1070
     1
1071
      196
1005
135419
  0
LINE
  5
13541A
  8
OBJECT
 10
2145.505553499464
 20
-589.49999999999761
 30
0.0
 11
2145.505553499464
 21
-582.99999999999761
 31
0.0
1001
ACDBBLOCKREPETAG
1070
     1
1071
      197
1005
13541A
  0
LINE
  5
13541B
  8
OBJECT
 10
2141.7528030216049
 20
-589.49998110540889
 30
0.0
 11
2141.7528030216049
 21
-582.99998110540901
 31
0.0
1001
ACDBBLOCKREPETAG
1070
     1
1071
      198
1005
13541B
  0
LINE
  5
13541C
  8
OBJECT
 10
2230.0
 20
-582.99999999999761
 30
0.0
 11
2230.0
 21
-580.99999999999761
 31
0.0
1001
ACDBBLOCKREPETAG
1070
     1
1071
      199
1005
13541C
  0
LINE
  5
13541D
  8
OBJECT
 10
2230.0
 20
-614.99999999999761
 30
0.0
 11
2230.0
 21
-602.49999999999761
 31
0.0
1001
ACDBBLOCKREPETAG
1070
     1
1071
      200
1005
13541D
  0
LINE
  5
13541E
  8
OBJECT
 10
2238.0
 20
-614.99999999999761
 30
0.0
 11
2238.0
 21
-602.49999999999761
 31
0.0
1001
ACDBBLOCKREPETAG
1070
     1
1071
      201
1005
13541E
  0
LINE
  5
13541F
  8
OBJECT
 10
2226.494446500536
 20
-589.49999999999761
 30
0.0
 11
2226.494446500536
 21
-582.99999999999761
 31
0.0
1001
ACDBBLOCKREPETAG
1070
     1
1071
      202
1005
13541F
  0
LINE
  5
135420
  8
OBJECT
 10
2225.0
 20
-627.99999999999761
 30
0.0
 11
2225.0
 21
-632.99999999999761
 31
0.0
1001
ACDBBLOCKREPETAG
1070
     1
1071
      203
1005
135420
  0
LINE
  5
135421
  8
OBJECT
 10
2225.0
 20
-632.99999999999761
 30
0.0
 11
2243.0
 21
-632.99999999999761
 31
0.0
1001
ACDBBLOCKREPETAG
1070
     1
1071
      204
1005
135421
  0
LINE
  5
135422
  8
OBJECT
 10
2243.0
 20
-627.99999999999761
 30
0.0
 11
2243.0
 21
-632.99999999999761
 31
0.0
1001
ACDBBLOCKREPETAG
1070
     1
1071
      205
1005
135422
  0
LINE
  5
135423
  8
OBJECT
 10
2230.0
 20
-580.99999999999761
 30
0.0
 11
2238.0
 21
-580.99999999999761
 31
0.0
1001
ACDBBLOCKREPETAG
1070
     1
1071
      206
1005
135423
  0
LINE
  5
135424
  8
OBJECT
 10
2238.0
 20
-582.99999999999761
 30
0.0
 11
2238.0
 21
-580.99999999999761
 31
0.0
1001
ACDBBLOCKREPETAG
1070
     1
1071
      207
1005
135424
  0
LINE
  5
135425
  8
OBJECT
 10
2226.494446500536
 20
-582.99999999999761
 30
0.0
 11
2241.5055534994649
 21
-582.99999999999761
 31
0.0
1001
ACDBBLOCKREPETAG
1070
     1
1071
      208
1005
135425
  0
LINE
  5
135426
  8
OBJECT
 10
2230.247196978396
 20
-589.49998110540889
 30
0.0
 11
2230.247196978396
 21
-582.99998110540901
 31
0.0
1001
ACDBBLOCKREPETAG
1070
     1
1071
      209
1005
135426
  0
LINE
  5
135427
  8
OBJECT
 10
2241.5055534994649
 20
-589.49999999999761
 30
0.0
 11
2241.5055534994649
 21
-582.99999999999761
 31
0.0
1001
ACDBBLOCKREPETAG
1070
     1
1071
      210
1005
135427
  0
LINE
  5
135428
  8
OBJECT
 10
2237.7528030216058
 20
-589.49998110540889
 30
0.0
 11
2237.7528030216058
 21
-582.99998110540901
 31
0.0
1001
ACDBBLOCKREPETAG
1070
     1
1071
      211
1005
135428
  0
LINE
  5
135429
  8
CENTER
 10
2100.0
 20
-199.99999999999909
 30
0.0
 11
2259.0
 21
-199.99999999999909
 31
0.0
1001
ACDBBLOCKREPETAG
1070
     1
1071
      155
1005
135429
  0
LINE
  5
13542A
  8
OBJECT
 10
2100.0
 20
-261.99999999999909
 30
0.0
 11
2103.0
 21
-261.99999999999909
 31
0.0
1001
ACDBBLOCKREPETAG
1070
     1
1071
      156
1005
13542A
  0
ARC
  5
13542B
  8
OBJECT
 10
2103.0
 20
-258.99999999999909
 30
0.0
 40
3.0
 50
270.0
 51
0.0
1001
ACDBBLOCKREPETAG
1070
     1
1071
      157
1005
13542B
  0
LINE
  5
13542C
  8
OBJECT
 10
2100.0
 20
-138.0000000000027
 30
0.0
 11
2103.0
 21
-138.0000000000027
 31
0.0
1001
ACDBBLOCKREPETAG
1070
     1
1071
      158
1005
13542C
  0
LINE
  5
13542D
  8
OBJECT
 10
2106.0
 20
-140.99999999999909
 30
0.0
 11
2128.6547275935341
 21
-140.9999999999954
 31
0.0
1001
ACDBBLOCKREPETAG
1070
     1
1071
      159
1005
13542D
  0
LINE
  5
13542E
  8
OBJECT
 10
2106.0
 20
-259.00000000000267
 30
0.0
 11
2128.6547275935341
 21
-258.99999999999909
 31
0.0
1001
ACDBBLOCKREPETAG
1070
     1
1071
      160
1005
13542E
  0
LINE
  5
13542F
  8
CENTER
 10
2170.0
 20
-123.5195984073716
 30
0.0
 11
2170.0
 21
-276.48040159262649
 31
0.0
1001
ACDBBLOCKREPETAG
1070
     1
1071
      161
1005
13542F
  0
LINE
  5
135430
  8
OBJECT
 10
2106.0
 20
-141.0000000000027
 30
0.0
 11
2106.0
 21
-258.99999999999909
 31
0.0
1001
ACDBBLOCKREPETAG
1070
     1
1071
      162
1005
135430
  0
ARC
  5
135431
  8
OBJECT
 10
2103.0
 20
-141.0000000000027
 30
0.0
 40
3.0
 50
0.0
 51
90.0
1001
ACDBBLOCKREPETAG
1070
     1
1071
      163
1005
135431
  0
ARC
  5
135432
  8
OBJECT
 10
2170.0
 20
-199.99999999999909
 30
0.0
 40
61.0
 50
37.167285461274467
 51
82.832714538705744
1001
ACDBBLOCKREPETAG
1070
     1
1071
      165
1005
135432
  0
ARC
  5
135433
  8
OBJECT
 10
2170.0
 20
-199.99999999999909
 30
0.0
 40
61.0
 50
157.16728546126831
 51
202.83271453873161
1001
ACDBBLOCKREPETAG
1070
     1
1071
      166
1005
135433
  0
ARC
  5
135434
  8
OBJECT
 10
2170.0
 20
-199.99999999999909
 30
0.0
 40
61.0
 50
277.16728546129423
 51
322.83271453872419
1001
ACDBBLOCKREPETAG
1070
     1
1071
      167
1005
135434
  0
CIRCLE
  5
135435
  8
SLIM
 10
2234.0
 20
-199.99999999999909
 30
0.0
 40
4.0
1001
ACDBBLOCKREPETAG
1070
     1
1071
      168
1005
135435
  0
ARC
  5
135436
  8
OBJECT
 10
2234.0
 20
-199.99999999999909
 30
0.0
 40
10.0
 50
322.83271453872419
 51
37.167285461274467
1001
ACDBBLOCKREPETAG
1070
     1
1071
      169
1005
135436
  0
LINE
  5
135437
  8
OBJECT
 10
2218.6093749999968
 20
-163.14720279124501
 30
0.0
 11
2241.96875
 21
-193.9585578346296
 31
0.0
1001
ACDBBLOCKREPETAG
1070
     1
1071
      170
1005
135437
  0
LINE
  5
135438
  8
OBJECT
 10
2218.6093749999968
 20
-236.8527972087532
 30
0.0
 11
2241.96875
 21
-206.04144216536861
 31
0.0
1001
ACDBBLOCKREPETAG
1070
     1
1071
      171
1005
135438
  0
CIRCLE
  5
135439
  8
SLIM
 10
2138.0
 20
-144.5743741577962
 30
0.0
 40
3.9999999999999991
1001
ACDBBLOCKREPETAG
1070
     1
1071
      172
1005
135439
  0
ARC
  5
13543A
  8
OBJECT
 10
2138.0
 20
-144.5743741577962
 30
0.0
 40
9.9999999999999982
 50
82.832714538705744
 51
157.16728546126831
1001
ACDBBLOCKREPETAG
1070
     1
1071
      173
1005
13543A
  0
LINE
  5
13543B
  8
OBJECT
 10
2113.7798539167052
 20
-176.32944499229319
 30
0.0
 11
2128.783582609296
 21
-140.6939553040711
 31
0.0
1001
ACDBBLOCKREPETAG
1070
     1
1071
      174
1005
13543B
  0
LINE
  5
13543C
  8
OBJECT
 10
2177.6107710832989
 20
-139.47664778353919
 30
0.0
 11
2139.247667390704
 21
-134.65251313870161
 31
0.0
1001
ACDBBLOCKREPETAG
1070
     1
1071
      175
1005
13543C
  0
CIRCLE
  5
13543D
  8
SLIM
 10
2138.0
 20
-255.4256258422019
 30
0.0
 40
4.0
1001
ACDBBLOCKREPETAG
1070
     1
1071
      176
1005
13543D
  0
ARC
  5
13543E
  8
OBJECT
 10
2138.0
 20
-255.4256258422019
 30
0.0
 40
10.0
 50
202.83271453873161
 51
277.16728546129423
1001
ACDBBLOCKREPETAG
1070
     1
1071
      177
1005
13543E
  0
LINE
  5
13543F
  8
OBJECT
 10
2177.6107710832989
 20
-260.52335221645899
 30
0.0
 11
2139.247667390704
 21
-265.3474868612966
 31
0.0
1001
ACDBBLOCKREPETAG
1070
     1
1071
      178
1005
13543F
  0
LINE
  5
135440
  8
OBJECT
 10
2113.7798539167052
 20
-223.67055500770491
 30
0.0
 11
2128.783582609296
 21
-259.30604469592708
 31
0.0
1001
ACDBBLOCKREPETAG
1070
     1
1071
      179
1005
135440
  0
CIRCLE
  5
135441
  8
OBJECT
 10
2170.0
 20
-199.99999999999909
 30
0.0
 40
46.0
1001
ACDBBLOCKREPETAG
1070
     1
1071
      180
1005
135441
  0
POLYLINE
  5
135442
  8
SLIM
 66
     1
 10
0.0
 20
0.0
 30
0.0
 70
     1
1001
ACDBBLOCKREPETAG
1070
     1
1071
      181
1005
135442
  0
VERTEX
  5
1356ED
  8
SLIM
 10
2230.247223250266
 20
-193.49999999999909
 30
0.0
  0
VERTEX
  5
1356EE
  8
SLIM
 10
2226.494446500536
 20
-199.99999999999909
 30
0.0
  0
VERTEX
  5
1356EF
  8
SLIM
 10
2230.247223250266
 20
-206.49999999999909
 30
0.0
  0
VERTEX
  5
1356F0
  8
SLIM
 10
2237.752776749734
 20
-206.49999999999909
 30
0.0
  0
VERTEX
  5
1356F1
  8
SLIM
 10
2241.5055534994649
 20
-199.99999999999909
 30
0.0
  0
VERTEX
  5
1356F2
  8
SLIM
 10
2237.752776749734
 20
-193.49999999999909
 30
0.0
  0
SEQEND
  5
1356F3
  8
SLIM
  0
POLYLINE
  5
135443
  8
SLIM
 66
     1
 10
0.0
 20
0.0
 30
0.0
 70
     1
1001
ACDBBLOCKREPETAG
1070
     1
1071
      182
1005
135443
  0
VERTEX
  5
1356F4
  8
SLIM
 10
2134.2472232502701
 20
-151.0743741577962
 30
0.0
  0
VERTEX
  5
1356F5
  8
SLIM
 10
2141.752776749734
 20
-151.0743741577962
 30
0.0
  0
VERTEX
  5
1356F6
  8
SLIM
 10
2145.505553499464
 20
-144.5743741577962
 30
0.0
  0
VERTEX
  5
1356F7
  8
SLIM
 10
2141.7527767497309
 20
-138.07437415779259
 30
0.0
  0
VERTEX
  5
1356F8
  8
SLIM
 10
2134.2472232502701
 20
-138.0743741577962
 30
0.0
  0
VERTEX
  5
1356F9
  8
SLIM
 10
2130.494446500536
 20
-144.57437415779259
 30
0.0
  0
SEQEND
  5
1356FA
  8
SLIM
  0
POLYLINE
  5
135444
  8
SLIM
 66
     1
 10
0.0
 20
0.0
 30
0.0
 70
     1
1001
ACDBBLOCKREPETAG
1070
     1
1071
      183
1005
135444
  0
VERTEX
  5
1356FB
  8
SLIM
 10
2145.505553499464
 20
-255.4256258422019
 30
0.0
  0
VERTEX
  5
1356FC
  8
SLIM
 10
2141.7527767497309
 20
-248.9256258422019
 30
0.0
  0
VERTEX
  5
1356FD
  8
SLIM
 10
2134.2472232502701
 20
-248.9256258422019
 30
0.0
  0
VERTEX
  5
1356FE
  8
SLIM
 10
2130.494446500536
 20
-255.42562584220559
 30
0.0
  0
VERTEX
  5
1356FF
  8
SLIM
 10
2134.247223250266
 20
-261.9256258422019
 30
0.0
  0
VERTEX
  5
135700
  8
SLIM
 10
2141.7527767497309
 20
-261.92562584220559
 30
0.0
  0
SEQEND
  5
135701
  8
SLIM
  0
TEXT
  5
135445
  8
SLIM
 10
-0.0000000000000053
 20
520.0
 30
0.0
 40
100.0
  1
5HF-U707-S
 41
0.75
  0
TEXT
  5
135446
  8
SLIM
 10
-0.0000000000000053
 20
370.0
 30
0.0
 40
100.0
  1
5HF-U707-W
 41
0.75
  0
TEXT
  5
135447
  8
SLIM
 10
3853.75
 20
-1806.4999999999991
 30
0.0
 40
35.0
  1
両受けスタイル（W）
 41
0.75
  0
TEXT
  5
135448
  8
SLIM
 10
7824.6000000000022
 20
-1862.9999999999991
 30
0.0
 40
28.0
  1
※ 対応スラブ厚　180～405
 41
0.75
  0
TEXT
  5
135449
  8
SLIM
 10
7598.8999999999969
 20
-1956.333333333333
 30
0.0
 40
28.0
  1
国土交通大臣認定・（一財）日本消防設備安全センター性能評定取得品
 41
0.75
  0
TEXT
  5
13544A
  8
SLIM
 10
7631.1000000000004
 20
-2003.0
 30
0.0
 40
28.0
  1
注）ご採用にあたり、認定書及び評定書の内容をご確認ください。
 41
0.75
  0
TEXT
  5
13544B
  8
SLIM
 10
7739.125
 20
-1806.4999999999991
 30
0.0
 40
35.0
  1
両受けスタイル（W）＋シンドカット
 41
0.75
  0
TEXT
  5
13544C
  8
SLIM
 10
5741.6249999999991
 20
-1532.5
 30
0.0
 40
35.0
  1
片受けスタイル（S）＋シンドカット
 41
0.75
  0
TEXT
  5
13544D
  8
SLIM
 10
1856.25
 20
-1532.5
 30
0.0
 40
35.0
  1
片受けスタイル（S）
 41
0.75
  0
VIEWPORT
  5
F6BA7
 67
     1
  8
0
 10
145.33033752441401
 20
101.8328354358673
 30
0.0
 40
334.0025019414623
 41
222.19657968139651
 68
     1
 69
     1
1001
ACAD
1000
MVIEW
1002
{
1070
    16
1010
0.0
1020
0.0
1030
0.0
1010
0.0
1020
0.0
1030
1.0
1040
0.0
1040
222.19657968139651
1040
145.33033752441401
1040
101.8328354358673
1040
50.0
1040
0.0
1040
0.0
1070
     0
1070
     0
1070
     1
1070
     1
1070
     0
1070
     0
1070
     0
1070
     0
1040
0.0
1040
0.0
1040
0.0
1040
10.0
1040
10.0
1040
10.0
1040
10.0
1070
     0
1002
{
1002
}
1002
}
  0
VIEWPORT
  5
F6BA9
 67
     1
  8
OBJECT
 10
145.3303314447403
 20
101.8328338861465
 30
0.0
 40
232.5285303115844
 41
162.93253421783439
 68
     2
 69
     2
1001
ACAD
1000
MVIEW
1002
{
1070
    16
1010
0.0
1020
0.0
1030
0.0
1010
0.0
1020
0.0
1030
1.0
1040
0.0
1040
25942.55904403147
1040
2377.604457077377
1040
-7591.5176687056619
1040
50.0
1040
0.0
1040
0.0
1070
     0
1070
   600
1070
     1
1070
     1
1070
     0
1070
     0
1070
     0
1070
     0
1040
0.0
1040
0.0
1040
0.0
1040
1.0
1040
1.0
1040
0.0
1040
0.0
1070
     0
1002
{
1002
}
1002
}
  0
ENDSEC
  0
EOF
