  0
SECTION
  2
HEADER
  9
$ACADVER
  1
AC1009
  9
$INSBASE
 10
0.0
 20
0.0
 30
0.0
  9
$EXTMIN
 10
-25.796370766537851
 20
-3697.4999999999968
 30
0.0
  9
$EXTMAX
 10
12387.100000000009
 20
767.19448474768467
 30
0.0
  9
$LIMMIN
 10
0.0
 20
0.0
  9
$LIMMAX
 10
210.0
 20
297.0
  9
$ORTHOMODE
 70
     0
  9
$REGENMODE
 70
     1
  9
$FILLMODE
 70
     1
  9
$QTEXTMODE
 70
     0
  9
$MIRRTEXT
 70
     0
  9
$DRAGMODE
 70
     2
  9
$LTSCALE
 40
1.0
  9
$OSMODE
 70
  2557
  9
$ATTMODE
 70
     1
  9
$TEXTSIZE
 40
4.0
  9
$TRACEWID
 40
0.05
  9
$TEXTSTYLE
  7
STANDARD
  9
$CLAYER
  8
OBJECT
  9
$CELTYPE
  6
BYLAYER
  9
$CECOLOR
 62
   256
  9
$DIMSCALE
 40
10.0
  9
$DIMASZ
 40
2.0
  9
$DIMEXO
 40
1.0
  9
$DIMDLI
 40
10.0
  9
$DIMRND
 40
0.0
  9
$DIMDLE
 40
0.0
  9
$DIMEXE
 40
1.0
  9
$DIMTP
 40
0.0
  9
$DIMTM
 40
0.0
  9
$DIMTXT
 40
3.2000000000000002
  9
$DIMCEN
 40
0.0
  9
$DIMTSZ
 40
0.0
  9
$DIMTOL
 70
     0
  9
$DIMLIM
 70
     0
  9
$DIMTIH
 70
     0
  9
$DIMTOH
 70
     0
  9
$DIMSE1
 70
     0
  9
$DIMSE2
 70
     0
  9
$DIMTAD
 70
     1
  9
$DIMZIN
 70
     8
  9
$DIMBLK
  1
OPEN30
  9
$DIMASO
 70
     1
  9
$DIMSHO
 70
     1
  9
$DIMPOST
  1

  9
$DIMAPOST
  1

  9
$DIMALT
 70
     0
  9
$DIMALTD
 70
     2
  9
$DIMALTF
 40
25.399999999999999
  9
$DIMLFAC
 40
1.0
  9
$DIMTOFL
 70
     1
  9
$DIMTVP
 40
0.0
  9
$DIMTIX
 70
     0
  9
$DIMSOXD
 70
     0
  9
$DIMSAH
 70
     0
  9
$DIMBLK1
  1

  9
$DIMBLK2
  1

  9
$DIMSTYLE
  2
S10
  9
$DIMCLRD
 70
   256
  9
$DIMCLRE
 70
   256
  9
$DIMCLRT
 70
   256
  9
$DIMTFAC
 40
1.0
  9
$DIMGAP
 40
0.9
  9
$LUNITS
 70
     2
  9
$LUPREC
 70
     2
  9
$SKETCHINC
 40
0.1
  9
$FILLETRAD
 40
0.0
  9
$AUNITS
 70
     0
  9
$AUPREC
 70
     2
  9
$MENU
  1
ACAD
  9
$ELEVATION
 40
0.0
  9
$PELEVATION
 40
0.0
  9
$THICKNESS
 40
0.0
  9
$LIMCHECK
 70
     0
  9
$BLIPMODE
 70
     0
  9
$CHAMFERA
 40
2.0
  9
$CHAMFERB
 40
2.0
  9
$SKPOLY
 70
     0
  9
$TDCREATE
 40
2453095.4929404748
  9
$TDUPDATE
 40
2456575.3918283908
  9
$TDINDWG
 40
18.434580868099999
  9
$TDUSRTIMER
 40
18.434579953699998
  9
$USRTIMER
 70
     1
  9
$ANGBASE
 50
0.0
  9
$ANGDIR
 70
     0
  9
$PDMODE
 70
    35
  9
$PDSIZE
 40
2.0
  9
$PLINEWID
 40
0.0
  9
$COORDS
 70
     1
  9
$SPLFRAME
 70
     0
  9
$SPLINETYPE
 70
     6
  9
$SPLINESEGS
 70
     8
  9
$ATTDIA
 70
     1
  9
$ATTREQ
 70
     1
  9
$HANDLING
 70
     1
  9
$HANDSEED
  5
12FB76
  9
$SURFTAB1
 70
     6
  9
$SURFTAB2
 70
     6
  9
$SURFTYPE
 70
     6
  9
$SURFU
 70
     6
  9
$SURFV
 70
     6
  9
$UCSNAME
  2

  9
$UCSORG
 10
0.0
 20
0.0
 30
0.0
  9
$UCSXDIR
 10
1.0
 20
0.0
 30
0.0
  9
$UCSYDIR
 10
0.0
 20
1.0
 30
0.0
  9
$PUCSNAME
  2

  9
$PUCSORG
 10
0.0
 20
0.0
 30
0.0
  9
$PUCSXDIR
 10
1.0
 20
0.0
 30
0.0
  9
$PUCSYDIR
 10
0.0
 20
1.0
 30
0.0
  9
$USERI1
 70
     0
  9
$USERI2
 70
     0
  9
$USERI3
 70
     0
  9
$USERI4
 70
     0
  9
$USERI5
 70
     0
  9
$USERR1
 40
0.0
  9
$USERR2
 40
0.0
  9
$USERR3
 40
0.0
  9
$USERR4
 40
0.0
  9
$USERR5
 40
0.0
  9
$WORLDVIEW
 70
     1
  9
$SHADEDGE
 70
     3
  9
$SHADEDIF
 70
    70
  9
$TILEMODE
 70
     1
  9
$MAXACTVP
 70
    64
  9
$PLIMCHECK
 70
     0
  9
$PEXTMIN
 10
29.066066288948051
 20
20.366566777229309
 30
0.0
  9
$PEXTMAX
 10
261.5945966005325
 20
183.29910099506381
 30
0.0
  9
$PLIMMIN
 10
-3.17498779296875
 20
-3.1749999523162842
  9
$PLIMMAX
 10
293.83566284179687
 20
206.8406708240509
  9
$UNITMODE
 70
     0
  9
$VISRETAIN
 70
     1
  9
$PLINEGEN
 70
     0
  9
$PSLTSCALE
 70
     1
  0
ENDSEC
  0
SECTION
  2
TABLES
  0
TABLE
  2
VPORT
 70
     1
  0
VPORT
  2
*ACTIVE
 70
     0
 10
0.0
 20
0.0
 11
1.0
 21
1.0
 12
6864.1293928092236
 22
-2537.7154515554089
 13
0.0
 23
0.0
 14
1.0
 24
1.0
 15
0.0
 25
0.0
 16
0.0
 26
0.0
 36
1.0
 17
0.0
 27
0.0
 37
0.0
 40
12354.08786781335
 41
1.958525345622119
 42
50.0
 43
0.0
 44
0.0
 50
0.0
 51
0.0
 71
     0
 72
   600
 73
     1
 74
     1
 75
     0
 76
     0
 77
     0
 78
     0
  0
ENDTAB
  0
TABLE
  2
LTYPE
 70
     3
  0
LTYPE
  2
CONTINUOUS
 70
     0
  3
Solid line
 72
    65
 73
     0
 40
0.0
  0
LTYPE
  2
ACAD_ISO08W100
 70
     0
  3
ISO long-dash short-dash ____ __ ____ __ ____ _
 72
    65
 73
     4
 40
36.0
 49
24.0
 49
-3.0
 49
6.0
 49
-3.0
  0
LTYPE
  2
ACAD_ISO02W100
 70
     0
  3
ISO dash __ __ __ __ __ __ __ __ __ __ __ __ __
 72
    65
 73
     2
 40
15.0
 49
12.0
 49
-3.0
  0
ENDTAB
  0
TABLE
  2
LAYER
 70
     8
  0
LAYER
  2
0
 70
     0
 62
     7
  6
CONTINUOUS
  0
LAYER
  2
OBJECT
 70
     0
 62
     4
  6
CONTINUOUS
  0
LAYER
  2
DEFPOINTS
 70
     0
 62
     7
  6
CONTINUOUS
  0
LAYER
  2
DIM
 70
     0
 62
     7
  6
CONTINUOUS
  0
LAYER
  2
HIDDEN
 70
     0
 62
     2
  6
ACAD_ISO02W100
  0
LAYER
  2
CENTER
 70
     0
 62
     2
  6
ACAD_ISO08W100
  0
LAYER
  2
DOTS
 70
     0
 62
     1
  6
CONTINUOUS
  0
LAYER
  2
SLIM
 70
     0
 62
     2
  6
CONTINUOUS
  0
ENDTAB
  0
TABLE
  2
STYLE
 70
     2
  0
STYLE
  2
STANDARD
 70
     0
 40
0.0
 41
0.75
 50
0.0
 71
     0
 42
4.0
  3
simplex.shx
  4
bigfont.shx
  0
ENDTAB
  0
TABLE
  2
VIEW
 70
     0
  0
ENDTAB
  0
TABLE
  2
UCS
 70
     0
  0
ENDTAB
  0
TABLE
  2
APPID
 70
    18
  0
APPID
  2
ACAD
 70
     0
  0
APPID
  2
ACADANNOTATIVE
 70
     0
  0
APPID
  2
ACAD_PSEXT
 70
     0
  0
APPID
  2
ACAD_EXEMPT_FROM_CAD_STANDARDS
 70
     0
  0
APPID
  2
ACAECLAYERSTANDARD
 70
     0
  0
APPID
  2
ACAUTHENVIRON
 70
     0
  0
APPID
  2
ACDBDYNAMICBLOCKTRUENAME
 70
     0
  0
APPID
  2
ACDBDYNAMICBLOCKGUID
 70
     0
  0
APPID
  2
ACDBBLOCKREPETAG
 70
     0
  0
APPID
  2
ACDBBLOCKREPBTAG
 70
     0
  0
APPID
  2
ACAD_NAV_VCDISPLAY
 70
     0
  0
APPID
  2
ACAD_DSTYLE_DIMRADIAL_EXTENSION
 70
     0
  0
APPID
  2
ACAD_DSTYLE_DIMJAG
 70
     0
  0
APPID
  2
ACAD_DSTYLE_DIMTALN
 70
     0
  0
APPID
  2
ACADANNOPO
 70
     0
  0
APPID
  2
GRADIENTCOLOR1ACI
 70
     0
  0
APPID
  2
GRADIENTCOLOR2ACI
 70
     0
  0
APPID
  2
ACAD_MLEADERVER
 70
     0
  0
ENDTAB
  0
TABLE
  2
DIMSTYLE
 70
     3
  0
DIMSTYLE
  2
STANDARD
 70
     0
  3

  4

  5

  6

  7

 40
1.0
 41
0.18
 42
0.0625
 43
0.38
 44
0.18
 45
0.0
 46
0.0
 47
0.0
 48
0.0
140
0.18
141
0.09
142
0.0
143
25.399999999999999
144
1.0
145
0.0
146
1.0
147
0.09
 71
     0
 72
     0
 73
     1
 74
     1
 75
     0
 76
     0
 77
     0
 78
     0
170
     0
171
     2
172
     0
173
     0
174
     0
175
     0
176
     0
177
     0
178
     0
  0
DIMSTYLE
  2
S10
 70
     0
  3

  4

  5

  6

  7

 40
10.0
 41
2.0
 42
1.0
 43
10.0
 44
1.0
 45
0.0
 46
0.0
 47
0.0
 48
0.0
140
3.2000000000000002
141
0.0
142
0.0
143
25.399999999999999
144
1.0
145
0.0
146
1.0
147
0.9
 71
     0
 72
     0
 73
     0
 74
     0
 75
     0
 76
     0
 77
     1
 78
     8
170
     0
171
     2
172
     1
173
     0
174
     0
175
     0
176
   256
177
   256
178
   256
  0
ENDTAB
  0
ENDSEC
  0
SECTION
  2
BLOCKS
  0
BLOCK
  8
0
  2
$MODEL_SPACE
 70
     0
 10
0.0
 20
0.0
 30
0.0
  3
$MODEL_SPACE
  1

  0
ENDBLK
  5
12F5A1
  8
0
  0
BLOCK
 67
     1
  8
0
  2
$PAPER_SPACE
 70
     0
 10
0.0
 20
0.0
 30
0.0
  3
$PAPER_SPACE
  1

  0
ENDBLK
  5
12F59D
 67
     1
  8
0
  0
BLOCK
  8
0
  2
_OPEN30
 70
     0
 10
0.0
 20
0.0
 30
0.0
  3
_OPEN30
  1

  0
LINE
  5
202
  8
0
  6
BYBLOCK
 62
     0
 10
-1.0
 20
0.26794919
 30
0.0
 11
0.0
 21
0.0
 31
0.0
  0
LINE
  5
203
  8
0
  6
BYBLOCK
 62
     0
 10
0.0
 20
0.0
 30
0.0
 11
-1.0
 21
-0.26794919
 31
0.0
  0
LINE
  5
204
  8
0
  6
BYBLOCK
 62
     0
 10
0.0
 20
0.0
 30
0.0
 11
-1.0
 21
0.0
 31
0.0
  0
ENDBLK
  5
206
  8
0
  0
BLOCK
  8
0
  2
*U619
 70
     1
 10
0.0
 20
0.0
 30
0.0
  3
*U619
  1

  0
TEXT
  5
12F49F
  8
SLIM
 10
253.0
 20
-693.95238095237994
 30
0.0
 40
26.0
  1
75
 50
270.0
  0
ENDBLK
  5
12F4A1
  8
0
  0
BLOCK
  8
0
  2
*U620
 70
     1
 10
0.0
 20
0.0
 30
0.0
  3
*U620
  1

  0
TEXT
  5
12F4A3
  8
SLIM
 10
127.5714285714286
 20
-553.00000000001137
 30
0.0
 40
26.0
  1
75Z
  0
ENDBLK
  5
12F4A5
  8
0
  0
BLOCK
  8
0
  2
*U621
 70
     1
 10
0.0
 20
0.0
 30
0.0
  3
*U621
  1

  0
TEXT
  5
12F4A7
  8
SLIM
 10
233.26666666666651
 20
-553.00000000001137
 30
0.0
 40
26.0
  1
通気
  0
ENDBLK
  5
12F4A9
  8
0
  0
BLOCK
  8
0
  2
*U622
 70
     1
 10
0.0
 20
0.0
 30
0.0
  3
*U622
  1

  0
TEXT
  5
12F4AB
  8
SLIM
 10
613.0
 20
-229.9523809523798
 30
0.0
 40
26.0
  1
65
 50
270.0
  0
ENDBLK
  5
12F4AD
  8
0
  0
BLOCK
  8
0
  2
*U623
 70
     1
 10
0.0
 20
0.0
 30
0.0
  3
*U623
  1

  0
TEXT
  5
12F4AF
  8
SLIM
 10
487.5714285714285
 20
-89.000000000011582
 30
0.0
 40
26.0
  1
75Z
  0
ENDBLK
  5
12F4B1
  8
0
  0
BLOCK
  8
0
  2
*U624
 70
     1
 10
0.0
 20
0.0
 30
0.0
  3
*U624
  1

  0
TEXT
  5
12F4B3
  8
SLIM
 10
593.26666666666665
 20
-89.000000000011582
 30
0.0
 40
26.0
  1
通気
  0
ENDBLK
  5
12F4B5
  8
0
  0
BLOCK
  8
0
  2
*U625
 70
     1
 10
0.0
 20
0.0
 30
0.0
  3
*U625
  1

  0
TEXT
  5
12F4B7
  8
SLIM
 10
253.0
 20
-229.9523809523798
 30
0.0
 40
26.0
  1
50
 50
270.0
  0
ENDBLK
  5
12F4B9
  8
0
  0
BLOCK
  8
0
  2
*U626
 70
     1
 10
0.0
 20
0.0
 30
0.0
  3
*U626
  1

  0
TEXT
  5
12F4BB
  8
SLIM
 10
127.5714285714286
 20
-89.000000000011582
 30
0.0
 40
26.0
  1
75Z
  0
ENDBLK
  5
12F4BD
  8
0
  0
BLOCK
  8
0
  2
*U627
 70
     1
 10
0.0
 20
0.0
 30
0.0
  3
*U627
  1

  0
TEXT
  5
12F4BF
  8
SLIM
 10
233.26666666666651
 20
-89.000000000011582
 30
0.0
 40
26.0
  1
通気
  0
ENDBLK
  5
12F4C1
  8
0
  0
BLOCK
  8
0
  2
*U628
 70
     1
 10
0.0
 20
0.0
 30
0.0
  3
*U628
  1

  0
TEXT
  5
12F526
  8
DIM
 10
2199.479620594459
 20
-3184.1428571428528
 30
0.0
 40
32.0
  1
A
 50
90.0
 41
0.75
  0
ENDBLK
  5
12F528
  8
0
  0
BLOCK
  8
0
  2
*U629
 70
     1
 10
0.0
 20
0.0
 30
0.0
  3
*U629
  1

  0
TEXT
  5
12F52A
  8
DIM
 10
2197.840928403733
 20
-3565.9999999999959
 30
0.0
 40
32.0
  1
B
 50
90.0
 41
0.75
  0
ENDBLK
  5
12F52C
  8
0
  0
BLOCK
  8
0
  2
*U630
 70
     1
 10
0.0
 20
0.0
 30
0.0
  3
*U630
  1

  0
TEXT
  5
12F52E
  8
DIM
 10
2056.4285714285711
 20
-3048.2081219844449
 30
0.0
 40
32.0
  1
C
 41
0.75
  0
ENDBLK
  5
12F530
  8
0
  0
ENDSEC
  0
SECTION
  2
ENTITIES
  0
LINE
  5
11E11D
  8
OBJECT
 10
1825.0
 20
-3579.9999999999959
 30
0.0
 11
4575.0
 21
-3579.9999999999959
 31
0.0
  0
LINE
  5
11E11F
  8
SLIM
 10
2616.0
 20
-2637.50001604727
 30
0.0
 11
2616.0
 21
-2967.50001604727
 31
0.0
  0
LINE
  5
11E120
  8
SLIM
 10
2740.0
 20
-2637.50001604727
 30
0.0
 11
2740.0
 21
-2967.50001604727
 31
0.0
  0
LINE
  5
11E121
  8
SLIM
 10
2870.0
 20
-2697.50001604727
 30
0.0
 11
2870.0
 21
-2967.50001604727
 31
0.0
  0
LINE
  5
11E122
  8
SLIM
 10
3000.0
 20
-2697.50001604727
 30
0.0
 11
3000.0
 21
-2967.50001604727
 31
0.0
  0
LINE
  5
11E123
  8
SLIM
 10
3130.0
 20
-2967.50001604727
 30
0.0
 11
3130.0
 21
-2637.50001604727
 31
0.0
  0
LINE
  5
11E125
  8
SLIM
 10
3130.0
 20
-2637.50001604727
 30
0.0
 11
2616.0
 21
-2637.50001604727
 31
0.0
  0
LINE
  5
11E126
  8
SLIM
 10
3130.0
 20
-2697.50001604727
 30
0.0
 11
2740.0
 21
-2697.50001604727
 31
0.0
  0
LINE
  5
11E127
  8
SLIM
 10
3130.0
 20
-2757.50001604727
 30
0.0
 11
2616.0
 21
-2757.50001604727
 31
0.0
  0
LINE
  5
11E128
  8
SLIM
 10
3130.0
 20
-2827.50001604727
 30
0.0
 11
2616.0
 21
-2827.50001604727
 31
0.0
  0
LINE
  5
11E129
  8
SLIM
 10
3130.0
 20
-2897.50001604727
 30
0.0
 11
2616.0
 21
-2897.50001604727
 31
0.0
  0
LINE
  5
11E12A
  8
SLIM
 10
3130.0
 20
-2967.50001604727
 30
0.0
 11
2616.0
 21
-2967.50001604727
 31
0.0
  0
LINE
  5
11E13F
  8
SLIM
 10
2740.0
 20
-2757.50001604727
 30
0.0
 11
2615.9999722746579
 21
-2637.5
 31
0.0
  0
ARC
  5
12E184
  8
OBJECT
 10
161.0
 20
-714.99999999999875
 30
0.0
 40
70.0
 50
152.33955010081621
 51
207.6604498991837
1001
ACDBBLOCKREPETAG
1070
     1
1071
        0
1005
12E184
  0
CIRCLE
  5
12E185
  8
OBJECT
 10
161.0
 20
-714.99999999999875
 30
0.0
 40
65.0
1001
ACDBBLOCKREPETAG
1070
     1
1071
        1
1005
12E185
  0
CIRCLE
  5
12E186
  8
OBJECT
 10
161.0
 20
-714.99999999999875
 30
0.0
 40
50.5
1001
ACDBBLOCKREPETAG
1070
     1
1071
        3
1005
12E186
  0
LINE
  5
12E187
  8
OBJECT
 10
99.0
 20
-644.99999999999704
 30
0.0
 11
99.0
 21
-695.48077870405575
 31
0.0
1001
ACDBBLOCKREPETAG
1070
     1
1071
        4
1005
12E187
  0
LINE
  5
12E188
  8
OBJECT
 10
99.0
 20
-784.99999999999875
 30
0.0
 11
99.0
 21
-734.51922129594175
 31
0.0
1001
ACDBBLOCKREPETAG
1070
     1
1071
        5
1005
12E188
  0
LINE
  5
12E189
  8
OBJECT
 10
223.0
 20
-784.99999999999875
 30
0.0
 11
223.0
 21
-776.99999999999875
 31
0.0
1001
ACDBBLOCKREPETAG
1070
     1
1071
        6
1005
12E189
  0
LINE
  5
12E18A
  8
OBJECT
 10
231.0
 20
-776.99999999999875
 30
0.0
 11
223.0
 21
-776.99999999999875
 31
0.0
1001
ACDBBLOCKREPETAG
1070
     1
1071
        7
1005
12E18A
  0
LINE
  5
12E18B
  8
OBJECT
 10
223.0
 20
-644.99999999999704
 30
0.0
 11
223.0
 21
-652.99999999999875
 31
0.0
1001
ACDBBLOCKREPETAG
1070
     1
1071
        8
1005
12E18B
  0
LINE
  5
12E18C
  8
OBJECT
 10
231.0
 20
-652.99999999999875
 30
0.0
 11
223.0
 21
-652.99999999999875
 31
0.0
1001
ACDBBLOCKREPETAG
1070
     1
1071
        9
1005
12E18C
  0
LINE
  5
12E18D
  8
OBJECT
 10
206.96194077712559
 20
-760.96194077712425
 30
0.0
 11
223.0
 21
-776.99999999999875
 31
0.0
1001
ACDBBLOCKREPETAG
1070
     1
1071
       21
1005
12E18D
  0
LINE
  5
12E18E
  8
OBJECT
 10
206.96194077712559
 20
-669.03805922287324
 30
0.0
 11
223.0
 21
-652.99999999999875
 31
0.0
1001
ACDBBLOCKREPETAG
1070
     1
1071
       22
1005
12E18E
  0
POINT
  5
12E18F
  8
DOTS
 10
161.0
 20
-714.99999999999875
 30
0.0
1001
ACDBBLOCKREPETAG
1070
     1
1071
       23
1005
12E18F
  0
POINT
  5
12E190
  8
DOTS
 10
161.0
 20
-714.99999999999875
 30
0.0
 50
270.0
1001
ACDBBLOCKREPETAG
1070
     1
1071
       46
1005
12E190
  0
ARC
  5
12E191
  8
OBJECT
 10
521.0
 20
-250.99999999999889
 30
0.0
 40
70.0
 50
152.33955010081689
 51
207.66044989918311
1001
ACDBBLOCKREPETAG
1070
     1
1071
        0
1005
12E191
  0
CIRCLE
  5
12E192
  8
OBJECT
 10
521.0
 20
-250.99999999999889
 30
0.0
 40
65.0
1001
ACDBBLOCKREPETAG
1070
     1
1071
        1
1005
12E192
  0
CIRCLE
  5
12E193
  8
OBJECT
 10
521.0
 20
-250.99999999999889
 30
0.0
 40
50.5
1001
ACDBBLOCKREPETAG
1070
     1
1071
        3
1005
12E193
  0
LINE
  5
12E194
  8
OBJECT
 10
459.0
 20
-180.99999999999699
 30
0.0
 11
459.0
 21
-231.48077870405589
 31
0.0
1001
ACDBBLOCKREPETAG
1070
     1
1071
        4
1005
12E194
  0
LINE
  5
12E195
  8
OBJECT
 10
459.0
 20
-320.99999999999892
 30
0.0
 11
459.0
 21
-270.51922129594197
 31
0.0
1001
ACDBBLOCKREPETAG
1070
     1
1071
        5
1005
12E195
  0
LINE
  5
12E196
  8
OBJECT
 10
583.0
 20
-320.99999999999892
 30
0.0
 11
583.0
 21
-312.99999999999892
 31
0.0
1001
ACDBBLOCKREPETAG
1070
     1
1071
        6
1005
12E196
  0
LINE
  5
12E197
  8
OBJECT
 10
591.0
 20
-312.99999999999892
 30
0.0
 11
583.0
 21
-312.99999999999892
 31
0.0
1001
ACDBBLOCKREPETAG
1070
     1
1071
        7
1005
12E197
  0
LINE
  5
12E198
  8
OBJECT
 10
583.0
 20
-180.99999999999699
 30
0.0
 11
583.0
 21
-188.99999999999881
 31
0.0
1001
ACDBBLOCKREPETAG
1070
     1
1071
        8
1005
12E198
  0
LINE
  5
12E199
  8
OBJECT
 10
591.0
 20
-188.99999999999881
 30
0.0
 11
583.0
 21
-188.99999999999881
 31
0.0
1001
ACDBBLOCKREPETAG
1070
     1
1071
        9
1005
12E199
  0
LINE
  5
12E19A
  8
OBJECT
 10
566.96194077712562
 20
-296.96194077712448
 30
0.0
 11
583.0
 21
-312.99999999999892
 31
0.0
1001
ACDBBLOCKREPETAG
1070
     1
1071
       21
1005
12E19A
  0
LINE
  5
12E19B
  8
OBJECT
 10
566.96194077712562
 20
-205.0380592228733
 30
0.0
 11
583.0
 21
-188.99999999999881
 31
0.0
1001
ACDBBLOCKREPETAG
1070
     1
1071
       22
1005
12E19B
  0
POINT
  5
12E19C
  8
DOTS
 10
521.0
 20
-250.99999999999889
 30
0.0
1001
ACDBBLOCKREPETAG
1070
     1
1071
       23
1005
12E19C
  0
POINT
  5
12E19D
  8
DOTS
 10
521.0
 20
-250.99999999999889
 30
0.0
 50
270.0
1001
ACDBBLOCKREPETAG
1070
     1
1071
       46
1005
12E19D
  0
ARC
  5
12E19E
  8
OBJECT
 10
161.0
 20
-250.99999999999889
 30
0.0
 40
70.0
 50
152.33955010081621
 51
207.6604498991837
1001
ACDBBLOCKREPETAG
1070
     1
1071
        0
1005
12E19E
  0
CIRCLE
  5
12E19F
  8
OBJECT
 10
161.0
 20
-250.99999999999889
 30
0.0
 40
65.0
1001
ACDBBLOCKREPETAG
1070
     1
1071
        1
1005
12E19F
  0
CIRCLE
  5
12E1A0
  8
OBJECT
 10
161.0
 20
-250.99999999999889
 30
0.0
 40
50.5
1001
ACDBBLOCKREPETAG
1070
     1
1071
        3
1005
12E1A0
  0
LINE
  5
12E1A1
  8
OBJECT
 10
99.0
 20
-180.99999999999699
 30
0.0
 11
99.0
 21
-231.48077870405589
 31
0.0
1001
ACDBBLOCKREPETAG
1070
     1
1071
        4
1005
12E1A1
  0
LINE
  5
12E1A2
  8
OBJECT
 10
99.0
 20
-320.99999999999892
 30
0.0
 11
99.0
 21
-270.51922129594197
 31
0.0
1001
ACDBBLOCKREPETAG
1070
     1
1071
        5
1005
12E1A2
  0
LINE
  5
12E1A3
  8
OBJECT
 10
223.0
 20
-320.99999999999892
 30
0.0
 11
223.0
 21
-312.99999999999892
 31
0.0
1001
ACDBBLOCKREPETAG
1070
     1
1071
        6
1005
12E1A3
  0
LINE
  5
12E1A4
  8
OBJECT
 10
231.0
 20
-312.99999999999892
 30
0.0
 11
223.0
 21
-312.99999999999892
 31
0.0
1001
ACDBBLOCKREPETAG
1070
     1
1071
        7
1005
12E1A4
  0
LINE
  5
12E1A5
  8
OBJECT
 10
223.0
 20
-180.99999999999699
 30
0.0
 11
223.0
 21
-188.99999999999881
 31
0.0
1001
ACDBBLOCKREPETAG
1070
     1
1071
        8
1005
12E1A5
  0
LINE
  5
12E1A6
  8
OBJECT
 10
231.0
 20
-188.99999999999881
 30
0.0
 11
223.0
 21
-188.99999999999881
 31
0.0
1001
ACDBBLOCKREPETAG
1070
     1
1071
        9
1005
12E1A6
  0
LINE
  5
12E1A7
  8
OBJECT
 10
206.96194077712559
 20
-296.96194077712448
 30
0.0
 11
223.0
 21
-312.99999999999892
 31
0.0
1001
ACDBBLOCKREPETAG
1070
     1
1071
       21
1005
12E1A7
  0
LINE
  5
12E1A8
  8
OBJECT
 10
206.96194077712559
 20
-205.0380592228733
 30
0.0
 11
223.0
 21
-188.99999999999881
 31
0.0
1001
ACDBBLOCKREPETAG
1070
     1
1071
       22
1005
12E1A8
  0
POINT
  5
12E1A9
  8
DOTS
 10
161.0
 20
-250.99999999999889
 30
0.0
1001
ACDBBLOCKREPETAG
1070
     1
1071
       23
1005
12E1A9
  0
POINT
  5
12E1AA
  8
DOTS
 10
161.0
 20
-250.99999999999889
 30
0.0
 50
270.0
1001
ACDBBLOCKREPETAG
1070
     1
1071
       46
1005
12E1AA
  0
LINE
  5
12E1AB
  8
OBJECT
 10
99.0
 20
-787.99999999999875
 30
0.0
 11
99.0
 21
-784.99999999999875
 31
0.0
1001
ACDBBLOCKREPETAG
1070
     1
1071
      418
1005
12E1AB
  0
ARC
  5
12E1AC
  8
OBJECT
 10
102.0
 20
-787.99999999999875
 30
0.0
 40
3.0
 50
180.0
 51
270.0
1001
ACDBBLOCKREPETAG
1070
     1
1071
      419
1005
12E1AC
  0
LINE
  5
12E1AD
  8
OBJECT
 10
223.0
 20
-784.99999999999875
 30
0.0
 11
223.0
 21
-787.99999999999875
 31
0.0
1001
ACDBBLOCKREPETAG
1070
     1
1071
      420
1005
12E1AD
  0
ARC
  5
12E1AE
  8
OBJECT
 10
220.0
 20
-787.99999999999875
 30
0.0
 40
3.0
 50
270.0
 51
0.0
1001
ACDBBLOCKREPETAG
1070
     1
1071
      421
1005
12E1AE
  0
LINE
  5
12E1AF
  8
OBJECT
 10
220.0
 20
-790.99999999999875
 30
0.0
 11
102.0
 21
-790.99999999999875
 31
0.0
1001
ACDBBLOCKREPETAG
1070
     1
1071
      422
1005
12E1AF
  0
INSERT
  5
12E1B0
  8
OBJECT
  2
*U619
 10
0.0
 20
0.0
 30
0.0
  0
LINE
  5
12E1B1
  8
OBJECT
 10
284.0
 20
-652.99999999999875
 30
0.0
 11
291.0
 21
-652.99999999999875
 31
0.0
1001
ACDBBLOCKREPETAG
1070
     1
1071
       39
1005
12E1B1
  0
LINE
  5
12E1B2
  8
OBJECT
 10
291.0
 20
-652.99999999999875
 30
0.0
 11
291.0
 21
-776.99999999999875
 31
0.0
1001
ACDBBLOCKREPETAG
1070
     1
1071
       40
1005
12E1B2
  0
LINE
  5
12E1B3
  8
OBJECT
 10
291.0
 20
-776.99999999999875
 30
0.0
 11
284.0
 21
-776.99999999999875
 31
0.0
1001
ACDBBLOCKREPETAG
1070
     1
1071
       41
1005
12E1B3
  0
LINE
  5
12E1B4
  8
OBJECT
 10
284.0
 20
-776.99999999999875
 30
0.0
 11
284.0
 21
-652.99999999999875
 31
0.0
1001
ACDBBLOCKREPETAG
1070
     1
1071
       42
1005
12E1B4
  0
LINE
  5
12E1B5
  8
OBJECT
 10
284.0
 20
-655.99999999999875
 30
0.0
 11
248.0
 21
-655.99999999999875
 31
0.0
1001
ACDBBLOCKREPETAG
1070
     1
1071
       43
1005
12E1B5
  0
LINE
  5
12E1B6
  8
OBJECT
 10
248.0
 20
-655.99999999999875
 30
0.0
 11
248.0
 21
-773.99999999999875
 31
0.0
1001
ACDBBLOCKREPETAG
1070
     1
1071
       44
1005
12E1B6
  0
LINE
  5
12E1B7
  8
OBJECT
 10
248.0
 20
-773.99999999999875
 30
0.0
 11
284.0
 21
-773.99999999999875
 31
0.0
1001
ACDBBLOCKREPETAG
1070
     1
1071
       45
1005
12E1B7
  0
LINE
  5
12E1B8
  8
OBJECT
 10
244.0
 20
-660.49999999999875
 30
0.0
 11
237.0
 21
-660.49999999999875
 31
0.0
1001
ACDBBLOCKREPETAG
1070
     1
1071
       46
1005
12E1B8
  0
LINE
  5
12E1B9
  8
OBJECT
 10
237.0
 20
-769.49999999999875
 30
0.0
 11
244.0
 21
-769.49999999999875
 31
0.0
1001
ACDBBLOCKREPETAG
1070
     1
1071
       47
1005
12E1B9
  0
LINE
  5
12E1BA
  8
OBJECT
 10
244.0
 20
-769.49999999999875
 30
0.0
 11
244.0
 21
-660.49999999999875
 31
0.0
1001
ACDBBLOCKREPETAG
1070
     1
1071
       48
1005
12E1BA
  0
LINE
  5
12E1BB
  8
OBJECT
 10
248.0
 20
-655.99999999999875
 30
0.0
 11
244.0
 21
-660.49999999999875
 31
0.0
1001
ACDBBLOCKREPETAG
1070
     1
1071
       49
1005
12E1BB
  0
LINE
  5
12E1BC
  8
OBJECT
 10
248.0
 20
-773.99999999999875
 30
0.0
 11
244.0
 21
-769.49999999999875
 31
0.0
1001
ACDBBLOCKREPETAG
1070
     1
1071
       50
1005
12E1BC
  0
LINE
  5
12E1BD
  8
OBJECT
 10
234.00000000000179
 20
-652.99999999999875
 30
0.0
 11
231.0
 21
-652.99999999999875
 31
0.0
1001
ACDBBLOCKREPETAG
1070
     1
1071
       51
1005
12E1BD
  0
ARC
  5
12E1BE
  8
OBJECT
 10
234.00000000000179
 20
-655.99999999999875
 30
0.0
 40
3.0
 50
0.0
 51
90.0
1001
ACDBBLOCKREPETAG
1070
     1
1071
       52
1005
12E1BE
  0
LINE
  5
12E1BF
  8
OBJECT
 10
231.0
 20
-776.99999999999875
 30
0.0
 11
233.99999999999821
 21
-776.99999999999875
 31
0.0
1001
ACDBBLOCKREPETAG
1070
     1
1071
       53
1005
12E1BF
  0
ARC
  5
12E1C0
  8
OBJECT
 10
233.99999999999821
 20
-773.99999999999875
 30
0.0
 40
3.0
 50
270.0
 51
0.0
1001
ACDBBLOCKREPETAG
1070
     1
1071
       54
1005
12E1C0
  0
LINE
  5
12E1C1
  8
OBJECT
 10
236.99999999999821
 20
-773.99999999999875
 30
0.0
 11
237.00000000000179
 21
-655.99999999999875
 31
0.0
1001
ACDBBLOCKREPETAG
1070
     1
1071
       55
1005
12E1C1
  0
LINE
  5
12E1C2
  8
HIDDEN
 10
239.0
 20
-670.49999999999875
 30
0.0
 11
239.0
 21
-759.49999999999875
 31
0.0
1001
ACDBBLOCKREPETAG
1070
     1
1071
      430
1005
12E1C2
  0
LINE
  5
12E1C3
  8
OBJECT
 10
99.0
 20
-522.0000000000116
 30
0.0
 11
99.0
 21
-515.00000000001137
 31
0.0
1001
ACDBBLOCKREPETAG
1070
     1
1071
      368
1005
12E1C3
  0
LINE
  5
12E1C4
  8
OBJECT
 10
99.0
 20
-515.00000000001137
 30
0.0
 11
223.0
 21
-515.00000000001137
 31
0.0
1001
ACDBBLOCKREPETAG
1070
     1
1071
      369
1005
12E1C4
  0
LINE
  5
12E1C5
  8
OBJECT
 10
223.0
 20
-515.00000000001137
 30
0.0
 11
223.0
 21
-522.0000000000116
 31
0.0
1001
ACDBBLOCKREPETAG
1070
     1
1071
      370
1005
12E1C5
  0
LINE
  5
12E1C6
  8
OBJECT
 10
223.0
 20
-522.0000000000116
 30
0.0
 11
99.0
 21
-522.0000000000116
 31
0.0
1001
ACDBBLOCKREPETAG
1070
     1
1071
      371
1005
12E1C6
  0
LINE
  5
12E1C7
  8
OBJECT
 10
206.00000000000361
 20
-575.00002503581038
 30
0.0
 11
206.0
 21
-638.99999999999807
 31
0.0
1001
ACDBBLOCKREPETAG
1070
     1
1071
      372
1005
12E1C7
  0
LINE
  5
12E1C8
  8
OBJECT
 10
116.0
 20
-575.00002503581038
 30
0.0
 11
116.0
 21
-638.99999999999613
 31
0.0
1001
ACDBBLOCKREPETAG
1070
     1
1071
      373
1005
12E1C8
  0
LINE
  5
12E1C9
  8
OBJECT
 10
102.0
 20
-522.0000000000116
 30
0.0
 11
102.0
 21
-558.0000000000116
 31
0.0
1001
ACDBBLOCKREPETAG
1070
     1
1071
      374
1005
12E1C9
  0
LINE
  5
12E1CA
  8
OBJECT
 10
102.0
 20
-558.0000000000116
 30
0.0
 11
220.0
 21
-558.0000000000116
 31
0.0
1001
ACDBBLOCKREPETAG
1070
     1
1071
      375
1005
12E1CA
  0
LINE
  5
12E1CB
  8
OBJECT
 10
220.0
 20
-558.0000000000116
 30
0.0
 11
220.0
 21
-522.0000000000116
 31
0.0
1001
ACDBBLOCKREPETAG
1070
     1
1071
      376
1005
12E1CB
  0
LINE
  5
12E1CC
  8
OBJECT
 10
106.5
 20
-562.0000000000116
 30
0.0
 11
106.5
 21
-575.0000000000116
 31
0.0
1001
ACDBBLOCKREPETAG
1070
     1
1071
      377
1005
12E1CC
  0
LINE
  5
12E1CD
  8
OBJECT
 10
215.5
 20
-575.0000000000116
 30
0.0
 11
215.5
 21
-562.0000000000116
 31
0.0
1001
ACDBBLOCKREPETAG
1070
     1
1071
      378
1005
12E1CD
  0
LINE
  5
12E1CE
  8
OBJECT
 10
215.5
 20
-562.0000000000116
 30
0.0
 11
106.5
 21
-562.0000000000116
 31
0.0
1001
ACDBBLOCKREPETAG
1070
     1
1071
      379
1005
12E1CE
  0
LINE
  5
12E1CF
  8
OBJECT
 10
102.0
 20
-558.0000000000116
 30
0.0
 11
106.5
 21
-562.0000000000116
 31
0.0
1001
ACDBBLOCKREPETAG
1070
     1
1071
      380
1005
12E1CF
  0
LINE
  5
12E1D0
  8
OBJECT
 10
220.0
 20
-558.0000000000116
 30
0.0
 11
215.5
 21
-562.0000000000116
 31
0.0
1001
ACDBBLOCKREPETAG
1070
     1
1071
      381
1005
12E1D0
  0
LINE
  5
12E1D1
  8
OBJECT
 10
99.0
 20
-641.99999999999613
 30
0.0
 11
99.0
 21
-644.99999999999704
 31
0.0
1001
ACDBBLOCKREPETAG
1070
     1
1071
      382
1005
12E1D1
  0
ARC
  5
12E1D2
  8
OBJECT
 10
102.0
 20
-641.99999999999613
 30
0.0
 40
3.0
 50
90.0
 51
180.0
1001
ACDBBLOCKREPETAG
1070
     1
1071
      383
1005
12E1D2
  0
LINE
  5
12E1D3
  8
OBJECT
 10
223.0
 20
-644.99999999999704
 30
0.0
 11
223.0
 21
-641.99999999999795
 31
0.0
1001
ACDBBLOCKREPETAG
1070
     1
1071
      384
1005
12E1D3
  0
ARC
  5
12E1D4
  8
OBJECT
 10
220.0
 20
-641.99999999999795
 30
0.0
 40
3.0
 50
0.0
 51
90.0
1001
ACDBBLOCKREPETAG
1070
     1
1071
      385
1005
12E1D4
  0
LINE
  5
12E1D5
  8
OBJECT
 10
220.0
 20
-638.99999999999807
 30
0.0
 11
171.32279032035879
 21
-638.99999999999613
 31
0.0
1001
ACDBBLOCKREPETAG
1070
     1
1071
      386
1005
12E1D5
  0
LINE
  5
12E1D6
  8
OBJECT
 10
150.67720967964109
 20
-638.99999999999704
 30
0.0
 11
102.0
 21
-638.99999999999613
 31
0.0
1001
ACDBBLOCKREPETAG
1070
     1
1071
      387
1005
12E1D6
  0
LINE
  5
12E1D7
  8
OBJECT
 10
215.49995092381141
 20
-575.00002503581038
 30
0.0
 11
106.4999509238114
 21
-575.00002503581038
 31
0.0
1001
ACDBBLOCKREPETAG
1070
     1
1071
      389
1005
12E1D7
  0
ARC
  5
12E1D8
  8
OBJECT
 10
161.0
 20
-595.19999999997412
 30
0.0
 40
45.000000000000547
 50
180.0
 51
0.0
1001
ACDBBLOCKREPETAG
1070
     1
1071
      390
1005
12E1D8
  0
INSERT
  5
12E1D9
  8
OBJECT
  2
*U620
 10
0.0
 20
0.0
 30
0.0
  0
INSERT
  5
12E1DA
  8
OBJECT
  2
*U621
 10
0.0
 20
0.0
 30
0.0
  0
LINE
  5
12E1DB
  8
HIDDEN
 10
116.5
 20
-567.0000000000116
 30
0.0
 11
205.5
 21
-567.0000000000116
 31
0.0
1001
ACDBBLOCKREPETAG
1070
     1
1071
      435
1005
12E1DB
  0
LINE
  5
12E1DC
  8
OBJECT
 10
459.0
 20
-323.99999999999892
 30
0.0
 11
459.0
 21
-320.99999999999892
 31
0.0
1001
ACDBBLOCKREPETAG
1070
     1
1071
      418
1005
12E1DC
  0
ARC
  5
12E1DD
  8
OBJECT
 10
462.0
 20
-323.99999999999892
 30
0.0
 40
3.0
 50
180.0
 51
270.0
1001
ACDBBLOCKREPETAG
1070
     1
1071
      419
1005
12E1DD
  0
LINE
  5
12E1DE
  8
OBJECT
 10
583.0
 20
-320.99999999999892
 30
0.0
 11
583.0
 21
-323.99999999999892
 31
0.0
1001
ACDBBLOCKREPETAG
1070
     1
1071
      420
1005
12E1DE
  0
ARC
  5
12E1DF
  8
OBJECT
 10
580.0
 20
-323.99999999999892
 30
0.0
 40
3.0
 50
270.0
 51
0.0
1001
ACDBBLOCKREPETAG
1070
     1
1071
      421
1005
12E1DF
  0
LINE
  5
12E1E0
  8
OBJECT
 10
580.0
 20
-326.99999999999892
 30
0.0
 11
462.0
 21
-326.99999999999892
 31
0.0
1001
ACDBBLOCKREPETAG
1070
     1
1071
      422
1005
12E1E0
  0
INSERT
  5
12E1E1
  8
OBJECT
  2
*U622
 10
0.0
 20
0.0
 30
0.0
  0
LINE
  5
12E1E2
  8
OBJECT
 10
644.0
 20
-195.99999999999881
 30
0.0
 11
651.0
 21
-195.99999999999881
 31
0.0
1001
ACDBBLOCKREPETAG
1070
     1
1071
       20
1005
12E1E2
  0
LINE
  5
12E1E3
  8
OBJECT
 10
651.0
 20
-195.99999999999881
 30
0.0
 11
651.0
 21
-305.99999999999881
 31
0.0
1001
ACDBBLOCKREPETAG
1070
     1
1071
       21
1005
12E1E3
  0
LINE
  5
12E1E4
  8
OBJECT
 10
651.0
 20
-305.99999999999881
 30
0.0
 11
644.0
 21
-305.99999999999881
 31
0.0
1001
ACDBBLOCKREPETAG
1070
     1
1071
       22
1005
12E1E4
  0
LINE
  5
12E1E5
  8
OBJECT
 10
644.0
 20
-305.99999999999881
 30
0.0
 11
644.0
 21
-195.99999999999881
 31
0.0
1001
ACDBBLOCKREPETAG
1070
     1
1071
       23
1005
12E1E5
  0
LINE
  5
12E1E6
  8
OBJECT
 10
644.0
 20
-198.99999999999881
 30
0.0
 11
608.0
 21
-198.99999999999881
 31
0.0
1001
ACDBBLOCKREPETAG
1070
     1
1071
       24
1005
12E1E6
  0
LINE
  5
12E1E7
  8
OBJECT
 10
608.0
 20
-198.99999999999881
 30
0.0
 11
608.0
 21
-302.99999999999892
 31
0.0
1001
ACDBBLOCKREPETAG
1070
     1
1071
       25
1005
12E1E7
  0
LINE
  5
12E1E8
  8
OBJECT
 10
608.0
 20
-302.99999999999892
 30
0.0
 11
644.0
 21
-302.99999999999892
 31
0.0
1001
ACDBBLOCKREPETAG
1070
     1
1071
       26
1005
12E1E8
  0
LINE
  5
12E1E9
  8
OBJECT
 10
604.0
 20
-203.49999999999889
 30
0.0
 11
597.0
 21
-203.49999999999889
 31
0.0
1001
ACDBBLOCKREPETAG
1070
     1
1071
       27
1005
12E1E9
  0
LINE
  5
12E1EA
  8
OBJECT
 10
597.0
 20
-298.49999999999892
 30
0.0
 11
604.0
 21
-298.49999999999892
 31
0.0
1001
ACDBBLOCKREPETAG
1070
     1
1071
       28
1005
12E1EA
  0
LINE
  5
12E1EB
  8
OBJECT
 10
604.0
 20
-298.49999999999892
 30
0.0
 11
604.0
 21
-203.49999999999889
 31
0.0
1001
ACDBBLOCKREPETAG
1070
     1
1071
       29
1005
12E1EB
  0
LINE
  5
12E1EC
  8
OBJECT
 10
608.0
 20
-198.99999999999881
 30
0.0
 11
604.0
 21
-203.49999999999889
 31
0.0
1001
ACDBBLOCKREPETAG
1070
     1
1071
       30
1005
12E1EC
  0
LINE
  5
12E1ED
  8
OBJECT
 10
608.0
 20
-302.99999999999892
 30
0.0
 11
604.0
 21
-298.49999999999892
 31
0.0
1001
ACDBBLOCKREPETAG
1070
     1
1071
       31
1005
12E1ED
  0
LINE
  5
12E1EE
  8
OBJECT
 10
594.00000000000171
 20
-188.99999999999881
 30
0.0
 11
591.0
 21
-188.99999999999881
 31
0.0
1001
ACDBBLOCKREPETAG
1070
     1
1071
       32
1005
12E1EE
  0
ARC
  5
12E1EF
  8
OBJECT
 10
594.00000000000171
 20
-191.99999999999881
 30
0.0
 40
3.0
 50
0.0
 51
90.0
1001
ACDBBLOCKREPETAG
1070
     1
1071
       33
1005
12E1EF
  0
LINE
  5
12E1F0
  8
OBJECT
 10
591.0
 20
-312.99999999999892
 30
0.0
 11
593.99999999999795
 21
-312.99999999999892
 31
0.0
1001
ACDBBLOCKREPETAG
1070
     1
1071
       34
1005
12E1F0
  0
ARC
  5
12E1F1
  8
OBJECT
 10
593.99999999999795
 20
-309.99999999999881
 30
0.0
 40
3.0
 50
270.0
 51
0.0
1001
ACDBBLOCKREPETAG
1070
     1
1071
       35
1005
12E1F1
  0
LINE
  5
12E1F2
  8
OBJECT
 10
596.99999999999807
 20
-309.99999999999881
 30
0.0
 11
597.00000000000171
 21
-191.99999999999881
 31
0.0
1001
ACDBBLOCKREPETAG
1070
     1
1071
       36
1005
12E1F2
  0
LINE
  5
12E1F3
  8
HIDDEN
 10
599.0
 20
-212.99999999999889
 30
0.0
 11
599.0
 21
-288.99999999999892
 31
0.0
1001
ACDBBLOCKREPETAG
1070
     1
1071
      427
1005
12E1F3
  0
LINE
  5
12E1F4
  8
OBJECT
 10
459.0
 20
-58.000000000011589
 30
0.0
 11
459.0
 21
-51.000000000011589
 31
0.0
1001
ACDBBLOCKREPETAG
1070
     1
1071
      368
1005
12E1F4
  0
LINE
  5
12E1F5
  8
OBJECT
 10
459.0
 20
-51.000000000011589
 30
0.0
 11
583.0
 21
-51.000000000011589
 31
0.0
1001
ACDBBLOCKREPETAG
1070
     1
1071
      369
1005
12E1F5
  0
LINE
  5
12E1F6
  8
OBJECT
 10
583.0
 20
-51.000000000011589
 30
0.0
 11
583.0
 21
-58.000000000011589
 31
0.0
1001
ACDBBLOCKREPETAG
1070
     1
1071
      370
1005
12E1F6
  0
LINE
  5
12E1F7
  8
OBJECT
 10
583.0
 20
-58.000000000011589
 30
0.0
 11
459.0
 21
-58.000000000011589
 31
0.0
1001
ACDBBLOCKREPETAG
1070
     1
1071
      371
1005
12E1F7
  0
LINE
  5
12E1F8
  8
OBJECT
 10
566.00000000000364
 20
-111.00002503581049
 30
0.0
 11
566.0
 21
-174.9999999999979
 31
0.0
1001
ACDBBLOCKREPETAG
1070
     1
1071
      372
1005
12E1F8
  0
LINE
  5
12E1F9
  8
OBJECT
 10
476.0
 20
-111.00002503581049
 30
0.0
 11
476.0
 21
-174.99999999999611
 31
0.0
1001
ACDBBLOCKREPETAG
1070
     1
1071
      373
1005
12E1F9
  0
LINE
  5
12E1FA
  8
OBJECT
 10
462.0
 20
-58.000000000011589
 30
0.0
 11
462.0
 21
-94.000000000011596
 31
0.0
1001
ACDBBLOCKREPETAG
1070
     1
1071
      374
1005
12E1FA
  0
LINE
  5
12E1FB
  8
OBJECT
 10
462.0
 20
-94.000000000011596
 30
0.0
 11
580.0
 21
-94.000000000011596
 31
0.0
1001
ACDBBLOCKREPETAG
1070
     1
1071
      375
1005
12E1FB
  0
LINE
  5
12E1FC
  8
OBJECT
 10
580.0
 20
-94.000000000011596
 30
0.0
 11
580.0
 21
-58.000000000011589
 31
0.0
1001
ACDBBLOCKREPETAG
1070
     1
1071
      376
1005
12E1FC
  0
LINE
  5
12E1FD
  8
OBJECT
 10
466.5
 20
-98.000000000011596
 30
0.0
 11
466.5
 21
-111.0000000000116
 31
0.0
1001
ACDBBLOCKREPETAG
1070
     1
1071
      377
1005
12E1FD
  0
LINE
  5
12E1FE
  8
OBJECT
 10
575.49999999999989
 20
-111.0000000000116
 30
0.0
 11
575.49999999999989
 21
-98.000000000011596
 31
0.0
1001
ACDBBLOCKREPETAG
1070
     1
1071
      378
1005
12E1FE
  0
LINE
  5
12E1FF
  8
OBJECT
 10
575.49999999999989
 20
-98.000000000011596
 30
0.0
 11
466.5
 21
-98.000000000011596
 31
0.0
1001
ACDBBLOCKREPETAG
1070
     1
1071
      379
1005
12E1FF
  0
LINE
  5
12E200
  8
OBJECT
 10
462.0
 20
-94.000000000011596
 30
0.0
 11
466.5
 21
-98.000000000011596
 31
0.0
1001
ACDBBLOCKREPETAG
1070
     1
1071
      380
1005
12E200
  0
LINE
  5
12E201
  8
OBJECT
 10
580.0
 20
-94.000000000011596
 30
0.0
 11
575.49999999999989
 21
-98.000000000011596
 31
0.0
1001
ACDBBLOCKREPETAG
1070
     1
1071
      381
1005
12E201
  0
LINE
  5
12E202
  8
OBJECT
 10
459.0
 20
-177.99999999999611
 30
0.0
 11
459.0
 21
-180.99999999999699
 31
0.0
1001
ACDBBLOCKREPETAG
1070
     1
1071
      382
1005
12E202
  0
ARC
  5
12E203
  8
OBJECT
 10
462.0
 20
-177.99999999999611
 30
0.0
 40
3.0
 50
90.0
 51
180.0
1001
ACDBBLOCKREPETAG
1070
     1
1071
      383
1005
12E203
  0
LINE
  5
12E204
  8
OBJECT
 10
583.0
 20
-180.99999999999699
 30
0.0
 11
583.0
 21
-177.9999999999979
 31
0.0
1001
ACDBBLOCKREPETAG
1070
     1
1071
      384
1005
12E204
  0
ARC
  5
12E205
  8
OBJECT
 10
580.0
 20
-177.9999999999979
 30
0.0
 40
3.0
 50
0.0
 51
90.0
1001
ACDBBLOCKREPETAG
1070
     1
1071
      385
1005
12E205
  0
LINE
  5
12E206
  8
OBJECT
 10
580.0
 20
-174.9999999999979
 30
0.0
 11
531.32279032035865
 21
-174.99999999999611
 31
0.0
1001
ACDBBLOCKREPETAG
1070
     1
1071
      386
1005
12E206
  0
LINE
  5
12E207
  8
OBJECT
 10
510.67720967964118
 20
-174.9999999999969
 30
0.0
 11
462.0
 21
-174.99999999999611
 31
0.0
1001
ACDBBLOCKREPETAG
1070
     1
1071
      387
1005
12E207
  0
LINE
  5
12E208
  8
OBJECT
 10
575.49995092381118
 20
-111.00002503581049
 30
0.0
 11
466.4999509238113
 21
-111.00002503581049
 31
0.0
1001
ACDBBLOCKREPETAG
1070
     1
1071
      389
1005
12E208
  0
ARC
  5
12E209
  8
OBJECT
 10
521.0
 20
-131.1999999999741
 30
0.0
 40
45.000000000000547
 50
180.0
 51
0.0
1001
ACDBBLOCKREPETAG
1070
     1
1071
      390
1005
12E209
  0
INSERT
  5
12E20A
  8
OBJECT
  2
*U623
 10
0.0
 20
0.0
 30
0.0
  0
INSERT
  5
12E20B
  8
OBJECT
  2
*U624
 10
0.0
 20
0.0
 30
0.0
  0
LINE
  5
12E20C
  8
HIDDEN
 10
476.49999999999989
 20
-103.0000000000116
 30
0.0
 11
565.5
 21
-103.0000000000116
 31
0.0
1001
ACDBBLOCKREPETAG
1070
     1
1071
      435
1005
12E20C
  0
TEXT
  5
12E20D
  8
SLIM
 10
78.171428571428521
 20
-907.9999999999992
 30
0.0
 40
48.0
  1
Z63（特）
 41
0.75
1001
ACDBBLOCKREPETAG
1070
     1
1071
       46
1005
12E13F
  0
TEXT
  5
12E20E
  8
SLIM
 10
493.71428571428561
 20
-443.99999999999892
 30
0.0
 40
48.0
  1
Z62
 41
0.75
1001
ACDBBLOCKREPETAG
1070
     1
1071
       46
1005
12E13F
  0
TEXT
  5
12E20F
  8
SLIM
 10
141.42857142857139
 20
-443.99999999999892
 30
0.0
 40
48.0
  1
Z61
 41
0.75
1001
ACDBBLOCKREPETAG
1070
     1
1071
       46
1005
12E13F
  0
LINE
  5
12E210
  8
OBJECT
 10
99.0
 20
-323.99999999999892
 30
0.0
 11
99.0
 21
-320.99999999999892
 31
0.0
1001
ACDBBLOCKREPETAG
1070
     1
1071
      418
1005
12E210
  0
ARC
  5
12E211
  8
OBJECT
 10
102.0
 20
-323.99999999999892
 30
0.0
 40
3.0
 50
180.0
 51
270.0
1001
ACDBBLOCKREPETAG
1070
     1
1071
      419
1005
12E211
  0
LINE
  5
12E212
  8
OBJECT
 10
223.0
 20
-320.99999999999892
 30
0.0
 11
223.0
 21
-323.99999999999892
 31
0.0
1001
ACDBBLOCKREPETAG
1070
     1
1071
      420
1005
12E212
  0
ARC
  5
12E213
  8
OBJECT
 10
220.0
 20
-323.99999999999892
 30
0.0
 40
3.0
 50
270.0
 51
0.0
1001
ACDBBLOCKREPETAG
1070
     1
1071
      421
1005
12E213
  0
LINE
  5
12E214
  8
OBJECT
 10
220.0
 20
-326.99999999999892
 30
0.0
 11
102.0
 21
-326.99999999999892
 31
0.0
1001
ACDBBLOCKREPETAG
1070
     1
1071
      422
1005
12E214
  0
INSERT
  5
12E215
  8
OBJECT
  2
*U625
 10
0.0
 20
0.0
 30
0.0
  0
LINE
  5
12E216
  8
OBJECT
 10
284.0
 20
-203.99999999999881
 30
0.0
 11
291.0
 21
-203.99999999999881
 31
0.0
1001
ACDBBLOCKREPETAG
1070
     1
1071
        1
1005
12E216
  0
LINE
  5
12E217
  8
OBJECT
 10
291.0
 20
-203.99999999999881
 30
0.0
 11
291.0
 21
-297.99999999999892
 31
0.0
1001
ACDBBLOCKREPETAG
1070
     1
1071
        2
1005
12E217
  0
LINE
  5
12E218
  8
OBJECT
 10
291.0
 20
-297.99999999999892
 30
0.0
 11
284.0
 21
-297.99999999999892
 31
0.0
1001
ACDBBLOCKREPETAG
1070
     1
1071
        3
1005
12E218
  0
LINE
  5
12E219
  8
OBJECT
 10
284.0
 20
-297.99999999999892
 30
0.0
 11
284.0
 21
-203.99999999999881
 31
0.0
1001
ACDBBLOCKREPETAG
1070
     1
1071
        4
1005
12E219
  0
LINE
  5
12E21A
  8
OBJECT
 10
284.0
 20
-206.99999999999889
 30
0.0
 11
248.0
 21
-206.99999999999889
 31
0.0
1001
ACDBBLOCKREPETAG
1070
     1
1071
        5
1005
12E21A
  0
LINE
  5
12E21B
  8
OBJECT
 10
248.0
 20
-206.99999999999889
 30
0.0
 11
248.0
 21
-294.99999999999881
 31
0.0
1001
ACDBBLOCKREPETAG
1070
     1
1071
        6
1005
12E21B
  0
LINE
  5
12E21C
  8
OBJECT
 10
248.0
 20
-294.99999999999881
 30
0.0
 11
284.0
 21
-294.99999999999881
 31
0.0
1001
ACDBBLOCKREPETAG
1070
     1
1071
        7
1005
12E21C
  0
LINE
  5
12E21D
  8
OBJECT
 10
244.0
 20
-211.49999999999889
 30
0.0
 11
237.0
 21
-211.49999999999889
 31
0.0
1001
ACDBBLOCKREPETAG
1070
     1
1071
        8
1005
12E21D
  0
LINE
  5
12E21E
  8
OBJECT
 10
237.0
 20
-290.49999999999892
 30
0.0
 11
244.0
 21
-290.49999999999892
 31
0.0
1001
ACDBBLOCKREPETAG
1070
     1
1071
        9
1005
12E21E
  0
LINE
  5
12E21F
  8
OBJECT
 10
244.0
 20
-290.49999999999892
 30
0.0
 11
244.0
 21
-211.49999999999889
 31
0.0
1001
ACDBBLOCKREPETAG
1070
     1
1071
       10
1005
12E21F
  0
LINE
  5
12E220
  8
OBJECT
 10
248.0
 20
-206.99999999999889
 30
0.0
 11
244.0
 21
-211.49999999999889
 31
0.0
1001
ACDBBLOCKREPETAG
1070
     1
1071
       11
1005
12E220
  0
LINE
  5
12E221
  8
OBJECT
 10
248.0
 20
-294.99999999999881
 30
0.0
 11
244.0
 21
-290.49999999999892
 31
0.0
1001
ACDBBLOCKREPETAG
1070
     1
1071
       12
1005
12E221
  0
LINE
  5
12E222
  8
OBJECT
 10
234.00000000000179
 20
-188.99999999999881
 30
0.0
 11
231.0
 21
-188.99999999999881
 31
0.0
1001
ACDBBLOCKREPETAG
1070
     1
1071
       13
1005
12E222
  0
ARC
  5
12E223
  8
OBJECT
 10
234.00000000000179
 20
-191.99999999999881
 30
0.0
 40
3.0
 50
0.0
 51
90.0
1001
ACDBBLOCKREPETAG
1070
     1
1071
       14
1005
12E223
  0
LINE
  5
12E224
  8
OBJECT
 10
231.0
 20
-312.99999999999892
 30
0.0
 11
233.99999999999821
 21
-312.99999999999892
 31
0.0
1001
ACDBBLOCKREPETAG
1070
     1
1071
       15
1005
12E224
  0
ARC
  5
12E225
  8
OBJECT
 10
233.99999999999821
 20
-309.99999999999881
 30
0.0
 40
3.0
 50
270.0
 51
0.0
1001
ACDBBLOCKREPETAG
1070
     1
1071
       16
1005
12E225
  0
LINE
  5
12E226
  8
OBJECT
 10
236.99999999999821
 20
-309.99999999999881
 30
0.0
 11
237.00000000000179
 21
-191.99999999999881
 31
0.0
1001
ACDBBLOCKREPETAG
1070
     1
1071
       17
1005
12E226
  0
LINE
  5
12E227
  8
HIDDEN
 10
239.0
 20
-220.99999999999889
 30
0.0
 11
239.0
 21
-280.99999999999881
 31
0.0
1001
ACDBBLOCKREPETAG
1070
     1
1071
      424
1005
12E227
  0
LINE
  5
12E228
  8
OBJECT
 10
99.0
 20
-58.000000000011589
 30
0.0
 11
99.0
 21
-51.000000000011589
 31
0.0
1001
ACDBBLOCKREPETAG
1070
     1
1071
      368
1005
12E228
  0
LINE
  5
12E229
  8
OBJECT
 10
99.0
 20
-51.000000000011589
 30
0.0
 11
223.0
 21
-51.000000000011589
 31
0.0
1001
ACDBBLOCKREPETAG
1070
     1
1071
      369
1005
12E229
  0
LINE
  5
12E22A
  8
OBJECT
 10
223.0
 20
-51.000000000011589
 30
0.0
 11
223.0
 21
-58.000000000011589
 31
0.0
1001
ACDBBLOCKREPETAG
1070
     1
1071
      370
1005
12E22A
  0
LINE
  5
12E22B
  8
OBJECT
 10
223.0
 20
-58.000000000011589
 30
0.0
 11
99.0
 21
-58.000000000011589
 31
0.0
1001
ACDBBLOCKREPETAG
1070
     1
1071
      371
1005
12E22B
  0
LINE
  5
12E22C
  8
OBJECT
 10
206.00000000000361
 20
-111.00002503581049
 30
0.0
 11
206.0
 21
-174.9999999999979
 31
0.0
1001
ACDBBLOCKREPETAG
1070
     1
1071
      372
1005
12E22C
  0
LINE
  5
12E22D
  8
OBJECT
 10
116.0
 20
-111.00002503581049
 30
0.0
 11
116.0
 21
-174.99999999999611
 31
0.0
1001
ACDBBLOCKREPETAG
1070
     1
1071
      373
1005
12E22D
  0
LINE
  5
12E22E
  8
OBJECT
 10
102.0
 20
-58.000000000011589
 30
0.0
 11
102.0
 21
-94.000000000011596
 31
0.0
1001
ACDBBLOCKREPETAG
1070
     1
1071
      374
1005
12E22E
  0
LINE
  5
12E22F
  8
OBJECT
 10
102.0
 20
-94.000000000011596
 30
0.0
 11
220.0
 21
-94.000000000011596
 31
0.0
1001
ACDBBLOCKREPETAG
1070
     1
1071
      375
1005
12E22F
  0
LINE
  5
12E230
  8
OBJECT
 10
220.0
 20
-94.000000000011596
 30
0.0
 11
220.0
 21
-58.000000000011589
 31
0.0
1001
ACDBBLOCKREPETAG
1070
     1
1071
      376
1005
12E230
  0
LINE
  5
12E231
  8
OBJECT
 10
106.5
 20
-98.000000000011596
 30
0.0
 11
106.5
 21
-111.0000000000116
 31
0.0
1001
ACDBBLOCKREPETAG
1070
     1
1071
      377
1005
12E231
  0
LINE
  5
12E232
  8
OBJECT
 10
215.5
 20
-111.0000000000116
 30
0.0
 11
215.5
 21
-98.000000000011596
 31
0.0
1001
ACDBBLOCKREPETAG
1070
     1
1071
      378
1005
12E232
  0
LINE
  5
12E233
  8
OBJECT
 10
215.5
 20
-98.000000000011596
 30
0.0
 11
106.5
 21
-98.000000000011596
 31
0.0
1001
ACDBBLOCKREPETAG
1070
     1
1071
      379
1005
12E233
  0
LINE
  5
12E234
  8
OBJECT
 10
102.0
 20
-94.000000000011596
 30
0.0
 11
106.5
 21
-98.000000000011596
 31
0.0
1001
ACDBBLOCKREPETAG
1070
     1
1071
      380
1005
12E234
  0
LINE
  5
12E235
  8
OBJECT
 10
220.0
 20
-94.000000000011596
 30
0.0
 11
215.5
 21
-98.000000000011596
 31
0.0
1001
ACDBBLOCKREPETAG
1070
     1
1071
      381
1005
12E235
  0
LINE
  5
12E236
  8
OBJECT
 10
99.0
 20
-177.99999999999611
 30
0.0
 11
99.0
 21
-180.99999999999699
 31
0.0
1001
ACDBBLOCKREPETAG
1070
     1
1071
      382
1005
12E236
  0
ARC
  5
12E237
  8
OBJECT
 10
102.0
 20
-177.99999999999611
 30
0.0
 40
3.0
 50
90.0
 51
180.0
1001
ACDBBLOCKREPETAG
1070
     1
1071
      383
1005
12E237
  0
LINE
  5
12E238
  8
OBJECT
 10
223.0
 20
-180.99999999999699
 30
0.0
 11
223.0
 21
-177.9999999999979
 31
0.0
1001
ACDBBLOCKREPETAG
1070
     1
1071
      384
1005
12E238
  0
ARC
  5
12E239
  8
OBJECT
 10
220.0
 20
-177.9999999999979
 30
0.0
 40
3.0
 50
0.0
 51
90.0
1001
ACDBBLOCKREPETAG
1070
     1
1071
      385
1005
12E239
  0
LINE
  5
12E23A
  8
OBJECT
 10
220.0
 20
-174.9999999999979
 30
0.0
 11
171.32279032035879
 21
-174.99999999999611
 31
0.0
1001
ACDBBLOCKREPETAG
1070
     1
1071
      386
1005
12E23A
  0
LINE
  5
12E23B
  8
OBJECT
 10
150.67720967964109
 20
-174.9999999999969
 30
0.0
 11
102.0
 21
-174.99999999999611
 31
0.0
1001
ACDBBLOCKREPETAG
1070
     1
1071
      387
1005
12E23B
  0
LINE
  5
12E23C
  8
OBJECT
 10
215.49995092381141
 20
-111.00002503581049
 30
0.0
 11
106.4999509238114
 21
-111.00002503581049
 31
0.0
1001
ACDBBLOCKREPETAG
1070
     1
1071
      389
1005
12E23C
  0
ARC
  5
12E23D
  8
OBJECT
 10
161.0
 20
-131.1999999999741
 30
0.0
 40
45.000000000000547
 50
180.0
 51
0.0
1001
ACDBBLOCKREPETAG
1070
     1
1071
      390
1005
12E23D
  0
INSERT
  5
12E23E
  8
OBJECT
  2
*U626
 10
0.0
 20
0.0
 30
0.0
  0
INSERT
  5
12E23F
  8
OBJECT
  2
*U627
 10
0.0
 20
0.0
 30
0.0
  0
LINE
  5
12E240
  8
HIDDEN
 10
116.5
 20
-103.0000000000116
 30
0.0
 11
205.5
 21
-103.0000000000116
 31
0.0
1001
ACDBBLOCKREPETAG
1070
     1
1071
      435
1005
12E240
  0
CIRCLE
  5
12E241
  8
OBJECT
 10
12000.0
 20
-695.99999999999955
 30
0.0
 40
62.0
1001
ACDBBLOCKREPETAG
1070
     1
1071
        3
1005
12E241
  0
LINE
  5
12E242
  8
CENTER
 10
11938.0
 20
-710.99999999999955
 30
0.0
 11
12062.0
 21
-710.99999999999955
 31
0.0
1001
ACDBBLOCKREPETAG
1070
     1
1071
        4
1005
12E242
  0
CIRCLE
  5
12E243
  8
OBJECT
 10
12000.0
 20
-710.99999999999955
 30
0.0
 40
28.0
1001
ACDBBLOCKREPETAG
1070
     1
1071
        6
1005
12E243
  0
CIRCLE
  5
12E244
  8
OBJECT
 10
12000.0
 20
-710.99999999999955
 30
0.0
 40
39.0
1001
ACDBBLOCKREPETAG
1070
     1
1071
        7
1005
12E244
  0
ARC
  5
12E245
  8
OBJECT
 10
12000.0
 20
-710.99999999999955
 30
0.0
 40
47.0
 50
290.58196921144179
 51
249.41803078855821
1001
ACDBBLOCKREPETAG
1070
     1
1071
        8
1005
12E245
  0
LINE
  5
12E246
  8
OBJECT
 10
11983.477288358141
 20
-754.99999999999955
 30
0.0
 11
12016.52271164185
 21
-754.99999999999955
 31
0.0
1001
ACDBBLOCKREPETAG
1070
     1
1071
        9
1005
12E246
  0
LINE
  5
12E247
  8
CENTER
 10
12000.0
 20
-769.99999999999955
 30
0.0
 11
12000.0
 21
-613.99999999999966
 31
0.0
1001
ACDBBLOCKREPETAG
1070
     1
1071
        0
1005
12E247
  0
LINE
  5
12E248
  8
OBJECT
 10
11930.0
 20
-633.99999999999955
 30
0.0
 11
12070.0
 21
-633.99999999999955
 31
0.0
1001
ACDBBLOCKREPETAG
1070
     1
1071
        1
1005
12E248
  0
LINE
  5
12E249
  8
OBJECT
 10
11930.0
 20
-757.99999999999955
 30
0.0
 11
11930.0
 21
-769.99999999999955
 31
0.0
1001
ACDBBLOCKREPETAG
1070
     1
1071
        2
1005
12E249
  0
LINE
  5
12E24A
  8
OBJECT
 10
11930.0
 20
-769.99999999999955
 30
0.0
 11
12070.0
 21
-769.99999999999955
 31
0.0
1001
ACDBBLOCKREPETAG
1070
     1
1071
        3
1005
12E24A
  0
LINE
  5
12E24B
  8
OBJECT
 10
12070.0
 20
-769.99999999999955
 30
0.0
 11
12070.0
 21
-757.99999999999955
 31
0.0
1001
ACDBBLOCKREPETAG
1070
     1
1071
        4
1005
12E24B
  0
LINE
  5
12E24C
  8
OBJECT
 10
12070.0
 20
-757.99999999999955
 30
0.0
 11
11930.0
 21
-757.99999999999955
 31
0.0
1001
ACDBBLOCKREPETAG
1070
     1
1071
        5
1005
12E24C
  0
ARC
  5
12E24D
  8
OBJECT
 10
12435.038438994679
 20
-998.60813684682694
 30
0.0
 40
519.48776673616965
 50
135.42350667430969
 51
138.50052655621499
1001
ACDBBLOCKREPETAG
1070
     1
1071
        9
1005
12E24D
  0
ARC
  5
12E24E
  8
OBJECT
 10
12435.038438994679
 20
-393.39186315317193
 30
0.0
 40
519.48776673616965
 50
221.49947344378501
 51
224.57649332569039
1001
ACDBBLOCKREPETAG
1070
     1
1071
       10
1005
12E24E
  0
ARC
  5
12E24F
  8
OBJECT
 10
11564.961561005321
 20
-998.60813684682694
 30
0.0
 40
519.48776673616965
 50
41.499473443784993
 51
44.576493325690237
1001
ACDBBLOCKREPETAG
1070
     1
1071
       11
1005
12E24F
  0
ARC
  5
12E250
  8
OBJECT
 10
11564.961561005321
 20
-393.39186315317193
 30
0.0
 40
519.48776673616965
 50
315.42350667430981
 51
318.50052655621488
1001
ACDBBLOCKREPETAG
1070
     1
1071
       12
1005
12E250
  0
LINE
  5
12E251
  8
OBJECT
 10
12047.5
 20
-628.99999999999955
 30
0.0
 11
11952.5
 21
-628.99999999999955
 31
0.0
1001
ACDBBLOCKREPETAG
1070
     1
1071
       24
1005
12E251
  0
ARC
  5
12E252
  8
OBJECT
 10
11952.5
 20
-631.99999999999955
 30
0.0
 40
3.0
 50
90.0
 51
180.0
1001
ACDBBLOCKREPETAG
1070
     1
1071
       25
1005
12E252
  0
LINE
  5
12E253
  8
OBJECT
 10
11949.5
 20
-631.99999999999955
 30
0.0
 11
11949.5
 21
-633.99999999999955
 31
0.0
1001
ACDBBLOCKREPETAG
1070
     1
1071
       26
1005
12E253
  0
LINE
  5
12E254
  8
OBJECT
 10
12050.5
 20
-631.99999999999955
 30
0.0
 11
12050.5
 21
-633.99999999999955
 31
0.0
1001
ACDBBLOCKREPETAG
1070
     1
1071
       27
1005
12E254
  0
ARC
  5
12E255
  8
OBJECT
 10
12047.5
 20
-631.99999999999955
 30
0.0
 40
3.0
 50
0.0
 51
90.0
1001
ACDBBLOCKREPETAG
1070
     1
1071
       28
1005
12E255
  0
POINT
  5
12E256
  8
DOTS
 10
12000.0
 20
-754.99999999999955
 30
0.0
1001
ACDBBLOCKREPETAG
1070
     1
1071
       87
1005
12E256
  0
LINE
  5
12E257
  8
SLIM
 10
11963.217182668241
 20
-137.99999999999909
 30
0.0
 11
11969.921507996291
 21
-131.29567467194681
 31
0.0
1001
ACDBBLOCKREPETAG
1070
     1
1071
      157
1005
0
1001
GRADIENTCOLOR1ACI
1070
     5
1001
GRADIENTCOLOR2ACI
1070
     2
1001
ACAD
1010
0.0
1020
0.0
1030
0.0
  0
LINE
  5
12E258
  8
SLIM
 10
11972.19743878931
 20
-137.99999999999909
 30
0.0
 11
11983.31883633275
 21
-126.87860245655401
 31
0.0
1001
GRADIENTCOLOR1ACI
1070
     5
1001
GRADIENTCOLOR2ACI
1070
     2
1001
ACAD
1010
0.0
1020
0.0
1030
0.0
1001
ACDBBLOCKREPETAG
1070
     1
1071
      160
1005
12E258
  0
LINE
  5
12E259
  8
SLIM
 10
11981.48493728876
 20
-137.6927576216126
 30
0.0
 11
11993.9318052486
 21
-125.245889661777
 31
0.0
1001
GRADIENTCOLOR1ACI
1070
     5
1001
GRADIENTCOLOR2ACI
1070
     2
1001
ACAD
1010
0.0
1020
0.0
1030
0.0
1001
ACDBBLOCKREPETAG
1070
     1
1071
      161
1005
12E259
  0
LINE
  5
12E25A
  8
SLIM
 10
11992.75265682803
 20
-135.40529420341099
 30
0.0
 11
12000.0
 21
-128.1579510314458
 31
0.0
1001
GRADIENTCOLOR1ACI
1070
     5
1001
GRADIENTCOLOR2ACI
1070
     2
1001
ACAD
1010
0.0
1020
0.0
1030
0.0
1001
ACDBBLOCKREPETAG
1070
     1
1071
      162
1005
12E25A
  0
LINE
  5
12E25B
  8
SLIM
 10
12000.0
 20
-128.1579510314458
 30
0.0
 11
12003.094100787839
 21
-125.0638502435924
 31
0.0
1001
GRADIENTCOLOR1ACI
1070
     5
1001
GRADIENTCOLOR2ACI
1070
     2
1001
ACAD
1010
0.0
1020
0.0
1030
0.0
1001
ACDBBLOCKREPETAG
1070
     1
1071
      163
1005
12E25B
  0
LINE
  5
12E25C
  8
SLIM
 10
12002.10414122347
 20
-135.03406592904389
 30
0.0
 11
12011.28442576865
 21
-125.85378138386341
 31
0.0
1001
GRADIENTCOLOR1ACI
1070
     5
1001
GRADIENTCOLOR2ACI
1070
     2
1001
ACAD
1010
0.0
1020
0.0
1030
0.0
1001
ACDBBLOCKREPETAG
1070
     1
1071
      164
1005
12E25C
  0
LINE
  5
12E25D
  8
SLIM
 10
12010.297585520921
 20
-135.82087775265759
 30
0.0
 11
12018.73958846552
 21
-127.3788748080627
 31
0.0
1001
GRADIENTCOLOR1ACI
1070
     5
1001
GRADIENTCOLOR2ACI
1070
     2
1001
ACAD
1010
0.0
1020
0.0
1030
0.0
1001
ACDBBLOCKREPETAG
1070
     1
1071
      165
1005
12E25D
  0
LINE
  5
12E25E
  8
SLIM
 10
12017.655079364229
 20
-137.4436400304258
 30
0.0
 11
12025.595886626959
 21
-129.50283276769261
 31
0.0
1001
GRADIENTCOLOR1ACI
1070
     5
1001
GRADIENTCOLOR2ACI
1070
     2
1001
ACAD
1010
0.0
1020
0.0
1030
0.0
1001
ACDBBLOCKREPETAG
1070
     1
1071
      166
1005
12E25E
  0
LINE
  5
12E25F
  8
SLIM
 10
12026.07897551572
 20
-137.99999999999909
 30
0.0
 11
12031.9385859461
 21
-132.1403895696169
 31
0.0
1001
GRADIENTCOLOR1ACI
1070
     5
1001
GRADIENTCOLOR2ACI
1070
     2
1001
ACAD
1010
0.0
1020
0.0
1030
0.0
1001
ACDBBLOCKREPETAG
1070
     1
1071
      167
1005
12E25F
  0
LINE
  5
12E260
  8
SLIM
 10
12035.059231636789
 20
-137.99999999999909
 30
0.0
 11
12037.82336543762
 21
-135.23586619916779
 31
0.0
1001
GRADIENTCOLOR1ACI
1070
     5
1001
GRADIENTCOLOR2ACI
1070
     2
1001
ACAD
1010
0.0
1020
0.0
1030
0.0
1001
ACDBBLOCKREPETAG
1070
     1
1071
      168
1005
12E260
  0
CIRCLE
  5
12E261
  8
OBJECT
 10
12000.0
 20
-199.99999999999909
 30
0.0
 40
65.0
1001
ACDBBLOCKREPETAG
1070
     1
1071
       84
1005
12E261
  0
CIRCLE
  5
12E262
  8
OBJECT
 10
12000.0
 20
-199.99999999999909
 30
0.0
 40
50.5
1001
ACDBBLOCKREPETAG
1070
     1
1071
       86
1005
12E262
  0
LINE
  5
12E263
  8
OBJECT
 10
12070.0
 20
-137.99999999999909
 30
0.0
 11
12019.519221295939
 21
-137.99999999999909
 31
0.0
1001
ACDBBLOCKREPETAG
1070
     1
1071
       87
1005
12E263
  0
LINE
  5
12E264
  8
OBJECT
 10
11930.0
 20
-137.99999999999909
 30
0.0
 11
11980.48077870405
 21
-137.99999999999909
 31
0.0
1001
ACDBBLOCKREPETAG
1070
     1
1071
       88
1005
12E264
  0
LINE
  5
12E265
  8
OBJECT
 10
11930.0
 20
-261.99999999999909
 30
0.0
 11
11938.0
 21
-261.99999999999909
 31
0.0
1001
ACDBBLOCKREPETAG
1070
     1
1071
       89
1005
12E265
  0
LINE
  5
12E266
  8
OBJECT
 10
11938.0
 20
-269.99999999999909
 30
0.0
 11
11938.0
 21
-261.99999999999909
 31
0.0
1001
ACDBBLOCKREPETAG
1070
     1
1071
       90
1005
12E266
  0
LINE
  5
12E267
  8
OBJECT
 10
12070.0
 20
-261.99999999999909
 30
0.0
 11
12062.0
 21
-261.99999999999909
 31
0.0
1001
ACDBBLOCKREPETAG
1070
     1
1071
       91
1005
12E267
  0
LINE
  5
12E268
  8
OBJECT
 10
12062.0
 20
-269.99999999999909
 30
0.0
 11
12062.0
 21
-261.99999999999909
 31
0.0
1001
ACDBBLOCKREPETAG
1070
     1
1071
       92
1005
12E268
  0
LINE
  5
12E269
  8
CENTER
 10
11930.0
 20
-199.99999999999909
 30
0.0
 11
12070.0
 21
-199.99999999999909
 31
0.0
1001
ACDBBLOCKREPETAG
1070
     1
1071
       93
1005
12E269
  0
LINE
  5
12E26A
  8
CENTER
 10
12000.0
 20
-269.99999999999909
 30
0.0
 11
12000.0
 21
-109.9999999999991
 31
0.0
1001
ACDBBLOCKREPETAG
1070
     1
1071
       94
1005
12E26A
  0
LINE
  5
12E26B
  8
OBJECT
 10
11954.03805922287
 20
-245.96194077712289
 30
0.0
 11
11938.0
 21
-261.99999999999909
 31
0.0
1001
ACDBBLOCKREPETAG
1070
     1
1071
      106
1005
12E26B
  0
LINE
  5
12E26C
  8
OBJECT
 10
12045.96194077713
 20
-245.96194077712289
 30
0.0
 11
12062.0
 21
-261.99999999999909
 31
0.0
1001
ACDBBLOCKREPETAG
1070
     1
1071
      107
1005
12E26C
  0
ARC
  5
12E26D
  8
OBJECT
 10
12000.0
 20
-199.99999999999909
 30
0.0
 40
75.0
 50
55.757831297238091
 51
124.2421687027619
1001
ACDBBLOCKREPETAG
1070
     1
1071
      108
1005
12E26D
  0
POINT
  5
12E26E
  8
DOTS
 10
12000.0
 20
-199.99999999999909
 30
0.0
1001
ACDBBLOCKREPETAG
1070
     1
1071
      159
1005
12E26E
  0
LINE
  5
12E26F
  8
OBJECT
 10
11927.0
 20
-633.99999999999955
 30
0.0
 11
11930.0
 21
-633.99999999999955
 31
0.0
1001
ACDBBLOCKREPETAG
1070
     1
1071
        1
1005
12E26F
  0
ARC
  5
12E270
  8
OBJECT
 10
11927.0
 20
-636.99999999999955
 30
0.0
 40
3.0
 50
90.0
 51
180.0
1001
ACDBBLOCKREPETAG
1070
     1
1071
        2
1005
12E270
  0
LINE
  5
12E271
  8
OBJECT
 10
11930.0
 20
-757.99999999999955
 30
0.0
 11
11927.0
 21
-757.99999999999955
 31
0.0
1001
ACDBBLOCKREPETAG
1070
     1
1071
        3
1005
12E271
  0
ARC
  5
12E272
  8
OBJECT
 10
11927.0
 20
-754.99999999999955
 30
0.0
 40
3.0
 50
180.0
 51
270.0
1001
ACDBBLOCKREPETAG
1070
     1
1071
        4
1005
12E272
  0
LINE
  5
12E273
  8
OBJECT
 10
11924.0
 20
-754.99999999999955
 30
0.0
 11
11924.0
 21
-636.99999999999955
 31
0.0
1001
ACDBBLOCKREPETAG
1070
     1
1071
        5
1005
12E273
  0
LINE
  5
12E274
  8
CENTER
 10
11909.0
 20
-199.99999999999909
 30
0.0
 11
11930.0
 21
-199.99999999999909
 31
0.0
1001
ACDBBLOCKREPETAG
1070
     1
1071
        0
1005
12E274
  0
LINE
  5
12E275
  8
OBJECT
 10
11927.0
 20
-261.99999999999909
 30
0.0
 11
11930.0
 21
-261.99999999999909
 31
0.0
1001
ACDBBLOCKREPETAG
1070
     1
1071
        1
1005
12E275
  0
ARC
  5
12E276
  8
OBJECT
 10
11927.0
 20
-258.99999999999909
 30
0.0
 40
3.0
 50
180.0
 51
270.0
1001
ACDBBLOCKREPETAG
1070
     1
1071
        2
1005
12E276
  0
LINE
  5
12E277
  8
OBJECT
 10
11930.0
 20
-137.99999999999909
 30
0.0
 11
11927.0
 21
-137.99999999999909
 31
0.0
1001
ACDBBLOCKREPETAG
1070
     1
1071
        3
1005
12E277
  0
ARC
  5
12E278
  8
OBJECT
 10
11927.0
 20
-140.99999999999909
 30
0.0
 40
3.0
 50
90.0
 51
180.0
1001
ACDBBLOCKREPETAG
1070
     1
1071
        4
1005
12E278
  0
LINE
  5
12E279
  8
OBJECT
 10
11924.0
 20
-140.99999999999909
 30
0.0
 11
11924.0
 21
-258.99999999999909
 31
0.0
1001
ACDBBLOCKREPETAG
1070
     1
1071
        5
1005
12E279
  0
LINE
  5
12E27A
  8
OBJECT
 10
12047.0
 20
-322.99999999999898
 30
0.0
 11
12047.0
 21
-329.99999999999898
 31
0.0
1001
ACDBBLOCKREPETAG
1070
     1
1071
        7
1005
12E27A
  0
LINE
  5
12E27B
  8
OBJECT
 10
12047.0
 20
-329.99999999999898
 30
0.0
 11
11953.0
 21
-329.99999999999898
 31
0.0
1001
ACDBBLOCKREPETAG
1070
     1
1071
        8
1005
12E27B
  0
LINE
  5
12E27C
  8
OBJECT
 10
11953.0
 20
-329.99999999999898
 30
0.0
 11
11953.0
 21
-322.99999999999898
 31
0.0
1001
ACDBBLOCKREPETAG
1070
     1
1071
        9
1005
12E27C
  0
LINE
  5
12E27D
  8
OBJECT
 10
11953.0
 20
-322.99999999999898
 30
0.0
 11
12047.0
 21
-322.99999999999898
 31
0.0
1001
ACDBBLOCKREPETAG
1070
     1
1071
       10
1005
12E27D
  0
LINE
  5
12E27E
  8
CENTER
 10
12000.0
 20
-344.99999999999909
 30
0.0
 11
12000.0
 21
-269.99999999999909
 31
0.0
1001
ACDBBLOCKREPETAG
1070
     1
1071
       11
1005
12E27E
  0
LINE
  5
12E27F
  8
OBJECT
 10
12044.0
 20
-322.99999999999898
 30
0.0
 11
12044.0
 21
-286.99999999999898
 31
0.0
1001
ACDBBLOCKREPETAG
1070
     1
1071
       12
1005
12E27F
  0
LINE
  5
12E280
  8
OBJECT
 10
12044.0
 20
-286.99999999999898
 30
0.0
 11
11956.0
 21
-286.99999999999898
 31
0.0
1001
ACDBBLOCKREPETAG
1070
     1
1071
       13
1005
12E280
  0
LINE
  5
12E281
  8
OBJECT
 10
11956.0
 20
-286.99999999999898
 30
0.0
 11
11956.0
 21
-322.99999999999898
 31
0.0
1001
ACDBBLOCKREPETAG
1070
     1
1071
       14
1005
12E281
  0
LINE
  5
12E282
  8
OBJECT
 10
12039.5
 20
-282.99999999999898
 30
0.0
 11
12039.5
 21
-275.99999999999909
 31
0.0
1001
ACDBBLOCKREPETAG
1070
     1
1071
       15
1005
12E282
  0
LINE
  5
12E283
  8
OBJECT
 10
11960.5
 20
-275.99999999999909
 30
0.0
 11
11960.5
 21
-282.99999999999898
 31
0.0
1001
ACDBBLOCKREPETAG
1070
     1
1071
       16
1005
12E283
  0
LINE
  5
12E284
  8
OBJECT
 10
11960.5
 20
-282.99999999999898
 30
0.0
 11
12039.5
 21
-282.99999999999898
 31
0.0
1001
ACDBBLOCKREPETAG
1070
     1
1071
       17
1005
12E284
  0
LINE
  5
12E285
  8
OBJECT
 10
12044.0
 20
-286.99999999999898
 30
0.0
 11
12039.5
 21
-282.99999999999898
 31
0.0
1001
ACDBBLOCKREPETAG
1070
     1
1071
       18
1005
12E285
  0
LINE
  5
12E286
  8
OBJECT
 10
11956.0
 20
-286.99999999999898
 30
0.0
 11
11960.5
 21
-282.99999999999898
 31
0.0
1001
ACDBBLOCKREPETAG
1070
     1
1071
       19
1005
12E286
  0
LINE
  5
12E287
  8
OBJECT
 10
12062.0
 20
-272.99999999999909
 30
0.0
 11
12062.0
 21
-269.99999999999909
 31
0.0
1001
ACDBBLOCKREPETAG
1070
     1
1071
       20
1005
12E287
  0
ARC
  5
12E288
  8
OBJECT
 10
12059.0
 20
-272.99999999999909
 30
0.0
 40
3.0
 50
270.0
 51
0.0
1001
ACDBBLOCKREPETAG
1070
     1
1071
       21
1005
12E288
  0
LINE
  5
12E289
  8
OBJECT
 10
11938.0
 20
-269.99999999999909
 30
0.0
 11
11938.0
 21
-272.99999999999909
 31
0.0
1001
ACDBBLOCKREPETAG
1070
     1
1071
       22
1005
12E289
  0
ARC
  5
12E28A
  8
OBJECT
 10
11941.0
 20
-272.99999999999909
 30
0.0
 40
3.0
 50
180.0
 51
270.0
1001
ACDBBLOCKREPETAG
1070
     1
1071
       23
1005
12E28A
  0
LINE
  5
12E28B
  8
OBJECT
 10
11941.0
 20
-275.99999999999909
 30
0.0
 11
12059.0
 21
-275.99999999999909
 31
0.0
1001
ACDBBLOCKREPETAG
1070
     1
1071
       24
1005
12E28B
  0
LINE
  5
12E28C
  8
HIDDEN
 10
12030.0
 20
-277.99999999999909
 30
0.0
 11
11970.0
 21
-277.99999999999909
 31
0.0
1001
ACDBBLOCKREPETAG
1070
     1
1071
       25
1005
12E28C
  0
LINE
  5
12E28D
  8
OBJECT
 10
12192.99999999998
 20
-583.00000000000045
 30
0.0
 11
12199.99999999998
 21
-583.00000000000045
 31
0.0
1001
ACDBBLOCKREPETAG
1070
     1
1071
      324
1005
12E28D
  0
LINE
  5
12E28E
  8
OBJECT
 10
12199.99999999998
 20
-583.00000000000045
 30
0.0
 11
12199.99999999998
 21
-707.00000000000045
 31
0.0
1001
ACDBBLOCKREPETAG
1070
     1
1071
      325
1005
12E28E
  0
LINE
  5
12E28F
  8
OBJECT
 10
12075.99999999998
 20
-653.35026377572683
 30
0.0
 11
12075.99999999998
 21
-755.00000000000034
 31
0.0
1001
ACDBBLOCKREPETAG
1070
     1
1071
      326
1005
12E28F
  0
LINE
  5
12E290
  8
OBJECT
 10
12199.99999999998
 20
-707.00000000000045
 30
0.0
 11
12192.99999999998
 21
-707.00000000000045
 31
0.0
1001
ACDBBLOCKREPETAG
1070
     1
1071
      327
1005
12E290
  0
LINE
  5
12E291
  8
OBJECT
 10
12192.99999999998
 20
-707.00000000000045
 30
0.0
 11
12192.99999999998
 21
-583.00000000000045
 31
0.0
1001
ACDBBLOCKREPETAG
1070
     1
1071
      328
1005
12E291
  0
LINE
  5
12E292
  8
CENTER
 10
12124.99999999998
 20
-645.00000000000045
 30
0.0
 11
12214.99999999998
 21
-645.00000000000045
 31
0.0
1001
ACDBBLOCKREPETAG
1070
     1
1071
      329
1005
12E292
  0
LINE
  5
12E293
  8
OBJECT
 10
12069.99999999998
 20
-757.99999999999955
 30
0.0
 11
12072.99999999998
 21
-758.00000000000034
 31
0.0
1001
ACDBBLOCKREPETAG
1070
     1
1071
      330
1005
12E293
  0
ARC
  5
12E294
  8
OBJECT
 10
12072.99999999998
 20
-755.00000000000034
 30
0.0
 40
3.0
 50
270.0
 51
0.0
1001
ACDBBLOCKREPETAG
1070
     1
1071
      331
1005
12E294
  0
LINE
  5
12E295
  8
OBJECT
 10
12192.99999999998
 20
-586.00000000000045
 30
0.0
 11
12156.99999999998
 21
-586.00000000000045
 31
0.0
1001
ACDBBLOCKREPETAG
1070
     1
1071
      332
1005
12E295
  0
LINE
  5
12E296
  8
OBJECT
 10
12156.99999999998
 20
-586.00000000000045
 30
0.0
 11
12156.99999999998
 21
-704.00000000000045
 31
0.0
1001
ACDBBLOCKREPETAG
1070
     1
1071
      333
1005
12E296
  0
LINE
  5
12E297
  8
OBJECT
 10
12152.99999999998
 20
-590.50000000000045
 30
0.0
 11
12152.99999999998
 21
-699.50000000000045
 31
0.0
1001
ACDBBLOCKREPETAG
1070
     1
1071
      334
1005
12E297
  0
LINE
  5
12E298
  8
OBJECT
 10
12152.99999999998
 20
-590.50000000000045
 30
0.0
 11
12139.99999999998
 21
-590.50000000000045
 31
0.0
1001
ACDBBLOCKREPETAG
1070
     1
1071
      335
1005
12E298
  0
LINE
  5
12E299
  8
OBJECT
 10
12156.99999999998
 20
-704.00000000000045
 30
0.0
 11
12192.99999999998
 21
-704.00000000000045
 31
0.0
1001
ACDBBLOCKREPETAG
1070
     1
1071
      336
1005
12E299
  0
LINE
  5
12E29A
  8
OBJECT
 10
12156.99999999998
 20
-586.00000000000045
 30
0.0
 11
12152.99999999998
 21
-590.50000000000045
 31
0.0
1001
ACDBBLOCKREPETAG
1070
     1
1071
      337
1005
12E29A
  0
LINE
  5
12E29B
  8
OBJECT
 10
12139.99999999998
 20
-590.50000000000045
 30
0.0
 11
12139.99999999998
 21
-675.7449182792875
 31
0.0
1001
ACDBBLOCKREPETAG
1070
     1
1071
      338
1005
12E29B
  0
ARC
  5
12E29C
  8
OBJECT
 10
12142.799999999979
 20
-685.00000000000045
 30
0.0
 40
85.0
 50
91.887731891831123
 51
143.130102354109
1001
ACDBBLOCKREPETAG
1070
     1
1071
      339
1005
12E29C
  0
LINE
  5
12E29D
  8
HIDDEN
 10
12147.99999999998
 20
-600.50000000000057
 30
0.0
 11
12147.99999999998
 21
-689.50000000000045
 31
0.0
1001
ACDBBLOCKREPETAG
1070
     1
1071
      341
1005
12E29D
  0
LINE
  5
12E29E
  8
OBJECT
 10
12075.99999999998
 20
-751.07945073181725
 30
0.0
 11
12146.631319921031
 21
-699.50000000000045
 31
0.0
1001
ACDBBLOCKREPETAG
1070
     1
1071
      342
1005
12E29E
  0
LINE
  5
12E29F
  8
OBJECT
 10
12069.99999999998
 20
-633.99999999999955
 30
0.0
 11
12074.799999999979
 21
-633.99999999999955
 31
0.0
1001
ACDBBLOCKREPETAG
1070
     1
1071
      343
1005
12E29F
  0
LINE
  5
12E2A0
  8
OBJECT
 10
12075.99999999998
 20
-653.35026377572945
 30
0.0
 11
12074.799999999979
 21
-633.99999999999955
 31
0.0
1001
ACDBBLOCKREPETAG
1070
     1
1071
      344
1005
12E2A0
  0
LINE
  5
12E2A1
  8
OBJECT
 10
12152.99999999998
 20
-699.50000000000045
 30
0.0
 11
12146.631319921031
 21
-699.50000000000045
 31
0.0
1001
ACDBBLOCKREPETAG
1070
     1
1071
      345
1005
12E2A1
  0
LINE
  5
12E2A2
  8
OBJECT
 10
12156.99999999998
 20
-704.00000000000045
 30
0.0
 11
12152.99999999998
 21
-699.50000000000045
 31
0.0
1001
ACDBBLOCKREPETAG
1070
     1
1071
      346
1005
12E2A2
  0
LINE
  5
12E2A3
  8
OBJECT
 10
12192.99999999998
 20
-137.99999999999909
 30
0.0
 11
12199.99999999998
 21
-137.99999999999909
 31
0.0
1001
ACDBBLOCKREPETAG
1070
     1
1071
      376
1005
12E2A3
  0
LINE
  5
12E2A4
  8
OBJECT
 10
12199.99999999998
 20
-137.99999999999909
 30
0.0
 11
12199.99999999998
 21
-261.99999999999909
 31
0.0
1001
ACDBBLOCKREPETAG
1070
     1
1071
      377
1005
12E2A4
  0
LINE
  5
12E2A5
  8
OBJECT
 10
12199.99999999998
 20
-261.99999999999909
 30
0.0
 11
12192.99999999998
 21
-261.99999999999909
 31
0.0
1001
ACDBBLOCKREPETAG
1070
     1
1071
      378
1005
12E2A5
  0
LINE
  5
12E2A6
  8
OBJECT
 10
12192.99999999998
 20
-261.99999999999909
 30
0.0
 11
12192.99999999998
 21
-137.99999999999909
 31
0.0
1001
ACDBBLOCKREPETAG
1070
     1
1071
      379
1005
12E2A6
  0
LINE
  5
12E2A7
  8
CENTER
 10
12214.99999999998
 20
-199.99999999999909
 30
0.0
 11
12070.0
 21
-199.99999999999909
 31
0.0
1001
ACDBBLOCKREPETAG
1070
     1
1071
      380
1005
12E2A7
  0
LINE
  5
12E2A8
  8
OBJECT
 10
12139.999974964179
 20
-245.0000000000027
 30
0.0
 11
12076.0
 21
-244.99999999999909
 31
0.0
1001
ACDBBLOCKREPETAG
1070
     1
1071
      381
1005
12E2A8
  0
LINE
  5
12E2A9
  8
OBJECT
 10
12139.999974964179
 20
-154.99999999999909
 30
0.0
 11
12076.0
 21
-154.99999999999909
 31
0.0
1001
ACDBBLOCKREPETAG
1070
     1
1071
      382
1005
12E2A9
  0
LINE
  5
12E2AA
  8
OBJECT
 10
12192.99999999998
 20
-140.99999999999909
 30
0.0
 11
12156.99999999998
 21
-140.99999999999909
 31
0.0
1001
ACDBBLOCKREPETAG
1070
     1
1071
      383
1005
12E2AA
  0
LINE
  5
12E2AB
  8
OBJECT
 10
12156.99999999998
 20
-140.99999999999909
 30
0.0
 11
12156.99999999998
 21
-258.99999999999909
 31
0.0
1001
ACDBBLOCKREPETAG
1070
     1
1071
      384
1005
12E2AB
  0
LINE
  5
12E2AC
  8
OBJECT
 10
12156.99999999998
 20
-258.99999999999909
 30
0.0
 11
12192.99999999998
 21
-258.99999999999909
 31
0.0
1001
ACDBBLOCKREPETAG
1070
     1
1071
      385
1005
12E2AC
  0
LINE
  5
12E2AD
  8
OBJECT
 10
12152.99999999998
 20
-145.49999999999909
 30
0.0
 11
12139.99999999998
 21
-145.49999999999909
 31
0.0
1001
ACDBBLOCKREPETAG
1070
     1
1071
      386
1005
12E2AD
  0
LINE
  5
12E2AE
  8
OBJECT
 10
12139.99999999998
 20
-254.49999999999909
 30
0.0
 11
12152.99999999998
 21
-254.49999999999909
 31
0.0
1001
ACDBBLOCKREPETAG
1070
     1
1071
      387
1005
12E2AE
  0
LINE
  5
12E2AF
  8
OBJECT
 10
12152.99999999998
 20
-254.49999999999909
 30
0.0
 11
12152.99999999998
 21
-145.49999999999909
 31
0.0
1001
ACDBBLOCKREPETAG
1070
     1
1071
      388
1005
12E2AF
  0
LINE
  5
12E2B0
  8
OBJECT
 10
12156.99999999998
 20
-140.99999999999909
 30
0.0
 11
12152.99999999998
 21
-145.49999999999909
 31
0.0
1001
ACDBBLOCKREPETAG
1070
     1
1071
      389
1005
12E2B0
  0
LINE
  5
12E2B1
  8
OBJECT
 10
12156.99999999998
 20
-258.99999999999909
 30
0.0
 11
12152.99999999998
 21
-254.49999999999909
 31
0.0
1001
ACDBBLOCKREPETAG
1070
     1
1071
      390
1005
12E2B1
  0
LINE
  5
12E2B2
  8
OBJECT
 10
12073.0
 20
-137.99999999999909
 30
0.0
 11
12070.0
 21
-137.99999999999909
 31
0.0
1001
ACDBBLOCKREPETAG
1070
     1
1071
      391
1005
12E2B2
  0
ARC
  5
12E2B3
  8
OBJECT
 10
12073.0
 20
-140.99999999999909
 30
0.0
 40
3.0
 50
0.0
 51
90.0
1001
ACDBBLOCKREPETAG
1070
     1
1071
      392
1005
12E2B3
  0
LINE
  5
12E2B4
  8
OBJECT
 10
12070.0
 20
-261.99999999999909
 30
0.0
 11
12073.0
 21
-261.99999999999909
 31
0.0
1001
ACDBBLOCKREPETAG
1070
     1
1071
      393
1005
12E2B4
  0
ARC
  5
12E2B5
  8
OBJECT
 10
12073.0
 20
-258.99999999999909
 30
0.0
 40
3.0
 50
270.0
 51
0.0
1001
ACDBBLOCKREPETAG
1070
     1
1071
      394
1005
12E2B5
  0
LINE
  5
12E2B6
  8
OBJECT
 10
12076.0
 20
-258.99999999999909
 30
0.0
 11
12076.0
 21
-210.3227903203578
 31
0.0
1001
ACDBBLOCKREPETAG
1070
     1
1071
      395
1005
12E2B6
  0
LINE
  5
12E2B7
  8
OBJECT
 10
12076.0
 20
-189.6772096796403
 30
0.0
 11
12076.0
 21
-140.99999999999909
 31
0.0
1001
ACDBBLOCKREPETAG
1070
     1
1071
      396
1005
12E2B7
  0
LINE
  5
12E2B8
  8
HIDDEN
 10
12147.99999999998
 20
-155.49999999999909
 30
0.0
 11
12147.99999999998
 21
-244.49999999999909
 31
0.0
1001
ACDBBLOCKREPETAG
1070
     1
1071
      397
1005
12E2B8
  0
LINE
  5
12E2B9
  8
OBJECT
 10
12139.999974964179
 20
-254.4999509238105
 30
0.0
 11
12139.999974964179
 21
-145.4999509238105
 31
0.0
1001
ACDBBLOCKREPETAG
1070
     1
1071
      399
1005
12E2B9
  0
ARC
  5
12E2BA
  8
OBJECT
 10
12119.800000000019
 20
-199.99999999999909
 30
0.0
 40
45.000000000000547
 50
90.0
 51
270.0
1001
ACDBBLOCKREPETAG
1070
     1
1071
      400
1005
12E2BA
  0
CIRCLE
  5
12E2BB
  8
OBJECT
 10
10000.0
 20
-695.99999999999955
 30
0.0
 40
62.0
1001
ACDBBLOCKREPETAG
1070
     1
1071
        3
1005
12E2BB
  0
LINE
  5
12E2BC
  8
CENTER
 10
9938.0
 20
-710.99999999999955
 30
0.0
 11
10062.0
 21
-710.99999999999955
 31
0.0
1001
ACDBBLOCKREPETAG
1070
     1
1071
        4
1005
12E2BC
  0
CIRCLE
  5
12E2BD
  8
OBJECT
 10
10000.0
 20
-710.99999999999955
 30
0.0
 40
28.0
1001
ACDBBLOCKREPETAG
1070
     1
1071
        6
1005
12E2BD
  0
CIRCLE
  5
12E2BE
  8
OBJECT
 10
10000.0
 20
-710.99999999999955
 30
0.0
 40
39.0
1001
ACDBBLOCKREPETAG
1070
     1
1071
        7
1005
12E2BE
  0
ARC
  5
12E2BF
  8
OBJECT
 10
10000.0
 20
-710.99999999999955
 30
0.0
 40
47.0
 50
290.58196921144179
 51
249.41803078855821
1001
ACDBBLOCKREPETAG
1070
     1
1071
        8
1005
12E2BF
  0
LINE
  5
12E2C0
  8
OBJECT
 10
9983.4772883581427
 20
-754.99999999999955
 30
0.0
 11
10016.52271164185
 21
-754.99999999999955
 31
0.0
1001
ACDBBLOCKREPETAG
1070
     1
1071
        9
1005
12E2C0
  0
LINE
  5
12E2C1
  8
CENTER
 10
10000.0
 20
-769.99999999999955
 30
0.0
 11
10000.0
 21
-613.99999999999966
 31
0.0
1001
ACDBBLOCKREPETAG
1070
     1
1071
        0
1005
12E2C1
  0
LINE
  5
12E2C2
  8
OBJECT
 10
9930.0
 20
-633.99999999999955
 30
0.0
 11
10070.0
 21
-633.99999999999955
 31
0.0
1001
ACDBBLOCKREPETAG
1070
     1
1071
        1
1005
12E2C2
  0
LINE
  5
12E2C3
  8
OBJECT
 10
9930.0
 20
-757.99999999999955
 30
0.0
 11
9930.0
 21
-769.99999999999955
 31
0.0
1001
ACDBBLOCKREPETAG
1070
     1
1071
        2
1005
12E2C3
  0
LINE
  5
12E2C4
  8
OBJECT
 10
9930.0
 20
-769.99999999999955
 30
0.0
 11
10070.0
 21
-769.99999999999955
 31
0.0
1001
ACDBBLOCKREPETAG
1070
     1
1071
        3
1005
12E2C4
  0
LINE
  5
12E2C5
  8
OBJECT
 10
10070.0
 20
-769.99999999999955
 30
0.0
 11
10070.0
 21
-757.99999999999955
 31
0.0
1001
ACDBBLOCKREPETAG
1070
     1
1071
        4
1005
12E2C5
  0
LINE
  5
12E2C6
  8
OBJECT
 10
10070.0
 20
-757.99999999999955
 30
0.0
 11
9930.0
 21
-757.99999999999955
 31
0.0
1001
ACDBBLOCKREPETAG
1070
     1
1071
        5
1005
12E2C6
  0
ARC
  5
12E2C7
  8
OBJECT
 10
10435.03843899467
 20
-998.60813684682694
 30
0.0
 40
519.48776673616965
 50
135.42350667430969
 51
138.50052655621499
1001
ACDBBLOCKREPETAG
1070
     1
1071
        9
1005
12E2C7
  0
ARC
  5
12E2C8
  8
OBJECT
 10
10435.03843899467
 20
-393.39186315317193
 30
0.0
 40
519.48776673616965
 50
221.49947344378501
 51
224.57649332569039
1001
ACDBBLOCKREPETAG
1070
     1
1071
       10
1005
12E2C8
  0
ARC
  5
12E2C9
  8
OBJECT
 10
9564.9615610053243
 20
-998.60813684682694
 30
0.0
 40
519.48776673616965
 50
41.499473443784993
 51
44.576493325690237
1001
ACDBBLOCKREPETAG
1070
     1
1071
       11
1005
12E2C9
  0
ARC
  5
12E2CA
  8
OBJECT
 10
9564.9615610053243
 20
-393.39186315317193
 30
0.0
 40
519.48776673616965
 50
315.42350667430981
 51
318.50052655621488
1001
ACDBBLOCKREPETAG
1070
     1
1071
       12
1005
12E2CA
  0
LINE
  5
12E2CB
  8
OBJECT
 10
10047.5
 20
-628.99999999999955
 30
0.0
 11
9952.5
 21
-628.99999999999955
 31
0.0
1001
ACDBBLOCKREPETAG
1070
     1
1071
       24
1005
12E2CB
  0
ARC
  5
12E2CC
  8
OBJECT
 10
9952.5
 20
-631.99999999999955
 30
0.0
 40
3.0
 50
90.0
 51
180.0
1001
ACDBBLOCKREPETAG
1070
     1
1071
       25
1005
12E2CC
  0
LINE
  5
12E2CD
  8
OBJECT
 10
9949.5
 20
-631.99999999999955
 30
0.0
 11
9949.5
 21
-633.99999999999955
 31
0.0
1001
ACDBBLOCKREPETAG
1070
     1
1071
       26
1005
12E2CD
  0
LINE
  5
12E2CE
  8
OBJECT
 10
10050.5
 20
-631.99999999999955
 30
0.0
 11
10050.5
 21
-633.99999999999955
 31
0.0
1001
ACDBBLOCKREPETAG
1070
     1
1071
       27
1005
12E2CE
  0
ARC
  5
12E2CF
  8
OBJECT
 10
10047.5
 20
-631.99999999999955
 30
0.0
 40
3.0
 50
0.0
 51
90.0
1001
ACDBBLOCKREPETAG
1070
     1
1071
       28
1005
12E2CF
  0
POINT
  5
12E2D0
  8
DOTS
 10
10000.0
 20
-754.99999999999955
 30
0.0
1001
ACDBBLOCKREPETAG
1070
     1
1071
       87
1005
12E2D0
  0
LINE
  5
12E2D1
  8
SLIM
 10
9963.2171826682406
 20
-137.99999999999909
 30
0.0
 11
9969.9215079962923
 21
-131.29567467194681
 31
0.0
1001
ACDBBLOCKREPETAG
1070
     1
1071
      157
1005
0
1001
GRADIENTCOLOR1ACI
1070
     5
1001
GRADIENTCOLOR2ACI
1070
     2
1001
ACAD
1010
0.0
1020
0.0
1030
0.0
  0
LINE
  5
12E2D2
  8
SLIM
 10
9972.1974387893097
 20
-137.99999999999909
 30
0.0
 11
9983.3188363327517
 21
-126.87860245655401
 31
0.0
1001
GRADIENTCOLOR1ACI
1070
     5
1001
GRADIENTCOLOR2ACI
1070
     2
1001
ACAD
1010
0.0
1020
0.0
1030
0.0
1001
ACDBBLOCKREPETAG
1070
     1
1071
      160
1005
12E2D2
  0
LINE
  5
12E2D3
  8
SLIM
 10
9981.4849372887638
 20
-137.6927576216126
 30
0.0
 11
9993.9318052485996
 21
-125.245889661777
 31
0.0
1001
GRADIENTCOLOR1ACI
1070
     5
1001
GRADIENTCOLOR2ACI
1070
     2
1001
ACAD
1010
0.0
1020
0.0
1030
0.0
1001
ACDBBLOCKREPETAG
1070
     1
1071
      161
1005
12E2D3
  0
LINE
  5
12E2D4
  8
SLIM
 10
9992.7526568280355
 20
-135.40529420341099
 30
0.0
 11
10000.0
 21
-128.1579510314458
 31
0.0
1001
GRADIENTCOLOR1ACI
1070
     5
1001
GRADIENTCOLOR2ACI
1070
     2
1001
ACAD
1010
0.0
1020
0.0
1030
0.0
1001
ACDBBLOCKREPETAG
1070
     1
1071
      162
1005
12E2D4
  0
LINE
  5
12E2D5
  8
SLIM
 10
10000.0
 20
-128.1579510314458
 30
0.0
 11
10003.09410078785
 21
-125.0638502435924
 31
0.0
1001
GRADIENTCOLOR1ACI
1070
     5
1001
GRADIENTCOLOR2ACI
1070
     2
1001
ACAD
1010
0.0
1020
0.0
1030
0.0
1001
ACDBBLOCKREPETAG
1070
     1
1071
      163
1005
12E2D5
  0
LINE
  5
12E2D6
  8
SLIM
 10
10002.10414122347
 20
-135.03406592904389
 30
0.0
 11
10011.28442576865
 21
-125.85378138386341
 31
0.0
1001
GRADIENTCOLOR1ACI
1070
     5
1001
GRADIENTCOLOR2ACI
1070
     2
1001
ACAD
1010
0.0
1020
0.0
1030
0.0
1001
ACDBBLOCKREPETAG
1070
     1
1071
      164
1005
12E2D6
  0
LINE
  5
12E2D7
  8
SLIM
 10
10010.297585520921
 20
-135.82087775265759
 30
0.0
 11
10018.73958846552
 21
-127.3788748080627
 31
0.0
1001
GRADIENTCOLOR1ACI
1070
     5
1001
GRADIENTCOLOR2ACI
1070
     2
1001
ACAD
1010
0.0
1020
0.0
1030
0.0
1001
ACDBBLOCKREPETAG
1070
     1
1071
      165
1005
12E2D7
  0
LINE
  5
12E2D8
  8
SLIM
 10
10017.65507936422
 20
-137.4436400304258
 30
0.0
 11
10025.595886626959
 21
-129.50283276769261
 31
0.0
1001
GRADIENTCOLOR1ACI
1070
     5
1001
GRADIENTCOLOR2ACI
1070
     2
1001
ACAD
1010
0.0
1020
0.0
1030
0.0
1001
ACDBBLOCKREPETAG
1070
     1
1071
      166
1005
12E2D8
  0
LINE
  5
12E2D9
  8
SLIM
 10
10026.07897551572
 20
-137.99999999999909
 30
0.0
 11
10031.9385859461
 21
-132.1403895696169
 31
0.0
1001
GRADIENTCOLOR1ACI
1070
     5
1001
GRADIENTCOLOR2ACI
1070
     2
1001
ACAD
1010
0.0
1020
0.0
1030
0.0
1001
ACDBBLOCKREPETAG
1070
     1
1071
      167
1005
12E2D9
  0
LINE
  5
12E2DA
  8
SLIM
 10
10035.05923163678
 20
-137.99999999999909
 30
0.0
 11
10037.82336543762
 21
-135.23586619916779
 31
0.0
1001
GRADIENTCOLOR1ACI
1070
     5
1001
GRADIENTCOLOR2ACI
1070
     2
1001
ACAD
1010
0.0
1020
0.0
1030
0.0
1001
ACDBBLOCKREPETAG
1070
     1
1071
      168
1005
12E2DA
  0
CIRCLE
  5
12E2DB
  8
OBJECT
 10
10000.0
 20
-199.99999999999909
 30
0.0
 40
65.0
1001
ACDBBLOCKREPETAG
1070
     1
1071
       84
1005
12E2DB
  0
CIRCLE
  5
12E2DC
  8
OBJECT
 10
10000.0
 20
-199.99999999999909
 30
0.0
 40
50.5
1001
ACDBBLOCKREPETAG
1070
     1
1071
       86
1005
12E2DC
  0
LINE
  5
12E2DD
  8
OBJECT
 10
10070.0
 20
-137.99999999999909
 30
0.0
 11
10019.519221295939
 21
-137.99999999999909
 31
0.0
1001
ACDBBLOCKREPETAG
1070
     1
1071
       87
1005
12E2DD
  0
LINE
  5
12E2DE
  8
OBJECT
 10
9930.0
 20
-137.99999999999909
 30
0.0
 11
9980.4807787040572
 21
-137.99999999999909
 31
0.0
1001
ACDBBLOCKREPETAG
1070
     1
1071
       88
1005
12E2DE
  0
LINE
  5
12E2DF
  8
OBJECT
 10
9930.0
 20
-261.99999999999909
 30
0.0
 11
9938.0
 21
-261.99999999999909
 31
0.0
1001
ACDBBLOCKREPETAG
1070
     1
1071
       89
1005
12E2DF
  0
LINE
  5
12E2E0
  8
OBJECT
 10
9938.0
 20
-269.99999999999909
 30
0.0
 11
9938.0
 21
-261.99999999999909
 31
0.0
1001
ACDBBLOCKREPETAG
1070
     1
1071
       90
1005
12E2E0
  0
LINE
  5
12E2E1
  8
OBJECT
 10
10070.0
 20
-261.99999999999909
 30
0.0
 11
10062.0
 21
-261.99999999999909
 31
0.0
1001
ACDBBLOCKREPETAG
1070
     1
1071
       91
1005
12E2E1
  0
LINE
  5
12E2E2
  8
OBJECT
 10
10062.0
 20
-269.99999999999909
 30
0.0
 11
10062.0
 21
-261.99999999999909
 31
0.0
1001
ACDBBLOCKREPETAG
1070
     1
1071
       92
1005
12E2E2
  0
LINE
  5
12E2E3
  8
CENTER
 10
9930.0
 20
-199.99999999999909
 30
0.0
 11
10070.0
 21
-199.99999999999909
 31
0.0
1001
ACDBBLOCKREPETAG
1070
     1
1071
       93
1005
12E2E3
  0
LINE
  5
12E2E4
  8
CENTER
 10
10000.0
 20
-269.99999999999909
 30
0.0
 11
10000.0
 21
-109.9999999999991
 31
0.0
1001
ACDBBLOCKREPETAG
1070
     1
1071
       94
1005
12E2E4
  0
LINE
  5
12E2E5
  8
OBJECT
 10
9954.0380592228739
 20
-245.96194077712289
 30
0.0
 11
9938.0
 21
-261.99999999999909
 31
0.0
1001
ACDBBLOCKREPETAG
1070
     1
1071
      106
1005
12E2E5
  0
LINE
  5
12E2E6
  8
OBJECT
 10
10045.96194077713
 20
-245.96194077712289
 30
0.0
 11
10062.0
 21
-261.99999999999909
 31
0.0
1001
ACDBBLOCKREPETAG
1070
     1
1071
      107
1005
12E2E6
  0
ARC
  5
12E2E7
  8
OBJECT
 10
10000.0
 20
-199.99999999999909
 30
0.0
 40
75.0
 50
55.757831297238091
 51
124.2421687027619
1001
ACDBBLOCKREPETAG
1070
     1
1071
      108
1005
12E2E7
  0
POINT
  5
12E2E8
  8
DOTS
 10
10000.0
 20
-199.99999999999909
 30
0.0
1001
ACDBBLOCKREPETAG
1070
     1
1071
      159
1005
12E2E8
  0
LINE
  5
12E2E9
  8
OBJECT
 10
9927.0
 20
-633.99999999999955
 30
0.0
 11
9930.0
 21
-633.99999999999955
 31
0.0
1001
ACDBBLOCKREPETAG
1070
     1
1071
        1
1005
12E2E9
  0
ARC
  5
12E2EA
  8
OBJECT
 10
9927.0
 20
-636.99999999999955
 30
0.0
 40
3.0
 50
90.0
 51
180.0
1001
ACDBBLOCKREPETAG
1070
     1
1071
        2
1005
12E2EA
  0
LINE
  5
12E2EB
  8
OBJECT
 10
9930.0
 20
-757.99999999999955
 30
0.0
 11
9927.0
 21
-757.99999999999955
 31
0.0
1001
ACDBBLOCKREPETAG
1070
     1
1071
        3
1005
12E2EB
  0
ARC
  5
12E2EC
  8
OBJECT
 10
9927.0
 20
-754.99999999999955
 30
0.0
 40
3.0
 50
180.0
 51
270.0
1001
ACDBBLOCKREPETAG
1070
     1
1071
        4
1005
12E2EC
  0
LINE
  5
12E2ED
  8
OBJECT
 10
9924.0
 20
-754.99999999999955
 30
0.0
 11
9924.0
 21
-636.99999999999955
 31
0.0
1001
ACDBBLOCKREPETAG
1070
     1
1071
        5
1005
12E2ED
  0
LINE
  5
12E2EE
  8
CENTER
 10
9909.0
 20
-199.99999999999909
 30
0.0
 11
9930.0
 21
-199.99999999999909
 31
0.0
1001
ACDBBLOCKREPETAG
1070
     1
1071
        0
1005
12E2EE
  0
LINE
  5
12E2EF
  8
OBJECT
 10
9927.0
 20
-261.99999999999909
 30
0.0
 11
9930.0
 21
-261.99999999999909
 31
0.0
1001
ACDBBLOCKREPETAG
1070
     1
1071
        1
1005
12E2EF
  0
ARC
  5
12E2F0
  8
OBJECT
 10
9927.0
 20
-258.99999999999909
 30
0.0
 40
3.0
 50
180.0
 51
270.0
1001
ACDBBLOCKREPETAG
1070
     1
1071
        2
1005
12E2F0
  0
LINE
  5
12E2F1
  8
OBJECT
 10
9930.0
 20
-137.99999999999909
 30
0.0
 11
9927.0
 21
-137.99999999999909
 31
0.0
1001
ACDBBLOCKREPETAG
1070
     1
1071
        3
1005
12E2F1
  0
ARC
  5
12E2F2
  8
OBJECT
 10
9927.0
 20
-140.99999999999909
 30
0.0
 40
3.0
 50
90.0
 51
180.0
1001
ACDBBLOCKREPETAG
1070
     1
1071
        4
1005
12E2F2
  0
LINE
  5
12E2F3
  8
OBJECT
 10
9924.0
 20
-140.99999999999909
 30
0.0
 11
9924.0
 21
-258.99999999999909
 31
0.0
1001
ACDBBLOCKREPETAG
1070
     1
1071
        5
1005
12E2F3
  0
LINE
  5
12E2F4
  8
OBJECT
 10
10047.0
 20
-322.99999999999898
 30
0.0
 11
10047.0
 21
-329.99999999999898
 31
0.0
1001
ACDBBLOCKREPETAG
1070
     1
1071
        7
1005
12E2F4
  0
LINE
  5
12E2F5
  8
OBJECT
 10
10047.0
 20
-329.99999999999898
 30
0.0
 11
9953.0
 21
-329.99999999999898
 31
0.0
1001
ACDBBLOCKREPETAG
1070
     1
1071
        8
1005
12E2F5
  0
LINE
  5
12E2F6
  8
OBJECT
 10
9953.0
 20
-329.99999999999898
 30
0.0
 11
9953.0
 21
-322.99999999999898
 31
0.0
1001
ACDBBLOCKREPETAG
1070
     1
1071
        9
1005
12E2F6
  0
LINE
  5
12E2F7
  8
OBJECT
 10
9953.0
 20
-322.99999999999898
 30
0.0
 11
10047.0
 21
-322.99999999999898
 31
0.0
1001
ACDBBLOCKREPETAG
1070
     1
1071
       10
1005
12E2F7
  0
LINE
  5
12E2F8
  8
CENTER
 10
10000.0
 20
-344.99999999999909
 30
0.0
 11
10000.0
 21
-269.99999999999909
 31
0.0
1001
ACDBBLOCKREPETAG
1070
     1
1071
       11
1005
12E2F8
  0
LINE
  5
12E2F9
  8
OBJECT
 10
10044.0
 20
-322.99999999999898
 30
0.0
 11
10044.0
 21
-286.99999999999898
 31
0.0
1001
ACDBBLOCKREPETAG
1070
     1
1071
       12
1005
12E2F9
  0
LINE
  5
12E2FA
  8
OBJECT
 10
10044.0
 20
-286.99999999999898
 30
0.0
 11
9956.0
 21
-286.99999999999898
 31
0.0
1001
ACDBBLOCKREPETAG
1070
     1
1071
       13
1005
12E2FA
  0
LINE
  5
12E2FB
  8
OBJECT
 10
9956.0
 20
-286.99999999999898
 30
0.0
 11
9956.0
 21
-322.99999999999898
 31
0.0
1001
ACDBBLOCKREPETAG
1070
     1
1071
       14
1005
12E2FB
  0
LINE
  5
12E2FC
  8
OBJECT
 10
10039.5
 20
-282.99999999999898
 30
0.0
 11
10039.5
 21
-275.99999999999909
 31
0.0
1001
ACDBBLOCKREPETAG
1070
     1
1071
       15
1005
12E2FC
  0
LINE
  5
12E2FD
  8
OBJECT
 10
9960.5000000000018
 20
-275.99999999999909
 30
0.0
 11
9960.5000000000018
 21
-282.99999999999898
 31
0.0
1001
ACDBBLOCKREPETAG
1070
     1
1071
       16
1005
12E2FD
  0
LINE
  5
12E2FE
  8
OBJECT
 10
9960.5000000000018
 20
-282.99999999999898
 30
0.0
 11
10039.5
 21
-282.99999999999898
 31
0.0
1001
ACDBBLOCKREPETAG
1070
     1
1071
       17
1005
12E2FE
  0
LINE
  5
12E2FF
  8
OBJECT
 10
10044.0
 20
-286.99999999999898
 30
0.0
 11
10039.5
 21
-282.99999999999898
 31
0.0
1001
ACDBBLOCKREPETAG
1070
     1
1071
       18
1005
12E2FF
  0
LINE
  5
12E300
  8
OBJECT
 10
9956.0
 20
-286.99999999999898
 30
0.0
 11
9960.5000000000018
 21
-282.99999999999898
 31
0.0
1001
ACDBBLOCKREPETAG
1070
     1
1071
       19
1005
12E300
  0
LINE
  5
12E301
  8
OBJECT
 10
10062.0
 20
-272.99999999999909
 30
0.0
 11
10062.0
 21
-269.99999999999909
 31
0.0
1001
ACDBBLOCKREPETAG
1070
     1
1071
       20
1005
12E301
  0
ARC
  5
12E302
  8
OBJECT
 10
10059.0
 20
-272.99999999999909
 30
0.0
 40
3.0
 50
270.0
 51
0.0
1001
ACDBBLOCKREPETAG
1070
     1
1071
       21
1005
12E302
  0
LINE
  5
12E303
  8
OBJECT
 10
9938.0
 20
-269.99999999999909
 30
0.0
 11
9938.0
 21
-272.99999999999909
 31
0.0
1001
ACDBBLOCKREPETAG
1070
     1
1071
       22
1005
12E303
  0
ARC
  5
12E304
  8
OBJECT
 10
9941.0
 20
-272.99999999999909
 30
0.0
 40
3.0
 50
180.0
 51
270.0
1001
ACDBBLOCKREPETAG
1070
     1
1071
       23
1005
12E304
  0
LINE
  5
12E305
  8
OBJECT
 10
9941.0
 20
-275.99999999999909
 30
0.0
 11
10059.0
 21
-275.99999999999909
 31
0.0
1001
ACDBBLOCKREPETAG
1070
     1
1071
       24
1005
12E305
  0
LINE
  5
12E306
  8
HIDDEN
 10
10030.0
 20
-277.99999999999909
 30
0.0
 11
9970.0
 21
-277.99999999999909
 31
0.0
1001
ACDBBLOCKREPETAG
1070
     1
1071
       25
1005
12E306
  0
LINE
  5
12E307
  8
OBJECT
 10
10192.99999999998
 20
-583.00000000000045
 30
0.0
 11
10199.99999999998
 21
-583.00000000000045
 31
0.0
1001
ACDBBLOCKREPETAG
1070
     1
1071
      324
1005
12E307
  0
LINE
  5
12E308
  8
OBJECT
 10
10199.99999999998
 20
-583.00000000000045
 30
0.0
 11
10199.99999999998
 21
-707.00000000000045
 31
0.0
1001
ACDBBLOCKREPETAG
1070
     1
1071
      325
1005
12E308
  0
LINE
  5
12E309
  8
OBJECT
 10
10075.99999999998
 20
-653.35026377572683
 30
0.0
 11
10075.99999999998
 21
-755.00000000000034
 31
0.0
1001
ACDBBLOCKREPETAG
1070
     1
1071
      326
1005
12E309
  0
LINE
  5
12E30A
  8
OBJECT
 10
10199.99999999998
 20
-707.00000000000045
 30
0.0
 11
10192.99999999998
 21
-707.00000000000045
 31
0.0
1001
ACDBBLOCKREPETAG
1070
     1
1071
      327
1005
12E30A
  0
LINE
  5
12E30B
  8
OBJECT
 10
10192.99999999998
 20
-707.00000000000045
 30
0.0
 11
10192.99999999998
 21
-583.00000000000045
 31
0.0
1001
ACDBBLOCKREPETAG
1070
     1
1071
      328
1005
12E30B
  0
LINE
  5
12E30C
  8
CENTER
 10
10124.99999999998
 20
-645.00000000000045
 30
0.0
 11
10214.99999999998
 21
-645.00000000000045
 31
0.0
1001
ACDBBLOCKREPETAG
1070
     1
1071
      329
1005
12E30C
  0
LINE
  5
12E30D
  8
OBJECT
 10
10069.99999999998
 20
-757.99999999999955
 30
0.0
 11
10072.99999999998
 21
-758.00000000000034
 31
0.0
1001
ACDBBLOCKREPETAG
1070
     1
1071
      330
1005
12E30D
  0
ARC
  5
12E30E
  8
OBJECT
 10
10072.99999999998
 20
-755.00000000000034
 30
0.0
 40
3.0
 50
270.0
 51
0.0
1001
ACDBBLOCKREPETAG
1070
     1
1071
      331
1005
12E30E
  0
LINE
  5
12E30F
  8
OBJECT
 10
10192.99999999998
 20
-586.00000000000045
 30
0.0
 11
10156.99999999998
 21
-586.00000000000045
 31
0.0
1001
ACDBBLOCKREPETAG
1070
     1
1071
      332
1005
12E30F
  0
LINE
  5
12E310
  8
OBJECT
 10
10156.99999999998
 20
-586.00000000000045
 30
0.0
 11
10156.99999999998
 21
-704.00000000000045
 31
0.0
1001
ACDBBLOCKREPETAG
1070
     1
1071
      333
1005
12E310
  0
LINE
  5
12E311
  8
OBJECT
 10
10152.99999999998
 20
-590.50000000000045
 30
0.0
 11
10152.99999999998
 21
-699.50000000000045
 31
0.0
1001
ACDBBLOCKREPETAG
1070
     1
1071
      334
1005
12E311
  0
LINE
  5
12E312
  8
OBJECT
 10
10152.99999999998
 20
-590.50000000000045
 30
0.0
 11
10139.99999999998
 21
-590.50000000000045
 31
0.0
1001
ACDBBLOCKREPETAG
1070
     1
1071
      335
1005
12E312
  0
LINE
  5
12E313
  8
OBJECT
 10
10156.99999999998
 20
-704.00000000000045
 30
0.0
 11
10192.99999999998
 21
-704.00000000000045
 31
0.0
1001
ACDBBLOCKREPETAG
1070
     1
1071
      336
1005
12E313
  0
LINE
  5
12E314
  8
OBJECT
 10
10156.99999999998
 20
-586.00000000000045
 30
0.0
 11
10152.99999999998
 21
-590.50000000000045
 31
0.0
1001
ACDBBLOCKREPETAG
1070
     1
1071
      337
1005
12E314
  0
LINE
  5
12E315
  8
OBJECT
 10
10139.99999999998
 20
-590.50000000000045
 30
0.0
 11
10139.99999999998
 21
-675.7449182792875
 31
0.0
1001
ACDBBLOCKREPETAG
1070
     1
1071
      338
1005
12E315
  0
ARC
  5
12E316
  8
OBJECT
 10
10142.799999999979
 20
-685.00000000000045
 30
0.0
 40
85.0
 50
91.887731891831123
 51
143.130102354109
1001
ACDBBLOCKREPETAG
1070
     1
1071
      339
1005
12E316
  0
LINE
  5
12E317
  8
HIDDEN
 10
10147.99999999998
 20
-600.50000000000057
 30
0.0
 11
10147.99999999998
 21
-689.50000000000045
 31
0.0
1001
ACDBBLOCKREPETAG
1070
     1
1071
      341
1005
12E317
  0
LINE
  5
12E318
  8
OBJECT
 10
10075.99999999998
 20
-751.07945073181725
 30
0.0
 11
10146.631319921031
 21
-699.50000000000045
 31
0.0
1001
ACDBBLOCKREPETAG
1070
     1
1071
      342
1005
12E318
  0
LINE
  5
12E319
  8
OBJECT
 10
10069.99999999998
 20
-633.99999999999955
 30
0.0
 11
10074.799999999979
 21
-633.99999999999955
 31
0.0
1001
ACDBBLOCKREPETAG
1070
     1
1071
      343
1005
12E319
  0
LINE
  5
12E31A
  8
OBJECT
 10
10075.99999999998
 20
-653.35026377572945
 30
0.0
 11
10074.799999999979
 21
-633.99999999999955
 31
0.0
1001
ACDBBLOCKREPETAG
1070
     1
1071
      344
1005
12E31A
  0
LINE
  5
12E31B
  8
OBJECT
 10
10152.99999999998
 20
-699.50000000000045
 30
0.0
 11
10146.631319921031
 21
-699.50000000000045
 31
0.0
1001
ACDBBLOCKREPETAG
1070
     1
1071
      345
1005
12E31B
  0
LINE
  5
12E31C
  8
OBJECT
 10
10156.99999999998
 20
-704.00000000000045
 30
0.0
 11
10152.99999999998
 21
-699.50000000000045
 31
0.0
1001
ACDBBLOCKREPETAG
1070
     1
1071
      346
1005
12E31C
  0
LINE
  5
12E31D
  8
OBJECT
 10
10192.99999999998
 20
-137.99999999999909
 30
0.0
 11
10199.99999999998
 21
-137.99999999999909
 31
0.0
1001
ACDBBLOCKREPETAG
1070
     1
1071
      376
1005
12E31D
  0
LINE
  5
12E31E
  8
OBJECT
 10
10199.99999999998
 20
-137.99999999999909
 30
0.0
 11
10199.99999999998
 21
-261.99999999999909
 31
0.0
1001
ACDBBLOCKREPETAG
1070
     1
1071
      377
1005
12E31E
  0
LINE
  5
12E31F
  8
OBJECT
 10
10199.99999999998
 20
-261.99999999999909
 30
0.0
 11
10192.99999999998
 21
-261.99999999999909
 31
0.0
1001
ACDBBLOCKREPETAG
1070
     1
1071
      378
1005
12E31F
  0
LINE
  5
12E320
  8
OBJECT
 10
10192.99999999998
 20
-261.99999999999909
 30
0.0
 11
10192.99999999998
 21
-137.99999999999909
 31
0.0
1001
ACDBBLOCKREPETAG
1070
     1
1071
      379
1005
12E320
  0
LINE
  5
12E321
  8
CENTER
 10
10214.99999999998
 20
-199.99999999999909
 30
0.0
 11
10070.0
 21
-199.99999999999909
 31
0.0
1001
ACDBBLOCKREPETAG
1070
     1
1071
      380
1005
12E321
  0
LINE
  5
12E322
  8
OBJECT
 10
10139.999974964179
 20
-245.0000000000027
 30
0.0
 11
10076.0
 21
-244.99999999999909
 31
0.0
1001
ACDBBLOCKREPETAG
1070
     1
1071
      381
1005
12E322
  0
LINE
  5
12E323
  8
OBJECT
 10
10139.999974964179
 20
-154.99999999999909
 30
0.0
 11
10076.0
 21
-154.99999999999909
 31
0.0
1001
ACDBBLOCKREPETAG
1070
     1
1071
      382
1005
12E323
  0
LINE
  5
12E324
  8
OBJECT
 10
10192.99999999998
 20
-140.99999999999909
 30
0.0
 11
10156.99999999998
 21
-140.99999999999909
 31
0.0
1001
ACDBBLOCKREPETAG
1070
     1
1071
      383
1005
12E324
  0
LINE
  5
12E325
  8
OBJECT
 10
10156.99999999998
 20
-140.99999999999909
 30
0.0
 11
10156.99999999998
 21
-258.99999999999909
 31
0.0
1001
ACDBBLOCKREPETAG
1070
     1
1071
      384
1005
12E325
  0
LINE
  5
12E326
  8
OBJECT
 10
10156.99999999998
 20
-258.99999999999909
 30
0.0
 11
10192.99999999998
 21
-258.99999999999909
 31
0.0
1001
ACDBBLOCKREPETAG
1070
     1
1071
      385
1005
12E326
  0
LINE
  5
12E327
  8
OBJECT
 10
10152.99999999998
 20
-145.49999999999909
 30
0.0
 11
10139.99999999998
 21
-145.49999999999909
 31
0.0
1001
ACDBBLOCKREPETAG
1070
     1
1071
      386
1005
12E327
  0
LINE
  5
12E328
  8
OBJECT
 10
10139.99999999998
 20
-254.49999999999909
 30
0.0
 11
10152.99999999998
 21
-254.49999999999909
 31
0.0
1001
ACDBBLOCKREPETAG
1070
     1
1071
      387
1005
12E328
  0
LINE
  5
12E329
  8
OBJECT
 10
10152.99999999998
 20
-254.49999999999909
 30
0.0
 11
10152.99999999998
 21
-145.49999999999909
 31
0.0
1001
ACDBBLOCKREPETAG
1070
     1
1071
      388
1005
12E329
  0
LINE
  5
12E32A
  8
OBJECT
 10
10156.99999999998
 20
-140.99999999999909
 30
0.0
 11
10152.99999999998
 21
-145.49999999999909
 31
0.0
1001
ACDBBLOCKREPETAG
1070
     1
1071
      389
1005
12E32A
  0
LINE
  5
12E32B
  8
OBJECT
 10
10156.99999999998
 20
-258.99999999999909
 30
0.0
 11
10152.99999999998
 21
-254.49999999999909
 31
0.0
1001
ACDBBLOCKREPETAG
1070
     1
1071
      390
1005
12E32B
  0
LINE
  5
12E32C
  8
OBJECT
 10
10073.0
 20
-137.99999999999909
 30
0.0
 11
10070.0
 21
-137.99999999999909
 31
0.0
1001
ACDBBLOCKREPETAG
1070
     1
1071
      391
1005
12E32C
  0
ARC
  5
12E32D
  8
OBJECT
 10
10073.0
 20
-140.99999999999909
 30
0.0
 40
3.0
 50
0.0
 51
90.0
1001
ACDBBLOCKREPETAG
1070
     1
1071
      392
1005
12E32D
  0
LINE
  5
12E32E
  8
OBJECT
 10
10070.0
 20
-261.99999999999909
 30
0.0
 11
10073.0
 21
-261.99999999999909
 31
0.0
1001
ACDBBLOCKREPETAG
1070
     1
1071
      393
1005
12E32E
  0
ARC
  5
12E32F
  8
OBJECT
 10
10073.0
 20
-258.99999999999909
 30
0.0
 40
3.0
 50
270.0
 51
0.0
1001
ACDBBLOCKREPETAG
1070
     1
1071
      394
1005
12E32F
  0
LINE
  5
12E330
  8
OBJECT
 10
10076.0
 20
-258.99999999999909
 30
0.0
 11
10076.0
 21
-210.3227903203578
 31
0.0
1001
ACDBBLOCKREPETAG
1070
     1
1071
      395
1005
12E330
  0
LINE
  5
12E331
  8
OBJECT
 10
10076.0
 20
-189.6772096796403
 30
0.0
 11
10076.0
 21
-140.99999999999909
 31
0.0
1001
ACDBBLOCKREPETAG
1070
     1
1071
      396
1005
12E331
  0
LINE
  5
12E332
  8
HIDDEN
 10
10147.99999999998
 20
-155.49999999999909
 30
0.0
 11
10147.99999999998
 21
-244.49999999999909
 31
0.0
1001
ACDBBLOCKREPETAG
1070
     1
1071
      397
1005
12E332
  0
LINE
  5
12E333
  8
OBJECT
 10
10139.999974964179
 20
-254.4999509238105
 30
0.0
 11
10139.999974964179
 21
-145.4999509238105
 31
0.0
1001
ACDBBLOCKREPETAG
1070
     1
1071
      399
1005
12E333
  0
ARC
  5
12E334
  8
OBJECT
 10
10119.800000000019
 20
-199.99999999999909
 30
0.0
 40
45.000000000000547
 50
90.0
 51
270.0
1001
ACDBBLOCKREPETAG
1070
     1
1071
      400
1005
12E334
  0
CIRCLE
  5
12E335
  8
OBJECT
 10
8000.0
 20
-695.99999999999955
 30
0.0
 40
62.0
1001
ACDBBLOCKREPETAG
1070
     1
1071
        3
1005
12E335
  0
LINE
  5
12E336
  8
CENTER
 10
7938.0
 20
-710.99999999999955
 30
0.0
 11
8062.0
 21
-710.99999999999955
 31
0.0
1001
ACDBBLOCKREPETAG
1070
     1
1071
        4
1005
12E336
  0
CIRCLE
  5
12E337
  8
OBJECT
 10
8000.0
 20
-710.99999999999955
 30
0.0
 40
28.0
1001
ACDBBLOCKREPETAG
1070
     1
1071
        6
1005
12E337
  0
CIRCLE
  5
12E338
  8
OBJECT
 10
8000.0
 20
-710.99999999999955
 30
0.0
 40
39.0
1001
ACDBBLOCKREPETAG
1070
     1
1071
        7
1005
12E338
  0
ARC
  5
12E339
  8
OBJECT
 10
8000.0
 20
-710.99999999999955
 30
0.0
 40
47.0
 50
290.58196921144179
 51
249.41803078855821
1001
ACDBBLOCKREPETAG
1070
     1
1071
        8
1005
12E339
  0
LINE
  5
12E33A
  8
OBJECT
 10
7983.4772883581409
 20
-754.99999999999955
 30
0.0
 11
8016.5227116418582
 21
-754.99999999999955
 31
0.0
1001
ACDBBLOCKREPETAG
1070
     1
1071
        9
1005
12E33A
  0
LINE
  5
12E33B
  8
CENTER
 10
8000.0
 20
-769.99999999999955
 30
0.0
 11
8000.0
 21
-613.99999999999966
 31
0.0
1001
ACDBBLOCKREPETAG
1070
     1
1071
        0
1005
12E33B
  0
LINE
  5
12E33C
  8
OBJECT
 10
7930.0
 20
-633.99999999999955
 30
0.0
 11
8070.0
 21
-633.99999999999955
 31
0.0
1001
ACDBBLOCKREPETAG
1070
     1
1071
        1
1005
12E33C
  0
LINE
  5
12E33D
  8
OBJECT
 10
7930.0
 20
-757.99999999999955
 30
0.0
 11
7930.0
 21
-769.99999999999955
 31
0.0
1001
ACDBBLOCKREPETAG
1070
     1
1071
        2
1005
12E33D
  0
LINE
  5
12E33E
  8
OBJECT
 10
7930.0
 20
-769.99999999999955
 30
0.0
 11
8070.0
 21
-769.99999999999955
 31
0.0
1001
ACDBBLOCKREPETAG
1070
     1
1071
        3
1005
12E33E
  0
LINE
  5
12E33F
  8
OBJECT
 10
8070.0
 20
-769.99999999999955
 30
0.0
 11
8070.0
 21
-757.99999999999955
 31
0.0
1001
ACDBBLOCKREPETAG
1070
     1
1071
        4
1005
12E33F
  0
LINE
  5
12E340
  8
OBJECT
 10
8070.0
 20
-757.99999999999955
 30
0.0
 11
7930.0
 21
-757.99999999999955
 31
0.0
1001
ACDBBLOCKREPETAG
1070
     1
1071
        5
1005
12E340
  0
ARC
  5
12E341
  8
OBJECT
 10
8435.0384389946794
 20
-998.60813684682694
 30
0.0
 40
519.48776673616965
 50
135.42350667430969
 51
138.50052655621499
1001
ACDBBLOCKREPETAG
1070
     1
1071
        9
1005
12E341
  0
ARC
  5
12E342
  8
OBJECT
 10
8435.0384389946794
 20
-393.39186315317193
 30
0.0
 40
519.48776673616965
 50
221.49947344378501
 51
224.57649332569039
1001
ACDBBLOCKREPETAG
1070
     1
1071
       10
1005
12E342
  0
ARC
  5
12E343
  8
OBJECT
 10
7564.9615610053233
 20
-998.60813684682694
 30
0.0
 40
519.48776673616965
 50
41.499473443784993
 51
44.576493325690237
1001
ACDBBLOCKREPETAG
1070
     1
1071
       11
1005
12E343
  0
ARC
  5
12E344
  8
OBJECT
 10
7564.9615610053233
 20
-393.39186315317193
 30
0.0
 40
519.48776673616965
 50
315.42350667430981
 51
318.50052655621488
1001
ACDBBLOCKREPETAG
1070
     1
1071
       12
1005
12E344
  0
LINE
  5
12E345
  8
OBJECT
 10
8047.5000000000018
 20
-628.99999999999955
 30
0.0
 11
7952.5
 21
-628.99999999999955
 31
0.0
1001
ACDBBLOCKREPETAG
1070
     1
1071
       24
1005
12E345
  0
ARC
  5
12E346
  8
OBJECT
 10
7952.5
 20
-631.99999999999955
 30
0.0
 40
3.0
 50
90.0
 51
180.0
1001
ACDBBLOCKREPETAG
1070
     1
1071
       25
1005
12E346
  0
LINE
  5
12E347
  8
OBJECT
 10
7949.5
 20
-631.99999999999955
 30
0.0
 11
7949.5
 21
-633.99999999999955
 31
0.0
1001
ACDBBLOCKREPETAG
1070
     1
1071
       26
1005
12E347
  0
LINE
  5
12E348
  8
OBJECT
 10
8050.4999999999973
 20
-631.99999999999955
 30
0.0
 11
8050.4999999999973
 21
-633.99999999999955
 31
0.0
1001
ACDBBLOCKREPETAG
1070
     1
1071
       27
1005
12E348
  0
ARC
  5
12E349
  8
OBJECT
 10
8047.5000000000018
 20
-631.99999999999955
 30
0.0
 40
3.0
 50
0.0
 51
90.0
1001
ACDBBLOCKREPETAG
1070
     1
1071
       28
1005
12E349
  0
POINT
  5
12E34A
  8
DOTS
 10
8000.0
 20
-754.99999999999955
 30
0.0
1001
ACDBBLOCKREPETAG
1070
     1
1071
       87
1005
12E34A
  0
LINE
  5
12E34B
  8
SLIM
 10
7963.2171826682388
 20
-137.99999999999909
 30
0.0
 11
7969.9215079962914
 21
-131.29567467194681
 31
0.0
1001
ACDBBLOCKREPETAG
1070
     1
1071
      157
1005
0
1001
GRADIENTCOLOR1ACI
1070
     5
1001
GRADIENTCOLOR2ACI
1070
     2
1001
ACAD
1010
0.0
1020
0.0
1030
0.0
  0
LINE
  5
12E34C
  8
SLIM
 10
7972.1974387893079
 20
-137.99999999999909
 30
0.0
 11
7983.3188363327517
 21
-126.87860245655401
 31
0.0
1001
GRADIENTCOLOR1ACI
1070
     5
1001
GRADIENTCOLOR2ACI
1070
     2
1001
ACAD
1010
0.0
1020
0.0
1030
0.0
1001
ACDBBLOCKREPETAG
1070
     1
1071
      160
1005
12E34C
  0
LINE
  5
12E34D
  8
SLIM
 10
7981.4849372887629
 20
-137.6927576216126
 30
0.0
 11
7993.9318052485969
 21
-125.245889661777
 31
0.0
1001
GRADIENTCOLOR1ACI
1070
     5
1001
GRADIENTCOLOR2ACI
1070
     2
1001
ACAD
1010
0.0
1020
0.0
1030
0.0
1001
ACDBBLOCKREPETAG
1070
     1
1071
      161
1005
12E34D
  0
LINE
  5
12E34E
  8
SLIM
 10
7992.7526568280337
 20
-135.40529420341099
 30
0.0
 11
8000.0
 21
-128.1579510314458
 31
0.0
1001
GRADIENTCOLOR1ACI
1070
     5
1001
GRADIENTCOLOR2ACI
1070
     2
1001
ACAD
1010
0.0
1020
0.0
1030
0.0
1001
ACDBBLOCKREPETAG
1070
     1
1071
      162
1005
12E34E
  0
LINE
  5
12E34F
  8
SLIM
 10
8000.0
 20
-128.1579510314458
 30
0.0
 11
8003.0941007878528
 21
-125.0638502435924
 31
0.0
1001
GRADIENTCOLOR1ACI
1070
     5
1001
GRADIENTCOLOR2ACI
1070
     2
1001
ACAD
1010
0.0
1020
0.0
1030
0.0
1001
ACDBBLOCKREPETAG
1070
     1
1071
      163
1005
12E34F
  0
LINE
  5
12E350
  8
SLIM
 10
8002.1041412234727
 20
-135.03406592904389
 30
0.0
 11
8011.284425768652
 21
-125.85378138386341
 31
0.0
1001
GRADIENTCOLOR1ACI
1070
     5
1001
GRADIENTCOLOR2ACI
1070
     2
1001
ACAD
1010
0.0
1020
0.0
1030
0.0
1001
ACDBBLOCKREPETAG
1070
     1
1071
      164
1005
12E350
  0
LINE
  5
12E351
  8
SLIM
 10
8010.297585520927
 20
-135.82087775265759
 30
0.0
 11
8018.7395884655189
 21
-127.3788748080627
 31
0.0
1001
GRADIENTCOLOR1ACI
1070
     5
1001
GRADIENTCOLOR2ACI
1070
     2
1001
ACAD
1010
0.0
1020
0.0
1030
0.0
1001
ACDBBLOCKREPETAG
1070
     1
1071
      165
1005
12E351
  0
LINE
  5
12E352
  8
SLIM
 10
8017.6550793642282
 20
-137.4436400304258
 30
0.0
 11
8025.5958866269621
 21
-129.50283276769261
 31
0.0
1001
GRADIENTCOLOR1ACI
1070
     5
1001
GRADIENTCOLOR2ACI
1070
     2
1001
ACAD
1010
0.0
1020
0.0
1030
0.0
1001
ACDBBLOCKREPETAG
1070
     1
1071
      166
1005
12E352
  0
LINE
  5
12E353
  8
SLIM
 10
8026.078975515723
 20
-137.99999999999909
 30
0.0
 11
8031.9385859461063
 21
-132.1403895696169
 31
0.0
1001
GRADIENTCOLOR1ACI
1070
     5
1001
GRADIENTCOLOR2ACI
1070
     2
1001
ACAD
1010
0.0
1020
0.0
1030
0.0
1001
ACDBBLOCKREPETAG
1070
     1
1071
      167
1005
12E353
  0
LINE
  5
12E354
  8
SLIM
 10
8035.0592316367947
 20
-137.99999999999909
 30
0.0
 11
8037.8233654376218
 21
-135.23586619916779
 31
0.0
1001
GRADIENTCOLOR1ACI
1070
     5
1001
GRADIENTCOLOR2ACI
1070
     2
1001
ACAD
1010
0.0
1020
0.0
1030
0.0
1001
ACDBBLOCKREPETAG
1070
     1
1071
      168
1005
12E354
  0
CIRCLE
  5
12E355
  8
OBJECT
 10
8000.0
 20
-199.99999999999909
 30
0.0
 40
65.0
1001
ACDBBLOCKREPETAG
1070
     1
1071
       84
1005
12E355
  0
CIRCLE
  5
12E356
  8
OBJECT
 10
8000.0
 20
-199.99999999999909
 30
0.0
 40
50.5
1001
ACDBBLOCKREPETAG
1070
     1
1071
       86
1005
12E356
  0
LINE
  5
12E357
  8
OBJECT
 10
8070.0
 20
-137.99999999999909
 30
0.0
 11
8019.5192212959419
 21
-137.99999999999909
 31
0.0
1001
ACDBBLOCKREPETAG
1070
     1
1071
       87
1005
12E357
  0
LINE
  5
12E358
  8
OBJECT
 10
7930.0
 20
-137.99999999999909
 30
0.0
 11
7980.4807787040572
 21
-137.99999999999909
 31
0.0
1001
ACDBBLOCKREPETAG
1070
     1
1071
       88
1005
12E358
  0
LINE
  5
12E359
  8
OBJECT
 10
7930.0
 20
-261.99999999999909
 30
0.0
 11
7938.0
 21
-261.99999999999909
 31
0.0
1001
ACDBBLOCKREPETAG
1070
     1
1071
       89
1005
12E359
  0
LINE
  5
12E35A
  8
OBJECT
 10
7938.0
 20
-269.99999999999909
 30
0.0
 11
7938.0
 21
-261.99999999999909
 31
0.0
1001
ACDBBLOCKREPETAG
1070
     1
1071
       90
1005
12E35A
  0
LINE
  5
12E35B
  8
OBJECT
 10
8070.0
 20
-261.99999999999909
 30
0.0
 11
8062.0
 21
-261.99999999999909
 31
0.0
1001
ACDBBLOCKREPETAG
1070
     1
1071
       91
1005
12E35B
  0
LINE
  5
12E35C
  8
OBJECT
 10
8062.0
 20
-269.99999999999909
 30
0.0
 11
8062.0
 21
-261.99999999999909
 31
0.0
1001
ACDBBLOCKREPETAG
1070
     1
1071
       92
1005
12E35C
  0
LINE
  5
12E35D
  8
CENTER
 10
7930.0
 20
-199.99999999999909
 30
0.0
 11
8070.0
 21
-199.99999999999909
 31
0.0
1001
ACDBBLOCKREPETAG
1070
     1
1071
       93
1005
12E35D
  0
LINE
  5
12E35E
  8
CENTER
 10
8000.0
 20
-269.99999999999909
 30
0.0
 11
8000.0
 21
-109.9999999999991
 31
0.0
1001
ACDBBLOCKREPETAG
1070
     1
1071
       94
1005
12E35E
  0
LINE
  5
12E35F
  8
OBJECT
 10
7954.0380592228739
 20
-245.96194077712289
 30
0.0
 11
7938.0
 21
-261.99999999999909
 31
0.0
1001
ACDBBLOCKREPETAG
1070
     1
1071
      106
1005
12E35F
  0
LINE
  5
12E360
  8
OBJECT
 10
8045.9619407771252
 20
-245.96194077712289
 30
0.0
 11
8062.0
 21
-261.99999999999909
 31
0.0
1001
ACDBBLOCKREPETAG
1070
     1
1071
      107
1005
12E360
  0
ARC
  5
12E361
  8
OBJECT
 10
8000.0
 20
-199.99999999999909
 30
0.0
 40
75.0
 50
55.757831297238091
 51
124.2421687027619
1001
ACDBBLOCKREPETAG
1070
     1
1071
      108
1005
12E361
  0
POINT
  5
12E362
  8
DOTS
 10
8000.0
 20
-199.99999999999909
 30
0.0
1001
ACDBBLOCKREPETAG
1070
     1
1071
      159
1005
12E362
  0
LINE
  5
12E363
  8
OBJECT
 10
7927.0
 20
-633.99999999999955
 30
0.0
 11
7930.0
 21
-633.99999999999955
 31
0.0
1001
ACDBBLOCKREPETAG
1070
     1
1071
        1
1005
12E363
  0
ARC
  5
12E364
  8
OBJECT
 10
7927.0
 20
-636.99999999999955
 30
0.0
 40
3.0
 50
90.0
 51
180.0
1001
ACDBBLOCKREPETAG
1070
     1
1071
        2
1005
12E364
  0
LINE
  5
12E365
  8
OBJECT
 10
7930.0
 20
-757.99999999999955
 30
0.0
 11
7927.0
 21
-757.99999999999955
 31
0.0
1001
ACDBBLOCKREPETAG
1070
     1
1071
        3
1005
12E365
  0
ARC
  5
12E366
  8
OBJECT
 10
7927.0
 20
-754.99999999999955
 30
0.0
 40
3.0
 50
180.0
 51
270.0
1001
ACDBBLOCKREPETAG
1070
     1
1071
        4
1005
12E366
  0
LINE
  5
12E367
  8
OBJECT
 10
7924.0
 20
-754.99999999999955
 30
0.0
 11
7924.0
 21
-636.99999999999955
 31
0.0
1001
ACDBBLOCKREPETAG
1070
     1
1071
        5
1005
12E367
  0
LINE
  5
12E368
  8
CENTER
 10
7909.0
 20
-199.99999999999909
 30
0.0
 11
7930.0
 21
-199.99999999999909
 31
0.0
1001
ACDBBLOCKREPETAG
1070
     1
1071
        0
1005
12E368
  0
LINE
  5
12E369
  8
OBJECT
 10
7927.0
 20
-261.99999999999909
 30
0.0
 11
7930.0
 21
-261.99999999999909
 31
0.0
1001
ACDBBLOCKREPETAG
1070
     1
1071
        1
1005
12E369
  0
ARC
  5
12E36A
  8
OBJECT
 10
7927.0
 20
-258.99999999999909
 30
0.0
 40
3.0
 50
180.0
 51
270.0
1001
ACDBBLOCKREPETAG
1070
     1
1071
        2
1005
12E36A
  0
LINE
  5
12E36B
  8
OBJECT
 10
7930.0
 20
-137.99999999999909
 30
0.0
 11
7927.0
 21
-137.99999999999909
 31
0.0
1001
ACDBBLOCKREPETAG
1070
     1
1071
        3
1005
12E36B
  0
ARC
  5
12E36C
  8
OBJECT
 10
7927.0
 20
-140.99999999999909
 30
0.0
 40
3.0
 50
90.0
 51
180.0
1001
ACDBBLOCKREPETAG
1070
     1
1071
        4
1005
12E36C
  0
LINE
  5
12E36D
  8
OBJECT
 10
7924.0
 20
-140.99999999999909
 30
0.0
 11
7924.0
 21
-258.99999999999909
 31
0.0
1001
ACDBBLOCKREPETAG
1070
     1
1071
        5
1005
12E36D
  0
LINE
  5
12E36E
  8
OBJECT
 10
8047.0
 20
-322.99999999999898
 30
0.0
 11
8047.0
 21
-329.99999999999898
 31
0.0
1001
ACDBBLOCKREPETAG
1070
     1
1071
        7
1005
12E36E
  0
LINE
  5
12E36F
  8
OBJECT
 10
8047.0
 20
-329.99999999999898
 30
0.0
 11
7953.0
 21
-329.99999999999898
 31
0.0
1001
ACDBBLOCKREPETAG
1070
     1
1071
        8
1005
12E36F
  0
LINE
  5
12E370
  8
OBJECT
 10
7953.0
 20
-329.99999999999898
 30
0.0
 11
7953.0
 21
-322.99999999999898
 31
0.0
1001
ACDBBLOCKREPETAG
1070
     1
1071
        9
1005
12E370
  0
LINE
  5
12E371
  8
OBJECT
 10
7953.0
 20
-322.99999999999898
 30
0.0
 11
8047.0
 21
-322.99999999999898
 31
0.0
1001
ACDBBLOCKREPETAG
1070
     1
1071
       10
1005
12E371
  0
LINE
  5
12E372
  8
CENTER
 10
8000.0
 20
-344.99999999999909
 30
0.0
 11
8000.0
 21
-269.99999999999909
 31
0.0
1001
ACDBBLOCKREPETAG
1070
     1
1071
       11
1005
12E372
  0
LINE
  5
12E373
  8
OBJECT
 10
8044.0
 20
-322.99999999999898
 30
0.0
 11
8044.0
 21
-286.99999999999898
 31
0.0
1001
ACDBBLOCKREPETAG
1070
     1
1071
       12
1005
12E373
  0
LINE
  5
12E374
  8
OBJECT
 10
8044.0
 20
-286.99999999999898
 30
0.0
 11
7956.0
 21
-286.99999999999898
 31
0.0
1001
ACDBBLOCKREPETAG
1070
     1
1071
       13
1005
12E374
  0
LINE
  5
12E375
  8
OBJECT
 10
7956.0
 20
-286.99999999999898
 30
0.0
 11
7956.0
 21
-322.99999999999898
 31
0.0
1001
ACDBBLOCKREPETAG
1070
     1
1071
       14
1005
12E375
  0
LINE
  5
12E376
  8
OBJECT
 10
8039.5
 20
-282.99999999999898
 30
0.0
 11
8039.5
 21
-275.99999999999909
 31
0.0
1001
ACDBBLOCKREPETAG
1070
     1
1071
       15
1005
12E376
  0
LINE
  5
12E377
  8
OBJECT
 10
7960.5
 20
-275.99999999999909
 30
0.0
 11
7960.5
 21
-282.99999999999898
 31
0.0
1001
ACDBBLOCKREPETAG
1070
     1
1071
       16
1005
12E377
  0
LINE
  5
12E378
  8
OBJECT
 10
7960.5
 20
-282.99999999999898
 30
0.0
 11
8039.5
 21
-282.99999999999898
 31
0.0
1001
ACDBBLOCKREPETAG
1070
     1
1071
       17
1005
12E378
  0
LINE
  5
12E379
  8
OBJECT
 10
8044.0
 20
-286.99999999999898
 30
0.0
 11
8039.5
 21
-282.99999999999898
 31
0.0
1001
ACDBBLOCKREPETAG
1070
     1
1071
       18
1005
12E379
  0
LINE
  5
12E37A
  8
OBJECT
 10
7956.0
 20
-286.99999999999898
 30
0.0
 11
7960.5
 21
-282.99999999999898
 31
0.0
1001
ACDBBLOCKREPETAG
1070
     1
1071
       19
1005
12E37A
  0
LINE
  5
12E37B
  8
OBJECT
 10
8062.0
 20
-272.99999999999909
 30
0.0
 11
8062.0
 21
-269.99999999999909
 31
0.0
1001
ACDBBLOCKREPETAG
1070
     1
1071
       20
1005
12E37B
  0
ARC
  5
12E37C
  8
OBJECT
 10
8059.0
 20
-272.99999999999909
 30
0.0
 40
3.0
 50
270.0
 51
0.0
1001
ACDBBLOCKREPETAG
1070
     1
1071
       21
1005
12E37C
  0
LINE
  5
12E37D
  8
OBJECT
 10
7938.0
 20
-269.99999999999909
 30
0.0
 11
7938.0
 21
-272.99999999999909
 31
0.0
1001
ACDBBLOCKREPETAG
1070
     1
1071
       22
1005
12E37D
  0
ARC
  5
12E37E
  8
OBJECT
 10
7941.0
 20
-272.99999999999909
 30
0.0
 40
3.0
 50
180.0
 51
270.0
1001
ACDBBLOCKREPETAG
1070
     1
1071
       23
1005
12E37E
  0
LINE
  5
12E37F
  8
OBJECT
 10
7941.0
 20
-275.99999999999909
 30
0.0
 11
8059.0
 21
-275.99999999999909
 31
0.0
1001
ACDBBLOCKREPETAG
1070
     1
1071
       24
1005
12E37F
  0
LINE
  5
12E380
  8
HIDDEN
 10
8030.0
 20
-277.99999999999909
 30
0.0
 11
7970.0
 21
-277.99999999999909
 31
0.0
1001
ACDBBLOCKREPETAG
1070
     1
1071
       25
1005
12E380
  0
LINE
  5
12E381
  8
OBJECT
 10
8192.9999999999873
 20
-583.00000000000045
 30
0.0
 11
8199.9999999999854
 21
-583.00000000000045
 31
0.0
1001
ACDBBLOCKREPETAG
1070
     1
1071
      324
1005
12E381
  0
LINE
  5
12E382
  8
OBJECT
 10
8199.9999999999854
 20
-583.00000000000045
 30
0.0
 11
8199.9999999999854
 21
-707.00000000000045
 31
0.0
1001
ACDBBLOCKREPETAG
1070
     1
1071
      325
1005
12E382
  0
LINE
  5
12E383
  8
OBJECT
 10
8075.9999999999864
 20
-653.35026377572683
 30
0.0
 11
8075.9999999999864
 21
-755.00000000000034
 31
0.0
1001
ACDBBLOCKREPETAG
1070
     1
1071
      326
1005
12E383
  0
LINE
  5
12E384
  8
OBJECT
 10
8199.9999999999854
 20
-707.00000000000045
 30
0.0
 11
8192.9999999999873
 21
-707.00000000000045
 31
0.0
1001
ACDBBLOCKREPETAG
1070
     1
1071
      327
1005
12E384
  0
LINE
  5
12E385
  8
OBJECT
 10
8192.9999999999873
 20
-707.00000000000045
 30
0.0
 11
8192.9999999999873
 21
-583.00000000000045
 31
0.0
1001
ACDBBLOCKREPETAG
1070
     1
1071
      328
1005
12E385
  0
LINE
  5
12E386
  8
CENTER
 10
8124.9999999999873
 20
-645.00000000000045
 30
0.0
 11
8214.9999999999873
 21
-645.00000000000045
 31
0.0
1001
ACDBBLOCKREPETAG
1070
     1
1071
      329
1005
12E386
  0
LINE
  5
12E387
  8
OBJECT
 10
8069.99999999998
 20
-757.99999999999955
 30
0.0
 11
8072.9999999999864
 21
-758.00000000000034
 31
0.0
1001
ACDBBLOCKREPETAG
1070
     1
1071
      330
1005
12E387
  0
ARC
  5
12E388
  8
OBJECT
 10
8072.9999999999864
 20
-755.00000000000034
 30
0.0
 40
3.0
 50
270.0
 51
0.0
1001
ACDBBLOCKREPETAG
1070
     1
1071
      331
1005
12E388
  0
LINE
  5
12E389
  8
OBJECT
 10
8192.9999999999873
 20
-586.00000000000045
 30
0.0
 11
8156.9999999999873
 21
-586.00000000000045
 31
0.0
1001
ACDBBLOCKREPETAG
1070
     1
1071
      332
1005
12E389
  0
LINE
  5
12E38A
  8
OBJECT
 10
8156.9999999999873
 20
-586.00000000000045
 30
0.0
 11
8156.9999999999873
 21
-704.00000000000045
 31
0.0
1001
ACDBBLOCKREPETAG
1070
     1
1071
      333
1005
12E38A
  0
LINE
  5
12E38B
  8
OBJECT
 10
8152.9999999999864
 20
-590.50000000000045
 30
0.0
 11
8152.9999999999864
 21
-699.50000000000045
 31
0.0
1001
ACDBBLOCKREPETAG
1070
     1
1071
      334
1005
12E38B
  0
LINE
  5
12E38C
  8
OBJECT
 10
8152.9999999999864
 20
-590.50000000000045
 30
0.0
 11
8139.9999999999818
 21
-590.50000000000045
 31
0.0
1001
ACDBBLOCKREPETAG
1070
     1
1071
      335
1005
12E38C
  0
LINE
  5
12E38D
  8
OBJECT
 10
8156.9999999999873
 20
-704.00000000000045
 30
0.0
 11
8192.9999999999873
 21
-704.00000000000045
 31
0.0
1001
ACDBBLOCKREPETAG
1070
     1
1071
      336
1005
12E38D
  0
LINE
  5
12E38E
  8
OBJECT
 10
8156.9999999999873
 20
-586.00000000000045
 30
0.0
 11
8152.9999999999864
 21
-590.50000000000045
 31
0.0
1001
ACDBBLOCKREPETAG
1070
     1
1071
      337
1005
12E38E
  0
LINE
  5
12E38F
  8
OBJECT
 10
8139.9999999999818
 20
-590.50000000000045
 30
0.0
 11
8139.9999999999818
 21
-675.7449182792875
 31
0.0
1001
ACDBBLOCKREPETAG
1070
     1
1071
      338
1005
12E38F
  0
ARC
  5
12E390
  8
OBJECT
 10
8142.7999999999847
 20
-685.00000000000045
 30
0.0
 40
85.0
 50
91.887731891831123
 51
143.130102354109
1001
ACDBBLOCKREPETAG
1070
     1
1071
      339
1005
12E390
  0
LINE
  5
12E391
  8
HIDDEN
 10
8147.9999999999873
 20
-600.50000000000057
 30
0.0
 11
8147.9999999999873
 21
-689.50000000000045
 31
0.0
1001
ACDBBLOCKREPETAG
1070
     1
1071
      341
1005
12E391
  0
LINE
  5
12E392
  8
OBJECT
 10
8075.9999999999864
 20
-751.07945073181725
 30
0.0
 11
8146.6313199210308
 21
-699.50000000000045
 31
0.0
1001
ACDBBLOCKREPETAG
1070
     1
1071
      342
1005
12E392
  0
LINE
  5
12E393
  8
OBJECT
 10
8069.99999999998
 20
-633.99999999999955
 30
0.0
 11
8074.7999999999829
 21
-633.99999999999955
 31
0.0
1001
ACDBBLOCKREPETAG
1070
     1
1071
      343
1005
12E393
  0
LINE
  5
12E394
  8
OBJECT
 10
8075.9999999999864
 20
-653.35026377572945
 30
0.0
 11
8074.7999999999829
 21
-633.99999999999955
 31
0.0
1001
ACDBBLOCKREPETAG
1070
     1
1071
      344
1005
12E394
  0
LINE
  5
12E395
  8
OBJECT
 10
8152.9999999999864
 20
-699.50000000000045
 30
0.0
 11
8146.6313199210308
 21
-699.50000000000045
 31
0.0
1001
ACDBBLOCKREPETAG
1070
     1
1071
      345
1005
12E395
  0
LINE
  5
12E396
  8
OBJECT
 10
8156.9999999999873
 20
-704.00000000000045
 30
0.0
 11
8152.9999999999864
 21
-699.50000000000045
 31
0.0
1001
ACDBBLOCKREPETAG
1070
     1
1071
      346
1005
12E396
  0
LINE
  5
12E397
  8
OBJECT
 10
8192.9999999999873
 20
-137.99999999999909
 30
0.0
 11
8199.9999999999854
 21
-137.99999999999909
 31
0.0
1001
ACDBBLOCKREPETAG
1070
     1
1071
      376
1005
12E397
  0
LINE
  5
12E398
  8
OBJECT
 10
8199.9999999999854
 20
-137.99999999999909
 30
0.0
 11
8199.9999999999854
 21
-261.99999999999909
 31
0.0
1001
ACDBBLOCKREPETAG
1070
     1
1071
      377
1005
12E398
  0
LINE
  5
12E399
  8
OBJECT
 10
8199.9999999999854
 20
-261.99999999999909
 30
0.0
 11
8192.9999999999873
 21
-261.99999999999909
 31
0.0
1001
ACDBBLOCKREPETAG
1070
     1
1071
      378
1005
12E399
  0
LINE
  5
12E39A
  8
OBJECT
 10
8192.9999999999873
 20
-261.99999999999909
 30
0.0
 11
8192.9999999999873
 21
-137.99999999999909
 31
0.0
1001
ACDBBLOCKREPETAG
1070
     1
1071
      379
1005
12E39A
  0
LINE
  5
12E39B
  8
CENTER
 10
8214.9999999999873
 20
-199.99999999999909
 30
0.0
 11
8070.0
 21
-199.99999999999909
 31
0.0
1001
ACDBBLOCKREPETAG
1070
     1
1071
      380
1005
12E39B
  0
LINE
  5
12E39C
  8
OBJECT
 10
8139.9999749641865
 20
-245.0000000000027
 30
0.0
 11
8076.0
 21
-244.99999999999909
 31
0.0
1001
ACDBBLOCKREPETAG
1070
     1
1071
      381
1005
12E39C
  0
LINE
  5
12E39D
  8
OBJECT
 10
8139.9999749641865
 20
-154.99999999999909
 30
0.0
 11
8076.0
 21
-154.99999999999909
 31
0.0
1001
ACDBBLOCKREPETAG
1070
     1
1071
      382
1005
12E39D
  0
LINE
  5
12E39E
  8
OBJECT
 10
8192.9999999999873
 20
-140.99999999999909
 30
0.0
 11
8156.9999999999873
 21
-140.99999999999909
 31
0.0
1001
ACDBBLOCKREPETAG
1070
     1
1071
      383
1005
12E39E
  0
LINE
  5
12E39F
  8
OBJECT
 10
8156.9999999999873
 20
-140.99999999999909
 30
0.0
 11
8156.9999999999873
 21
-258.99999999999909
 31
0.0
1001
ACDBBLOCKREPETAG
1070
     1
1071
      384
1005
12E39F
  0
LINE
  5
12E3A0
  8
OBJECT
 10
8156.9999999999873
 20
-258.99999999999909
 30
0.0
 11
8192.9999999999873
 21
-258.99999999999909
 31
0.0
1001
ACDBBLOCKREPETAG
1070
     1
1071
      385
1005
12E3A0
  0
LINE
  5
12E3A1
  8
OBJECT
 10
8152.9999999999864
 20
-145.49999999999909
 30
0.0
 11
8139.9999999999818
 21
-145.49999999999909
 31
0.0
1001
ACDBBLOCKREPETAG
1070
     1
1071
      386
1005
12E3A1
  0
LINE
  5
12E3A2
  8
OBJECT
 10
8139.9999999999818
 20
-254.49999999999909
 30
0.0
 11
8152.9999999999864
 21
-254.49999999999909
 31
0.0
1001
ACDBBLOCKREPETAG
1070
     1
1071
      387
1005
12E3A2
  0
LINE
  5
12E3A3
  8
OBJECT
 10
8152.9999999999864
 20
-254.49999999999909
 30
0.0
 11
8152.9999999999864
 21
-145.49999999999909
 31
0.0
1001
ACDBBLOCKREPETAG
1070
     1
1071
      388
1005
12E3A3
  0
LINE
  5
12E3A4
  8
OBJECT
 10
8156.9999999999873
 20
-140.99999999999909
 30
0.0
 11
8152.9999999999864
 21
-145.49999999999909
 31
0.0
1001
ACDBBLOCKREPETAG
1070
     1
1071
      389
1005
12E3A4
  0
LINE
  5
12E3A5
  8
OBJECT
 10
8156.9999999999873
 20
-258.99999999999909
 30
0.0
 11
8152.9999999999864
 21
-254.49999999999909
 31
0.0
1001
ACDBBLOCKREPETAG
1070
     1
1071
      390
1005
12E3A5
  0
LINE
  5
12E3A6
  8
OBJECT
 10
8073.0
 20
-137.99999999999909
 30
0.0
 11
8070.0
 21
-137.99999999999909
 31
0.0
1001
ACDBBLOCKREPETAG
1070
     1
1071
      391
1005
12E3A6
  0
ARC
  5
12E3A7
  8
OBJECT
 10
8073.0
 20
-140.99999999999909
 30
0.0
 40
3.0
 50
0.0
 51
90.0
1001
ACDBBLOCKREPETAG
1070
     1
1071
      392
1005
12E3A7
  0
LINE
  5
12E3A8
  8
OBJECT
 10
8070.0
 20
-261.99999999999909
 30
0.0
 11
8073.0
 21
-261.99999999999909
 31
0.0
1001
ACDBBLOCKREPETAG
1070
     1
1071
      393
1005
12E3A8
  0
ARC
  5
12E3A9
  8
OBJECT
 10
8073.0
 20
-258.99999999999909
 30
0.0
 40
3.0
 50
270.0
 51
0.0
1001
ACDBBLOCKREPETAG
1070
     1
1071
      394
1005
12E3A9
  0
LINE
  5
12E3AA
  8
OBJECT
 10
8076.0
 20
-258.99999999999909
 30
0.0
 11
8076.0
 21
-210.3227903203578
 31
0.0
1001
ACDBBLOCKREPETAG
1070
     1
1071
      395
1005
12E3AA
  0
LINE
  5
12E3AB
  8
OBJECT
 10
8076.0
 20
-189.6772096796403
 30
0.0
 11
8076.0
 21
-140.99999999999909
 31
0.0
1001
ACDBBLOCKREPETAG
1070
     1
1071
      396
1005
12E3AB
  0
LINE
  5
12E3AC
  8
HIDDEN
 10
8147.9999999999873
 20
-155.49999999999909
 30
0.0
 11
8147.9999999999873
 21
-244.49999999999909
 31
0.0
1001
ACDBBLOCKREPETAG
1070
     1
1071
      397
1005
12E3AC
  0
LINE
  5
12E3AD
  8
OBJECT
 10
8139.9999749641865
 20
-254.4999509238105
 30
0.0
 11
8139.9999749641865
 21
-145.4999509238105
 31
0.0
1001
ACDBBLOCKREPETAG
1070
     1
1071
      399
1005
12E3AD
  0
ARC
  5
12E3AE
  8
OBJECT
 10
8119.800000000022
 20
-199.99999999999909
 30
0.0
 40
45.000000000000547
 50
90.0
 51
270.0
1001
ACDBBLOCKREPETAG
1070
     1
1071
      400
1005
12E3AE
  0
CIRCLE
  5
12E3AF
  8
OBJECT
 10
6000.0
 20
-695.99999999999955
 30
0.0
 40
62.0
1001
ACDBBLOCKREPETAG
1070
     1
1071
        3
1005
12E3AF
  0
LINE
  5
12E3B0
  8
CENTER
 10
5938.0
 20
-710.99999999999955
 30
0.0
 11
6062.0
 21
-710.99999999999955
 31
0.0
1001
ACDBBLOCKREPETAG
1070
     1
1071
        4
1005
12E3B0
  0
CIRCLE
  5
12E3B1
  8
OBJECT
 10
6000.0
 20
-710.99999999999955
 30
0.0
 40
28.0
1001
ACDBBLOCKREPETAG
1070
     1
1071
        6
1005
12E3B1
  0
CIRCLE
  5
12E3B2
  8
OBJECT
 10
6000.0
 20
-710.99999999999955
 30
0.0
 40
39.0
1001
ACDBBLOCKREPETAG
1070
     1
1071
        7
1005
12E3B2
  0
ARC
  5
12E3B3
  8
OBJECT
 10
6000.0
 20
-710.99999999999955
 30
0.0
 40
47.0
 50
290.58196921144179
 51
249.41803078855821
1001
ACDBBLOCKREPETAG
1070
     1
1071
        8
1005
12E3B3
  0
LINE
  5
12E3B4
  8
OBJECT
 10
5983.4772883581436
 20
-754.99999999999955
 30
0.0
 11
6016.5227116418582
 21
-754.99999999999955
 31
0.0
1001
ACDBBLOCKREPETAG
1070
     1
1071
        9
1005
12E3B4
  0
LINE
  5
12E3B5
  8
CENTER
 10
6000.0
 20
-769.99999999999955
 30
0.0
 11
6000.0
 21
-613.99999999999966
 31
0.0
1001
ACDBBLOCKREPETAG
1070
     1
1071
        0
1005
12E3B5
  0
LINE
  5
12E3B6
  8
OBJECT
 10
5930.0
 20
-633.99999999999955
 30
0.0
 11
6070.0
 21
-633.99999999999955
 31
0.0
1001
ACDBBLOCKREPETAG
1070
     1
1071
        1
1005
12E3B6
  0
LINE
  5
12E3B7
  8
OBJECT
 10
5930.0
 20
-757.99999999999955
 30
0.0
 11
5930.0
 21
-769.99999999999955
 31
0.0
1001
ACDBBLOCKREPETAG
1070
     1
1071
        2
1005
12E3B7
  0
LINE
  5
12E3B8
  8
OBJECT
 10
5930.0
 20
-769.99999999999955
 30
0.0
 11
6070.0
 21
-769.99999999999955
 31
0.0
1001
ACDBBLOCKREPETAG
1070
     1
1071
        3
1005
12E3B8
  0
LINE
  5
12E3B9
  8
OBJECT
 10
6070.0
 20
-769.99999999999955
 30
0.0
 11
6070.0
 21
-757.99999999999955
 31
0.0
1001
ACDBBLOCKREPETAG
1070
     1
1071
        4
1005
12E3B9
  0
LINE
  5
12E3BA
  8
OBJECT
 10
6070.0
 20
-757.99999999999955
 30
0.0
 11
5930.0
 21
-757.99999999999955
 31
0.0
1001
ACDBBLOCKREPETAG
1070
     1
1071
        5
1005
12E3BA
  0
ARC
  5
12E3BB
  8
OBJECT
 10
6435.0384389946776
 20
-998.60813684682694
 30
0.0
 40
519.48776673616965
 50
135.42350667430969
 51
138.50052655621499
1001
ACDBBLOCKREPETAG
1070
     1
1071
        9
1005
12E3BB
  0
ARC
  5
12E3BC
  8
OBJECT
 10
6435.0384389946776
 20
-393.39186315317193
 30
0.0
 40
519.48776673616965
 50
221.49947344378501
 51
224.57649332569039
1001
ACDBBLOCKREPETAG
1070
     1
1071
       10
1005
12E3BC
  0
ARC
  5
12E3BD
  8
OBJECT
 10
5564.9615610053224
 20
-998.60813684682694
 30
0.0
 40
519.48776673616965
 50
41.499473443784993
 51
44.576493325690237
1001
ACDBBLOCKREPETAG
1070
     1
1071
       11
1005
12E3BD
  0
ARC
  5
12E3BE
  8
OBJECT
 10
5564.9615610053224
 20
-393.39186315317193
 30
0.0
 40
519.48776673616965
 50
315.42350667430981
 51
318.50052655621488
1001
ACDBBLOCKREPETAG
1070
     1
1071
       12
1005
12E3BE
  0
LINE
  5
12E3BF
  8
OBJECT
 10
6047.5
 20
-628.99999999999955
 30
0.0
 11
5952.5
 21
-628.99999999999955
 31
0.0
1001
ACDBBLOCKREPETAG
1070
     1
1071
       24
1005
12E3BF
  0
ARC
  5
12E3C0
  8
OBJECT
 10
5952.5
 20
-631.99999999999955
 30
0.0
 40
3.0
 50
90.0
 51
180.0
1001
ACDBBLOCKREPETAG
1070
     1
1071
       25
1005
12E3C0
  0
LINE
  5
12E3C1
  8
OBJECT
 10
5949.5
 20
-631.99999999999955
 30
0.0
 11
5949.5
 21
-633.99999999999955
 31
0.0
1001
ACDBBLOCKREPETAG
1070
     1
1071
       26
1005
12E3C1
  0
LINE
  5
12E3C2
  8
OBJECT
 10
6050.5
 20
-631.99999999999955
 30
0.0
 11
6050.5
 21
-633.99999999999955
 31
0.0
1001
ACDBBLOCKREPETAG
1070
     1
1071
       27
1005
12E3C2
  0
ARC
  5
12E3C3
  8
OBJECT
 10
6047.5
 20
-631.99999999999955
 30
0.0
 40
3.0
 50
0.0
 51
90.0
1001
ACDBBLOCKREPETAG
1070
     1
1071
       28
1005
12E3C3
  0
POINT
  5
12E3C4
  8
DOTS
 10
6000.0
 20
-754.99999999999955
 30
0.0
1001
ACDBBLOCKREPETAG
1070
     1
1071
       87
1005
12E3C4
  0
ARC
  5
12E3C5
  8
OBJECT
 10
6000.0
 20
-199.99999999999909
 30
0.0
 40
70.0
 50
62.339550100781771
 51
117.66044989921819
1001
ACDBBLOCKREPETAG
1070
     1
1071
        0
1005
12E3C5
  0
CIRCLE
  5
12E3C6
  8
OBJECT
 10
6000.0
 20
-199.99999999999909
 30
0.0
 40
65.0
1001
ACDBBLOCKREPETAG
1070
     1
1071
        1
1005
12E3C6
  0
CIRCLE
  5
12E3C7
  8
OBJECT
 10
6000.0
 20
-199.99999999999909
 30
0.0
 40
50.5
1001
ACDBBLOCKREPETAG
1070
     1
1071
        3
1005
12E3C7
  0
LINE
  5
12E3C8
  8
OBJECT
 10
6070.0
 20
-137.99999999999909
 30
0.0
 11
6019.5192212959437
 21
-137.99999999999909
 31
0.0
1001
ACDBBLOCKREPETAG
1070
     1
1071
        4
1005
12E3C8
  0
LINE
  5
12E3C9
  8
OBJECT
 10
5930.0
 20
-137.99999999999909
 30
0.0
 11
5980.4807787040563
 21
-137.99999999999909
 31
0.0
1001
ACDBBLOCKREPETAG
1070
     1
1071
        5
1005
12E3C9
  0
LINE
  5
12E3CA
  8
OBJECT
 10
5930.0
 20
-261.99999999999909
 30
0.0
 11
5938.0
 21
-261.99999999999909
 31
0.0
1001
ACDBBLOCKREPETAG
1070
     1
1071
        6
1005
12E3CA
  0
LINE
  5
12E3CB
  8
OBJECT
 10
5938.0
 20
-269.99999999999909
 30
0.0
 11
5938.0
 21
-261.99999999999909
 31
0.0
1001
ACDBBLOCKREPETAG
1070
     1
1071
        7
1005
12E3CB
  0
LINE
  5
12E3CC
  8
OBJECT
 10
6070.0
 20
-261.99999999999909
 30
0.0
 11
6062.0
 21
-261.99999999999909
 31
0.0
1001
ACDBBLOCKREPETAG
1070
     1
1071
        8
1005
12E3CC
  0
LINE
  5
12E3CD
  8
OBJECT
 10
6062.0
 20
-269.99999999999909
 30
0.0
 11
6062.0
 21
-261.99999999999909
 31
0.0
1001
ACDBBLOCKREPETAG
1070
     1
1071
        9
1005
12E3CD
  0
LINE
  5
12E3CE
  8
CENTER
 10
5930.0
 20
-199.99999999999909
 30
0.0
 11
6070.0
 21
-199.99999999999909
 31
0.0
1001
ACDBBLOCKREPETAG
1070
     1
1071
       10
1005
12E3CE
  0
LINE
  5
12E3CF
  8
CENTER
 10
6000.0
 20
-269.99999999999909
 30
0.0
 11
6000.0
 21
-114.9999999999991
 31
0.0
1001
ACDBBLOCKREPETAG
1070
     1
1071
       11
1005
12E3CF
  0
LINE
  5
12E3D0
  8
OBJECT
 10
5954.0380592228739
 20
-245.96194077712471
 30
0.0
 11
5938.0
 21
-261.99999999999909
 31
0.0
1001
ACDBBLOCKREPETAG
1070
     1
1071
       42
1005
12E3D0
  0
LINE
  5
12E3D1
  8
OBJECT
 10
6045.9619407771252
 20
-245.96194077712471
 30
0.0
 11
6062.0
 21
-261.99999999999909
 31
0.0
1001
ACDBBLOCKREPETAG
1070
     1
1071
       43
1005
12E3D1
  0
POINT
  5
12E3D2
  8
DOTS
 10
6000.0
 20
-199.99999999999909
 30
0.0
1001
ACDBBLOCKREPETAG
1070
     1
1071
      158
1005
12E3D2
  0
LINE
  5
12E3D3
  8
OBJECT
 10
5927.0
 20
-633.99999999999955
 30
0.0
 11
5930.0
 21
-633.99999999999955
 31
0.0
1001
ACDBBLOCKREPETAG
1070
     1
1071
        1
1005
12E3D3
  0
ARC
  5
12E3D4
  8
OBJECT
 10
5927.0
 20
-636.99999999999955
 30
0.0
 40
3.0
 50
90.0
 51
180.0
1001
ACDBBLOCKREPETAG
1070
     1
1071
        2
1005
12E3D4
  0
LINE
  5
12E3D5
  8
OBJECT
 10
5930.0
 20
-757.99999999999955
 30
0.0
 11
5927.0
 21
-757.99999999999955
 31
0.0
1001
ACDBBLOCKREPETAG
1070
     1
1071
        3
1005
12E3D5
  0
ARC
  5
12E3D6
  8
OBJECT
 10
5927.0
 20
-754.99999999999955
 30
0.0
 40
3.0
 50
180.0
 51
270.0
1001
ACDBBLOCKREPETAG
1070
     1
1071
        4
1005
12E3D6
  0
LINE
  5
12E3D7
  8
OBJECT
 10
5924.0
 20
-754.99999999999955
 30
0.0
 11
5924.0
 21
-636.99999999999955
 31
0.0
1001
ACDBBLOCKREPETAG
1070
     1
1071
        5
1005
12E3D7
  0
LINE
  5
12E3D8
  8
CENTER
 10
5909.0
 20
-199.99999999999909
 30
0.0
 11
5930.0
 21
-199.99999999999909
 31
0.0
1001
ACDBBLOCKREPETAG
1070
     1
1071
        0
1005
12E3D8
  0
LINE
  5
12E3D9
  8
OBJECT
 10
5927.0
 20
-261.99999999999909
 30
0.0
 11
5930.0
 21
-261.99999999999909
 31
0.0
1001
ACDBBLOCKREPETAG
1070
     1
1071
        1
1005
12E3D9
  0
ARC
  5
12E3DA
  8
OBJECT
 10
5927.0
 20
-258.99999999999909
 30
0.0
 40
3.0
 50
180.0
 51
270.0
1001
ACDBBLOCKREPETAG
1070
     1
1071
        2
1005
12E3DA
  0
LINE
  5
12E3DB
  8
OBJECT
 10
5930.0
 20
-137.99999999999909
 30
0.0
 11
5927.0
 21
-137.99999999999909
 31
0.0
1001
ACDBBLOCKREPETAG
1070
     1
1071
        3
1005
12E3DB
  0
ARC
  5
12E3DC
  8
OBJECT
 10
5927.0
 20
-140.99999999999909
 30
0.0
 40
3.0
 50
90.0
 51
180.0
1001
ACDBBLOCKREPETAG
1070
     1
1071
        4
1005
12E3DC
  0
LINE
  5
12E3DD
  8
OBJECT
 10
5924.0
 20
-140.99999999999909
 30
0.0
 11
5924.0
 21
-258.99999999999909
 31
0.0
1001
ACDBBLOCKREPETAG
1070
     1
1071
        5
1005
12E3DD
  0
LINE
  5
12E3DE
  8
OBJECT
 10
6047.0
 20
-322.99999999999898
 30
0.0
 11
6047.0
 21
-329.99999999999898
 31
0.0
1001
ACDBBLOCKREPETAG
1070
     1
1071
        7
1005
12E3DE
  0
LINE
  5
12E3DF
  8
OBJECT
 10
6047.0
 20
-329.99999999999898
 30
0.0
 11
5953.0
 21
-329.99999999999898
 31
0.0
1001
ACDBBLOCKREPETAG
1070
     1
1071
        8
1005
12E3DF
  0
LINE
  5
12E3E0
  8
OBJECT
 10
5953.0
 20
-329.99999999999898
 30
0.0
 11
5953.0
 21
-322.99999999999898
 31
0.0
1001
ACDBBLOCKREPETAG
1070
     1
1071
        9
1005
12E3E0
  0
LINE
  5
12E3E1
  8
OBJECT
 10
5953.0
 20
-322.99999999999898
 30
0.0
 11
6047.0
 21
-322.99999999999898
 31
0.0
1001
ACDBBLOCKREPETAG
1070
     1
1071
       10
1005
12E3E1
  0
LINE
  5
12E3E2
  8
CENTER
 10
6000.0
 20
-344.99999999999909
 30
0.0
 11
6000.0
 21
-269.99999999999909
 31
0.0
1001
ACDBBLOCKREPETAG
1070
     1
1071
       11
1005
12E3E2
  0
LINE
  5
12E3E3
  8
OBJECT
 10
6044.0
 20
-322.99999999999898
 30
0.0
 11
6044.0
 21
-286.99999999999898
 31
0.0
1001
ACDBBLOCKREPETAG
1070
     1
1071
       12
1005
12E3E3
  0
LINE
  5
12E3E4
  8
OBJECT
 10
6044.0
 20
-286.99999999999898
 30
0.0
 11
5956.0
 21
-286.99999999999898
 31
0.0
1001
ACDBBLOCKREPETAG
1070
     1
1071
       13
1005
12E3E4
  0
LINE
  5
12E3E5
  8
OBJECT
 10
5956.0
 20
-286.99999999999898
 30
0.0
 11
5956.0
 21
-322.99999999999898
 31
0.0
1001
ACDBBLOCKREPETAG
1070
     1
1071
       14
1005
12E3E5
  0
LINE
  5
12E3E6
  8
OBJECT
 10
6039.5
 20
-282.99999999999898
 30
0.0
 11
6039.5
 21
-275.99999999999909
 31
0.0
1001
ACDBBLOCKREPETAG
1070
     1
1071
       15
1005
12E3E6
  0
LINE
  5
12E3E7
  8
OBJECT
 10
5960.5
 20
-275.99999999999909
 30
0.0
 11
5960.5
 21
-282.99999999999898
 31
0.0
1001
ACDBBLOCKREPETAG
1070
     1
1071
       16
1005
12E3E7
  0
LINE
  5
12E3E8
  8
OBJECT
 10
5960.5
 20
-282.99999999999898
 30
0.0
 11
6039.5
 21
-282.99999999999898
 31
0.0
1001
ACDBBLOCKREPETAG
1070
     1
1071
       17
1005
12E3E8
  0
LINE
  5
12E3E9
  8
OBJECT
 10
6044.0
 20
-286.99999999999898
 30
0.0
 11
6039.5
 21
-282.99999999999898
 31
0.0
1001
ACDBBLOCKREPETAG
1070
     1
1071
       18
1005
12E3E9
  0
LINE
  5
12E3EA
  8
OBJECT
 10
5956.0
 20
-286.99999999999898
 30
0.0
 11
5960.5
 21
-282.99999999999898
 31
0.0
1001
ACDBBLOCKREPETAG
1070
     1
1071
       19
1005
12E3EA
  0
LINE
  5
12E3EB
  8
OBJECT
 10
6062.0
 20
-272.99999999999909
 30
0.0
 11
6062.0
 21
-269.99999999999909
 31
0.0
1001
ACDBBLOCKREPETAG
1070
     1
1071
       20
1005
12E3EB
  0
ARC
  5
12E3EC
  8
OBJECT
 10
6059.0
 20
-272.99999999999909
 30
0.0
 40
3.0
 50
270.0
 51
0.0
1001
ACDBBLOCKREPETAG
1070
     1
1071
       21
1005
12E3EC
  0
LINE
  5
12E3ED
  8
OBJECT
 10
5938.0
 20
-269.99999999999909
 30
0.0
 11
5938.0
 21
-272.99999999999909
 31
0.0
1001
ACDBBLOCKREPETAG
1070
     1
1071
       22
1005
12E3ED
  0
ARC
  5
12E3EE
  8
OBJECT
 10
5941.0
 20
-272.99999999999909
 30
0.0
 40
3.0
 50
180.0
 51
270.0
1001
ACDBBLOCKREPETAG
1070
     1
1071
       23
1005
12E3EE
  0
LINE
  5
12E3EF
  8
OBJECT
 10
5941.0
 20
-275.99999999999909
 30
0.0
 11
6059.0
 21
-275.99999999999909
 31
0.0
1001
ACDBBLOCKREPETAG
1070
     1
1071
       24
1005
12E3EF
  0
LINE
  5
12E3F0
  8
HIDDEN
 10
6030.0
 20
-277.99999999999909
 30
0.0
 11
5970.0
 21
-277.99999999999909
 31
0.0
1001
ACDBBLOCKREPETAG
1070
     1
1071
       25
1005
12E3F0
  0
LINE
  5
12E3F1
  8
OBJECT
 10
6192.9999999999873
 20
-583.00000000000045
 30
0.0
 11
6199.9999999999864
 21
-583.00000000000045
 31
0.0
1001
ACDBBLOCKREPETAG
1070
     1
1071
      324
1005
12E3F1
  0
LINE
  5
12E3F2
  8
OBJECT
 10
6199.9999999999864
 20
-583.00000000000045
 30
0.0
 11
6199.9999999999864
 21
-707.00000000000045
 31
0.0
1001
ACDBBLOCKREPETAG
1070
     1
1071
      325
1005
12E3F2
  0
LINE
  5
12E3F3
  8
OBJECT
 10
6075.9999999999864
 20
-653.35026377572683
 30
0.0
 11
6075.9999999999864
 21
-755.00000000000034
 31
0.0
1001
ACDBBLOCKREPETAG
1070
     1
1071
      326
1005
12E3F3
  0
LINE
  5
12E3F4
  8
OBJECT
 10
6199.9999999999864
 20
-707.00000000000045
 30
0.0
 11
6192.9999999999873
 21
-707.00000000000045
 31
0.0
1001
ACDBBLOCKREPETAG
1070
     1
1071
      327
1005
12E3F4
  0
LINE
  5
12E3F5
  8
OBJECT
 10
6192.9999999999873
 20
-707.00000000000045
 30
0.0
 11
6192.9999999999873
 21
-583.00000000000045
 31
0.0
1001
ACDBBLOCKREPETAG
1070
     1
1071
      328
1005
12E3F5
  0
LINE
  5
12E3F6
  8
CENTER
 10
6124.9999999999864
 20
-645.00000000000045
 30
0.0
 11
6214.9999999999864
 21
-645.00000000000045
 31
0.0
1001
ACDBBLOCKREPETAG
1070
     1
1071
      329
1005
12E3F6
  0
LINE
  5
12E3F7
  8
OBJECT
 10
6069.9999999999818
 20
-757.99999999999955
 30
0.0
 11
6072.9999999999864
 21
-758.00000000000034
 31
0.0
1001
ACDBBLOCKREPETAG
1070
     1
1071
      330
1005
12E3F7
  0
ARC
  5
12E3F8
  8
OBJECT
 10
6072.9999999999864
 20
-755.00000000000034
 30
0.0
 40
3.0
 50
270.0
 51
0.0
1001
ACDBBLOCKREPETAG
1070
     1
1071
      331
1005
12E3F8
  0
LINE
  5
12E3F9
  8
OBJECT
 10
6192.9999999999873
 20
-586.00000000000045
 30
0.0
 11
6156.9999999999864
 21
-586.00000000000045
 31
0.0
1001
ACDBBLOCKREPETAG
1070
     1
1071
      332
1005
12E3F9
  0
LINE
  5
12E3FA
  8
OBJECT
 10
6156.9999999999864
 20
-586.00000000000045
 30
0.0
 11
6156.9999999999864
 21
-704.00000000000045
 31
0.0
1001
ACDBBLOCKREPETAG
1070
     1
1071
      333
1005
12E3FA
  0
LINE
  5
12E3FB
  8
OBJECT
 10
6152.9999999999873
 20
-590.50000000000045
 30
0.0
 11
6152.9999999999873
 21
-699.50000000000045
 31
0.0
1001
ACDBBLOCKREPETAG
1070
     1
1071
      334
1005
12E3FB
  0
LINE
  5
12E3FC
  8
OBJECT
 10
6152.9999999999873
 20
-590.50000000000045
 30
0.0
 11
6139.9999999999864
 21
-590.50000000000045
 31
0.0
1001
ACDBBLOCKREPETAG
1070
     1
1071
      335
1005
12E3FC
  0
LINE
  5
12E3FD
  8
OBJECT
 10
6156.9999999999864
 20
-704.00000000000045
 30
0.0
 11
6192.9999999999873
 21
-704.00000000000045
 31
0.0
1001
ACDBBLOCKREPETAG
1070
     1
1071
      336
1005
12E3FD
  0
LINE
  5
12E3FE
  8
OBJECT
 10
6156.9999999999864
 20
-586.00000000000045
 30
0.0
 11
6152.9999999999873
 21
-590.50000000000045
 31
0.0
1001
ACDBBLOCKREPETAG
1070
     1
1071
      337
1005
12E3FE
  0
LINE
  5
12E3FF
  8
OBJECT
 10
6139.9999999999864
 20
-590.50000000000045
 30
0.0
 11
6139.9999999999864
 21
-675.7449182792875
 31
0.0
1001
ACDBBLOCKREPETAG
1070
     1
1071
      338
1005
12E3FF
  0
ARC
  5
12E400
  8
OBJECT
 10
6142.7999999999856
 20
-685.00000000000045
 30
0.0
 40
85.0
 50
91.887731891831123
 51
143.130102354109
1001
ACDBBLOCKREPETAG
1070
     1
1071
      339
1005
12E400
  0
LINE
  5
12E401
  8
HIDDEN
 10
6147.9999999999864
 20
-600.50000000000057
 30
0.0
 11
6147.9999999999864
 21
-689.50000000000045
 31
0.0
1001
ACDBBLOCKREPETAG
1070
     1
1071
      341
1005
12E401
  0
LINE
  5
12E402
  8
OBJECT
 10
6075.9999999999864
 20
-751.07945073181725
 30
0.0
 11
6146.6313199210317
 21
-699.50000000000045
 31
0.0
1001
ACDBBLOCKREPETAG
1070
     1
1071
      342
1005
12E402
  0
LINE
  5
12E403
  8
OBJECT
 10
6069.9999999999818
 20
-633.99999999999955
 30
0.0
 11
6074.7999999999847
 21
-633.99999999999955
 31
0.0
1001
ACDBBLOCKREPETAG
1070
     1
1071
      343
1005
12E403
  0
LINE
  5
12E404
  8
OBJECT
 10
6075.9999999999864
 20
-653.35026377572945
 30
0.0
 11
6074.7999999999847
 21
-633.99999999999955
 31
0.0
1001
ACDBBLOCKREPETAG
1070
     1
1071
      344
1005
12E404
  0
LINE
  5
12E405
  8
OBJECT
 10
6152.9999999999873
 20
-699.50000000000045
 30
0.0
 11
6146.6313199210317
 21
-699.50000000000045
 31
0.0
1001
ACDBBLOCKREPETAG
1070
     1
1071
      345
1005
12E405
  0
LINE
  5
12E406
  8
OBJECT
 10
6156.9999999999864
 20
-704.00000000000045
 30
0.0
 11
6152.9999999999873
 21
-699.50000000000045
 31
0.0
1001
ACDBBLOCKREPETAG
1070
     1
1071
      346
1005
12E406
  0
LINE
  5
12E407
  8
OBJECT
 10
6192.9999999999873
 20
-137.99999999999909
 30
0.0
 11
6199.9999999999864
 21
-137.99999999999909
 31
0.0
1001
ACDBBLOCKREPETAG
1070
     1
1071
      376
1005
12E407
  0
LINE
  5
12E408
  8
OBJECT
 10
6199.9999999999864
 20
-137.99999999999909
 30
0.0
 11
6199.9999999999864
 21
-261.99999999999909
 31
0.0
1001
ACDBBLOCKREPETAG
1070
     1
1071
      377
1005
12E408
  0
LINE
  5
12E409
  8
OBJECT
 10
6199.9999999999864
 20
-261.99999999999909
 30
0.0
 11
6192.9999999999873
 21
-261.99999999999909
 31
0.0
1001
ACDBBLOCKREPETAG
1070
     1
1071
      378
1005
12E409
  0
LINE
  5
12E40A
  8
OBJECT
 10
6192.9999999999873
 20
-261.99999999999909
 30
0.0
 11
6192.9999999999873
 21
-137.99999999999909
 31
0.0
1001
ACDBBLOCKREPETAG
1070
     1
1071
      379
1005
12E40A
  0
LINE
  5
12E40B
  8
CENTER
 10
6214.9999999999864
 20
-199.99999999999909
 30
0.0
 11
6070.0
 21
-199.99999999999909
 31
0.0
1001
ACDBBLOCKREPETAG
1070
     1
1071
      380
1005
12E40B
  0
LINE
  5
12E40C
  8
OBJECT
 10
6139.9999749641856
 20
-245.0000000000027
 30
0.0
 11
6076.0
 21
-244.99999999999909
 31
0.0
1001
ACDBBLOCKREPETAG
1070
     1
1071
      381
1005
12E40C
  0
LINE
  5
12E40D
  8
OBJECT
 10
6139.9999749641856
 20
-154.99999999999909
 30
0.0
 11
6076.0
 21
-154.99999999999909
 31
0.0
1001
ACDBBLOCKREPETAG
1070
     1
1071
      382
1005
12E40D
  0
LINE
  5
12E40E
  8
OBJECT
 10
6192.9999999999873
 20
-140.99999999999909
 30
0.0
 11
6156.9999999999864
 21
-140.99999999999909
 31
0.0
1001
ACDBBLOCKREPETAG
1070
     1
1071
      383
1005
12E40E
  0
LINE
  5
12E40F
  8
OBJECT
 10
6156.9999999999864
 20
-140.99999999999909
 30
0.0
 11
6156.9999999999864
 21
-258.99999999999909
 31
0.0
1001
ACDBBLOCKREPETAG
1070
     1
1071
      384
1005
12E40F
  0
LINE
  5
12E410
  8
OBJECT
 10
6156.9999999999864
 20
-258.99999999999909
 30
0.0
 11
6192.9999999999873
 21
-258.99999999999909
 31
0.0
1001
ACDBBLOCKREPETAG
1070
     1
1071
      385
1005
12E410
  0
LINE
  5
12E411
  8
OBJECT
 10
6152.9999999999873
 20
-145.49999999999909
 30
0.0
 11
6139.9999999999864
 21
-145.49999999999909
 31
0.0
1001
ACDBBLOCKREPETAG
1070
     1
1071
      386
1005
12E411
  0
LINE
  5
12E412
  8
OBJECT
 10
6139.9999999999864
 20
-254.49999999999909
 30
0.0
 11
6152.9999999999873
 21
-254.49999999999909
 31
0.0
1001
ACDBBLOCKREPETAG
1070
     1
1071
      387
1005
12E412
  0
LINE
  5
12E413
  8
OBJECT
 10
6152.9999999999873
 20
-254.49999999999909
 30
0.0
 11
6152.9999999999873
 21
-145.49999999999909
 31
0.0
1001
ACDBBLOCKREPETAG
1070
     1
1071
      388
1005
12E413
  0
LINE
  5
12E414
  8
OBJECT
 10
6156.9999999999864
 20
-140.99999999999909
 30
0.0
 11
6152.9999999999873
 21
-145.49999999999909
 31
0.0
1001
ACDBBLOCKREPETAG
1070
     1
1071
      389
1005
12E414
  0
LINE
  5
12E415
  8
OBJECT
 10
6156.9999999999864
 20
-258.99999999999909
 30
0.0
 11
6152.9999999999873
 21
-254.49999999999909
 31
0.0
1001
ACDBBLOCKREPETAG
1070
     1
1071
      390
1005
12E415
  0
LINE
  5
12E416
  8
OBJECT
 10
6073.0
 20
-137.99999999999909
 30
0.0
 11
6070.0
 21
-137.99999999999909
 31
0.0
1001
ACDBBLOCKREPETAG
1070
     1
1071
      391
1005
12E416
  0
ARC
  5
12E417
  8
OBJECT
 10
6073.0
 20
-140.99999999999909
 30
0.0
 40
3.0
 50
0.0
 51
90.0
1001
ACDBBLOCKREPETAG
1070
     1
1071
      392
1005
12E417
  0
LINE
  5
12E418
  8
OBJECT
 10
6070.0
 20
-261.99999999999909
 30
0.0
 11
6073.0
 21
-261.99999999999909
 31
0.0
1001
ACDBBLOCKREPETAG
1070
     1
1071
      393
1005
12E418
  0
ARC
  5
12E419
  8
OBJECT
 10
6073.0
 20
-258.99999999999909
 30
0.0
 40
3.0
 50
270.0
 51
0.0
1001
ACDBBLOCKREPETAG
1070
     1
1071
      394
1005
12E419
  0
LINE
  5
12E41A
  8
OBJECT
 10
6076.0
 20
-258.99999999999909
 30
0.0
 11
6076.0
 21
-210.3227903203578
 31
0.0
1001
ACDBBLOCKREPETAG
1070
     1
1071
      395
1005
12E41A
  0
LINE
  5
12E41B
  8
OBJECT
 10
6076.0
 20
-189.6772096796403
 30
0.0
 11
6076.0
 21
-140.99999999999909
 31
0.0
1001
ACDBBLOCKREPETAG
1070
     1
1071
      396
1005
12E41B
  0
LINE
  5
12E41C
  8
HIDDEN
 10
6147.9999999999864
 20
-155.49999999999909
 30
0.0
 11
6147.9999999999864
 21
-244.49999999999909
 31
0.0
1001
ACDBBLOCKREPETAG
1070
     1
1071
      397
1005
12E41C
  0
LINE
  5
12E41D
  8
OBJECT
 10
6139.9999749641856
 20
-254.4999509238105
 30
0.0
 11
6139.9999749641856
 21
-145.4999509238105
 31
0.0
1001
ACDBBLOCKREPETAG
1070
     1
1071
      399
1005
12E41D
  0
ARC
  5
12E41E
  8
OBJECT
 10
6119.8000000000247
 20
-199.99999999999909
 30
0.0
 40
45.000000000000547
 50
90.0
 51
270.0
1001
ACDBBLOCKREPETAG
1070
     1
1071
      400
1005
12E41E
  0
CIRCLE
  5
12E41F
  8
OBJECT
 10
4000.0
 20
-695.99999999999955
 30
0.0
 40
62.0
1001
ACDBBLOCKREPETAG
1070
     1
1071
        3
1005
12E41F
  0
LINE
  5
12E420
  8
CENTER
 10
3938.0
 20
-710.99999999999955
 30
0.0
 11
4062.0
 21
-710.99999999999955
 31
0.0
1001
ACDBBLOCKREPETAG
1070
     1
1071
        4
1005
12E420
  0
CIRCLE
  5
12E421
  8
OBJECT
 10
4000.0
 20
-710.99999999999955
 30
0.0
 40
28.0
1001
ACDBBLOCKREPETAG
1070
     1
1071
        6
1005
12E421
  0
CIRCLE
  5
12E422
  8
OBJECT
 10
4000.0
 20
-710.99999999999955
 30
0.0
 40
39.0
1001
ACDBBLOCKREPETAG
1070
     1
1071
        7
1005
12E422
  0
ARC
  5
12E423
  8
OBJECT
 10
4000.0
 20
-710.99999999999955
 30
0.0
 40
47.0
 50
290.58196921144179
 51
249.41803078855821
1001
ACDBBLOCKREPETAG
1070
     1
1071
        8
1005
12E423
  0
LINE
  5
12E424
  8
OBJECT
 10
3983.4772883581431
 20
-754.99999999999955
 30
0.0
 11
4016.5227116418569
 21
-754.99999999999955
 31
0.0
1001
ACDBBLOCKREPETAG
1070
     1
1071
        9
1005
12E424
  0
LINE
  5
12E425
  8
CENTER
 10
4000.0
 20
-769.99999999999955
 30
0.0
 11
4000.0
 21
-613.99999999999966
 31
0.0
1001
ACDBBLOCKREPETAG
1070
     1
1071
        0
1005
12E425
  0
LINE
  5
12E426
  8
OBJECT
 10
3930.0
 20
-633.99999999999955
 30
0.0
 11
4070.0
 21
-633.99999999999955
 31
0.0
1001
ACDBBLOCKREPETAG
1070
     1
1071
        1
1005
12E426
  0
LINE
  5
12E427
  8
OBJECT
 10
3930.0
 20
-757.99999999999955
 30
0.0
 11
3930.0
 21
-769.99999999999955
 31
0.0
1001
ACDBBLOCKREPETAG
1070
     1
1071
        2
1005
12E427
  0
LINE
  5
12E428
  8
OBJECT
 10
3930.0
 20
-769.99999999999955
 30
0.0
 11
4070.0
 21
-769.99999999999955
 31
0.0
1001
ACDBBLOCKREPETAG
1070
     1
1071
        3
1005
12E428
  0
LINE
  5
12E429
  8
OBJECT
 10
4070.0
 20
-769.99999999999955
 30
0.0
 11
4070.0
 21
-757.99999999999955
 31
0.0
1001
ACDBBLOCKREPETAG
1070
     1
1071
        4
1005
12E429
  0
LINE
  5
12E42A
  8
OBJECT
 10
4070.0
 20
-757.99999999999955
 30
0.0
 11
3930.0
 21
-757.99999999999955
 31
0.0
1001
ACDBBLOCKREPETAG
1070
     1
1071
        5
1005
12E42A
  0
ARC
  5
12E42B
  8
OBJECT
 10
4435.0384389946767
 20
-998.60813684682694
 30
0.0
 40
519.48776673616965
 50
135.42350667430969
 51
138.50052655621499
1001
ACDBBLOCKREPETAG
1070
     1
1071
        9
1005
12E42B
  0
ARC
  5
12E42C
  8
OBJECT
 10
4435.0384389946767
 20
-393.39186315317193
 30
0.0
 40
519.48776673616965
 50
221.49947344378501
 51
224.57649332569039
1001
ACDBBLOCKREPETAG
1070
     1
1071
       10
1005
12E42C
  0
ARC
  5
12E42D
  8
OBJECT
 10
3564.961561005322
 20
-998.60813684682694
 30
0.0
 40
519.48776673616965
 50
41.499473443784993
 51
44.576493325690237
1001
ACDBBLOCKREPETAG
1070
     1
1071
       11
1005
12E42D
  0
ARC
  5
12E42E
  8
OBJECT
 10
3564.961561005322
 20
-393.39186315317193
 30
0.0
 40
519.48776673616965
 50
315.42350667430981
 51
318.50052655621488
1001
ACDBBLOCKREPETAG
1070
     1
1071
       12
1005
12E42E
  0
LINE
  5
12E42F
  8
OBJECT
 10
4047.5
 20
-628.99999999999955
 30
0.0
 11
3952.5
 21
-628.99999999999955
 31
0.0
1001
ACDBBLOCKREPETAG
1070
     1
1071
       24
1005
12E42F
  0
ARC
  5
12E430
  8
OBJECT
 10
3952.5
 20
-631.99999999999955
 30
0.0
 40
3.0
 50
90.0
 51
180.0
1001
ACDBBLOCKREPETAG
1070
     1
1071
       25
1005
12E430
  0
LINE
  5
12E431
  8
OBJECT
 10
3949.5
 20
-631.99999999999955
 30
0.0
 11
3949.5
 21
-633.99999999999955
 31
0.0
1001
ACDBBLOCKREPETAG
1070
     1
1071
       26
1005
12E431
  0
LINE
  5
12E432
  8
OBJECT
 10
4050.5
 20
-631.99999999999955
 30
0.0
 11
4050.5
 21
-633.99999999999955
 31
0.0
1001
ACDBBLOCKREPETAG
1070
     1
1071
       27
1005
12E432
  0
ARC
  5
12E433
  8
OBJECT
 10
4047.5
 20
-631.99999999999955
 30
0.0
 40
3.0
 50
0.0
 51
90.0
1001
ACDBBLOCKREPETAG
1070
     1
1071
       28
1005
12E433
  0
POINT
  5
12E434
  8
DOTS
 10
4000.0
 20
-754.99999999999955
 30
0.0
1001
ACDBBLOCKREPETAG
1070
     1
1071
       87
1005
12E434
  0
ARC
  5
12E435
  8
OBJECT
 10
4000.0
 20
-199.99999999999909
 30
0.0
 40
70.0
 50
62.339550100758693
 51
117.6604498992413
1001
ACDBBLOCKREPETAG
1070
     1
1071
        0
1005
12E435
  0
CIRCLE
  5
12E436
  8
OBJECT
 10
4000.0
 20
-199.99999999999909
 30
0.0
 40
65.0
1001
ACDBBLOCKREPETAG
1070
     1
1071
        1
1005
12E436
  0
CIRCLE
  5
12E437
  8
OBJECT
 10
4000.0
 20
-199.99999999999909
 30
0.0
 40
50.5
1001
ACDBBLOCKREPETAG
1070
     1
1071
        3
1005
12E437
  0
LINE
  5
12E438
  8
OBJECT
 10
4070.0
 20
-137.99999999999909
 30
0.0
 11
4019.5192212959432
 21
-137.99999999999909
 31
0.0
1001
ACDBBLOCKREPETAG
1070
     1
1071
        4
1005
12E438
  0
LINE
  5
12E439
  8
OBJECT
 10
3930.0
 20
-137.99999999999909
 30
0.0
 11
3980.4807787040581
 21
-137.99999999999909
 31
0.0
1001
ACDBBLOCKREPETAG
1070
     1
1071
        5
1005
12E439
  0
LINE
  5
12E43A
  8
OBJECT
 10
3930.0
 20
-261.99999999999909
 30
0.0
 11
3938.0
 21
-261.99999999999909
 31
0.0
1001
ACDBBLOCKREPETAG
1070
     1
1071
        6
1005
12E43A
  0
LINE
  5
12E43B
  8
OBJECT
 10
3938.0
 20
-269.99999999999909
 30
0.0
 11
3938.0
 21
-261.99999999999909
 31
0.0
1001
ACDBBLOCKREPETAG
1070
     1
1071
        7
1005
12E43B
  0
LINE
  5
12E43C
  8
OBJECT
 10
4070.0
 20
-261.99999999999909
 30
0.0
 11
4062.0
 21
-261.99999999999909
 31
0.0
1001
ACDBBLOCKREPETAG
1070
     1
1071
        8
1005
12E43C
  0
LINE
  5
12E43D
  8
OBJECT
 10
4062.0
 20
-269.99999999999909
 30
0.0
 11
4062.0
 21
-261.99999999999909
 31
0.0
1001
ACDBBLOCKREPETAG
1070
     1
1071
        9
1005
12E43D
  0
LINE
  5
12E43E
  8
CENTER
 10
3930.0
 20
-199.99999999999909
 30
0.0
 11
4070.0
 21
-199.99999999999909
 31
0.0
1001
ACDBBLOCKREPETAG
1070
     1
1071
       10
1005
12E43E
  0
LINE
  5
12E43F
  8
CENTER
 10
4000.0
 20
-269.99999999999909
 30
0.0
 11
4000.0
 21
-114.9999999999991
 31
0.0
1001
ACDBBLOCKREPETAG
1070
     1
1071
       11
1005
12E43F
  0
LINE
  5
12E440
  8
OBJECT
 10
3954.0380592228739
 20
-245.96194077712471
 30
0.0
 11
3938.0
 21
-261.99999999999909
 31
0.0
1001
ACDBBLOCKREPETAG
1070
     1
1071
       42
1005
12E440
  0
LINE
  5
12E441
  8
OBJECT
 10
4045.9619407771238
 20
-245.96194077712471
 30
0.0
 11
4062.0
 21
-261.99999999999909
 31
0.0
1001
ACDBBLOCKREPETAG
1070
     1
1071
       43
1005
12E441
  0
POINT
  5
12E442
  8
DOTS
 10
4000.0
 20
-199.99999999999909
 30
0.0
1001
ACDBBLOCKREPETAG
1070
     1
1071
      158
1005
12E442
  0
LINE
  5
12E443
  8
OBJECT
 10
3927.0
 20
-633.99999999999955
 30
0.0
 11
3930.0
 21
-633.99999999999955
 31
0.0
1001
ACDBBLOCKREPETAG
1070
     1
1071
        1
1005
12E443
  0
ARC
  5
12E444
  8
OBJECT
 10
3927.0
 20
-636.99999999999955
 30
0.0
 40
3.0
 50
90.0
 51
180.0
1001
ACDBBLOCKREPETAG
1070
     1
1071
        2
1005
12E444
  0
LINE
  5
12E445
  8
OBJECT
 10
3930.0
 20
-757.99999999999955
 30
0.0
 11
3927.0
 21
-757.99999999999955
 31
0.0
1001
ACDBBLOCKREPETAG
1070
     1
1071
        3
1005
12E445
  0
ARC
  5
12E446
  8
OBJECT
 10
3927.0
 20
-754.99999999999955
 30
0.0
 40
3.0
 50
180.0
 51
270.0
1001
ACDBBLOCKREPETAG
1070
     1
1071
        4
1005
12E446
  0
LINE
  5
12E447
  8
OBJECT
 10
3924.0
 20
-754.99999999999955
 30
0.0
 11
3924.0
 21
-636.99999999999955
 31
0.0
1001
ACDBBLOCKREPETAG
1070
     1
1071
        5
1005
12E447
  0
LINE
  5
12E448
  8
CENTER
 10
3909.0
 20
-199.99999999999909
 30
0.0
 11
3930.0
 21
-199.99999999999909
 31
0.0
1001
ACDBBLOCKREPETAG
1070
     1
1071
        0
1005
12E448
  0
LINE
  5
12E449
  8
OBJECT
 10
3927.0
 20
-261.99999999999909
 30
0.0
 11
3930.0
 21
-261.99999999999909
 31
0.0
1001
ACDBBLOCKREPETAG
1070
     1
1071
        1
1005
12E449
  0
ARC
  5
12E44A
  8
OBJECT
 10
3927.0
 20
-258.99999999999909
 30
0.0
 40
3.0
 50
180.0
 51
270.0
1001
ACDBBLOCKREPETAG
1070
     1
1071
        2
1005
12E44A
  0
LINE
  5
12E44B
  8
OBJECT
 10
3930.0
 20
-137.99999999999909
 30
0.0
 11
3927.0
 21
-137.99999999999909
 31
0.0
1001
ACDBBLOCKREPETAG
1070
     1
1071
        3
1005
12E44B
  0
ARC
  5
12E44C
  8
OBJECT
 10
3927.0
 20
-140.99999999999909
 30
0.0
 40
3.0
 50
90.0
 51
180.0
1001
ACDBBLOCKREPETAG
1070
     1
1071
        4
1005
12E44C
  0
LINE
  5
12E44D
  8
OBJECT
 10
3924.0
 20
-140.99999999999909
 30
0.0
 11
3924.0
 21
-258.99999999999909
 31
0.0
1001
ACDBBLOCKREPETAG
1070
     1
1071
        5
1005
12E44D
  0
LINE
  5
12E44E
  8
OBJECT
 10
4047.0
 20
-322.99999999999898
 30
0.0
 11
4047.0
 21
-329.99999999999898
 31
0.0
1001
ACDBBLOCKREPETAG
1070
     1
1071
        7
1005
12E44E
  0
LINE
  5
12E44F
  8
OBJECT
 10
4047.0
 20
-329.99999999999898
 30
0.0
 11
3953.0
 21
-329.99999999999898
 31
0.0
1001
ACDBBLOCKREPETAG
1070
     1
1071
        8
1005
12E44F
  0
LINE
  5
12E450
  8
OBJECT
 10
3953.0
 20
-329.99999999999898
 30
0.0
 11
3953.0
 21
-322.99999999999898
 31
0.0
1001
ACDBBLOCKREPETAG
1070
     1
1071
        9
1005
12E450
  0
LINE
  5
12E451
  8
OBJECT
 10
3953.0
 20
-322.99999999999898
 30
0.0
 11
4047.0
 21
-322.99999999999898
 31
0.0
1001
ACDBBLOCKREPETAG
1070
     1
1071
       10
1005
12E451
  0
LINE
  5
12E452
  8
CENTER
 10
4000.0
 20
-344.99999999999909
 30
0.0
 11
4000.0
 21
-269.99999999999909
 31
0.0
1001
ACDBBLOCKREPETAG
1070
     1
1071
       11
1005
12E452
  0
LINE
  5
12E453
  8
OBJECT
 10
4044.0
 20
-322.99999999999898
 30
0.0
 11
4044.0
 21
-286.99999999999898
 31
0.0
1001
ACDBBLOCKREPETAG
1070
     1
1071
       12
1005
12E453
  0
LINE
  5
12E454
  8
OBJECT
 10
4044.0
 20
-286.99999999999898
 30
0.0
 11
3956.0
 21
-286.99999999999898
 31
0.0
1001
ACDBBLOCKREPETAG
1070
     1
1071
       13
1005
12E454
  0
LINE
  5
12E455
  8
OBJECT
 10
3956.0
 20
-286.99999999999898
 30
0.0
 11
3956.0
 21
-322.99999999999898
 31
0.0
1001
ACDBBLOCKREPETAG
1070
     1
1071
       14
1005
12E455
  0
LINE
  5
12E456
  8
OBJECT
 10
4039.5
 20
-282.99999999999898
 30
0.0
 11
4039.5
 21
-275.99999999999909
 31
0.0
1001
ACDBBLOCKREPETAG
1070
     1
1071
       15
1005
12E456
  0
LINE
  5
12E457
  8
OBJECT
 10
3960.5000000000009
 20
-275.99999999999909
 30
0.0
 11
3960.5000000000009
 21
-282.99999999999898
 31
0.0
1001
ACDBBLOCKREPETAG
1070
     1
1071
       16
1005
12E457
  0
LINE
  5
12E458
  8
OBJECT
 10
3960.5000000000009
 20
-282.99999999999898
 30
0.0
 11
4039.5
 21
-282.99999999999898
 31
0.0
1001
ACDBBLOCKREPETAG
1070
     1
1071
       17
1005
12E458
  0
LINE
  5
12E459
  8
OBJECT
 10
4044.0
 20
-286.99999999999898
 30
0.0
 11
4039.5
 21
-282.99999999999898
 31
0.0
1001
ACDBBLOCKREPETAG
1070
     1
1071
       18
1005
12E459
  0
LINE
  5
12E45A
  8
OBJECT
 10
3956.0
 20
-286.99999999999898
 30
0.0
 11
3960.5000000000009
 21
-282.99999999999898
 31
0.0
1001
ACDBBLOCKREPETAG
1070
     1
1071
       19
1005
12E45A
  0
LINE
  5
12E45B
  8
OBJECT
 10
4062.0
 20
-272.99999999999909
 30
0.0
 11
4062.0
 21
-269.99999999999909
 31
0.0
1001
ACDBBLOCKREPETAG
1070
     1
1071
       20
1005
12E45B
  0
ARC
  5
12E45C
  8
OBJECT
 10
4059.0
 20
-272.99999999999909
 30
0.0
 40
3.0
 50
270.0
 51
0.0
1001
ACDBBLOCKREPETAG
1070
     1
1071
       21
1005
12E45C
  0
LINE
  5
12E45D
  8
OBJECT
 10
3938.0
 20
-269.99999999999909
 30
0.0
 11
3938.0
 21
-272.99999999999909
 31
0.0
1001
ACDBBLOCKREPETAG
1070
     1
1071
       22
1005
12E45D
  0
ARC
  5
12E45E
  8
OBJECT
 10
3941.0
 20
-272.99999999999909
 30
0.0
 40
3.0
 50
180.0
 51
270.0
1001
ACDBBLOCKREPETAG
1070
     1
1071
       23
1005
12E45E
  0
LINE
  5
12E45F
  8
OBJECT
 10
3941.0
 20
-275.99999999999909
 30
0.0
 11
4059.0
 21
-275.99999999999909
 31
0.0
1001
ACDBBLOCKREPETAG
1070
     1
1071
       24
1005
12E45F
  0
LINE
  5
12E460
  8
HIDDEN
 10
4030.0
 20
-277.99999999999909
 30
0.0
 11
3970.0
 21
-277.99999999999909
 31
0.0
1001
ACDBBLOCKREPETAG
1070
     1
1071
       25
1005
12E460
  0
LINE
  5
12E461
  8
OBJECT
 10
4192.9999999999864
 20
-583.00000000000045
 30
0.0
 11
4199.9999999999854
 21
-583.00000000000045
 31
0.0
1001
ACDBBLOCKREPETAG
1070
     1
1071
      324
1005
12E461
  0
LINE
  5
12E462
  8
OBJECT
 10
4199.9999999999854
 20
-583.00000000000045
 30
0.0
 11
4199.9999999999854
 21
-707.00000000000045
 31
0.0
1001
ACDBBLOCKREPETAG
1070
     1
1071
      325
1005
12E462
  0
LINE
  5
12E463
  8
OBJECT
 10
4075.999999999985
 20
-653.35026377572683
 30
0.0
 11
4075.999999999985
 21
-755.00000000000034
 31
0.0
1001
ACDBBLOCKREPETAG
1070
     1
1071
      326
1005
12E463
  0
LINE
  5
12E464
  8
OBJECT
 10
4199.9999999999854
 20
-707.00000000000045
 30
0.0
 11
4192.9999999999864
 21
-707.00000000000045
 31
0.0
1001
ACDBBLOCKREPETAG
1070
     1
1071
      327
1005
12E464
  0
LINE
  5
12E465
  8
OBJECT
 10
4192.9999999999864
 20
-707.00000000000045
 30
0.0
 11
4192.9999999999864
 21
-583.00000000000045
 31
0.0
1001
ACDBBLOCKREPETAG
1070
     1
1071
      328
1005
12E465
  0
LINE
  5
12E466
  8
CENTER
 10
4124.9999999999854
 20
-645.00000000000045
 30
0.0
 11
4214.9999999999854
 21
-645.00000000000045
 31
0.0
1001
ACDBBLOCKREPETAG
1070
     1
1071
      329
1005
12E466
  0
LINE
  5
12E467
  8
OBJECT
 10
4069.9999999999809
 20
-757.99999999999955
 30
0.0
 11
4072.999999999985
 21
-758.00000000000034
 31
0.0
1001
ACDBBLOCKREPETAG
1070
     1
1071
      330
1005
12E467
  0
ARC
  5
12E468
  8
OBJECT
 10
4072.999999999985
 20
-755.00000000000034
 30
0.0
 40
3.0
 50
270.0
 51
0.0
1001
ACDBBLOCKREPETAG
1070
     1
1071
      331
1005
12E468
  0
LINE
  5
12E469
  8
OBJECT
 10
4192.9999999999864
 20
-586.00000000000045
 30
0.0
 11
4156.9999999999854
 21
-586.00000000000045
 31
0.0
1001
ACDBBLOCKREPETAG
1070
     1
1071
      332
1005
12E469
  0
LINE
  5
12E46A
  8
OBJECT
 10
4156.9999999999854
 20
-586.00000000000045
 30
0.0
 11
4156.9999999999854
 21
-704.00000000000045
 31
0.0
1001
ACDBBLOCKREPETAG
1070
     1
1071
      333
1005
12E46A
  0
LINE
  5
12E46B
  8
OBJECT
 10
4152.9999999999854
 20
-590.50000000000045
 30
0.0
 11
4152.9999999999854
 21
-699.50000000000045
 31
0.0
1001
ACDBBLOCKREPETAG
1070
     1
1071
      334
1005
12E46B
  0
LINE
  5
12E46C
  8
OBJECT
 10
4152.9999999999854
 20
-590.50000000000045
 30
0.0
 11
4139.9999999999854
 21
-590.50000000000045
 31
0.0
1001
ACDBBLOCKREPETAG
1070
     1
1071
      335
1005
12E46C
  0
LINE
  5
12E46D
  8
OBJECT
 10
4156.9999999999854
 20
-704.00000000000045
 30
0.0
 11
4192.9999999999864
 21
-704.00000000000045
 31
0.0
1001
ACDBBLOCKREPETAG
1070
     1
1071
      336
1005
12E46D
  0
LINE
  5
12E46E
  8
OBJECT
 10
4156.9999999999854
 20
-586.00000000000045
 30
0.0
 11
4152.9999999999854
 21
-590.50000000000045
 31
0.0
1001
ACDBBLOCKREPETAG
1070
     1
1071
      337
1005
12E46E
  0
LINE
  5
12E46F
  8
OBJECT
 10
4139.9999999999854
 20
-590.50000000000045
 30
0.0
 11
4139.9999999999854
 21
-675.7449182792875
 31
0.0
1001
ACDBBLOCKREPETAG
1070
     1
1071
      338
1005
12E46F
  0
ARC
  5
12E470
  8
OBJECT
 10
4142.7999999999847
 20
-685.00000000000045
 30
0.0
 40
85.0
 50
91.887731891831123
 51
143.13010235412469
1001
ACDBBLOCKREPETAG
1070
     1
1071
      339
1005
12E470
  0
LINE
  5
12E471
  8
HIDDEN
 10
4147.9999999999854
 20
-600.50000000000057
 30
0.0
 11
4147.9999999999854
 21
-689.50000000000045
 31
0.0
1001
ACDBBLOCKREPETAG
1070
     1
1071
      341
1005
12E471
  0
LINE
  5
12E472
  8
OBJECT
 10
4075.999999999985
 20
-751.07945073181725
 30
0.0
 11
4146.6313199210308
 21
-699.50000000000045
 31
0.0
1001
ACDBBLOCKREPETAG
1070
     1
1071
      342
1005
12E472
  0
LINE
  5
12E473
  8
OBJECT
 10
4069.9999999999809
 20
-633.99999999999955
 30
0.0
 11
4074.7999999999838
 21
-633.99999999999955
 31
0.0
1001
ACDBBLOCKREPETAG
1070
     1
1071
      343
1005
12E473
  0
LINE
  5
12E474
  8
OBJECT
 10
4075.999999999985
 20
-653.35026377572945
 30
0.0
 11
4074.7999999999838
 21
-633.99999999999955
 31
0.0
1001
ACDBBLOCKREPETAG
1070
     1
1071
      344
1005
12E474
  0
LINE
  5
12E475
  8
OBJECT
 10
4152.9999999999854
 20
-699.50000000000045
 30
0.0
 11
4146.6313199210308
 21
-699.50000000000045
 31
0.0
1001
ACDBBLOCKREPETAG
1070
     1
1071
      345
1005
12E475
  0
LINE
  5
12E476
  8
OBJECT
 10
4156.9999999999854
 20
-704.00000000000045
 30
0.0
 11
4152.9999999999854
 21
-699.50000000000045
 31
0.0
1001
ACDBBLOCKREPETAG
1070
     1
1071
      346
1005
12E476
  0
LINE
  5
12E477
  8
OBJECT
 10
4192.9999999999864
 20
-137.99999999999909
 30
0.0
 11
4199.9999999999854
 21
-137.99999999999909
 31
0.0
1001
ACDBBLOCKREPETAG
1070
     1
1071
      376
1005
12E477
  0
LINE
  5
12E478
  8
OBJECT
 10
4199.9999999999854
 20
-137.99999999999909
 30
0.0
 11
4199.9999999999854
 21
-261.99999999999909
 31
0.0
1001
ACDBBLOCKREPETAG
1070
     1
1071
      377
1005
12E478
  0
LINE
  5
12E479
  8
OBJECT
 10
4199.9999999999854
 20
-261.99999999999909
 30
0.0
 11
4192.9999999999864
 21
-261.99999999999909
 31
0.0
1001
ACDBBLOCKREPETAG
1070
     1
1071
      378
1005
12E479
  0
LINE
  5
12E47A
  8
OBJECT
 10
4192.9999999999864
 20
-261.99999999999909
 30
0.0
 11
4192.9999999999864
 21
-137.99999999999909
 31
0.0
1001
ACDBBLOCKREPETAG
1070
     1
1071
      379
1005
12E47A
  0
LINE
  5
12E47B
  8
CENTER
 10
4214.9999999999854
 20
-199.99999999999909
 30
0.0
 11
4070.0
 21
-199.99999999999909
 31
0.0
1001
ACDBBLOCKREPETAG
1070
     1
1071
      380
1005
12E47B
  0
LINE
  5
12E47C
  8
OBJECT
 10
4139.9999749641856
 20
-245.0000000000027
 30
0.0
 11
4076.0
 21
-244.99999999999909
 31
0.0
1001
ACDBBLOCKREPETAG
1070
     1
1071
      381
1005
12E47C
  0
LINE
  5
12E47D
  8
OBJECT
 10
4139.9999749641856
 20
-154.99999999999909
 30
0.0
 11
4076.0
 21
-154.99999999999909
 31
0.0
1001
ACDBBLOCKREPETAG
1070
     1
1071
      382
1005
12E47D
  0
LINE
  5
12E47E
  8
OBJECT
 10
4192.9999999999864
 20
-140.99999999999909
 30
0.0
 11
4156.9999999999854
 21
-140.99999999999909
 31
0.0
1001
ACDBBLOCKREPETAG
1070
     1
1071
      383
1005
12E47E
  0
LINE
  5
12E47F
  8
OBJECT
 10
4156.9999999999854
 20
-140.99999999999909
 30
0.0
 11
4156.9999999999854
 21
-258.99999999999909
 31
0.0
1001
ACDBBLOCKREPETAG
1070
     1
1071
      384
1005
12E47F
  0
LINE
  5
12E480
  8
OBJECT
 10
4156.9999999999854
 20
-258.99999999999909
 30
0.0
 11
4192.9999999999864
 21
-258.99999999999909
 31
0.0
1001
ACDBBLOCKREPETAG
1070
     1
1071
      385
1005
12E480
  0
LINE
  5
12E481
  8
OBJECT
 10
4152.9999999999854
 20
-145.49999999999909
 30
0.0
 11
4139.9999999999854
 21
-145.49999999999909
 31
0.0
1001
ACDBBLOCKREPETAG
1070
     1
1071
      386
1005
12E481
  0
LINE
  5
12E482
  8
OBJECT
 10
4139.9999999999854
 20
-254.49999999999909
 30
0.0
 11
4152.9999999999854
 21
-254.49999999999909
 31
0.0
1001
ACDBBLOCKREPETAG
1070
     1
1071
      387
1005
12E482
  0
LINE
  5
12E483
  8
OBJECT
 10
4152.9999999999854
 20
-254.49999999999909
 30
0.0
 11
4152.9999999999854
 21
-145.49999999999909
 31
0.0
1001
ACDBBLOCKREPETAG
1070
     1
1071
      388
1005
12E483
  0
LINE
  5
12E484
  8
OBJECT
 10
4156.9999999999854
 20
-140.99999999999909
 30
0.0
 11
4152.9999999999854
 21
-145.49999999999909
 31
0.0
1001
ACDBBLOCKREPETAG
1070
     1
1071
      389
1005
12E484
  0
LINE
  5
12E485
  8
OBJECT
 10
4156.9999999999854
 20
-258.99999999999909
 30
0.0
 11
4152.9999999999854
 21
-254.49999999999909
 31
0.0
1001
ACDBBLOCKREPETAG
1070
     1
1071
      390
1005
12E485
  0
LINE
  5
12E486
  8
OBJECT
 10
4073.0
 20
-137.99999999999909
 30
0.0
 11
4070.0
 21
-137.99999999999909
 31
0.0
1001
ACDBBLOCKREPETAG
1070
     1
1071
      391
1005
12E486
  0
ARC
  5
12E487
  8
OBJECT
 10
4073.0
 20
-140.99999999999909
 30
0.0
 40
3.0
 50
0.0
 51
90.0
1001
ACDBBLOCKREPETAG
1070
     1
1071
      392
1005
12E487
  0
LINE
  5
12E488
  8
OBJECT
 10
4070.0
 20
-261.99999999999909
 30
0.0
 11
4073.0
 21
-261.99999999999909
 31
0.0
1001
ACDBBLOCKREPETAG
1070
     1
1071
      393
1005
12E488
  0
ARC
  5
12E489
  8
OBJECT
 10
4073.0
 20
-258.99999999999909
 30
0.0
 40
3.0
 50
270.0
 51
0.0
1001
ACDBBLOCKREPETAG
1070
     1
1071
      394
1005
12E489
  0
LINE
  5
12E48A
  8
OBJECT
 10
4076.0
 20
-258.99999999999909
 30
0.0
 11
4076.0
 21
-210.3227903203578
 31
0.0
1001
ACDBBLOCKREPETAG
1070
     1
1071
      395
1005
12E48A
  0
LINE
  5
12E48B
  8
OBJECT
 10
4076.0
 20
-189.6772096796403
 30
0.0
 11
4076.0
 21
-140.99999999999909
 31
0.0
1001
ACDBBLOCKREPETAG
1070
     1
1071
      396
1005
12E48B
  0
LINE
  5
12E48C
  8
HIDDEN
 10
4147.9999999999854
 20
-155.49999999999909
 30
0.0
 11
4147.9999999999854
 21
-244.49999999999909
 31
0.0
1001
ACDBBLOCKREPETAG
1070
     1
1071
      397
1005
12E48C
  0
LINE
  5
12E48D
  8
OBJECT
 10
4139.9999749641856
 20
-254.4999509238105
 30
0.0
 11
4139.9999749641856
 21
-145.4999509238105
 31
0.0
1001
ACDBBLOCKREPETAG
1070
     1
1071
      399
1005
12E48D
  0
ARC
  5
12E48E
  8
OBJECT
 10
4119.8000000000247
 20
-199.99999999999909
 30
0.0
 40
45.000000000000547
 50
90.0
 51
270.0
1001
ACDBBLOCKREPETAG
1070
     1
1071
      400
1005
12E48E
  0
TEXT
  5
12E48F
  8
SLIM
 10
-18.199999999999999
 20
-1004.000000000006
 30
0.0
 40
52.0
  1
（特）：特注品。大便器の接続が
 41
0.75
1001
ACDBBLOCKREPETAG
1070
     1
1071
       46
1005
12BDEA
  0
TEXT
  5
12E490
  8
SLIM
 10
0.0
 20
-1073.3333333333401
 30
0.0
 40
52.0
  1
無いことを確認した場合のみ製作。
 41
0.75
1001
ACDBBLOCKREPETAG
1070
     1
1071
       46
1005
12BDEA
  0
CIRCLE
  5
12E491
  8
OBJECT
 10
2000.0
 20
-695.99999999999955
 30
0.0
 40
62.0
1001
ACDBBLOCKREPETAG
1070
     1
1071
        3
1005
12E491
  0
LINE
  5
12E492
  8
CENTER
 10
1938.0
 20
-710.99999999999955
 30
0.0
 11
2062.0
 21
-710.99999999999955
 31
0.0
1001
ACDBBLOCKREPETAG
1070
     1
1071
        4
1005
12E492
  0
CIRCLE
  5
12E493
  8
OBJECT
 10
2000.0
 20
-710.99999999999955
 30
0.0
 40
28.0
1001
ACDBBLOCKREPETAG
1070
     1
1071
        6
1005
12E493
  0
CIRCLE
  5
12E494
  8
OBJECT
 10
2000.0
 20
-710.99999999999955
 30
0.0
 40
39.0
1001
ACDBBLOCKREPETAG
1070
     1
1071
        7
1005
12E494
  0
ARC
  5
12E495
  8
OBJECT
 10
2000.0
 20
-710.99999999999955
 30
0.0
 40
47.0
 50
290.58196921144179
 51
249.41803078855821
1001
ACDBBLOCKREPETAG
1070
     1
1071
        8
1005
12E495
  0
LINE
  5
12E496
  8
OBJECT
 10
1983.477288358142
 20
-754.99999999999955
 30
0.0
 11
2016.5227116418571
 21
-754.99999999999955
 31
0.0
1001
ACDBBLOCKREPETAG
1070
     1
1071
        9
1005
12E496
  0
LINE
  5
12E497
  8
CENTER
 10
2000.0
 20
-769.99999999999955
 30
0.0
 11
2000.0
 21
-613.99999999999966
 31
0.0
1001
ACDBBLOCKREPETAG
1070
     1
1071
        0
1005
12E497
  0
LINE
  5
12E498
  8
OBJECT
 10
1930.0
 20
-633.99999999999955
 30
0.0
 11
2070.0
 21
-633.99999999999955
 31
0.0
1001
ACDBBLOCKREPETAG
1070
     1
1071
        1
1005
12E498
  0
LINE
  5
12E499
  8
OBJECT
 10
1930.0
 20
-757.99999999999955
 30
0.0
 11
1930.0
 21
-769.99999999999955
 31
0.0
1001
ACDBBLOCKREPETAG
1070
     1
1071
        2
1005
12E499
  0
LINE
  5
12E49A
  8
OBJECT
 10
1930.0
 20
-769.99999999999955
 30
0.0
 11
2070.0
 21
-769.99999999999955
 31
0.0
1001
ACDBBLOCKREPETAG
1070
     1
1071
        3
1005
12E49A
  0
LINE
  5
12E49B
  8
OBJECT
 10
2070.0
 20
-769.99999999999955
 30
0.0
 11
2070.0
 21
-757.99999999999955
 31
0.0
1001
ACDBBLOCKREPETAG
1070
     1
1071
        4
1005
12E49B
  0
LINE
  5
12E49C
  8
OBJECT
 10
2070.0
 20
-757.99999999999955
 30
0.0
 11
1930.0
 21
-757.99999999999955
 31
0.0
1001
ACDBBLOCKREPETAG
1070
     1
1071
        5
1005
12E49C
  0
ARC
  5
12E49D
  8
OBJECT
 10
2435.0384389946771
 20
-998.60813684682694
 30
0.0
 40
519.48776673616965
 50
135.4235066743189
 51
138.50052655621499
1001
ACDBBLOCKREPETAG
1070
     1
1071
        9
1005
12E49D
  0
ARC
  5
12E49E
  8
OBJECT
 10
2435.0384389946771
 20
-393.39186315317193
 30
0.0
 40
519.48776673616965
 50
221.49947344378501
 51
224.57649332568101
1001
ACDBBLOCKREPETAG
1070
     1
1071
       10
1005
12E49E
  0
ARC
  5
12E49F
  8
OBJECT
 10
1564.961561005322
 20
-998.60813684682694
 30
0.0
 40
519.48776673616965
 50
41.499473443784993
 51
44.576493325681092
1001
ACDBBLOCKREPETAG
1070
     1
1071
       11
1005
12E49F
  0
ARC
  5
12E4A0
  8
OBJECT
 10
1564.961561005322
 20
-393.39186315317193
 30
0.0
 40
519.48776673616965
 50
315.4235066743189
 51
318.50052655621488
1001
ACDBBLOCKREPETAG
1070
     1
1071
       12
1005
12E4A0
  0
LINE
  5
12E4A1
  8
OBJECT
 10
2047.5
 20
-628.99999999999955
 30
0.0
 11
1952.5
 21
-628.99999999999955
 31
0.0
1001
ACDBBLOCKREPETAG
1070
     1
1071
       24
1005
12E4A1
  0
ARC
  5
12E4A2
  8
OBJECT
 10
1952.5
 20
-631.99999999999955
 30
0.0
 40
3.0
 50
90.0
 51
180.0
1001
ACDBBLOCKREPETAG
1070
     1
1071
       25
1005
12E4A2
  0
LINE
  5
12E4A3
  8
OBJECT
 10
1949.5
 20
-631.99999999999955
 30
0.0
 11
1949.5
 21
-633.99999999999955
 31
0.0
1001
ACDBBLOCKREPETAG
1070
     1
1071
       26
1005
12E4A3
  0
LINE
  5
12E4A4
  8
OBJECT
 10
2050.5
 20
-631.99999999999955
 30
0.0
 11
2050.5
 21
-633.99999999999955
 31
0.0
1001
ACDBBLOCKREPETAG
1070
     1
1071
       27
1005
12E4A4
  0
ARC
  5
12E4A5
  8
OBJECT
 10
2047.5
 20
-631.99999999999955
 30
0.0
 40
3.0
 50
0.0
 51
90.0
1001
ACDBBLOCKREPETAG
1070
     1
1071
       28
1005
12E4A5
  0
POINT
  5
12E4A6
  8
DOTS
 10
2000.0
 20
-754.99999999999955
 30
0.0
1001
ACDBBLOCKREPETAG
1070
     1
1071
       87
1005
12E4A6
  0
LINE
  5
12E4A7
  8
CENTER
 10
4400.0
 20
-3594.9999999999968
 30
0.0
 11
4400.0
 21
-3438.9999999999968
 31
0.0
1001
ACDBBLOCKREPETAG
1070
     1
1071
       13
1005
12E4A7
  0
LINE
  5
12E4A8
  8
OBJECT
 10
4330.0
 20
-3458.9999999999968
 30
0.0
 11
4465.0000101378164
 21
-3458.9999999999968
 31
0.0
1001
ACDBBLOCKREPETAG
1070
     1
1071
       14
1005
12E4A8
  0
LINE
  5
12E4A9
  8
OBJECT
 10
4335.0
 20
-3582.9999999999968
 30
0.0
 11
4330.0
 21
-3582.9999999999968
 31
0.0
1001
ACDBBLOCKREPETAG
1070
     1
1071
       18
1005
12E4A9
  0
LINE
  5
12E4AA
  8
OBJECT
 10
4465.0000101378164
 20
-3583.0000021659148
 30
0.0
 11
4465.0000101378164
 21
-3458.9999999999968
 31
0.0
1001
ACDBBLOCKREPETAG
1070
     1
1071
       21
1005
12E4AA
  0
ARC
  5
12E4AB
  8
OBJECT
 10
3964.9615610053229
 20
-3823.6081368468249
 30
0.0
 40
519.48776673616965
 50
41.499473443784993
 51
44.576493325685597
1001
ACDBBLOCKREPETAG
1070
     1
1071
       22
1005
12E4AB
  0
ARC
  5
12E4AC
  8
OBJECT
 10
3964.9615610053229
 20
-3218.3918631531692
 30
0.0
 40
519.48776673616965
 50
315.42350667431441
 51
318.50052655621488
1001
ACDBBLOCKREPETAG
1070
     1
1071
       23
1005
12E4AC
  0
LINE
  5
12E4AD
  8
OBJECT
 10
4447.5
 20
-3453.9999999999968
 30
0.0
 11
4352.5
 21
-3453.9999999999968
 31
0.0
1001
ACDBBLOCKREPETAG
1070
     1
1071
       29
1005
12E4AD
  0
ARC
  5
12E4AE
  8
OBJECT
 10
4352.5
 20
-3456.9999999999968
 30
0.0
 40
3.0
 50
90.0
 51
180.0
1001
ACDBBLOCKREPETAG
1070
     1
1071
       30
1005
12E4AE
  0
LINE
  5
12E4AF
  8
OBJECT
 10
4349.4999999999991
 20
-3456.9999999999968
 30
0.0
 11
4349.4999999999991
 21
-3458.9999999999968
 31
0.0
1001
ACDBBLOCKREPETAG
1070
     1
1071
       31
1005
12E4AF
  0
LINE
  5
12E4B0
  8
OBJECT
 10
4450.5
 20
-3456.9999999999968
 30
0.0
 11
4450.5
 21
-3458.9999999999968
 31
0.0
1001
ACDBBLOCKREPETAG
1070
     1
1071
       32
1005
12E4B0
  0
ARC
  5
12E4B1
  8
OBJECT
 10
4447.5
 20
-3456.9999999999968
 30
0.0
 40
3.0
 50
0.0
 51
90.0
1001
ACDBBLOCKREPETAG
1070
     1
1071
       33
1005
12E4B1
  0
POINT
  5
12E4B2
  8
DOTS
 10
4400.0
 20
-3579.9999999999968
 30
0.0
1001
ACDBBLOCKREPETAG
1070
     1
1071
       88
1005
12E4B2
  0
LINE
  5
12E4B3
  8
CENTER
 10
4000.0
 20
-3594.9999999999968
 30
0.0
 11
4000.0
 21
-3438.9999999999968
 31
0.0
1001
ACDBBLOCKREPETAG
1070
     1
1071
        0
1005
12E4B3
  0
LINE
  5
12E4B4
  8
OBJECT
 10
3930.0
 20
-3458.9999999999968
 30
0.0
 11
4069.9999999999991
 21
-3458.9999999999968
 31
0.0
1001
ACDBBLOCKREPETAG
1070
     1
1071
        1
1005
12E4B4
  0
LINE
  5
12E4B5
  8
OBJECT
 10
4069.9999999999991
 20
-3582.9999999999968
 30
0.0
 11
4064.9999999999982
 21
-3582.9999999999968
 31
0.0
1001
ACDBBLOCKREPETAG
1070
     1
1071
        5
1005
12E4B5
  0
LINE
  5
12E4B6
  8
OBJECT
 10
3935.0
 20
-3582.9999999999968
 30
0.0
 11
3930.0
 21
-3582.9999999999968
 31
0.0
1001
ACDBBLOCKREPETAG
1070
     1
1071
       91
1005
12E4B6
  0
ARC
  5
12E4B7
  8
OBJECT
 10
4435.0384389946767
 20
-3823.6081368468249
 30
0.0
 40
519.48776673616965
 50
135.42350667431441
 51
138.50052655621499
1001
ACDBBLOCKREPETAG
1070
     1
1071
        9
1005
12E4B7
  0
ARC
  5
12E4B8
  8
OBJECT
 10
4435.0384389946767
 20
-3218.3918631531692
 30
0.0
 40
519.48776673616965
 50
221.49947344378501
 51
224.57649332568559
1001
ACDBBLOCKREPETAG
1070
     1
1071
       10
1005
12E4B8
  0
ARC
  5
12E4B9
  8
OBJECT
 10
3564.961561005322
 20
-3823.6081368468249
 30
0.0
 40
519.48776673616965
 50
41.499473443784993
 51
44.576493325685597
1001
ACDBBLOCKREPETAG
1070
     1
1071
       11
1005
12E4B9
  0
ARC
  5
12E4BA
  8
OBJECT
 10
3564.961561005322
 20
-3218.3918631531692
 30
0.0
 40
519.48776673616965
 50
315.42350667431441
 51
318.50052655621488
1001
ACDBBLOCKREPETAG
1070
     1
1071
       12
1005
12E4BA
  0
LINE
  5
12E4BB
  8
OBJECT
 10
4047.4999999999982
 20
-3453.9999999999968
 30
0.0
 11
3952.5
 21
-3453.9999999999968
 31
0.0
1001
ACDBBLOCKREPETAG
1070
     1
1071
       24
1005
12E4BB
  0
ARC
  5
12E4BC
  8
OBJECT
 10
3952.5
 20
-3456.9999999999968
 30
0.0
 40
3.0
 50
90.0
 51
180.0
1001
ACDBBLOCKREPETAG
1070
     1
1071
       25
1005
12E4BC
  0
LINE
  5
12E4BD
  8
OBJECT
 10
3949.5
 20
-3456.9999999999968
 30
0.0
 11
3949.5
 21
-3458.9999999999968
 31
0.0
1001
ACDBBLOCKREPETAG
1070
     1
1071
       26
1005
12E4BD
  0
LINE
  5
12E4BE
  8
OBJECT
 10
4050.4999999999982
 20
-3456.9999999999968
 30
0.0
 11
4050.4999999999982
 21
-3458.9999999999968
 31
0.0
1001
ACDBBLOCKREPETAG
1070
     1
1071
       27
1005
12E4BE
  0
ARC
  5
12E4BF
  8
OBJECT
 10
4047.4999999999982
 20
-3456.9999999999968
 30
0.0
 40
3.0
 50
0.0
 51
90.0
1001
ACDBBLOCKREPETAG
1070
     1
1071
       28
1005
12E4BF
  0
POINT
  5
12E4C0
  8
DOTS
 10
4000.0
 20
-3579.9999999999968
 30
0.0
1001
ACDBBLOCKREPETAG
1070
     1
1071
       87
1005
12E4C0
  0
ARC
  5
12E4C1
  8
OBJECT
 10
4000.0
 20
-3174.9999999999959
 30
0.0
 40
70.0
 50
62.339550100752639
 51
117.6604498992473
1001
ACDBBLOCKREPETAG
1070
     1
1071
        0
1005
12E4C1
  0
CIRCLE
  5
12E4C2
  8
OBJECT
 10
4000.0
 20
-3174.9999999999959
 30
0.0
 40
65.0
1001
ACDBBLOCKREPETAG
1070
     1
1071
        1
1005
12E4C2
  0
CIRCLE
  5
12E4C3
  8
OBJECT
 10
4000.0
 20
-3174.9999999999959
 30
0.0
 40
50.5
1001
ACDBBLOCKREPETAG
1070
     1
1071
        3
1005
12E4C3
  0
LINE
  5
12E4C4
  8
OBJECT
 10
4070.0
 20
-3112.9999999999959
 30
0.0
 11
4019.5192212959432
 21
-3112.9999999999959
 31
0.0
1001
ACDBBLOCKREPETAG
1070
     1
1071
        4
1005
12E4C4
  0
LINE
  5
12E4C5
  8
OBJECT
 10
3930.0
 20
-3112.9999999999959
 30
0.0
 11
3980.4807787040581
 21
-3112.9999999999959
 31
0.0
1001
ACDBBLOCKREPETAG
1070
     1
1071
        5
1005
12E4C5
  0
LINE
  5
12E4C6
  8
OBJECT
 10
3930.0
 20
-3236.9999999999959
 30
0.0
 11
3938.0
 21
-3236.9999999999959
 31
0.0
1001
ACDBBLOCKREPETAG
1070
     1
1071
        6
1005
12E4C6
  0
LINE
  5
12E4C7
  8
OBJECT
 10
3938.0
 20
-3244.9999999999959
 30
0.0
 11
3938.0
 21
-3236.9999999999959
 31
0.0
1001
ACDBBLOCKREPETAG
1070
     1
1071
        7
1005
12E4C7
  0
LINE
  5
12E4C8
  8
OBJECT
 10
4070.0
 20
-3236.9999999999959
 30
0.0
 11
4062.0
 21
-3236.9999999999959
 31
0.0
1001
ACDBBLOCKREPETAG
1070
     1
1071
        8
1005
12E4C8
  0
LINE
  5
12E4C9
  8
OBJECT
 10
4062.0
 20
-3244.9999999999959
 30
0.0
 11
4062.0
 21
-3236.9999999999959
 31
0.0
1001
ACDBBLOCKREPETAG
1070
     1
1071
        9
1005
12E4C9
  0
LINE
  5
12E4CA
  8
CENTER
 10
3930.0
 20
-3174.9999999999959
 30
0.0
 11
4070.0
 21
-3174.9999999999959
 31
0.0
1001
ACDBBLOCKREPETAG
1070
     1
1071
       10
1005
12E4CA
  0
LINE
  5
12E4CB
  8
CENTER
 10
4000.0
 20
-3244.9999999999959
 30
0.0
 11
4000.0
 21
-3089.9999999999959
 31
0.0
1001
ACDBBLOCKREPETAG
1070
     1
1071
       11
1005
12E4CB
  0
LINE
  5
12E4CC
  8
OBJECT
 10
3954.0380592228739
 20
-3220.9619407771211
 30
0.0
 11
3938.0
 21
-3236.9999999999959
 31
0.0
1001
ACDBBLOCKREPETAG
1070
     1
1071
       42
1005
12E4CC
  0
LINE
  5
12E4CD
  8
OBJECT
 10
4045.9619407771238
 20
-3220.9619407771211
 30
0.0
 11
4062.0
 21
-3236.9999999999959
 31
0.0
1001
ACDBBLOCKREPETAG
1070
     1
1071
       43
1005
12E4CD
  0
POINT
  5
12E4CE
  8
DOTS
 10
4000.0
 20
-3174.9999999999959
 30
0.0
1001
ACDBBLOCKREPETAG
1070
     1
1071
      158
1005
12E4CE
  0
LINE
  5
12E4CF
  8
CENTER
 10
3399.9999999999991
 20
-3594.9999999999968
 30
0.0
 11
3399.9999999999991
 21
-3438.9999999999968
 31
0.0
1001
ACDBBLOCKREPETAG
1070
     1
1071
       13
1005
12E4CF
  0
LINE
  5
12E4D0
  8
OBJECT
 10
3330.0
 20
-3458.9999999999968
 30
0.0
 11
3465.0000101378168
 21
-3458.9999999999968
 31
0.0
1001
ACDBBLOCKREPETAG
1070
     1
1071
       14
1005
12E4D0
  0
LINE
  5
12E4D1
  8
OBJECT
 10
3335.0
 20
-3582.9999999999968
 30
0.0
 11
3330.0
 21
-3582.9999999999968
 31
0.0
1001
ACDBBLOCKREPETAG
1070
     1
1071
       18
1005
12E4D1
  0
LINE
  5
12E4D2
  8
OBJECT
 10
3465.0000101378168
 20
-3583.0000021659148
 30
0.0
 11
3465.0000101378168
 21
-3458.9999999999968
 31
0.0
1001
ACDBBLOCKREPETAG
1070
     1
1071
       21
1005
12E4D2
  0
ARC
  5
12E4D3
  8
OBJECT
 10
2964.9615610053229
 20
-3823.6081368468249
 30
0.0
 40
519.48776673616965
 50
41.499473443784993
 51
44.576493325685597
1001
ACDBBLOCKREPETAG
1070
     1
1071
       22
1005
12E4D3
  0
ARC
  5
12E4D4
  8
OBJECT
 10
2964.9615610053229
 20
-3218.3918631531692
 30
0.0
 40
519.48776673616965
 50
315.42350667431441
 51
318.50052655621488
1001
ACDBBLOCKREPETAG
1070
     1
1071
       23
1005
12E4D4
  0
LINE
  5
12E4D5
  8
OBJECT
 10
3447.5
 20
-3453.9999999999968
 30
0.0
 11
3352.5
 21
-3453.9999999999968
 31
0.0
1001
ACDBBLOCKREPETAG
1070
     1
1071
       29
1005
12E4D5
  0
ARC
  5
12E4D6
  8
OBJECT
 10
3352.5
 20
-3456.9999999999968
 30
0.0
 40
3.0
 50
90.0
 51
180.0
1001
ACDBBLOCKREPETAG
1070
     1
1071
       30
1005
12E4D6
  0
LINE
  5
12E4D7
  8
OBJECT
 10
3349.5
 20
-3456.9999999999968
 30
0.0
 11
3349.5
 21
-3458.9999999999968
 31
0.0
1001
ACDBBLOCKREPETAG
1070
     1
1071
       31
1005
12E4D7
  0
LINE
  5
12E4D8
  8
OBJECT
 10
3450.5
 20
-3456.9999999999968
 30
0.0
 11
3450.5
 21
-3458.9999999999968
 31
0.0
1001
ACDBBLOCKREPETAG
1070
     1
1071
       32
1005
12E4D8
  0
ARC
  5
12E4D9
  8
OBJECT
 10
3447.5
 20
-3456.9999999999968
 30
0.0
 40
3.0
 50
0.0
 51
90.0
1001
ACDBBLOCKREPETAG
1070
     1
1071
       33
1005
12E4D9
  0
POINT
  5
12E4DA
  8
DOTS
 10
3399.9999999999991
 20
-3579.9999999999968
 30
0.0
1001
ACDBBLOCKREPETAG
1070
     1
1071
       88
1005
12E4DA
  0
LINE
  5
12E4DB
  8
CENTER
 10
3000.0
 20
-3594.9999999999968
 30
0.0
 11
3000.0
 21
-3438.9999999999968
 31
0.0
1001
ACDBBLOCKREPETAG
1070
     1
1071
        0
1005
12E4DB
  0
LINE
  5
12E4DC
  8
OBJECT
 10
2930.0
 20
-3458.9999999999968
 30
0.0
 11
3070.0
 21
-3458.9999999999968
 31
0.0
1001
ACDBBLOCKREPETAG
1070
     1
1071
        1
1005
12E4DC
  0
LINE
  5
12E4DD
  8
OBJECT
 10
3070.0
 20
-3582.9999999999968
 30
0.0
 11
3064.9999999999991
 21
-3582.9999999999968
 31
0.0
1001
ACDBBLOCKREPETAG
1070
     1
1071
        5
1005
12E4DD
  0
LINE
  5
12E4DE
  8
OBJECT
 10
2935.0
 20
-3582.9999999999968
 30
0.0
 11
2930.0
 21
-3582.9999999999968
 31
0.0
1001
ACDBBLOCKREPETAG
1070
     1
1071
       91
1005
12E4DE
  0
ARC
  5
12E4DF
  8
OBJECT
 10
3435.0384389946771
 20
-3823.6081368468249
 30
0.0
 40
519.48776673616965
 50
135.42350667431441
 51
138.50052655621499
1001
ACDBBLOCKREPETAG
1070
     1
1071
        9
1005
12E4DF
  0
ARC
  5
12E4E0
  8
OBJECT
 10
3435.0384389946771
 20
-3218.3918631531692
 30
0.0
 40
519.48776673616965
 50
221.49947344378501
 51
224.57649332568559
1001
ACDBBLOCKREPETAG
1070
     1
1071
       10
1005
12E4E0
  0
ARC
  5
12E4E1
  8
OBJECT
 10
2564.961561005322
 20
-3823.6081368468249
 30
0.0
 40
519.48776673616965
 50
41.499473443784993
 51
44.576493325685597
1001
ACDBBLOCKREPETAG
1070
     1
1071
       11
1005
12E4E1
  0
ARC
  5
12E4E2
  8
OBJECT
 10
2564.961561005322
 20
-3218.3918631531692
 30
0.0
 40
519.48776673616965
 50
315.42350667431441
 51
318.50052655621488
1001
ACDBBLOCKREPETAG
1070
     1
1071
       12
1005
12E4E2
  0
LINE
  5
12E4E3
  8
OBJECT
 10
3047.4999999999991
 20
-3453.9999999999968
 30
0.0
 11
2952.5
 21
-3453.9999999999968
 31
0.0
1001
ACDBBLOCKREPETAG
1070
     1
1071
       24
1005
12E4E3
  0
ARC
  5
12E4E4
  8
OBJECT
 10
2952.5
 20
-3456.9999999999968
 30
0.0
 40
3.0
 50
90.0
 51
180.0
1001
ACDBBLOCKREPETAG
1070
     1
1071
       25
1005
12E4E4
  0
LINE
  5
12E4E5
  8
OBJECT
 10
2949.5
 20
-3456.9999999999968
 30
0.0
 11
2949.5
 21
-3458.9999999999968
 31
0.0
1001
ACDBBLOCKREPETAG
1070
     1
1071
       26
1005
12E4E5
  0
LINE
  5
12E4E6
  8
OBJECT
 10
3050.4999999999991
 20
-3456.9999999999968
 30
0.0
 11
3050.4999999999991
 21
-3458.9999999999968
 31
0.0
1001
ACDBBLOCKREPETAG
1070
     1
1071
       27
1005
12E4E6
  0
ARC
  5
12E4E7
  8
OBJECT
 10
3047.4999999999991
 20
-3456.9999999999968
 30
0.0
 40
3.0
 50
0.0
 51
90.0
1001
ACDBBLOCKREPETAG
1070
     1
1071
       28
1005
12E4E7
  0
POINT
  5
12E4E8
  8
DOTS
 10
3000.0
 20
-3579.9999999999968
 30
0.0
1001
ACDBBLOCKREPETAG
1070
     1
1071
       87
1005
12E4E8
  0
ARC
  5
12E4E9
  8
OBJECT
 10
3000.0
 20
-3174.9999999999959
 30
0.0
 40
70.0
 50
62.339550100752639
 51
117.6604498992473
1001
ACDBBLOCKREPETAG
1070
     1
1071
        0
1005
12E4E9
  0
CIRCLE
  5
12E4EA
  8
OBJECT
 10
3000.0
 20
-3174.9999999999959
 30
0.0
 40
65.0
1001
ACDBBLOCKREPETAG
1070
     1
1071
        1
1005
12E4EA
  0
CIRCLE
  5
12E4EB
  8
OBJECT
 10
3000.0
 20
-3174.9999999999959
 30
0.0
 40
50.5
1001
ACDBBLOCKREPETAG
1070
     1
1071
        3
1005
12E4EB
  0
LINE
  5
12E4EC
  8
OBJECT
 10
3070.0
 20
-3112.9999999999959
 30
0.0
 11
3019.5192212959441
 21
-3112.9999999999959
 31
0.0
1001
ACDBBLOCKREPETAG
1070
     1
1071
        4
1005
12E4EC
  0
LINE
  5
12E4ED
  8
OBJECT
 10
2930.0
 20
-3112.9999999999959
 30
0.0
 11
2980.4807787040581
 21
-3112.9999999999959
 31
0.0
1001
ACDBBLOCKREPETAG
1070
     1
1071
        5
1005
12E4ED
  0
LINE
  5
12E4EE
  8
OBJECT
 10
2930.0
 20
-3236.9999999999959
 30
0.0
 11
2938.0
 21
-3236.9999999999959
 31
0.0
1001
ACDBBLOCKREPETAG
1070
     1
1071
        6
1005
12E4EE
  0
LINE
  5
12E4EF
  8
OBJECT
 10
2938.0
 20
-3244.9999999999959
 30
0.0
 11
2938.0
 21
-3236.9999999999959
 31
0.0
1001
ACDBBLOCKREPETAG
1070
     1
1071
        7
1005
12E4EF
  0
LINE
  5
12E4F0
  8
OBJECT
 10
3070.0
 20
-3236.9999999999959
 30
0.0
 11
3062.0
 21
-3236.9999999999959
 31
0.0
1001
ACDBBLOCKREPETAG
1070
     1
1071
        8
1005
12E4F0
  0
LINE
  5
12E4F1
  8
OBJECT
 10
3062.0
 20
-3244.9999999999959
 30
0.0
 11
3062.0
 21
-3236.9999999999959
 31
0.0
1001
ACDBBLOCKREPETAG
1070
     1
1071
        9
1005
12E4F1
  0
LINE
  5
12E4F2
  8
CENTER
 10
2930.0
 20
-3174.9999999999959
 30
0.0
 11
3070.0
 21
-3174.9999999999959
 31
0.0
1001
ACDBBLOCKREPETAG
1070
     1
1071
       10
1005
12E4F2
  0
LINE
  5
12E4F3
  8
CENTER
 10
3000.0
 20
-3244.9999999999959
 30
0.0
 11
3000.0
 21
-3089.9999999999959
 31
0.0
1001
ACDBBLOCKREPETAG
1070
     1
1071
       11
1005
12E4F3
  0
LINE
  5
12E4F4
  8
OBJECT
 10
2954.0380592228739
 20
-3220.9619407771211
 30
0.0
 11
2938.0
 21
-3236.9999999999959
 31
0.0
1001
ACDBBLOCKREPETAG
1070
     1
1071
       42
1005
12E4F4
  0
LINE
  5
12E4F5
  8
OBJECT
 10
3045.9619407771261
 20
-3220.9619407771211
 30
0.0
 11
3062.0
 21
-3236.9999999999959
 31
0.0
1001
ACDBBLOCKREPETAG
1070
     1
1071
       43
1005
12E4F5
  0
POINT
  5
12E4F6
  8
DOTS
 10
3000.0
 20
-3174.9999999999959
 30
0.0
1001
ACDBBLOCKREPETAG
1070
     1
1071
      158
1005
12E4F6
  0
LINE
  5
12E4F7
  8
CENTER
 10
2400.0
 20
-3594.9999999999968
 30
0.0
 11
2400.0
 21
-3438.9999999999968
 31
0.0
1001
ACDBBLOCKREPETAG
1070
     1
1071
       13
1005
12E4F7
  0
LINE
  5
12E4F8
  8
OBJECT
 10
2330.0
 20
-3458.9999999999968
 30
0.0
 11
2465.0000101378168
 21
-3458.9999999999968
 31
0.0
1001
ACDBBLOCKREPETAG
1070
     1
1071
       14
1005
12E4F8
  0
LINE
  5
12E4F9
  8
OBJECT
 10
2335.0
 20
-3582.9999999999968
 30
0.0
 11
2330.0
 21
-3582.9999999999968
 31
0.0
1001
ACDBBLOCKREPETAG
1070
     1
1071
       18
1005
12E4F9
  0
LINE
  5
12E4FA
  8
OBJECT
 10
2465.0000101378168
 20
-3583.0000021659148
 30
0.0
 11
2465.0000101378168
 21
-3458.9999999999968
 31
0.0
1001
ACDBBLOCKREPETAG
1070
     1
1071
       21
1005
12E4FA
  0
ARC
  5
12E4FB
  8
OBJECT
 10
1964.961561005322
 20
-3823.6081368468249
 30
0.0
 40
519.48776673616965
 50
41.499473443784993
 51
44.576493325685597
1001
ACDBBLOCKREPETAG
1070
     1
1071
       22
1005
12E4FB
  0
ARC
  5
12E4FC
  8
OBJECT
 10
1964.961561005322
 20
-3218.3918631531692
 30
0.0
 40
519.48776673616965
 50
315.42350667431441
 51
318.50052655621488
1001
ACDBBLOCKREPETAG
1070
     1
1071
       23
1005
12E4FC
  0
LINE
  5
12E4FD
  8
OBJECT
 10
2447.5
 20
-3453.9999999999968
 30
0.0
 11
2352.5
 21
-3453.9999999999968
 31
0.0
1001
ACDBBLOCKREPETAG
1070
     1
1071
       29
1005
12E4FD
  0
ARC
  5
12E4FE
  8
OBJECT
 10
2352.5
 20
-3456.9999999999968
 30
0.0
 40
3.0
 50
90.0
 51
180.0
1001
ACDBBLOCKREPETAG
1070
     1
1071
       30
1005
12E4FE
  0
LINE
  5
12E4FF
  8
OBJECT
 10
2349.5
 20
-3456.9999999999968
 30
0.0
 11
2349.5
 21
-3458.9999999999968
 31
0.0
1001
ACDBBLOCKREPETAG
1070
     1
1071
       31
1005
12E4FF
  0
LINE
  5
12E500
  8
OBJECT
 10
2450.5
 20
-3456.9999999999968
 30
0.0
 11
2450.5
 21
-3458.9999999999968
 31
0.0
1001
ACDBBLOCKREPETAG
1070
     1
1071
       32
1005
12E500
  0
ARC
  5
12E501
  8
OBJECT
 10
2447.5
 20
-3456.9999999999968
 30
0.0
 40
3.0
 50
0.0
 51
90.0
1001
ACDBBLOCKREPETAG
1070
     1
1071
       33
1005
12E501
  0
POINT
  5
12E502
  8
DOTS
 10
2400.0
 20
-3579.9999999999968
 30
0.0
1001
ACDBBLOCKREPETAG
1070
     1
1071
       88
1005
12E502
  0
LINE
  5
12E503
  8
CENTER
 10
2000.0
 20
-3594.9999999999968
 30
0.0
 11
2000.0
 21
-3438.9999999999968
 31
0.0
1001
ACDBBLOCKREPETAG
1070
     1
1071
        0
1005
12E503
  0
LINE
  5
12E504
  8
OBJECT
 10
1929.9999999999991
 20
-3458.9999999999968
 30
0.0
 11
2070.0
 21
-3458.9999999999968
 31
0.0
1001
ACDBBLOCKREPETAG
1070
     1
1071
        1
1005
12E504
  0
LINE
  5
12E505
  8
OBJECT
 10
2070.0
 20
-3582.9999999999968
 30
0.0
 11
2064.9999999999991
 21
-3582.9999999999968
 31
0.0
1001
ACDBBLOCKREPETAG
1070
     1
1071
        5
1005
12E505
  0
LINE
  5
12E506
  8
OBJECT
 10
1935.0
 20
-3582.9999999999968
 30
0.0
 11
1929.9999999999991
 21
-3582.9999999999968
 31
0.0
1001
ACDBBLOCKREPETAG
1070
     1
1071
       91
1005
12E506
  0
ARC
  5
12E507
  8
OBJECT
 10
2435.0384389946771
 20
-3823.6081368468249
 30
0.0
 40
519.48776673616965
 50
135.42350667432351
 51
138.50052655621499
1001
ACDBBLOCKREPETAG
1070
     1
1071
        9
1005
12E507
  0
ARC
  5
12E508
  8
OBJECT
 10
2435.0384389946771
 20
-3218.3918631531692
 30
0.0
 40
519.48776673616965
 50
221.49947344378501
 51
224.57649332567649
1001
ACDBBLOCKREPETAG
1070
     1
1071
       10
1005
12E508
  0
ARC
  5
12E509
  8
OBJECT
 10
1564.961561005322
 20
-3823.6081368468249
 30
0.0
 40
519.48776673616965
 50
41.499473443784993
 51
44.576493325676452
1001
ACDBBLOCKREPETAG
1070
     1
1071
       11
1005
12E509
  0
ARC
  5
12E50A
  8
OBJECT
 10
1564.961561005322
 20
-3218.3918631531692
 30
0.0
 40
519.48776673616965
 50
315.42350667432362
 51
318.50052655621488
1001
ACDBBLOCKREPETAG
1070
     1
1071
       12
1005
12E50A
  0
LINE
  5
12E50B
  8
OBJECT
 10
2047.4999999999991
 20
-3453.9999999999968
 30
0.0
 11
1952.4999999999991
 21
-3453.9999999999968
 31
0.0
1001
ACDBBLOCKREPETAG
1070
     1
1071
       24
1005
12E50B
  0
ARC
  5
12E50C
  8
OBJECT
 10
1952.4999999999991
 20
-3456.9999999999968
 30
0.0
 40
3.0
 50
90.0
 51
180.0
1001
ACDBBLOCKREPETAG
1070
     1
1071
       25
1005
12E50C
  0
LINE
  5
12E50D
  8
OBJECT
 10
1949.5
 20
-3456.9999999999968
 30
0.0
 11
1949.5
 21
-3458.9999999999968
 31
0.0
1001
ACDBBLOCKREPETAG
1070
     1
1071
       26
1005
12E50D
  0
LINE
  5
12E50E
  8
OBJECT
 10
2050.4999999999991
 20
-3456.9999999999968
 30
0.0
 11
2050.4999999999991
 21
-3458.9999999999968
 31
0.0
1001
ACDBBLOCKREPETAG
1070
     1
1071
       27
1005
12E50E
  0
ARC
  5
12E50F
  8
OBJECT
 10
2047.4999999999991
 20
-3456.9999999999968
 30
0.0
 40
3.0
 50
0.0
 51
90.0
1001
ACDBBLOCKREPETAG
1070
     1
1071
       28
1005
12E50F
  0
POINT
  5
12E510
  8
DOTS
 10
2000.0
 20
-3579.9999999999968
 30
0.0
1001
ACDBBLOCKREPETAG
1070
     1
1071
       87
1005
12E510
  0
ARC
  5
12E511
  8
OBJECT
 10
2000.0
 20
-3174.9999999999959
 30
0.0
 40
70.0
 50
62.339550100752639
 51
117.6604498992473
1001
ACDBBLOCKREPETAG
1070
     1
1071
        0
1005
12E511
  0
CIRCLE
  5
12E512
  8
OBJECT
 10
2000.0
 20
-3174.9999999999959
 30
0.0
 40
65.0
1001
ACDBBLOCKREPETAG
1070
     1
1071
        1
1005
12E512
  0
CIRCLE
  5
12E513
  8
OBJECT
 10
2000.0
 20
-3174.9999999999959
 30
0.0
 40
50.5
1001
ACDBBLOCKREPETAG
1070
     1
1071
        3
1005
12E513
  0
LINE
  5
12E514
  8
OBJECT
 10
2070.0
 20
-3112.9999999999959
 30
0.0
 11
2019.519221295943
 21
-3112.9999999999959
 31
0.0
1001
ACDBBLOCKREPETAG
1070
     1
1071
        4
1005
12E514
  0
LINE
  5
12E515
  8
OBJECT
 10
1929.9999999999991
 20
-3112.9999999999959
 30
0.0
 11
1980.4807787040561
 21
-3112.9999999999959
 31
0.0
1001
ACDBBLOCKREPETAG
1070
     1
1071
        5
1005
12E515
  0
LINE
  5
12E516
  8
OBJECT
 10
1929.9999999999991
 20
-3236.9999999999959
 30
0.0
 11
1938.0
 21
-3236.9999999999959
 31
0.0
1001
ACDBBLOCKREPETAG
1070
     1
1071
        6
1005
12E516
  0
LINE
  5
12E517
  8
OBJECT
 10
1938.0
 20
-3244.9999999999959
 30
0.0
 11
1938.0
 21
-3236.9999999999959
 31
0.0
1001
ACDBBLOCKREPETAG
1070
     1
1071
        7
1005
12E517
  0
LINE
  5
12E518
  8
OBJECT
 10
2070.0
 20
-3236.9999999999959
 30
0.0
 11
2062.0
 21
-3236.9999999999959
 31
0.0
1001
ACDBBLOCKREPETAG
1070
     1
1071
        8
1005
12E518
  0
LINE
  5
12E519
  8
OBJECT
 10
2062.0
 20
-3244.9999999999959
 30
0.0
 11
2062.0
 21
-3236.9999999999959
 31
0.0
1001
ACDBBLOCKREPETAG
1070
     1
1071
        9
1005
12E519
  0
LINE
  5
12E51A
  8
CENTER
 10
1929.9999999999991
 20
-3174.9999999999959
 30
0.0
 11
2070.0
 21
-3174.9999999999959
 31
0.0
1001
ACDBBLOCKREPETAG
1070
     1
1071
       10
1005
12E51A
  0
LINE
  5
12E51B
  8
CENTER
 10
2000.0
 20
-3244.9999999999959
 30
0.0
 11
2000.0
 21
-3089.9999999999959
 31
0.0
1001
ACDBBLOCKREPETAG
1070
     1
1071
       11
1005
12E51B
  0
LINE
  5
12E51C
  8
OBJECT
 10
1954.038059222873
 20
-3220.9619407771211
 30
0.0
 11
1938.0
 21
-3236.9999999999959
 31
0.0
1001
ACDBBLOCKREPETAG
1070
     1
1071
       42
1005
12E51C
  0
LINE
  5
12E51D
  8
OBJECT
 10
2045.9619407771249
 20
-3220.9619407771211
 30
0.0
 11
2062.0
 21
-3236.9999999999959
 31
0.0
1001
ACDBBLOCKREPETAG
1070
     1
1071
       43
1005
12E51D
  0
POINT
  5
12E51E
  8
DOTS
 10
2000.0
 20
-3174.9999999999959
 30
0.0
1001
ACDBBLOCKREPETAG
1070
     1
1071
      158
1005
12E51E
  0
ARC
  5
12E51F
  8
OBJECT
 10
2000.0
 20
-199.99999999999909
 30
0.0
 40
70.0
 50
62.339550100758693
 51
117.6604498992413
1001
ACDBBLOCKREPETAG
1070
     1
1071
        0
1005
12E51F
  0
CIRCLE
  5
12E520
  8
OBJECT
 10
2000.0
 20
-199.99999999999909
 30
0.0
 40
65.0
1001
ACDBBLOCKREPETAG
1070
     1
1071
        1
1005
12E520
  0
CIRCLE
  5
12E521
  8
OBJECT
 10
2000.0
 20
-199.99999999999909
 30
0.0
 40
50.5
1001
ACDBBLOCKREPETAG
1070
     1
1071
        3
1005
12E521
  0
LINE
  5
12E522
  8
OBJECT
 10
2070.0
 20
-137.99999999999909
 30
0.0
 11
2019.5192212959439
 21
-137.99999999999909
 31
0.0
1001
ACDBBLOCKREPETAG
1070
     1
1071
        4
1005
12E522
  0
LINE
  5
12E523
  8
OBJECT
 10
1930.0
 20
-137.99999999999909
 30
0.0
 11
1980.480778704057
 21
-137.99999999999909
 31
0.0
1001
ACDBBLOCKREPETAG
1070
     1
1071
        5
1005
12E523
  0
LINE
  5
12E524
  8
OBJECT
 10
1930.0
 20
-261.99999999999909
 30
0.0
 11
1938.0
 21
-261.99999999999909
 31
0.0
1001
ACDBBLOCKREPETAG
1070
     1
1071
        6
1005
12E524
  0
LINE
  5
12E525
  8
OBJECT
 10
1938.0
 20
-269.99999999999909
 30
0.0
 11
1938.0
 21
-261.99999999999909
 31
0.0
1001
ACDBBLOCKREPETAG
1070
     1
1071
        7
1005
12E525
  0
LINE
  5
12E526
  8
OBJECT
 10
2070.0
 20
-261.99999999999909
 30
0.0
 11
2062.0
 21
-261.99999999999909
 31
0.0
1001
ACDBBLOCKREPETAG
1070
     1
1071
        8
1005
12E526
  0
LINE
  5
12E527
  8
OBJECT
 10
2062.0
 20
-269.99999999999909
 30
0.0
 11
2062.0
 21
-261.99999999999909
 31
0.0
1001
ACDBBLOCKREPETAG
1070
     1
1071
        9
1005
12E527
  0
LINE
  5
12E528
  8
CENTER
 10
1930.0
 20
-199.99999999999909
 30
0.0
 11
2070.0
 21
-199.99999999999909
 31
0.0
1001
ACDBBLOCKREPETAG
1070
     1
1071
       10
1005
12E528
  0
LINE
  5
12E529
  8
CENTER
 10
2000.0
 20
-269.99999999999909
 30
0.0
 11
2000.0
 21
-114.9999999999991
 31
0.0
1001
ACDBBLOCKREPETAG
1070
     1
1071
       11
1005
12E529
  0
LINE
  5
12E52A
  8
OBJECT
 10
1954.038059222873
 20
-245.96194077712471
 30
0.0
 11
1938.0
 21
-261.99999999999909
 31
0.0
1001
ACDBBLOCKREPETAG
1070
     1
1071
       42
1005
12E52A
  0
LINE
  5
12E52B
  8
OBJECT
 10
2045.9619407771261
 20
-245.96194077712471
 30
0.0
 11
2062.0
 21
-261.99999999999909
 31
0.0
1001
ACDBBLOCKREPETAG
1070
     1
1071
       43
1005
12E52B
  0
POINT
  5
12E52C
  8
DOTS
 10
2000.0
 20
-199.99999999999909
 30
0.0
1001
ACDBBLOCKREPETAG
1070
     1
1071
      158
1005
12E52C
  0
POLYLINE
  5
12E52D
  8
HIDDEN
 66
     1
 10
0.0
 20
0.0
 30
0.0
 70
     1
1001
ACDBBLOCKREPETAG
1070
     1
1071
      105
1005
0
  0
VERTEX
  5
12FAD3
  8
HIDDEN
 10
359.99999999987818
 20
0.0000000000009095
 30
0.0
  0
VERTEX
  5
12FAD4
  8
HIDDEN
 10
719.99999999975626
 20
0.0000000000009095
 30
0.0
  0
VERTEX
  5
12FAD5
  8
HIDDEN
 10
719.99999999975626
 20
-463.99999999984078
 30
0.0
  0
VERTEX
  5
12FAD6
  8
HIDDEN
 10
359.99999999987818
 20
-463.99999999984078
 30
0.0
  0
SEQEND
  5
12FAD7
  8
HIDDEN
  0
POLYLINE
  5
12E52E
  8
HIDDEN
 66
     1
 10
0.0
 20
0.0
 30
0.0
 70
     1
1001
ACDBBLOCKREPETAG
1070
     1
1071
      110
1005
0
  0
VERTEX
  5
12FAD8
  8
HIDDEN
 10
0.0
 20
0.0000000000009095
 30
0.0
  0
VERTEX
  5
12FAD9
  8
HIDDEN
 10
359.99999999987818
 20
0.0000000000009095
 30
0.0
  0
VERTEX
  5
12FADA
  8
HIDDEN
 10
359.99999999987818
 20
-463.99999999984078
 30
0.0
  0
VERTEX
  5
12FADB
  8
HIDDEN
 10
0.0
 20
-463.99999999984078
 30
0.0
  0
SEQEND
  5
12FADC
  8
HIDDEN
  0
POLYLINE
  5
12E52F
  8
HIDDEN
 66
     1
 10
0.0
 20
0.0
 30
0.0
 70
     1
1001
ACDBBLOCKREPETAG
1070
     1
1071
      125
1005
0
  0
VERTEX
  5
12FADD
  8
HIDDEN
 10
0.0
 20
-463.99999999984078
 30
0.0
  0
VERTEX
  5
12FADE
  8
HIDDEN
 10
359.99999999987818
 20
-463.99999999984078
 30
0.0
  0
VERTEX
  5
12FADF
  8
HIDDEN
 10
359.99999999987818
 20
-927.99999999968247
 30
0.0
  0
VERTEX
  5
12FAE0
  8
HIDDEN
 10
0.0
 20
-927.99999999968247
 30
0.0
  0
SEQEND
  5
12FAE1
  8
HIDDEN
  0
TEXT
  5
12E530
  8
SLIM
 10
7824.6000000000022
 20
-1403.999999999998
 30
0.0
 40
28.0
  1
※ 対応スラブ厚　180～220
 41
0.75
  0
TEXT
  5
12E531
  8
SLIM
 10
7611.4999999999982
 20
-1497.333333333331
 30
0.0
 40
28.0
  1
国土交通大臣認定・（財）日本消防設備安全センター性能評定取得品
 41
0.75
  0
TEXT
  5
12E532
  8
SLIM
 10
7631.1000000000004
 20
-1543.999999999998
 30
0.0
 40
28.0
  1
注）ご採用にあたり、認定書及び評定書の内容をご確認ください。
 41
0.75
  0
LINE
  5
12E533
  8
CENTER
 10
3909.0
 20
-3174.9999999999959
 30
0.0
 11
3930.0
 21
-3174.9999999999959
 31
0.0
1001
ACDBBLOCKREPETAG
1070
     1
1071
        0
1005
12E533
  0
LINE
  5
12E534
  8
OBJECT
 10
3926.9999999999991
 20
-3236.9999999999959
 30
0.0
 11
3930.0
 21
-3236.9999999999959
 31
0.0
1001
ACDBBLOCKREPETAG
1070
     1
1071
        1
1005
12E534
  0
ARC
  5
12E535
  8
OBJECT
 10
3926.9999999999991
 20
-3233.9999999999959
 30
0.0
 40
3.0
 50
180.0
 51
270.0
1001
ACDBBLOCKREPETAG
1070
     1
1071
        2
1005
12E535
  0
LINE
  5
12E536
  8
OBJECT
 10
3930.0
 20
-3112.9999999999959
 30
0.0
 11
3926.9999999999991
 21
-3112.9999999999959
 31
0.0
1001
ACDBBLOCKREPETAG
1070
     1
1071
        3
1005
12E536
  0
ARC
  5
12E537
  8
OBJECT
 10
3926.9999999999991
 20
-3115.9999999999959
 30
0.0
 40
3.0
 50
90.0
 51
180.0
1001
ACDBBLOCKREPETAG
1070
     1
1071
        4
1005
12E537
  0
LINE
  5
12E538
  8
OBJECT
 10
3923.9999999999991
 20
-3115.9999999999959
 30
0.0
 11
3923.9999999999991
 21
-3233.9999999999959
 31
0.0
1001
ACDBBLOCKREPETAG
1070
     1
1071
        5
1005
12E538
  0
LINE
  5
12E539
  8
CENTER
 10
4000.0
 20
-3265.9999999999959
 30
0.0
 11
4000.0
 21
-3244.9999999999959
 31
0.0
1001
ACDBBLOCKREPETAG
1070
     1
1071
        0
1005
12E539
  0
LINE
  5
12E53A
  8
OBJECT
 10
4062.0
 20
-3247.9999999999968
 30
0.0
 11
4062.0
 21
-3244.9999999999959
 31
0.0
1001
ACDBBLOCKREPETAG
1070
     1
1071
        1
1005
12E53A
  0
ARC
  5
12E53B
  8
OBJECT
 10
4059.0
 20
-3247.9999999999968
 30
0.0
 40
3.0
 50
270.0
 51
0.0
1001
ACDBBLOCKREPETAG
1070
     1
1071
        2
1005
12E53B
  0
LINE
  5
12E53C
  8
OBJECT
 10
3938.0
 20
-3244.9999999999959
 30
0.0
 11
3938.0
 21
-3247.999999999995
 31
0.0
1001
ACDBBLOCKREPETAG
1070
     1
1071
        3
1005
12E53C
  0
ARC
  5
12E53D
  8
OBJECT
 10
3941.0
 20
-3247.999999999995
 30
0.0
 40
3.0
 50
180.0
 51
270.0
1001
ACDBBLOCKREPETAG
1070
     1
1071
        4
1005
12E53D
  0
LINE
  5
12E53E
  8
OBJECT
 10
3941.0
 20
-3250.999999999995
 30
0.0
 11
4059.0
 21
-3250.9999999999968
 31
0.0
1001
ACDBBLOCKREPETAG
1070
     1
1071
        5
1005
12E53E
  0
LINE
  5
12E53F
  8
OBJECT
 10
4123.0
 20
-3112.9999999999959
 30
0.0
 11
4130.0
 21
-3112.9999999999959
 31
0.0
1001
ACDBBLOCKREPETAG
1070
     1
1071
       47
1005
12E53F
  0
LINE
  5
12E540
  8
OBJECT
 10
4130.0
 20
-3112.9999999999959
 30
0.0
 11
4130.0
 21
-3236.9999999999959
 31
0.0
1001
ACDBBLOCKREPETAG
1070
     1
1071
       48
1005
12E540
  0
LINE
  5
12E541
  8
OBJECT
 10
4130.0
 20
-3236.9999999999959
 30
0.0
 11
4123.0
 21
-3236.9999999999959
 31
0.0
1001
ACDBBLOCKREPETAG
1070
     1
1071
       49
1005
12E541
  0
LINE
  5
12E542
  8
OBJECT
 10
4123.0
 20
-3236.9999999999959
 30
0.0
 11
4123.0
 21
-3112.9999999999959
 31
0.0
1001
ACDBBLOCKREPETAG
1070
     1
1071
       50
1005
12E542
  0
LINE
  5
12E543
  8
CENTER
 10
4145.0
 20
-3174.9999999999959
 30
0.0
 11
4069.9999999999991
 21
-3174.9999999999959
 31
0.0
1001
ACDBBLOCKREPETAG
1070
     1
1071
       51
1005
12E543
  0
LINE
  5
12E544
  8
OBJECT
 10
4123.0
 20
-3115.9999999999959
 30
0.0
 11
4086.9999999999982
 21
-3115.9999999999959
 31
0.0
1001
ACDBBLOCKREPETAG
1070
     1
1071
       52
1005
12E544
  0
LINE
  5
12E545
  8
OBJECT
 10
4086.9999999999982
 20
-3115.9999999999959
 30
0.0
 11
4086.9999999999982
 21
-3233.9999999999959
 31
0.0
1001
ACDBBLOCKREPETAG
1070
     1
1071
       53
1005
12E545
  0
LINE
  5
12E546
  8
OBJECT
 10
4086.9999999999982
 20
-3233.9999999999959
 30
0.0
 11
4123.0
 21
-3233.9999999999959
 31
0.0
1001
ACDBBLOCKREPETAG
1070
     1
1071
       54
1005
12E546
  0
LINE
  5
12E547
  8
OBJECT
 10
4083.0
 20
-3120.4999999999959
 30
0.0
 11
4075.9999999999982
 21
-3120.4999999999959
 31
0.0
1001
ACDBBLOCKREPETAG
1070
     1
1071
       55
1005
12E547
  0
LINE
  5
12E548
  8
OBJECT
 10
4075.9999999999982
 20
-3229.4999999999959
 30
0.0
 11
4083.0
 21
-3229.4999999999959
 31
0.0
1001
ACDBBLOCKREPETAG
1070
     1
1071
       56
1005
12E548
  0
LINE
  5
12E549
  8
OBJECT
 10
4083.0
 20
-3229.4999999999959
 30
0.0
 11
4083.0
 21
-3120.4999999999959
 31
0.0
1001
ACDBBLOCKREPETAG
1070
     1
1071
       57
1005
12E549
  0
LINE
  5
12E54A
  8
OBJECT
 10
4086.9999999999982
 20
-3115.9999999999959
 30
0.0
 11
4083.0
 21
-3120.4999999999959
 31
0.0
1001
ACDBBLOCKREPETAG
1070
     1
1071
       58
1005
12E54A
  0
LINE
  5
12E54B
  8
OBJECT
 10
4086.9999999999982
 20
-3233.9999999999959
 30
0.0
 11
4083.0
 21
-3229.4999999999959
 31
0.0
1001
ACDBBLOCKREPETAG
1070
     1
1071
       59
1005
12E54B
  0
LINE
  5
12E54C
  8
OBJECT
 10
4072.9999999999991
 20
-3112.9999999999959
 30
0.0
 11
4069.9999999999991
 21
-3112.9999999999959
 31
0.0
1001
ACDBBLOCKREPETAG
1070
     1
1071
       60
1005
12E54C
  0
ARC
  5
12E54D
  8
OBJECT
 10
4072.9999999999991
 20
-3115.9999999999959
 30
0.0
 40
3.0
 50
0.0
 51
90.0
1001
ACDBBLOCKREPETAG
1070
     1
1071
       61
1005
12E54D
  0
LINE
  5
12E54E
  8
OBJECT
 10
4069.9999999999991
 20
-3236.9999999999959
 30
0.0
 11
4072.9999999999991
 21
-3236.9999999999959
 31
0.0
1001
ACDBBLOCKREPETAG
1070
     1
1071
       62
1005
12E54E
  0
ARC
  5
12E54F
  8
OBJECT
 10
4072.9999999999991
 20
-3233.9999999999959
 30
0.0
 40
3.0
 50
270.0
 51
0.0
1001
ACDBBLOCKREPETAG
1070
     1
1071
       63
1005
12E54F
  0
LINE
  5
12E550
  8
OBJECT
 10
4075.9999999999982
 20
-3233.9999999999959
 30
0.0
 11
4075.9999999999982
 21
-3115.9999999999959
 31
0.0
1001
ACDBBLOCKREPETAG
1070
     1
1071
       64
1005
12E550
  0
LINE
  5
12E551
  8
HIDDEN
 10
4077.9999999999982
 20
-3130.4999999999959
 30
0.0
 11
4077.9999999999982
 21
-3219.4999999999959
 31
0.0
1001
ACDBBLOCKREPETAG
1070
     1
1071
       65
1005
12E551
  0
LINE
  5
12E552
  8
CENTER
 10
2909.0
 20
-3174.9999999999959
 30
0.0
 11
2930.0
 21
-3174.9999999999959
 31
0.0
1001
ACDBBLOCKREPETAG
1070
     1
1071
        0
1005
12E552
  0
LINE
  5
12E553
  8
OBJECT
 10
2926.9999999999991
 20
-3236.9999999999959
 30
0.0
 11
2930.0
 21
-3236.9999999999959
 31
0.0
1001
ACDBBLOCKREPETAG
1070
     1
1071
        1
1005
12E553
  0
ARC
  5
12E554
  8
OBJECT
 10
2926.9999999999991
 20
-3233.9999999999959
 30
0.0
 40
3.0
 50
180.0
 51
270.0
1001
ACDBBLOCKREPETAG
1070
     1
1071
        2
1005
12E554
  0
LINE
  5
12E555
  8
OBJECT
 10
2930.0
 20
-3112.9999999999959
 30
0.0
 11
2926.9999999999991
 21
-3112.9999999999959
 31
0.0
1001
ACDBBLOCKREPETAG
1070
     1
1071
        3
1005
12E555
  0
ARC
  5
12E556
  8
OBJECT
 10
2926.9999999999991
 20
-3115.9999999999959
 30
0.0
 40
3.0
 50
90.0
 51
180.0
1001
ACDBBLOCKREPETAG
1070
     1
1071
        4
1005
12E556
  0
LINE
  5
12E557
  8
OBJECT
 10
2923.9999999999991
 20
-3115.9999999999959
 30
0.0
 11
2923.9999999999991
 21
-3233.9999999999959
 31
0.0
1001
ACDBBLOCKREPETAG
1070
     1
1071
        5
1005
12E557
  0
LINE
  5
12E558
  8
CENTER
 10
3000.0
 20
-3265.9999999999959
 30
0.0
 11
3000.0
 21
-3244.9999999999959
 31
0.0
1001
ACDBBLOCKREPETAG
1070
     1
1071
        0
1005
12E558
  0
LINE
  5
12E559
  8
OBJECT
 10
3062.0
 20
-3247.9999999999968
 30
0.0
 11
3062.0
 21
-3244.9999999999959
 31
0.0
1001
ACDBBLOCKREPETAG
1070
     1
1071
        1
1005
12E559
  0
ARC
  5
12E55A
  8
OBJECT
 10
3059.0
 20
-3247.9999999999968
 30
0.0
 40
3.0
 50
270.0
 51
0.0
1001
ACDBBLOCKREPETAG
1070
     1
1071
        2
1005
12E55A
  0
LINE
  5
12E55B
  8
OBJECT
 10
2938.0
 20
-3244.9999999999959
 30
0.0
 11
2938.0
 21
-3247.999999999995
 31
0.0
1001
ACDBBLOCKREPETAG
1070
     1
1071
        3
1005
12E55B
  0
ARC
  5
12E55C
  8
OBJECT
 10
2941.0
 20
-3247.999999999995
 30
0.0
 40
3.0
 50
180.0
 51
270.0
1001
ACDBBLOCKREPETAG
1070
     1
1071
        4
1005
12E55C
  0
LINE
  5
12E55D
  8
OBJECT
 10
2941.0
 20
-3250.999999999995
 30
0.0
 11
3059.0
 21
-3250.9999999999968
 31
0.0
1001
ACDBBLOCKREPETAG
1070
     1
1071
        5
1005
12E55D
  0
LINE
  5
12E55E
  8
OBJECT
 10
3123.0
 20
-3119.9999999999959
 30
0.0
 11
3130.0
 21
-3119.9999999999959
 31
0.0
1001
ACDBBLOCKREPETAG
1070
     1
1071
       27
1005
12E55E
  0
LINE
  5
12E55F
  8
OBJECT
 10
3130.0
 20
-3119.9999999999959
 30
0.0
 11
3130.0
 21
-3229.9999999999959
 31
0.0
1001
ACDBBLOCKREPETAG
1070
     1
1071
       28
1005
12E55F
  0
LINE
  5
12E560
  8
OBJECT
 10
3130.0
 20
-3229.9999999999959
 30
0.0
 11
3123.0
 21
-3229.9999999999959
 31
0.0
1001
ACDBBLOCKREPETAG
1070
     1
1071
       29
1005
12E560
  0
LINE
  5
12E561
  8
OBJECT
 10
3123.0
 20
-3229.9999999999959
 30
0.0
 11
3123.0
 21
-3119.9999999999959
 31
0.0
1001
ACDBBLOCKREPETAG
1070
     1
1071
       30
1005
12E561
  0
LINE
  5
12E562
  8
CENTER
 10
3145.0
 20
-3174.9999999999959
 30
0.0
 11
3070.0
 21
-3174.9999999999959
 31
0.0
1001
ACDBBLOCKREPETAG
1070
     1
1071
       31
1005
12E562
  0
LINE
  5
12E563
  8
OBJECT
 10
3123.0
 20
-3122.9999999999959
 30
0.0
 11
3087.0
 21
-3122.9999999999959
 31
0.0
1001
ACDBBLOCKREPETAG
1070
     1
1071
       32
1005
12E563
  0
LINE
  5
12E564
  8
OBJECT
 10
3087.0
 20
-3122.9999999999959
 30
0.0
 11
3087.0
 21
-3226.9999999999959
 31
0.0
1001
ACDBBLOCKREPETAG
1070
     1
1071
       33
1005
12E564
  0
LINE
  5
12E565
  8
OBJECT
 10
3087.0
 20
-3226.9999999999959
 30
0.0
 11
3123.0
 21
-3226.9999999999959
 31
0.0
1001
ACDBBLOCKREPETAG
1070
     1
1071
       34
1005
12E565
  0
LINE
  5
12E566
  8
OBJECT
 10
3083.0
 20
-3127.4999999999959
 30
0.0
 11
3076.0
 21
-3127.4999999999959
 31
0.0
1001
ACDBBLOCKREPETAG
1070
     1
1071
       35
1005
12E566
  0
LINE
  5
12E567
  8
OBJECT
 10
3076.0
 20
-3222.4999999999959
 30
0.0
 11
3083.0
 21
-3222.4999999999959
 31
0.0
1001
ACDBBLOCKREPETAG
1070
     1
1071
       36
1005
12E567
  0
LINE
  5
12E568
  8
OBJECT
 10
3083.0
 20
-3222.4999999999959
 30
0.0
 11
3083.0
 21
-3127.4999999999959
 31
0.0
1001
ACDBBLOCKREPETAG
1070
     1
1071
       37
1005
12E568
  0
LINE
  5
12E569
  8
OBJECT
 10
3087.0
 20
-3122.9999999999959
 30
0.0
 11
3083.0
 21
-3127.4999999999959
 31
0.0
1001
ACDBBLOCKREPETAG
1070
     1
1071
       38
1005
12E569
  0
LINE
  5
12E56A
  8
OBJECT
 10
3087.0
 20
-3226.9999999999959
 30
0.0
 11
3083.0
 21
-3222.4999999999959
 31
0.0
1001
ACDBBLOCKREPETAG
1070
     1
1071
       39
1005
12E56A
  0
LINE
  5
12E56B
  8
OBJECT
 10
3073.0
 20
-3112.9999999999959
 30
0.0
 11
3070.0
 21
-3112.9999999999959
 31
0.0
1001
ACDBBLOCKREPETAG
1070
     1
1071
       40
1005
12E56B
  0
ARC
  5
12E56C
  8
OBJECT
 10
3073.0
 20
-3115.9999999999959
 30
0.0
 40
3.0
 50
0.0
 51
90.0
1001
ACDBBLOCKREPETAG
1070
     1
1071
       41
1005
12E56C
  0
LINE
  5
12E56D
  8
OBJECT
 10
3070.0
 20
-3236.9999999999959
 30
0.0
 11
3073.0
 21
-3236.9999999999959
 31
0.0
1001
ACDBBLOCKREPETAG
1070
     1
1071
       42
1005
12E56D
  0
ARC
  5
12E56E
  8
OBJECT
 10
3073.0
 20
-3233.9999999999959
 30
0.0
 40
3.0
 50
270.0
 51
0.0
1001
ACDBBLOCKREPETAG
1070
     1
1071
       43
1005
12E56E
  0
LINE
  5
12E56F
  8
OBJECT
 10
3076.0
 20
-3233.9999999999959
 30
0.0
 11
3076.0
 21
-3115.9999999999959
 31
0.0
1001
ACDBBLOCKREPETAG
1070
     1
1071
       44
1005
12E56F
  0
LINE
  5
12E570
  8
HIDDEN
 10
3078.0
 20
-3136.9999999999959
 30
0.0
 11
3078.0
 21
-3212.9999999999959
 31
0.0
1001
ACDBBLOCKREPETAG
1070
     1
1071
       45
1005
12E570
  0
LINE
  5
12E571
  8
CENTER
 10
1908.9999999999991
 20
-3174.9999999999959
 30
0.0
 11
1929.9999999999991
 21
-3174.9999999999959
 31
0.0
1001
ACDBBLOCKREPETAG
1070
     1
1071
        0
1005
12E571
  0
LINE
  5
12E572
  8
OBJECT
 10
1926.9999999999991
 20
-3236.9999999999959
 30
0.0
 11
1929.9999999999991
 21
-3236.9999999999959
 31
0.0
1001
ACDBBLOCKREPETAG
1070
     1
1071
        1
1005
12E572
  0
ARC
  5
12E573
  8
OBJECT
 10
1926.9999999999991
 20
-3233.9999999999959
 30
0.0
 40
3.0
 50
180.0
 51
270.0
1001
ACDBBLOCKREPETAG
1070
     1
1071
        2
1005
12E573
  0
LINE
  5
12E574
  8
OBJECT
 10
1929.9999999999991
 20
-3112.9999999999959
 30
0.0
 11
1926.9999999999991
 21
-3112.9999999999959
 31
0.0
1001
ACDBBLOCKREPETAG
1070
     1
1071
        3
1005
12E574
  0
ARC
  5
12E575
  8
OBJECT
 10
1926.9999999999991
 20
-3115.9999999999959
 30
0.0
 40
3.0
 50
90.0
 51
180.0
1001
ACDBBLOCKREPETAG
1070
     1
1071
        4
1005
12E575
  0
LINE
  5
12E576
  8
OBJECT
 10
1923.9999999999991
 20
-3115.9999999999959
 30
0.0
 11
1923.9999999999991
 21
-3233.9999999999959
 31
0.0
1001
ACDBBLOCKREPETAG
1070
     1
1071
        5
1005
12E576
  0
LINE
  5
12E577
  8
CENTER
 10
2000.0
 20
-3265.9999999999959
 30
0.0
 11
2000.0
 21
-3244.9999999999959
 31
0.0
1001
ACDBBLOCKREPETAG
1070
     1
1071
        0
1005
12E577
  0
LINE
  5
12E578
  8
OBJECT
 10
2062.0
 20
-3247.9999999999968
 30
0.0
 11
2062.0
 21
-3244.9999999999959
 31
0.0
1001
ACDBBLOCKREPETAG
1070
     1
1071
        1
1005
12E578
  0
ARC
  5
12E579
  8
OBJECT
 10
2059.0
 20
-3247.9999999999968
 30
0.0
 40
3.0
 50
270.0
 51
0.0
1001
ACDBBLOCKREPETAG
1070
     1
1071
        2
1005
12E579
  0
LINE
  5
12E57A
  8
OBJECT
 10
1937.9999999999991
 20
-3244.9999999999959
 30
0.0
 11
1937.9999999999991
 21
-3247.999999999995
 31
0.0
1001
ACDBBLOCKREPETAG
1070
     1
1071
        3
1005
12E57A
  0
ARC
  5
12E57B
  8
OBJECT
 10
1941.0
 20
-3247.999999999995
 30
0.0
 40
3.0
 50
180.0
 51
270.0
1001
ACDBBLOCKREPETAG
1070
     1
1071
        4
1005
12E57B
  0
LINE
  5
12E57C
  8
OBJECT
 10
1941.0
 20
-3250.999999999995
 30
0.0
 11
2059.0
 21
-3250.9999999999968
 31
0.0
1001
ACDBBLOCKREPETAG
1070
     1
1071
        5
1005
12E57C
  0
LINE
  5
12E57D
  8
OBJECT
 10
2123.0
 20
-3127.9999999999959
 30
0.0
 11
2130.0
 21
-3127.9999999999959
 31
0.0
1001
ACDBBLOCKREPETAG
1070
     1
1071
        7
1005
12E57D
  0
LINE
  5
12E57E
  8
OBJECT
 10
2130.0
 20
-3127.9999999999959
 30
0.0
 11
2130.0
 21
-3221.9999999999959
 31
0.0
1001
ACDBBLOCKREPETAG
1070
     1
1071
        8
1005
12E57E
  0
LINE
  5
12E57F
  8
OBJECT
 10
2130.0
 20
-3221.9999999999959
 30
0.0
 11
2123.0
 21
-3221.9999999999959
 31
0.0
1001
ACDBBLOCKREPETAG
1070
     1
1071
        9
1005
12E57F
  0
LINE
  5
12E580
  8
OBJECT
 10
2123.0
 20
-3221.9999999999959
 30
0.0
 11
2123.0
 21
-3127.9999999999959
 31
0.0
1001
ACDBBLOCKREPETAG
1070
     1
1071
       10
1005
12E580
  0
LINE
  5
12E581
  8
CENTER
 10
2145.0
 20
-3174.9999999999959
 30
0.0
 11
2070.0
 21
-3174.9999999999959
 31
0.0
1001
ACDBBLOCKREPETAG
1070
     1
1071
       11
1005
12E581
  0
LINE
  5
12E582
  8
OBJECT
 10
2123.0
 20
-3130.9999999999959
 30
0.0
 11
2087.0
 21
-3130.9999999999959
 31
0.0
1001
ACDBBLOCKREPETAG
1070
     1
1071
       12
1005
12E582
  0
LINE
  5
12E583
  8
OBJECT
 10
2087.0
 20
-3130.9999999999959
 30
0.0
 11
2087.0
 21
-3218.9999999999959
 31
0.0
1001
ACDBBLOCKREPETAG
1070
     1
1071
       13
1005
12E583
  0
LINE
  5
12E584
  8
OBJECT
 10
2087.0
 20
-3218.9999999999959
 30
0.0
 11
2123.0
 21
-3218.9999999999959
 31
0.0
1001
ACDBBLOCKREPETAG
1070
     1
1071
       14
1005
12E584
  0
LINE
  5
12E585
  8
OBJECT
 10
2083.0
 20
-3135.4999999999959
 30
0.0
 11
2076.0
 21
-3135.4999999999959
 31
0.0
1001
ACDBBLOCKREPETAG
1070
     1
1071
       15
1005
12E585
  0
LINE
  5
12E586
  8
OBJECT
 10
2076.0
 20
-3214.4999999999959
 30
0.0
 11
2083.0
 21
-3214.4999999999959
 31
0.0
1001
ACDBBLOCKREPETAG
1070
     1
1071
       16
1005
12E586
  0
LINE
  5
12E587
  8
OBJECT
 10
2083.0
 20
-3214.4999999999959
 30
0.0
 11
2083.0
 21
-3135.4999999999959
 31
0.0
1001
ACDBBLOCKREPETAG
1070
     1
1071
       17
1005
12E587
  0
LINE
  5
12E588
  8
OBJECT
 10
2087.0
 20
-3130.9999999999959
 30
0.0
 11
2083.0
 21
-3135.4999999999959
 31
0.0
1001
ACDBBLOCKREPETAG
1070
     1
1071
       18
1005
12E588
  0
LINE
  5
12E589
  8
OBJECT
 10
2087.0
 20
-3218.9999999999959
 30
0.0
 11
2083.0
 21
-3214.4999999999959
 31
0.0
1001
ACDBBLOCKREPETAG
1070
     1
1071
       19
1005
12E589
  0
LINE
  5
12E58A
  8
OBJECT
 10
2073.0
 20
-3112.9999999999959
 30
0.0
 11
2070.0
 21
-3112.9999999999959
 31
0.0
1001
ACDBBLOCKREPETAG
1070
     1
1071
       20
1005
12E58A
  0
ARC
  5
12E58B
  8
OBJECT
 10
2073.0
 20
-3115.9999999999959
 30
0.0
 40
3.0
 50
0.0
 51
90.0
1001
ACDBBLOCKREPETAG
1070
     1
1071
       21
1005
12E58B
  0
LINE
  5
12E58C
  8
OBJECT
 10
2070.0
 20
-3236.9999999999959
 30
0.0
 11
2073.0
 21
-3236.9999999999959
 31
0.0
1001
ACDBBLOCKREPETAG
1070
     1
1071
       22
1005
12E58C
  0
ARC
  5
12E58D
  8
OBJECT
 10
2073.0
 20
-3233.9999999999959
 30
0.0
 40
3.0
 50
270.0
 51
0.0
1001
ACDBBLOCKREPETAG
1070
     1
1071
       23
1005
12E58D
  0
LINE
  5
12E58E
  8
OBJECT
 10
2076.0
 20
-3233.9999999999959
 30
0.0
 11
2076.0
 21
-3115.9999999999959
 31
0.0
1001
ACDBBLOCKREPETAG
1070
     1
1071
       24
1005
12E58E
  0
LINE
  5
12E58F
  8
HIDDEN
 10
2078.0
 20
-3144.9999999999959
 30
0.0
 11
2078.0
 21
-3204.9999999999959
 31
0.0
1001
ACDBBLOCKREPETAG
1070
     1
1071
       25
1005
12E58F
  0
LINE
  5
12E590
  8
OBJECT
 10
4327.0
 20
-3458.9999999999959
 30
0.0
 11
4330.0
 21
-3458.9999999999959
 31
0.0
1001
ACDBBLOCKREPETAG
1070
     1
1071
        1
1005
12E590
  0
ARC
  5
12E591
  8
OBJECT
 10
4327.0
 20
-3461.9999999999959
 30
0.0
 40
3.0
 50
90.0
 51
180.0
1001
ACDBBLOCKREPETAG
1070
     1
1071
        2
1005
12E591
  0
LINE
  5
12E592
  8
OBJECT
 10
4330.0
 20
-3582.9999999999968
 30
0.0
 11
4327.0
 21
-3582.9999999999968
 31
0.0
1001
ACDBBLOCKREPETAG
1070
     1
1071
        3
1005
12E592
  0
ARC
  5
12E593
  8
OBJECT
 10
4327.0
 20
-3579.9999999999959
 30
0.0
 40
3.0
 50
180.0
 51
270.0
1001
ACDBBLOCKREPETAG
1070
     1
1071
        4
1005
12E593
  0
LINE
  5
12E594
  8
OBJECT
 10
4324.0
 20
-3579.9999999999959
 30
0.0
 11
4324.0
 21
-3461.9999999999959
 31
0.0
1001
ACDBBLOCKREPETAG
1070
     1
1071
        5
1005
12E594
  0
LINE
  5
12E595
  8
OBJECT
 10
3927.0
 20
-3458.9999999999959
 30
0.0
 11
3930.0
 21
-3458.9999999999959
 31
0.0
1001
ACDBBLOCKREPETAG
1070
     1
1071
        1
1005
12E595
  0
ARC
  5
12E596
  8
OBJECT
 10
3927.0
 20
-3461.9999999999959
 30
0.0
 40
3.0
 50
90.0
 51
180.0
1001
ACDBBLOCKREPETAG
1070
     1
1071
        2
1005
12E596
  0
LINE
  5
12E597
  8
OBJECT
 10
3930.0
 20
-3582.9999999999968
 30
0.0
 11
3927.0
 21
-3582.9999999999968
 31
0.0
1001
ACDBBLOCKREPETAG
1070
     1
1071
        3
1005
12E597
  0
ARC
  5
12E598
  8
OBJECT
 10
3927.0
 20
-3579.9999999999959
 30
0.0
 40
3.0
 50
180.0
 51
270.0
1001
ACDBBLOCKREPETAG
1070
     1
1071
        4
1005
12E598
  0
LINE
  5
12E599
  8
OBJECT
 10
3924.0
 20
-3579.9999999999959
 30
0.0
 11
3924.0
 21
-3461.9999999999959
 31
0.0
1001
ACDBBLOCKREPETAG
1070
     1
1071
        5
1005
12E599
  0
CIRCLE
  5
12E59A
  8
OBJECT
 10
4000.0
 20
-3520.9999999999968
 30
0.0
 40
62.0
1001
ACDBBLOCKREPETAG
1070
     1
1071
        0
1005
12E59A
  0
LINE
  5
12E59B
  8
CENTER
 10
4477.0
 20
-3520.9999999999968
 30
0.0
 11
4323.0
 21
-3520.9999999999968
 31
0.0
1001
ACDBBLOCKREPETAG
1070
     1
1071
       17
1005
12E59B
  0
CIRCLE
  5
12E59C
  8
OBJECT
 10
4400.0
 20
-3520.9999999999968
 30
0.0
 40
41.5
1001
ACDBBLOCKREPETAG
1070
     1
1071
       19
1005
12E59C
  0
CIRCLE
  5
12E59D
  8
OBJECT
 10
4400.0
 20
-3520.9999999999968
 30
0.0
 40
54.0
1001
ACDBBLOCKREPETAG
1070
     1
1071
       20
1005
12E59D
  0
ARC
  5
12E59E
  8
OBJECT
 10
4400.0
 20
-3520.9999999999968
 30
0.0
 40
62.0
 50
287.89655112921122
 51
252.1034488707887
1001
ACDBBLOCKREPETAG
1070
     1
1071
       21
1005
12E59E
  0
LINE
  5
12E59F
  8
OBJECT
 10
4380.947441116743
 20
-3579.9999999999968
 30
0.0
 11
4419.052558883257
 21
-3579.9999999999968
 31
0.0
1001
ACDBBLOCKREPETAG
1070
     1
1071
       22
1005
12E59F
  0
LINE
  5
12E5A0
  8
OBJECT
 10
4123.0
 20
-3458.9999999999968
 30
0.0
 11
4130.0
 21
-3458.9999999999968
 31
0.0
1001
ACDBBLOCKREPETAG
1070
     1
1071
       45
1005
12E5A0
  0
LINE
  5
12E5A1
  8
OBJECT
 10
4130.0
 20
-3458.9999999999968
 30
0.0
 11
4130.0
 21
-3579.9999999999968
 31
0.0
1001
ACDBBLOCKREPETAG
1070
     1
1071
       46
1005
12E5A1
  0
LINE
  5
12E5A2
  8
OBJECT
 10
4123.0
 20
-3579.9999999999968
 30
0.0
 11
4123.0
 21
-3458.9999999999968
 31
0.0
1001
ACDBBLOCKREPETAG
1070
     1
1071
       47
1005
12E5A2
  0
LINE
  5
12E5A3
  8
CENTER
 10
4145.0
 20
-3520.9999999999968
 30
0.0
 11
4060.9999999999991
 21
-3520.9999999999968
 31
0.0
1001
ACDBBLOCKREPETAG
1070
     1
1071
       48
1005
12E5A3
  0
LINE
  5
12E5A4
  8
OBJECT
 10
4123.0
 20
-3461.9999999999968
 30
0.0
 11
4086.9999999999982
 21
-3461.9999999999968
 31
0.0
1001
ACDBBLOCKREPETAG
1070
     1
1071
       49
1005
12E5A4
  0
LINE
  5
12E5A5
  8
OBJECT
 10
4086.9999999999982
 20
-3461.9999999999968
 30
0.0
 11
4086.9999999999982
 21
-3579.9999999999968
 31
0.0
1001
ACDBBLOCKREPETAG
1070
     1
1071
       50
1005
12E5A5
  0
LINE
  5
12E5A6
  8
OBJECT
 10
4086.9999999999982
 20
-3579.9999999999968
 30
0.0
 11
4130.0
 21
-3579.9999999999968
 31
0.0
1001
ACDBBLOCKREPETAG
1070
     1
1071
       51
1005
12E5A6
  0
LINE
  5
12E5A7
  8
OBJECT
 10
4083.0
 20
-3466.4999999999968
 30
0.0
 11
4075.9999999999982
 21
-3466.4999999999968
 31
0.0
1001
ACDBBLOCKREPETAG
1070
     1
1071
       52
1005
12E5A7
  0
LINE
  5
12E5A8
  8
OBJECT
 10
4075.9999999999982
 20
-3575.4999999999968
 30
0.0
 11
4083.0
 21
-3575.4999999999968
 31
0.0
1001
ACDBBLOCKREPETAG
1070
     1
1071
       53
1005
12E5A8
  0
LINE
  5
12E5A9
  8
OBJECT
 10
4083.0
 20
-3575.4999999999968
 30
0.0
 11
4083.0
 21
-3466.4999999999968
 31
0.0
1001
ACDBBLOCKREPETAG
1070
     1
1071
       54
1005
12E5A9
  0
LINE
  5
12E5AA
  8
OBJECT
 10
4086.9999999999982
 20
-3461.9999999999968
 30
0.0
 11
4083.0
 21
-3466.4999999999968
 31
0.0
1001
ACDBBLOCKREPETAG
1070
     1
1071
       55
1005
12E5AA
  0
LINE
  5
12E5AB
  8
OBJECT
 10
4086.9999999999982
 20
-3579.9999999999968
 30
0.0
 11
4083.0
 21
-3575.4999999999968
 31
0.0
1001
ACDBBLOCKREPETAG
1070
     1
1071
       56
1005
12E5AB
  0
LINE
  5
12E5AC
  8
OBJECT
 10
4072.9999999999991
 20
-3458.9999999999968
 30
0.0
 11
4069.9999999999991
 21
-3458.9999999999968
 31
0.0
1001
ACDBBLOCKREPETAG
1070
     1
1071
       57
1005
12E5AC
  0
ARC
  5
12E5AD
  8
OBJECT
 10
4072.9999999999991
 20
-3461.9999999999968
 30
0.0
 40
3.0
 50
0.0
 51
90.0
1001
ACDBBLOCKREPETAG
1070
     1
1071
       58
1005
12E5AD
  0
LINE
  5
12E5AE
  8
OBJECT
 10
4069.9999999999991
 20
-3582.9999999999968
 30
0.0
 11
4072.9999999999991
 21
-3582.9999999999968
 31
0.0
1001
ACDBBLOCKREPETAG
1070
     1
1071
       59
1005
12E5AE
  0
ARC
  5
12E5AF
  8
OBJECT
 10
4072.9999999999991
 20
-3579.9999999999968
 30
0.0
 40
3.0
 50
270.0
 51
0.0
1001
ACDBBLOCKREPETAG
1070
     1
1071
       60
1005
12E5AF
  0
LINE
  5
12E5B0
  8
OBJECT
 10
4075.9999999999982
 20
-3579.9999999999968
 30
0.0
 11
4075.9999999999982
 21
-3461.9999999999968
 31
0.0
1001
ACDBBLOCKREPETAG
1070
     1
1071
       61
1005
12E5B0
  0
LINE
  5
12E5B1
  8
HIDDEN
 10
4077.9999999999982
 20
-3476.4999999999968
 30
0.0
 11
4077.9999999999982
 21
-3565.4999999999968
 31
0.0
1001
ACDBBLOCKREPETAG
1070
     1
1071
       63
1005
12E5B1
  0
LINE
  5
12E5B2
  8
OBJECT
 10
3327.0
 20
-3458.9999999999959
 30
0.0
 11
3330.0
 21
-3458.9999999999959
 31
0.0
1001
ACDBBLOCKREPETAG
1070
     1
1071
        1
1005
12E5B2
  0
ARC
  5
12E5B3
  8
OBJECT
 10
3327.0
 20
-3461.9999999999959
 30
0.0
 40
3.0
 50
90.0
 51
180.0
1001
ACDBBLOCKREPETAG
1070
     1
1071
        2
1005
12E5B3
  0
LINE
  5
12E5B4
  8
OBJECT
 10
3330.0
 20
-3582.9999999999968
 30
0.0
 11
3327.0
 21
-3582.9999999999968
 31
0.0
1001
ACDBBLOCKREPETAG
1070
     1
1071
        3
1005
12E5B4
  0
ARC
  5
12E5B5
  8
OBJECT
 10
3327.0
 20
-3579.9999999999959
 30
0.0
 40
3.0
 50
180.0
 51
270.0
1001
ACDBBLOCKREPETAG
1070
     1
1071
        4
1005
12E5B5
  0
LINE
  5
12E5B6
  8
OBJECT
 10
3324.0
 20
-3579.9999999999959
 30
0.0
 11
3324.0
 21
-3461.9999999999959
 31
0.0
1001
ACDBBLOCKREPETAG
1070
     1
1071
        5
1005
12E5B6
  0
LINE
  5
12E5B7
  8
OBJECT
 10
2927.0
 20
-3458.9999999999959
 30
0.0
 11
2930.0
 21
-3458.9999999999959
 31
0.0
1001
ACDBBLOCKREPETAG
1070
     1
1071
        1
1005
12E5B7
  0
ARC
  5
12E5B8
  8
OBJECT
 10
2927.0
 20
-3461.9999999999959
 30
0.0
 40
3.0
 50
90.0
 51
180.0
1001
ACDBBLOCKREPETAG
1070
     1
1071
        2
1005
12E5B8
  0
LINE
  5
12E5B9
  8
OBJECT
 10
2930.0
 20
-3582.9999999999968
 30
0.0
 11
2927.0
 21
-3582.9999999999968
 31
0.0
1001
ACDBBLOCKREPETAG
1070
     1
1071
        3
1005
12E5B9
  0
ARC
  5
12E5BA
  8
OBJECT
 10
2927.0
 20
-3579.9999999999959
 30
0.0
 40
3.0
 50
180.0
 51
270.0
1001
ACDBBLOCKREPETAG
1070
     1
1071
        4
1005
12E5BA
  0
LINE
  5
12E5BB
  8
OBJECT
 10
2924.0
 20
-3579.9999999999959
 30
0.0
 11
2924.0
 21
-3461.9999999999959
 31
0.0
1001
ACDBBLOCKREPETAG
1070
     1
1071
        5
1005
12E5BB
  0
CIRCLE
  5
12E5BC
  8
OBJECT
 10
3000.0
 20
-3520.9999999999968
 30
0.0
 40
62.0
1001
ACDBBLOCKREPETAG
1070
     1
1071
        0
1005
12E5BC
  0
CIRCLE
  5
12E5BD
  8
OBJECT
 10
3400.0
 20
-3527.9999999999968
 30
0.0
 40
35.5
1001
ACDBBLOCKREPETAG
1070
     1
1071
       10
1005
12E5BD
  0
CIRCLE
  5
12E5BE
  8
OBJECT
 10
3400.0
 20
-3520.9999999999968
 30
0.0
 40
62.0
1001
ACDBBLOCKREPETAG
1070
     1
1071
       11
1005
12E5BE
  0
LINE
  5
12E5BF
  8
CENTER
 10
3330.0
 20
-3527.9999999999968
 30
0.0
 11
3470.0
 21
-3527.9999999999968
 31
0.0
1001
ACDBBLOCKREPETAG
1070
     1
1071
       12
1005
12E5BF
  0
CIRCLE
  5
12E5C0
  8
OBJECT
 10
3400.0
 20
-3527.9999999999968
 30
0.0
 40
47.0
1001
ACDBBLOCKREPETAG
1070
     1
1071
       14
1005
12E5C0
  0
ARC
  5
12E5C1
  8
OBJECT
 10
3400.0
 20
-3527.9999999999968
 30
0.0
 40
55.0
 50
289.01126526011359
 51
250.98873473988641
1001
ACDBBLOCKREPETAG
1070
     1
1071
       15
1005
12E5C1
  0
LINE
  5
12E5C2
  8
OBJECT
 10
3382.0835271328328
 20
-3579.9999999999968
 30
0.0
 11
3417.9164728671681
 21
-3579.9999999999968
 31
0.0
1001
ACDBBLOCKREPETAG
1070
     1
1071
       16
1005
12E5C2
  0
LINE
  5
12E5C3
  8
OBJECT
 10
3123.0
 20
-3472.9999999999968
 30
0.0
 11
3130.0
 21
-3472.9999999999968
 31
0.0
1001
ACDBBLOCKREPETAG
1070
     1
1071
       26
1005
12E5C3
  0
LINE
  5
12E5C4
  8
OBJECT
 10
3130.0
 20
-3472.9999999999968
 30
0.0
 11
3130.0
 21
-3579.9999999999968
 31
0.0
1001
ACDBBLOCKREPETAG
1070
     1
1071
       27
1005
12E5C4
  0
LINE
  5
12E5C5
  8
OBJECT
 10
3123.0
 20
-3579.9999999999968
 30
0.0
 11
3123.0
 21
-3472.9999999999968
 31
0.0
1001
ACDBBLOCKREPETAG
1070
     1
1071
       28
1005
12E5C5
  0
LINE
  5
12E5C6
  8
CENTER
 10
3145.0
 20
-3527.9999999999968
 30
0.0
 11
3061.0
 21
-3527.9999999999968
 31
0.0
1001
ACDBBLOCKREPETAG
1070
     1
1071
       29
1005
12E5C6
  0
LINE
  5
12E5C7
  8
OBJECT
 10
3123.0
 20
-3475.9999999999968
 30
0.0
 11
3087.0
 21
-3475.9999999999968
 31
0.0
1001
ACDBBLOCKREPETAG
1070
     1
1071
       30
1005
12E5C7
  0
LINE
  5
12E5C8
  8
OBJECT
 10
3087.0
 20
-3475.9999999999968
 30
0.0
 11
3087.0
 21
-3579.9999999999968
 31
0.0
1001
ACDBBLOCKREPETAG
1070
     1
1071
       31
1005
12E5C8
  0
LINE
  5
12E5C9
  8
OBJECT
 10
3087.0
 20
-3579.9999999999968
 30
0.0
 11
3130.0
 21
-3579.9999999999968
 31
0.0
1001
ACDBBLOCKREPETAG
1070
     1
1071
       32
1005
12E5C9
  0
LINE
  5
12E5CA
  8
OBJECT
 10
3083.0
 20
-3480.4999999999968
 30
0.0
 11
3076.0
 21
-3480.4999999999968
 31
0.0
1001
ACDBBLOCKREPETAG
1070
     1
1071
       33
1005
12E5CA
  0
LINE
  5
12E5CB
  8
OBJECT
 10
3076.0
 20
-3575.4999999999968
 30
0.0
 11
3083.0
 21
-3575.4999999999968
 31
0.0
1001
ACDBBLOCKREPETAG
1070
     1
1071
       34
1005
12E5CB
  0
LINE
  5
12E5CC
  8
OBJECT
 10
3083.0
 20
-3575.4999999999968
 30
0.0
 11
3083.0
 21
-3480.4999999999968
 31
0.0
1001
ACDBBLOCKREPETAG
1070
     1
1071
       35
1005
12E5CC
  0
LINE
  5
12E5CD
  8
OBJECT
 10
3087.0
 20
-3475.9999999999968
 30
0.0
 11
3083.0
 21
-3480.4999999999968
 31
0.0
1001
ACDBBLOCKREPETAG
1070
     1
1071
       36
1005
12E5CD
  0
LINE
  5
12E5CE
  8
OBJECT
 10
3087.0
 20
-3579.9999999999968
 30
0.0
 11
3083.0
 21
-3575.4999999999968
 31
0.0
1001
ACDBBLOCKREPETAG
1070
     1
1071
       37
1005
12E5CE
  0
LINE
  5
12E5CF
  8
OBJECT
 10
3073.0
 20
-3458.9999999999968
 30
0.0
 11
3070.0
 21
-3458.9999999999968
 31
0.0
1001
ACDBBLOCKREPETAG
1070
     1
1071
       38
1005
12E5CF
  0
ARC
  5
12E5D0
  8
OBJECT
 10
3073.0
 20
-3461.9999999999968
 30
0.0
 40
3.0
 50
0.0
 51
90.0
1001
ACDBBLOCKREPETAG
1070
     1
1071
       39
1005
12E5D0
  0
LINE
  5
12E5D1
  8
OBJECT
 10
3070.0
 20
-3582.9999999999968
 30
0.0
 11
3073.0
 21
-3582.9999999999968
 31
0.0
1001
ACDBBLOCKREPETAG
1070
     1
1071
       40
1005
12E5D1
  0
ARC
  5
12E5D2
  8
OBJECT
 10
3073.0
 20
-3579.9999999999968
 30
0.0
 40
3.0
 50
270.0
 51
0.0
1001
ACDBBLOCKREPETAG
1070
     1
1071
       41
1005
12E5D2
  0
LINE
  5
12E5D3
  8
OBJECT
 10
3076.0
 20
-3579.9999999999968
 30
0.0
 11
3076.0
 21
-3461.9999999999968
 31
0.0
1001
ACDBBLOCKREPETAG
1070
     1
1071
       42
1005
12E5D3
  0
LINE
  5
12E5D4
  8
HIDDEN
 10
3078.0
 20
-3489.9999999999968
 30
0.0
 11
3078.0
 21
-3565.9999999999968
 31
0.0
1001
ACDBBLOCKREPETAG
1070
     1
1071
       43
1005
12E5D4
  0
LINE
  5
12E5D5
  8
OBJECT
 10
2327.0
 20
-3458.9999999999959
 30
0.0
 11
2330.0
 21
-3458.9999999999959
 31
0.0
1001
ACDBBLOCKREPETAG
1070
     1
1071
        1
1005
12E5D5
  0
ARC
  5
12E5D6
  8
OBJECT
 10
2327.0
 20
-3461.9999999999959
 30
0.0
 40
3.0
 50
90.0
 51
180.0
1001
ACDBBLOCKREPETAG
1070
     1
1071
        2
1005
12E5D6
  0
LINE
  5
12E5D7
  8
OBJECT
 10
2330.0
 20
-3582.9999999999968
 30
0.0
 11
2327.0
 21
-3582.9999999999968
 31
0.0
1001
ACDBBLOCKREPETAG
1070
     1
1071
        3
1005
12E5D7
  0
ARC
  5
12E5D8
  8
OBJECT
 10
2327.0
 20
-3579.9999999999959
 30
0.0
 40
3.0
 50
180.0
 51
270.0
1001
ACDBBLOCKREPETAG
1070
     1
1071
        4
1005
12E5D8
  0
LINE
  5
12E5D9
  8
OBJECT
 10
2324.0
 20
-3579.9999999999959
 30
0.0
 11
2324.0
 21
-3461.9999999999959
 31
0.0
1001
ACDBBLOCKREPETAG
1070
     1
1071
        5
1005
12E5D9
  0
LINE
  5
12E5DA
  8
OBJECT
 10
1927.0
 20
-3458.9999999999959
 30
0.0
 11
1929.9999999999991
 21
-3458.9999999999959
 31
0.0
1001
ACDBBLOCKREPETAG
1070
     1
1071
        1
1005
12E5DA
  0
ARC
  5
12E5DB
  8
OBJECT
 10
1927.0
 20
-3461.9999999999959
 30
0.0
 40
3.0
 50
90.0
 51
180.0
1001
ACDBBLOCKREPETAG
1070
     1
1071
        2
1005
12E5DB
  0
LINE
  5
12E5DC
  8
OBJECT
 10
1929.9999999999991
 20
-3582.9999999999968
 30
0.0
 11
1927.0
 21
-3582.9999999999968
 31
0.0
1001
ACDBBLOCKREPETAG
1070
     1
1071
        3
1005
12E5DC
  0
ARC
  5
12E5DD
  8
OBJECT
 10
1927.0
 20
-3579.9999999999959
 30
0.0
 40
3.0
 50
180.0
 51
270.0
1001
ACDBBLOCKREPETAG
1070
     1
1071
        4
1005
12E5DD
  0
LINE
  5
12E5DE
  8
OBJECT
 10
1924.0
 20
-3579.9999999999959
 30
0.0
 11
1924.0
 21
-3461.9999999999959
 31
0.0
1001
ACDBBLOCKREPETAG
1070
     1
1071
        5
1005
12E5DE
  0
CIRCLE
  5
12E5DF
  8
OBJECT
 10
2000.0
 20
-3520.9999999999968
 30
0.0
 40
62.0
1001
ACDBBLOCKREPETAG
1070
     1
1071
        0
1005
12E5DF
  0
LINE
  5
12E5E0
  8
SLIM
 10
11925.0
 20
-755.19743878930785
 30
0.0
 11
11925.197438789301
 21
-754.99999999999955
 31
0.0
1001
ACAD
1010
0.0
1020
0.0
1030
0.0
1001
ACDBBLOCKREPETAG
1070
     1
1071
        1
1005
0
  0
LINE
  5
12E5E1
  8
SLIM
 10
11925.0
 20
-773.15795103144615
 30
0.0
 11
11943.15795103144
 21
-754.99999999999955
 31
0.0
1001
ACAD
1010
0.0
1020
0.0
1030
0.0
1001
ACDBBLOCKREPETAG
1070
     1
1071
       10
1005
12E5E1
  0
LINE
  5
12E5E2
  8
SLIM
 10
11925.0
 20
-791.11846327358455
 30
0.0
 11
11961.11846327358
 21
-754.99999999999955
 31
0.0
1001
ACAD
1010
0.0
1020
0.0
1030
0.0
1001
ACDBBLOCKREPETAG
1070
     1
1071
       11
1005
12E5E2
  0
LINE
  5
12E5E3
  8
SLIM
 10
11925.0
 20
-809.07897551572285
 30
0.0
 11
11979.07897551572
 21
-754.99999999999955
 31
0.0
1001
ACAD
1010
0.0
1020
0.0
1030
0.0
1001
ACDBBLOCKREPETAG
1070
     1
1071
       12
1005
12E5E3
  0
LINE
  5
12E5E4
  8
SLIM
 10
11925.0
 20
-827.03948775786125
 30
0.0
 11
11997.03948775786
 21
-754.99999999999955
 31
0.0
1001
ACAD
1010
0.0
1020
0.0
1030
0.0
1001
ACDBBLOCKREPETAG
1070
     1
1071
       13
1005
12E5E4
  0
LINE
  5
12E5E5
  8
SLIM
 10
11925.0
 20
-844.99999999999955
 30
0.0
 11
12015.0
 21
-754.99999999999955
 31
0.0
1001
ACAD
1010
0.0
1020
0.0
1030
0.0
1001
ACDBBLOCKREPETAG
1070
     1
1071
       14
1005
12E5E5
  0
LINE
  5
12E5E6
  8
SLIM
 10
11925.0
 20
-862.96051224213795
 30
0.0
 11
12032.96051224214
 21
-754.99999999999955
 31
0.0
1001
ACAD
1010
0.0
1020
0.0
1030
0.0
1001
ACDBBLOCKREPETAG
1070
     1
1071
       15
1005
12E5E6
  0
LINE
  5
12E5E7
  8
SLIM
 10
11926.57043503541
 20
-879.35058944886373
 30
0.0
 11
12050.921024484271
 21
-754.99999999999955
 31
0.0
1001
ACAD
1010
0.0
1020
0.0
1030
0.0
1001
ACDBBLOCKREPETAG
1070
     1
1071
       16
1005
12E5E7
  0
LINE
  5
12E5E8
  8
SLIM
 10
11929.39181818456
 20
-894.48971854185413
 30
0.0
 11
12068.881536726411
 21
-754.99999999999955
 31
0.0
1001
ACAD
1010
0.0
1020
0.0
1030
0.0
1001
ACDBBLOCKREPETAG
1070
     1
1071
       17
1005
12E5E8
  0
LINE
  5
12E5E9
  8
SLIM
 10
11932.21320133371
 20
-909.62884763484476
 30
0.0
 11
12075.0
 21
-766.8420489685526
 31
0.0
1001
ACAD
1010
0.0
1020
0.0
1030
0.0
1001
ACDBBLOCKREPETAG
1070
     1
1071
       18
1005
12E5E9
  0
LINE
  5
12E5EA
  8
SLIM
 10
11935.03458448285
 20
-924.76797672783539
 30
0.0
 11
12075.0
 21
-784.80256121069112
 31
0.0
1001
ACAD
1010
0.0
1020
0.0
1030
0.0
1001
ACDBBLOCKREPETAG
1070
     1
1071
       19
1005
12E5EA
  0
LINE
  5
12E5EB
  8
SLIM
 10
11937.855967632
 20
-939.90710582082625
 30
0.0
 11
12075.0
 21
-802.76307345282942
 31
0.0
1001
ACAD
1010
0.0
1020
0.0
1030
0.0
1001
ACDBBLOCKREPETAG
1070
     1
1071
       20
1005
12E5EB
  0
LINE
  5
12E5EC
  8
SLIM
 10
11940.67735078115
 20
-955.04623491381665
 30
0.0
 11
12075.0
 21
-820.7235856949676
 31
0.0
1001
ACAD
1010
0.0
1020
0.0
1030
0.0
1001
ACDBBLOCKREPETAG
1070
     1
1071
       21
1005
12E5EC
  0
LINE
  5
12E5ED
  8
SLIM
 10
11943.498733930301
 20
-970.18536400680739
 30
0.0
 11
12075.0
 21
-838.684097937106
 31
0.0
1001
ACAD
1010
0.0
1020
0.0
1030
0.0
1001
ACDBBLOCKREPETAG
1070
     1
1071
       22
1005
12E5ED
  0
LINE
  5
12E5EE
  8
SLIM
 10
11945.5
 20
-986.14461017924543
 30
0.0
 11
12075.0
 21
-856.64461017924418
 31
0.0
1001
ACAD
1010
0.0
1020
0.0
1030
0.0
1001
ACDBBLOCKREPETAG
1070
     1
1071
       23
1005
12E5EE
  0
LINE
  5
12E5EF
  8
SLIM
 10
11945.5
 20
-1004.105122421381
 30
0.0
 11
12074.15680692925
 21
-875.44831549213154
 31
0.0
1001
ACAD
1010
0.0
1020
0.0
1030
0.0
1001
ACDBBLOCKREPETAG
1070
     1
1071
       24
1005
12E5EF
  0
LINE
  5
12E5F0
  8
SLIM
 10
11945.5
 20
-1022.065634663517
 30
0.0
 11
12070.04294658328
 21
-897.52268808023439
 31
0.0
1001
ACAD
1010
0.0
1020
0.0
1030
0.0
1001
ACDBBLOCKREPETAG
1070
     1
1071
       25
1005
12E5F0
  0
LINE
  5
12E5F1
  8
SLIM
 10
11960.52614690566
 20
-1024.9999999999991
 30
0.0
 11
12065.92908623732
 21
-919.59706066833724
 31
0.0
1001
ACAD
1010
0.0
1020
0.0
1030
0.0
1001
ACDBBLOCKREPETAG
1070
     1
1071
       26
1005
12E5F1
  0
LINE
  5
12E5F2
  8
SLIM
 10
11978.4866591478
 20
-1024.9999999999991
 30
0.0
 11
12061.81522589136
 21
-941.67143325643985
 31
0.0
1001
ACAD
1010
0.0
1020
0.0
1030
0.0
1001
ACDBBLOCKREPETAG
1070
     1
1071
       27
1005
12E5F2
  0
LINE
  5
12E5F3
  8
SLIM
 10
11996.447171389929
 20
-1024.9999999999991
 30
0.0
 11
12057.70136554539
 21
-963.74580584454304
 31
0.0
1001
ACAD
1010
0.0
1020
0.0
1030
0.0
1001
ACDBBLOCKREPETAG
1070
     1
1071
       28
1005
12E5F3
  0
LINE
  5
12E5F4
  8
SLIM
 10
12014.407683632069
 20
-1024.9999999999991
 30
0.0
 11
12054.5
 21
-984.90768363207394
 31
0.0
1001
ACAD
1010
0.0
1020
0.0
1030
0.0
1001
ACDBBLOCKREPETAG
1070
     1
1071
       29
1005
12E5F4
  0
LINE
  5
12E5F5
  8
SLIM
 10
12032.368195874211
 20
-1024.9999999999991
 30
0.0
 11
12054.5
 21
-1002.868195874213
 31
0.0
1001
ACAD
1010
0.0
1020
0.0
1030
0.0
1001
ACDBBLOCKREPETAG
1070
     1
1071
       30
1005
12E5F5
  0
LINE
  5
12E5F6
  8
SLIM
 10
12050.328708116351
 20
-1024.9999999999991
 30
0.0
 11
12054.5
 21
-1020.828708116352
 31
0.0
1001
ACAD
1010
0.0
1020
0.0
1030
0.0
1001
ACDBBLOCKREPETAG
1070
     1
1071
       31
1005
12E5F6
  0
LINE
  5
12E5F7
  8
OBJECT
 10
11925.0
 20
-754.99999999999955
 30
0.0
 11
12075.0
 21
-754.99999999999955
 31
0.0
1001
ACDBBLOCKREPETAG
1070
     1
1071
        2
1005
12E5F7
  0
LINE
  5
12E5F8
  8
OBJECT
 10
12075.0
 20
-754.99999999999955
 30
0.0
 11
12075.0
 21
-870.9238648686005
 31
0.0
1001
ACDBBLOCKREPETAG
1070
     1
1071
        3
1005
12E5F8
  0
LINE
  5
12E5F9
  8
OBJECT
 10
12075.0
 20
-870.9238648686005
 30
0.0
 11
12054.5
 21
-980.92386486860221
 31
0.0
1001
ACDBBLOCKREPETAG
1070
     1
1071
        4
1005
12E5F9
  0
LINE
  5
12E5FA
  8
OBJECT
 10
12054.5
 20
-980.92386486860221
 30
0.0
 11
12054.5
 21
-1024.9999999999991
 31
0.0
1001
ACDBBLOCKREPETAG
1070
     1
1071
        5
1005
12E5FA
  0
LINE
  5
12E5FB
  8
OBJECT
 10
12054.5
 20
-1024.9999999999991
 30
0.0
 11
11945.5
 21
-1024.9999999999991
 31
0.0
1001
ACDBBLOCKREPETAG
1070
     1
1071
        6
1005
12E5FB
  0
LINE
  5
12E5FC
  8
OBJECT
 10
11945.5
 20
-1024.9999999999991
 30
0.0
 11
11945.5
 21
-980.92386486861199
 31
0.0
1001
ACDBBLOCKREPETAG
1070
     1
1071
        7
1005
12E5FC
  0
LINE
  5
12E5FD
  8
OBJECT
 10
11945.5
 20
-980.92386486861199
 30
0.0
 11
11925.0
 21
-870.9238648686005
 31
0.0
1001
ACDBBLOCKREPETAG
1070
     1
1071
        8
1005
12E5FD
  0
LINE
  5
12E5FE
  8
OBJECT
 10
11925.0
 20
-870.9238648686005
 30
0.0
 11
11925.0
 21
-754.99999999999955
 31
0.0
1001
ACDBBLOCKREPETAG
1070
     1
1071
        9
1005
12E5FE
  0
LINE
  5
12E5FF
  8
SLIM
 10
9925.0
 20
-755.19743878930785
 30
0.0
 11
9925.1974387893097
 21
-754.99999999999955
 31
0.0
1001
ACAD
1010
0.0
1020
0.0
1030
0.0
1001
ACDBBLOCKREPETAG
1070
     1
1071
        1
1005
0
  0
LINE
  5
12E600
  8
SLIM
 10
9925.0
 20
-773.15795103144615
 30
0.0
 11
9943.1579510314441
 21
-754.99999999999955
 31
0.0
1001
ACAD
1010
0.0
1020
0.0
1030
0.0
1001
ACDBBLOCKREPETAG
1070
     1
1071
       10
1005
12E600
  0
LINE
  5
12E601
  8
SLIM
 10
9925.0
 20
-791.11846327358455
 30
0.0
 11
9961.1184632735858
 21
-754.99999999999955
 31
0.0
1001
ACAD
1010
0.0
1020
0.0
1030
0.0
1001
ACDBBLOCKREPETAG
1070
     1
1071
       11
1005
12E601
  0
LINE
  5
12E602
  8
SLIM
 10
9925.0
 20
-809.07897551572285
 30
0.0
 11
9979.0789755157257
 21
-754.99999999999955
 31
0.0
1001
ACAD
1010
0.0
1020
0.0
1030
0.0
1001
ACDBBLOCKREPETAG
1070
     1
1071
       12
1005
12E602
  0
LINE
  5
12E603
  8
SLIM
 10
9925.0
 20
-827.03948775786125
 30
0.0
 11
9997.0394877578656
 21
-754.99999999999955
 31
0.0
1001
ACAD
1010
0.0
1020
0.0
1030
0.0
1001
ACDBBLOCKREPETAG
1070
     1
1071
       13
1005
12E603
  0
LINE
  5
12E604
  8
SLIM
 10
9925.0
 20
-844.99999999999955
 30
0.0
 11
10015.0
 21
-754.99999999999955
 31
0.0
1001
ACAD
1010
0.0
1020
0.0
1030
0.0
1001
ACDBBLOCKREPETAG
1070
     1
1071
       14
1005
12E604
  0
LINE
  5
12E605
  8
SLIM
 10
9925.0
 20
-862.96051224213795
 30
0.0
 11
10032.96051224214
 21
-754.99999999999955
 31
0.0
1001
ACAD
1010
0.0
1020
0.0
1030
0.0
1001
ACDBBLOCKREPETAG
1070
     1
1071
       15
1005
12E605
  0
LINE
  5
12E606
  8
SLIM
 10
9926.5704350354117
 20
-879.35058944886373
 30
0.0
 11
10050.921024484271
 21
-754.99999999999955
 31
0.0
1001
ACAD
1010
0.0
1020
0.0
1030
0.0
1001
ACDBBLOCKREPETAG
1070
     1
1071
       16
1005
12E606
  0
LINE
  5
12E607
  8
SLIM
 10
9929.3918181845602
 20
-894.48971854185413
 30
0.0
 11
10068.881536726411
 21
-754.99999999999955
 31
0.0
1001
ACAD
1010
0.0
1020
0.0
1030
0.0
1001
ACDBBLOCKREPETAG
1070
     1
1071
       17
1005
12E607
  0
LINE
  5
12E608
  8
SLIM
 10
9932.2132013337086
 20
-909.62884763484476
 30
0.0
 11
10075.0
 21
-766.8420489685526
 31
0.0
1001
ACAD
1010
0.0
1020
0.0
1030
0.0
1001
ACDBBLOCKREPETAG
1070
     1
1071
       18
1005
12E608
  0
LINE
  5
12E609
  8
SLIM
 10
9935.0345844828553
 20
-924.76797672783539
 30
0.0
 11
10075.0
 21
-784.80256121069112
 31
0.0
1001
ACAD
1010
0.0
1020
0.0
1030
0.0
1001
ACDBBLOCKREPETAG
1070
     1
1071
       19
1005
12E609
  0
LINE
  5
12E60A
  8
SLIM
 10
9937.8559676320037
 20
-939.90710582082625
 30
0.0
 11
10075.0
 21
-802.76307345282942
 31
0.0
1001
ACAD
1010
0.0
1020
0.0
1030
0.0
1001
ACDBBLOCKREPETAG
1070
     1
1071
       20
1005
12E60A
  0
LINE
  5
12E60B
  8
SLIM
 10
9940.6773507811504
 20
-955.04623491381665
 30
0.0
 11
10075.0
 21
-820.7235856949676
 31
0.0
1001
ACAD
1010
0.0
1020
0.0
1030
0.0
1001
ACDBBLOCKREPETAG
1070
     1
1071
       21
1005
12E60B
  0
LINE
  5
12E60C
  8
SLIM
 10
9943.498733930297
 20
-970.18536400680739
 30
0.0
 11
10075.0
 21
-838.684097937106
 31
0.0
1001
ACAD
1010
0.0
1020
0.0
1030
0.0
1001
ACDBBLOCKREPETAG
1070
     1
1071
       22
1005
12E60C
  0
LINE
  5
12E60D
  8
SLIM
 10
9945.4999999999982
 20
-986.14461017924543
 30
0.0
 11
10075.0
 21
-856.64461017924418
 31
0.0
1001
ACAD
1010
0.0
1020
0.0
1030
0.0
1001
ACDBBLOCKREPETAG
1070
     1
1071
       23
1005
12E60D
  0
LINE
  5
12E60E
  8
SLIM
 10
9945.5
 20
-1004.105122421381
 30
0.0
 11
10074.15680692925
 21
-875.44831549213154
 31
0.0
1001
ACAD
1010
0.0
1020
0.0
1030
0.0
1001
ACDBBLOCKREPETAG
1070
     1
1071
       24
1005
12E60E
  0
LINE
  5
12E60F
  8
SLIM
 10
9945.5000000000036
 20
-1022.065634663517
 30
0.0
 11
10070.04294658328
 21
-897.52268808023439
 31
0.0
1001
ACAD
1010
0.0
1020
0.0
1030
0.0
1001
ACDBBLOCKREPETAG
1070
     1
1071
       25
1005
12E60F
  0
LINE
  5
12E610
  8
SLIM
 10
9960.5261469056604
 20
-1024.9999999999991
 30
0.0
 11
10065.92908623732
 21
-919.59706066833724
 31
0.0
1001
ACAD
1010
0.0
1020
0.0
1030
0.0
1001
ACDBBLOCKREPETAG
1070
     1
1071
       26
1005
12E610
  0
LINE
  5
12E611
  8
SLIM
 10
9978.4866591477985
 20
-1024.9999999999991
 30
0.0
 11
10061.815225891351
 21
-941.67143325643985
 31
0.0
1001
ACAD
1010
0.0
1020
0.0
1030
0.0
1001
ACDBBLOCKREPETAG
1070
     1
1071
       27
1005
12E611
  0
LINE
  5
12E612
  8
SLIM
 10
9996.4471713899384
 20
-1024.9999999999991
 30
0.0
 11
10057.70136554539
 21
-963.74580584454304
 31
0.0
1001
ACAD
1010
0.0
1020
0.0
1030
0.0
1001
ACDBBLOCKREPETAG
1070
     1
1071
       28
1005
12E612
  0
LINE
  5
12E613
  8
SLIM
 10
10014.40768363206
 20
-1024.9999999999991
 30
0.0
 11
10054.5
 21
-984.90768363207394
 31
0.0
1001
ACAD
1010
0.0
1020
0.0
1030
0.0
1001
ACDBBLOCKREPETAG
1070
     1
1071
       29
1005
12E613
  0
LINE
  5
12E614
  8
SLIM
 10
10032.368195874211
 20
-1024.9999999999991
 30
0.0
 11
10054.5
 21
-1002.868195874213
 31
0.0
1001
ACAD
1010
0.0
1020
0.0
1030
0.0
1001
ACDBBLOCKREPETAG
1070
     1
1071
       30
1005
12E614
  0
LINE
  5
12E615
  8
SLIM
 10
10050.328708116351
 20
-1024.9999999999991
 30
0.0
 11
10054.5
 21
-1020.828708116352
 31
0.0
1001
ACAD
1010
0.0
1020
0.0
1030
0.0
1001
ACDBBLOCKREPETAG
1070
     1
1071
       31
1005
12E615
  0
LINE
  5
12E616
  8
OBJECT
 10
9925.0
 20
-754.99999999999955
 30
0.0
 11
10075.0
 21
-754.99999999999955
 31
0.0
1001
ACDBBLOCKREPETAG
1070
     1
1071
        2
1005
12E616
  0
LINE
  5
12E617
  8
OBJECT
 10
10075.0
 20
-754.99999999999955
 30
0.0
 11
10075.0
 21
-870.9238648686005
 31
0.0
1001
ACDBBLOCKREPETAG
1070
     1
1071
        3
1005
12E617
  0
LINE
  5
12E618
  8
OBJECT
 10
10075.0
 20
-870.9238648686005
 30
0.0
 11
10054.5
 21
-980.92386486860221
 31
0.0
1001
ACDBBLOCKREPETAG
1070
     1
1071
        4
1005
12E618
  0
LINE
  5
12E619
  8
OBJECT
 10
10054.5
 20
-980.92386486860221
 30
0.0
 11
10054.5
 21
-1024.9999999999991
 31
0.0
1001
ACDBBLOCKREPETAG
1070
     1
1071
        5
1005
12E619
  0
LINE
  5
12E61A
  8
OBJECT
 10
10054.5
 20
-1024.9999999999991
 30
0.0
 11
9945.5000000000036
 21
-1024.9999999999991
 31
0.0
1001
ACDBBLOCKREPETAG
1070
     1
1071
        6
1005
12E61A
  0
LINE
  5
12E61B
  8
OBJECT
 10
9945.5000000000036
 20
-1024.9999999999991
 30
0.0
 11
9945.4999999999982
 21
-980.92386486861199
 31
0.0
1001
ACDBBLOCKREPETAG
1070
     1
1071
        7
1005
12E61B
  0
LINE
  5
12E61C
  8
OBJECT
 10
9945.4999999999982
 20
-980.92386486861199
 30
0.0
 11
9925.0
 21
-870.9238648686005
 31
0.0
1001
ACDBBLOCKREPETAG
1070
     1
1071
        8
1005
12E61C
  0
LINE
  5
12E61D
  8
OBJECT
 10
9925.0
 20
-870.9238648686005
 30
0.0
 11
9925.0
 21
-754.99999999999955
 31
0.0
1001
ACDBBLOCKREPETAG
1070
     1
1071
        9
1005
12E61D
  0
LINE
  5
12E61E
  8
SLIM
 10
7925.0
 20
-755.19743878930785
 30
0.0
 11
7925.1974387893079
 21
-754.99999999999955
 31
0.0
1001
ACAD
1010
0.0
1020
0.0
1030
0.0
1001
ACDBBLOCKREPETAG
1070
     1
1071
        1
1005
0
  0
LINE
  5
12E61F
  8
SLIM
 10
7925.0
 20
-773.15795103144615
 30
0.0
 11
7943.1579510314459
 21
-754.99999999999955
 31
0.0
1001
ACAD
1010
0.0
1020
0.0
1030
0.0
1001
ACDBBLOCKREPETAG
1070
     1
1071
       11
1005
12E61F
  0
LINE
  5
12E620
  8
SLIM
 10
7925.0
 20
-791.11846327358455
 30
0.0
 11
7961.1184632735867
 21
-754.99999999999955
 31
0.0
1001
ACAD
1010
0.0
1020
0.0
1030
0.0
1001
ACDBBLOCKREPETAG
1070
     1
1071
       12
1005
12E620
  0
LINE
  5
12E621
  8
SLIM
 10
7925.0
 20
-809.07897551572285
 30
0.0
 11
7979.078975515723
 21
-754.99999999999955
 31
0.0
1001
ACAD
1010
0.0
1020
0.0
1030
0.0
1001
ACDBBLOCKREPETAG
1070
     1
1071
       13
1005
12E621
  0
LINE
  5
12E622
  8
SLIM
 10
7925.0
 20
-827.03948775786125
 30
0.0
 11
7997.0394877578628
 21
-754.99999999999955
 31
0.0
1001
ACAD
1010
0.0
1020
0.0
1030
0.0
1001
ACDBBLOCKREPETAG
1070
     1
1071
       14
1005
12E622
  0
LINE
  5
12E623
  8
SLIM
 10
7925.0
 20
-844.99999999999955
 30
0.0
 11
8015.0
 21
-754.99999999999955
 31
0.0
1001
ACAD
1010
0.0
1020
0.0
1030
0.0
1001
ACDBBLOCKREPETAG
1070
     1
1071
       15
1005
12E623
  0
LINE
  5
12E624
  8
SLIM
 10
7925.0
 20
-862.96051224213795
 30
0.0
 11
8032.960512242139
 21
-754.99999999999955
 31
0.0
1001
ACAD
1010
0.0
1020
0.0
1030
0.0
1001
ACDBBLOCKREPETAG
1070
     1
1071
       16
1005
12E624
  0
LINE
  5
12E625
  8
SLIM
 10
7926.5704350354117
 20
-879.3505894488635
 30
0.0
 11
8050.9210244842798
 21
-754.99999999999955
 31
0.0
1001
ACAD
1010
0.0
1020
0.0
1030
0.0
1001
ACDBBLOCKREPETAG
1070
     1
1071
       17
1005
12E625
  0
LINE
  5
12E626
  8
SLIM
 10
7929.3918181845593
 20
-894.48971854185379
 30
0.0
 11
8068.8815367264133
 21
-754.99999999999955
 31
0.0
1001
ACAD
1010
0.0
1020
0.0
1030
0.0
1001
ACDBBLOCKREPETAG
1070
     1
1071
       18
1005
12E626
  0
LINE
  5
12E627
  8
SLIM
 10
7932.2132013337077
 20
-909.62884763484408
 30
0.0
 11
8075.0
 21
-766.84204896855272
 31
0.0
1001
ACAD
1010
0.0
1020
0.0
1030
0.0
1001
ACDBBLOCKREPETAG
1070
     1
1071
       19
1005
12E627
  0
LINE
  5
12E628
  8
SLIM
 10
7935.0345844828562
 20
-924.76797672783425
 30
0.0
 11
8075.0
 21
-784.80256121069112
 31
0.0
1001
ACAD
1010
0.0
1020
0.0
1030
0.0
1001
ACDBBLOCKREPETAG
1070
     1
1071
       20
1005
12E628
  0
LINE
  5
12E629
  8
SLIM
 10
7937.8559676320019
 20
-939.90710582082465
 30
0.0
 11
8075.0
 21
-802.76307345282942
 31
0.0
1001
ACAD
1010
0.0
1020
0.0
1030
0.0
1001
ACDBBLOCKREPETAG
1070
     1
1071
       21
1005
12E629
  0
LINE
  5
12E62A
  8
SLIM
 10
7940.677350781154
 20
-955.04623491381471
 30
0.0
 11
8075.0
 21
-820.7235856949676
 31
0.0
1001
ACAD
1010
0.0
1020
0.0
1030
0.0
1001
ACDBBLOCKREPETAG
1070
     1
1071
       22
1005
12E62A
  0
LINE
  5
12E62B
  8
SLIM
 10
7943.4987339303016
 20
-970.18536400680489
 30
0.0
 11
8075.0
 21
-838.684097937106
 31
0.0
1001
ACAD
1010
0.0
1020
0.0
1030
0.0
1001
ACDBBLOCKREPETAG
1070
     1
1071
       23
1005
12E62B
  0
LINE
  5
12E62C
  8
SLIM
 10
7946.6446101792453
 20
-984.99999999999955
 30
0.0
 11
8075.0
 21
-856.64461017924418
 31
0.0
1001
ACAD
1010
0.0
1020
0.0
1030
0.0
1001
ACDBBLOCKREPETAG
1070
     1
1071
       24
1005
12E62C
  0
LINE
  5
12E62D
  8
SLIM
 10
7955.5
 20
-994.10512242138236
 30
0.0
 11
7964.6051224213816
 21
-984.99999999999955
 31
0.0
1001
ACAD
1010
0.0
1020
0.0
1030
0.0
1001
ACDBBLOCKREPETAG
1070
     1
1071
       25
1005
12E62D
  0
LINE
  5
12E62E
  8
SLIM
 10
7964.6051224213816
 20
-984.99999999999955
 30
0.0
 11
8074.1568069292498
 21
-875.44831549213154
 31
0.0
1001
ACAD
1010
0.0
1020
0.0
1030
0.0
1001
ACDBBLOCKREPETAG
1070
     1
1071
       26
1005
12E62E
  0
LINE
  5
12E62F
  8
SLIM
 10
7962.5656346635215
 20
-1004.999999999999
 30
0.0
 11
7982.5656346635215
 21
-984.99999999999955
 31
0.0
1001
ACAD
1010
0.0
1020
0.0
1030
0.0
1001
ACDBBLOCKREPETAG
1070
     1
1071
       27
1005
12E62F
  0
LINE
  5
12E630
  8
SLIM
 10
7982.5656346635215
 20
-984.99999999999955
 30
0.0
 11
8070.0429465832849
 21
-897.52268808023405
 31
0.0
1001
ACAD
1010
0.0
1020
0.0
1030
0.0
1001
ACDBBLOCKREPETAG
1070
     1
1071
       28
1005
12E630
  0
LINE
  5
12E631
  8
SLIM
 10
7980.5261469056604
 20
-1004.999999999999
 30
0.0
 11
8000.5261469056577
 21
-984.99999999999955
 31
0.0
1001
ACAD
1010
0.0
1020
0.0
1030
0.0
1001
ACDBBLOCKREPETAG
1070
     1
1071
       29
1005
12E631
  0
LINE
  5
12E632
  8
SLIM
 10
8000.5261469056577
 20
-984.99999999999955
 30
0.0
 11
8065.9290862373227
 21
-919.59706066833724
 31
0.0
1001
ACAD
1010
0.0
1020
0.0
1030
0.0
1001
ACDBBLOCKREPETAG
1070
     1
1071
       30
1005
12E632
  0
LINE
  5
12E633
  8
SLIM
 10
7998.4866591477967
 20
-1004.999999999999
 30
0.0
 11
8018.4866591477967
 21
-984.99999999999955
 31
0.0
1001
ACAD
1010
0.0
1020
0.0
1030
0.0
1001
ACDBBLOCKREPETAG
1070
     1
1071
       31
1005
12E633
  0
LINE
  5
12E634
  8
SLIM
 10
8018.4866591477967
 20
-984.99999999999955
 30
0.0
 11
8061.8152258913578
 21
-941.67143325643985
 31
0.0
1001
ACAD
1010
0.0
1020
0.0
1030
0.0
1001
ACDBBLOCKREPETAG
1070
     1
1071
       32
1005
12E634
  0
LINE
  5
12E635
  8
SLIM
 10
8016.4471713899384
 20
-1004.999999999999
 30
0.0
 11
8036.4471713899338
 21
-984.99999999999955
 31
0.0
1001
ACAD
1010
0.0
1020
0.0
1030
0.0
1001
ACDBBLOCKREPETAG
1070
     1
1071
       33
1005
12E635
  0
LINE
  5
12E636
  8
SLIM
 10
8036.4471713899338
 20
-984.99999999999955
 30
0.0
 11
8057.701365545392
 21
-963.74580584454225
 31
0.0
1001
ACAD
1010
0.0
1020
0.0
1030
0.0
1001
ACDBBLOCKREPETAG
1070
     1
1071
       34
1005
12E636
  0
LINE
  5
12E637
  8
SLIM
 10
8034.4076836320728
 20
-1004.999999999999
 30
0.0
 11
8044.5000000000036
 21
-994.90768363207383
 31
0.0
1001
ACAD
1010
0.0
1020
0.0
1030
0.0
1001
ACDBBLOCKREPETAG
1070
     1
1071
       35
1005
12E637
  0
LINE
  5
12E638
  8
OBJECT
 10
7925.0
 20
-754.99999999999955
 30
0.0
 11
8075.0
 21
-754.99999999999955
 31
0.0
1001
ACDBBLOCKREPETAG
1070
     1
1071
        2
1005
12E638
  0
LINE
  5
12E639
  8
OBJECT
 10
8075.0
 20
-754.99999999999955
 30
0.0
 11
8075.0
 21
-870.9238648686005
 31
0.0
1001
ACDBBLOCKREPETAG
1070
     1
1071
        3
1005
12E639
  0
LINE
  5
12E63A
  8
OBJECT
 10
8075.0
 20
-870.9238648686005
 30
0.0
 11
8053.7403566346029
 21
-984.99999999999955
 31
0.0
1001
ACDBBLOCKREPETAG
1070
     1
1071
        4
1005
12E63A
  0
LINE
  5
12E63B
  8
OBJECT
 10
8044.5000000000036
 20
-984.99999999999955
 30
0.0
 11
8044.5000000000036
 21
-1004.999999999999
 31
0.0
1001
ACDBBLOCKREPETAG
1070
     1
1071
        5
1005
12E63B
  0
LINE
  5
12E63C
  8
OBJECT
 10
8044.5000000000036
 20
-1004.999999999999
 30
0.0
 11
7955.5
 21
-1004.999999999999
 31
0.0
1001
ACDBBLOCKREPETAG
1070
     1
1071
        6
1005
12E63C
  0
LINE
  5
12E63D
  8
OBJECT
 10
7955.5
 20
-1004.999999999999
 30
0.0
 11
7955.5
 21
-984.99999999999955
 31
0.0
1001
ACDBBLOCKREPETAG
1070
     1
1071
        7
1005
12E63D
  0
LINE
  5
12E63E
  8
OBJECT
 10
8053.7403566346029
 20
-984.99999999999955
 30
0.0
 11
7946.2596433653962
 21
-984.99999999999955
 31
0.0
1001
ACDBBLOCKREPETAG
1070
     1
1071
        8
1005
12E63E
  0
LINE
  5
12E63F
  8
OBJECT
 10
7946.2596433653962
 20
-984.99999999999955
 30
0.0
 11
7925.0
 21
-870.9238648686005
 31
0.0
1001
ACDBBLOCKREPETAG
1070
     1
1071
        9
1005
12E63F
  0
LINE
  5
12E640
  8
OBJECT
 10
7925.0
 20
-870.9238648686005
 30
0.0
 11
7925.0
 21
-754.99999999999955
 31
0.0
1001
ACDBBLOCKREPETAG
1070
     1
1071
       10
1005
12E640
  0
LINE
  5
12E641
  8
OBJECT
 10
12055.999999999991
 20
-1103.9999999999991
 30
0.0
 11
12055.999999999991
 21
-1113.9999999999991
 31
0.0
1001
ACDBBLOCKREPETAG
1070
     1
1071
      121
1005
12E641
  0
LINE
  5
12E642
  8
OBJECT
 10
11961.75
 20
-1054.699999999996
 30
0.0
 11
11974.25
 21
-1054.699999999996
 31
0.0
1001
ACDBBLOCKREPETAG
1070
     1
1071
      122
1005
12E642
  0
LINE
  5
12E643
  8
OBJECT
 10
12073.499999999991
 20
-1062.7
 30
0.0
 11
12073.499999999991
 21
-1064.9999999999991
 31
0.0
1001
ACDBBLOCKREPETAG
1070
     1
1071
      123
1005
12E643
  0
LINE
  5
12E644
  8
OBJECT
 10
12057.749999999991
 20
-1054.699999999996
 30
0.0
 11
12070.249999999991
 21
-1054.699999999996
 31
0.0
1001
ACDBBLOCKREPETAG
1070
     1
1071
      124
1005
12E644
  0
LINE
  5
12E645
  8
OBJECT
 10
12054.499999999991
 20
-1062.7
 30
0.0
 11
12054.499999999991
 21
-1064.9999999999991
 31
0.0
1001
ACDBBLOCKREPETAG
1070
     1
1071
      125
1005
12E645
  0
LINE
  5
12E646
  8
OBJECT
 10
11953.0
 20
-1064.9999999999991
 30
0.0
 11
11953.0
 21
-1062.7
 31
0.0
1001
ACDBBLOCKREPETAG
1070
     1
1071
      126
1005
12E646
  0
LINE
  5
12E647
  8
OBJECT
 10
11983.0
 20
-1064.9999999999991
 30
0.0
 11
11983.0
 21
-1062.7
 31
0.0
1001
ACDBBLOCKREPETAG
1070
     1
1071
      127
1005
12E647
  0
LINE
  5
12E648
  8
OBJECT
 10
11961.75
 20
-1054.699999999996
 30
0.0
 11
11961.75
 21
-1062.7
 31
0.0
1001
ACDBBLOCKREPETAG
1070
     1
1071
      128
1005
12E648
  0
LINE
  5
12E649
  8
OBJECT
 10
11974.25
 20
-1054.699999999996
 30
0.0
 11
11974.25
 21
-1062.7
 31
0.0
1001
ACDBBLOCKREPETAG
1070
     1
1071
      129
1005
12E649
  0
LINE
  5
12E64A
  8
OBJECT
 10
11953.0
 20
-1062.7
 30
0.0
 11
11983.0
 21
-1062.7
 31
0.0
1001
ACDBBLOCKREPETAG
1070
     1
1071
      130
1005
12E64A
  0
LINE
  5
12E64B
  8
OBJECT
 10
11960.0
 20
-1103.9999999999991
 30
0.0
 11
11960.0
 21
-1113.9999999999991
 31
0.0
1001
ACDBBLOCKREPETAG
1070
     1
1071
      131
1005
12E64B
  0
LINE
  5
12E64C
  8
OBJECT
 10
11976.0
 20
-1103.9999999999991
 30
0.0
 11
11976.0
 21
-1113.9999999999991
 31
0.0
1001
ACDBBLOCKREPETAG
1070
     1
1071
      132
1005
12E64C
  0
LINE
  5
12E64D
  8
OBJECT
 10
11960.0
 20
-1113.9999999999991
 30
0.0
 11
11976.0
 21
-1113.9999999999991
 31
0.0
1001
ACDBBLOCKREPETAG
1070
     1
1071
      133
1005
12E64D
  0
LINE
  5
12E64E
  8
OBJECT
 10
12071.999999999991
 20
-1103.9999999999991
 30
0.0
 11
12071.999999999991
 21
-1113.9999999999991
 31
0.0
1001
ACDBBLOCKREPETAG
1070
     1
1071
      134
1005
12E64E
  0
LINE
  5
12E64F
  8
OBJECT
 10
12071.999999999991
 20
-1113.9999999999991
 30
0.0
 11
12055.999999999991
 21
-1113.9999999999991
 31
0.0
1001
ACDBBLOCKREPETAG
1070
     1
1071
      135
1005
12E64F
  0
LINE
  5
12E650
  8
OBJECT
 10
11944.999999999991
 20
-1144.9999999999991
 30
0.0
 11
11944.999999999991
 21
-1103.9999999999991
 31
0.0
1001
ACDBBLOCKREPETAG
1070
     1
1071
      136
1005
12E650
  0
LINE
  5
12E651
  8
OBJECT
 10
12054.999999999991
 20
-1103.9999999999991
 30
0.0
 11
12054.999999999991
 21
-1144.9999999999991
 31
0.0
1001
ACDBBLOCKREPETAG
1070
     1
1071
      137
1005
12E651
  0
LINE
  5
12E652
  8
OBJECT
 10
12070.249999999991
 20
-1054.699999999996
 30
0.0
 11
12070.249999999991
 21
-1062.7
 31
0.0
1001
ACDBBLOCKREPETAG
1070
     1
1071
      138
1005
12E652
  0
LINE
  5
12E653
  8
OBJECT
 10
12057.749999999991
 20
-1054.699999999996
 30
0.0
 11
12057.749999999991
 21
-1062.7
 31
0.0
1001
ACDBBLOCKREPETAG
1070
     1
1071
      139
1005
12E653
  0
LINE
  5
12E654
  8
OBJECT
 10
12054.499999999991
 20
-1062.7
 30
0.0
 11
12073.499999999991
 21
-1062.7
 31
0.0
1001
ACDBBLOCKREPETAG
1070
     1
1071
      140
1005
12E654
  0
LINE
  5
12E655
  8
OBJECT
 10
12054.999999999991
 20
-1144.9999999999991
 30
0.0
 11
11944.999999999991
 21
-1144.9999999999991
 31
0.0
1001
ACDBBLOCKREPETAG
1070
     1
1071
      141
1005
12E655
  0
LINE
  5
12E656
  8
OBJECT
 10
12075.999999999991
 20
-1079.9999999999991
 30
0.0
 11
11938.999999999991
 21
-1079.9999999999991
 31
0.0
1001
ACDBBLOCKREPETAG
1070
     1
1071
      142
1005
12E656
  0
LINE
  5
12E657
  8
OBJECT
 10
12075.999999999991
 20
-1079.9999999999991
 30
0.0
 11
12075.999999999991
 21
-1064.9999999999991
 31
0.0
1001
ACDBBLOCKREPETAG
1070
     1
1071
      143
1005
12E657
  0
LINE
  5
12E658
  8
OBJECT
 10
12075.999999999991
 20
-1089.9999999999991
 30
0.0
 11
12075.999999999991
 21
-1103.9999999999991
 31
0.0
1001
ACDBBLOCKREPETAG
1070
     1
1071
      144
1005
12E658
  0
LINE
  5
12E659
  8
OBJECT
 10
12068.999999999991
 20
-1089.9999999999991
 30
0.0
 11
12068.999999999991
 21
-1079.9999999999991
 31
0.0
1001
ACDBBLOCKREPETAG
1070
     1
1071
      145
1005
12E659
  0
LINE
  5
12E65A
  8
OBJECT
 10
12058.999999999991
 20
-1089.9999999999991
 30
0.0
 11
12058.999999999991
 21
-1079.9999999999991
 31
0.0
1001
ACDBBLOCKREPETAG
1070
     1
1071
      146
1005
12E65A
  0
LINE
  5
12E65B
  8
OBJECT
 10
11938.999999999991
 20
-1089.9999999999991
 30
0.0
 11
11938.999999999991
 21
-1103.9999999999991
 31
0.0
1001
ACDBBLOCKREPETAG
1070
     1
1071
      147
1005
12E65B
  0
LINE
  5
12E65C
  8
OBJECT
 10
11938.999999999991
 20
-1103.9999999999991
 30
0.0
 11
12075.999999999991
 21
-1103.9999999999991
 31
0.0
1001
ACDBBLOCKREPETAG
1070
     1
1071
      148
1005
12E65C
  0
LINE
  5
12E65D
  8
OBJECT
 10
11973.0
 20
-1089.9999999999991
 30
0.0
 11
11973.0
 21
-1079.9999999999991
 31
0.0
1001
ACDBBLOCKREPETAG
1070
     1
1071
      149
1005
12E65D
  0
LINE
  5
12E65E
  8
OBJECT
 10
11963.0
 20
-1089.9999999999991
 30
0.0
 11
11963.0
 21
-1079.9999999999991
 31
0.0
1001
ACDBBLOCKREPETAG
1070
     1
1071
      150
1005
12E65E
  0
LINE
  5
12E65F
  8
OBJECT
 10
11938.999999999991
 20
-1089.9999999999991
 30
0.0
 11
12075.999999999991
 21
-1089.9999999999991
 31
0.0
1001
ACDBBLOCKREPETAG
1070
     1
1071
      151
1005
12E65F
  0
LINE
  5
12E660
  8
OBJECT
 10
11945.999999999991
 20
-1079.9999999999991
 30
0.0
 11
11945.999999999991
 21
-1089.9999999999991
 31
0.0
1001
ACDBBLOCKREPETAG
1070
     1
1071
      152
1005
12E660
  0
LINE
  5
12E661
  8
OBJECT
 10
12053.999999999991
 20
-1079.9999999999991
 30
0.0
 11
12053.999999999991
 21
-1089.9999999999991
 31
0.0
1001
ACDBBLOCKREPETAG
1070
     1
1071
      153
1005
12E661
  0
LINE
  5
12E662
  8
OBJECT
 10
12044.5
 20
-979.99999999999966
 30
0.0
 11
12065.0
 21
-869.99999999999955
 31
0.0
1001
ACDBBLOCKREPETAG
1070
     1
1071
      154
1005
12E662
  0
LINE
  5
12E663
  8
OBJECT
 10
11955.5
 20
-979.99999999999966
 30
0.0
 11
12044.5
 21
-979.99999999999966
 31
0.0
1001
ACDBBLOCKREPETAG
1070
     1
1071
      155
1005
12E663
  0
LINE
  5
12E664
  8
OBJECT
 10
11938.999999999991
 20
-1079.9999999999991
 30
0.0
 11
11938.999999999991
 21
-1064.9999999999991
 31
0.0
1001
ACDBBLOCKREPETAG
1070
     1
1071
      156
1005
12E664
  0
LINE
  5
12E665
  8
OBJECT
 10
11938.999999999991
 20
-1064.9999999999991
 30
0.0
 11
12075.999999999991
 21
-1064.9999999999991
 31
0.0
1001
ACDBBLOCKREPETAG
1070
     1
1071
      157
1005
12E665
  0
LINE
  5
12E666
  8
OBJECT
 10
11955.5
 20
-979.99999999999966
 30
0.0
 11
11955.5
 21
-1029.9999999999991
 31
0.0
1001
ACDBBLOCKREPETAG
1070
     1
1071
      158
1005
12E666
  0
LINE
  5
12E667
  8
OBJECT
 10
12044.5
 20
-979.99999999999966
 30
0.0
 11
12044.5
 21
-1029.9999999999991
 31
0.0
1001
ACDBBLOCKREPETAG
1070
     1
1071
      159
1005
12E667
  0
LINE
  5
12E668
  8
OBJECT
 10
11947.0
 20
-1029.9999999999991
 30
0.0
 11
12053.0
 21
-1029.9999999999991
 31
0.0
1001
ACDBBLOCKREPETAG
1070
     1
1071
      160
1005
12E668
  0
LINE
  5
12E669
  8
HIDDEN
 10
11955.5
 20
-1039.9999999999991
 30
0.0
 11
12044.5
 21
-1039.9999999999991
 31
0.0
1001
ACDBBLOCKREPETAG
1070
     1
1071
      161
1005
12E669
  0
LINE
  5
12E66A
  8
CENTER
 10
12000.0
 20
-769.99999999999955
 30
0.0
 11
12000.0
 21
-1159.9999999999991
 31
0.0
1001
ACDBBLOCKREPETAG
1070
     1
1071
      162
1005
12E66A
  0
LINE
  5
12E66B
  8
OBJECT
 10
12065.0
 20
-769.99999999999955
 30
0.0
 11
12065.0
 21
-869.99999999999955
 31
0.0
1001
ACDBBLOCKREPETAG
1070
     1
1071
      163
1005
12E66B
  0
LINE
  5
12E66C
  8
OBJECT
 10
11935.0
 20
-769.99999999999955
 30
0.0
 11
11935.0
 21
-869.99999999999955
 31
0.0
1001
ACDBBLOCKREPETAG
1070
     1
1071
      164
1005
12E66C
  0
LINE
  5
12E66D
  8
OBJECT
 10
11955.5
 20
-979.99999999999966
 30
0.0
 11
11935.0
 21
-869.99999999999955
 31
0.0
1001
ACDBBLOCKREPETAG
1070
     1
1071
      165
1005
12E66D
  0
LINE
  5
12E66E
  8
OBJECT
 10
12065.0
 20
-869.99999999999955
 30
0.0
 11
11935.0
 21
-869.99999999999955
 31
0.0
1001
ACDBBLOCKREPETAG
1070
     1
1071
      166
1005
12E66E
  0
LINE
  5
12E66F
  8
OBJECT
 10
11947.0
 20
-1029.9999999999991
 30
0.0
 11
11947.0
 21
-1064.9999999999991
 31
0.0
1001
ACDBBLOCKREPETAG
1070
     1
1071
      167
1005
12E66F
  0
LINE
  5
12E670
  8
OBJECT
 10
12053.0
 20
-1029.9999999999991
 30
0.0
 11
12053.0
 21
-1064.9999999999991
 31
0.0
1001
ACDBBLOCKREPETAG
1070
     1
1071
      168
1005
12E670
  0
LINE
  5
12E671
  8
OBJECT
 10
9975.5
 20
-1059.9999999999991
 30
0.0
 11
9958.9999999999964
 21
-1059.9999999999991
 31
0.0
1001
ACDBBLOCKREPETAG
1070
     1
1071
       12
1005
12E671
  0
LINE
  5
12E672
  8
OBJECT
 10
9983.0
 20
-1064.9999999999991
 30
0.0
 11
9983.0
 21
-1062.9999999999991
 31
0.0
1001
ACDBBLOCKREPETAG
1070
     1
1071
       13
1005
12E672
  0
LINE
  5
12E673
  8
OBJECT
 10
10075.999999999991
 20
-1079.9999999999991
 30
0.0
 11
9938.9999999999927
 21
-1079.9999999999991
 31
0.0
1001
ACDBBLOCKREPETAG
1070
     1
1071
       14
1005
12E673
  0
LINE
  5
12E674
  8
OBJECT
 10
10075.999999999991
 20
-1079.9999999999991
 30
0.0
 11
10075.999999999991
 21
-1064.9999999999991
 31
0.0
1001
ACDBBLOCKREPETAG
1070
     1
1071
       15
1005
12E674
  0
LINE
  5
12E675
  8
OBJECT
 10
10075.999999999991
 20
-1089.9999999999991
 30
0.0
 11
10075.999999999991
 21
-1103.9999999999991
 31
0.0
1001
ACDBBLOCKREPETAG
1070
     1
1071
       16
1005
12E675
  0
LINE
  5
12E676
  8
OBJECT
 10
10068.999999999991
 20
-1089.9999999999991
 30
0.0
 11
10068.999999999991
 21
-1079.9999999999991
 31
0.0
1001
ACDBBLOCKREPETAG
1070
     1
1071
       17
1005
12E676
  0
LINE
  5
12E677
  8
OBJECT
 10
10058.999999999991
 20
-1089.9999999999991
 30
0.0
 11
10058.999999999991
 21
-1079.9999999999991
 31
0.0
1001
ACDBBLOCKREPETAG
1070
     1
1071
       18
1005
12E677
  0
LINE
  5
12E678
  8
OBJECT
 10
9938.9999999999927
 20
-1089.9999999999991
 30
0.0
 11
9938.9999999999927
 21
-1103.9999999999991
 31
0.0
1001
ACDBBLOCKREPETAG
1070
     1
1071
       19
1005
12E678
  0
LINE
  5
12E679
  8
OBJECT
 10
9938.9999999999927
 20
-1103.9999999999991
 30
0.0
 11
10075.999999999991
 21
-1103.9999999999991
 31
0.0
1001
ACDBBLOCKREPETAG
1070
     1
1071
       20
1005
12E679
  0
LINE
  5
12E67A
  8
OBJECT
 10
9973.0
 20
-1089.9999999999991
 30
0.0
 11
9973.0
 21
-1079.9999999999991
 31
0.0
1001
ACDBBLOCKREPETAG
1070
     1
1071
       21
1005
12E67A
  0
LINE
  5
12E67B
  8
OBJECT
 10
9963.0
 20
-1089.9999999999991
 30
0.0
 11
9963.0
 21
-1079.9999999999991
 31
0.0
1001
ACDBBLOCKREPETAG
1070
     1
1071
       22
1005
12E67B
  0
LINE
  5
12E67C
  8
OBJECT
 10
9938.9999999999927
 20
-1089.9999999999991
 30
0.0
 11
10075.999999999991
 21
-1089.9999999999991
 31
0.0
1001
ACDBBLOCKREPETAG
1070
     1
1071
       23
1005
12E67C
  0
LINE
  5
12E67D
  8
OBJECT
 10
9958.9999999999964
 20
-1059.9999999999991
 30
0.0
 11
9958.9999999999964
 21
-1064.9999999999991
 31
0.0
1001
ACDBBLOCKREPETAG
1070
     1
1071
       24
1005
12E67D
  0
LINE
  5
12E67E
  8
OBJECT
 10
9963.0
 20
-1111.9999999999991
 30
0.0
 11
9963.0
 21
-1114.9999999999991
 31
0.0
1001
ACDBBLOCKREPETAG
1070
     1
1071
       25
1005
12E67E
  0
LINE
  5
12E67F
  8
OBJECT
 10
9963.0
 20
-1114.9999999999991
 30
0.0
 11
9973.0
 21
-1114.9999999999991
 31
0.0
1001
ACDBBLOCKREPETAG
1070
     1
1071
       26
1005
12E67F
  0
LINE
  5
12E680
  8
OBJECT
 10
9958.1850454237738
 20
-1111.9999999999991
 30
0.0
 11
9977.814954576219
 21
-1111.9999999999991
 31
0.0
1001
ACDBBLOCKREPETAG
1070
     1
1071
       27
1005
12E680
  0
LINE
  5
12E681
  8
OBJECT
 10
9973.0
 20
-1114.9999999999991
 30
0.0
 11
9973.0
 21
-1111.9999999999991
 31
0.0
1001
ACDBBLOCKREPETAG
1070
     1
1071
       28
1005
12E681
  0
LINE
  5
12E682
  8
OBJECT
 10
9945.9999999999909
 20
-1079.9999999999991
 30
0.0
 11
9945.9999999999909
 21
-1089.9999999999991
 31
0.0
1001
ACDBBLOCKREPETAG
1070
     1
1071
       29
1005
12E682
  0
LINE
  5
12E683
  8
OBJECT
 10
10053.999999999991
 20
-1079.9999999999991
 30
0.0
 11
10053.999999999991
 21
-1089.9999999999991
 31
0.0
1001
ACDBBLOCKREPETAG
1070
     1
1071
       30
1005
12E683
  0
LINE
  5
12E684
  8
OBJECT
 10
10044.5
 20
-979.99999999999966
 30
0.0
 11
10065.0
 21
-869.99999999999955
 31
0.0
1001
ACDBBLOCKREPETAG
1070
     1
1071
       31
1005
12E684
  0
LINE
  5
12E685
  8
OBJECT
 10
9955.5
 20
-979.99999999999966
 30
0.0
 11
10044.5
 21
-979.99999999999966
 31
0.0
1001
ACDBBLOCKREPETAG
1070
     1
1071
       32
1005
12E685
  0
LINE
  5
12E686
  8
OBJECT
 10
9938.9999999999927
 20
-1079.9999999999991
 30
0.0
 11
9938.9999999999927
 21
-1064.9999999999991
 31
0.0
1001
ACDBBLOCKREPETAG
1070
     1
1071
       33
1005
12E686
  0
LINE
  5
12E687
  8
OBJECT
 10
9938.9999999999927
 20
-1064.9999999999991
 30
0.0
 11
10075.999999999991
 21
-1064.9999999999991
 31
0.0
1001
ACDBBLOCKREPETAG
1070
     1
1071
       34
1005
12E687
  0
LINE
  5
12E688
  8
OBJECT
 10
9955.5
 20
-979.99999999999966
 30
0.0
 11
9955.5
 21
-1029.9999999999991
 31
0.0
1001
ACDBBLOCKREPETAG
1070
     1
1071
       35
1005
12E688
  0
LINE
  5
12E689
  8
OBJECT
 10
10044.5
 20
-979.99999999999966
 30
0.0
 11
10044.5
 21
-1029.9999999999991
 31
0.0
1001
ACDBBLOCKREPETAG
1070
     1
1071
       36
1005
12E689
  0
LINE
  5
12E68A
  8
OBJECT
 10
9947.0
 20
-1029.9999999999991
 30
0.0
 11
10053.0
 21
-1029.9999999999991
 31
0.0
1001
ACDBBLOCKREPETAG
1070
     1
1071
       37
1005
12E68A
  0
LINE
  5
12E68B
  8
OBJECT
 10
10054.99999999998
 20
-1059.9999999999991
 30
0.0
 11
10054.99999999998
 21
-1064.9999999999991
 31
0.0
1001
ACDBBLOCKREPETAG
1070
     1
1071
       38
1005
12E68B
  0
LINE
  5
12E68C
  8
OBJECT
 10
10073.0
 20
-1059.9999999999991
 30
0.0
 11
10073.0
 21
-1064.9999999999991
 31
0.0
1001
ACDBBLOCKREPETAG
1070
     1
1071
       39
1005
12E68C
  0
LINE
  5
12E68D
  8
OBJECT
 10
10073.0
 20
-1059.9999999999991
 30
0.0
 11
10054.99999999998
 21
-1059.9999999999991
 31
0.0
1001
ACDBBLOCKREPETAG
1070
     1
1071
       40
1005
12E68D
  0
LINE
  5
12E68E
  8
HIDDEN
 10
9955.5
 20
-1039.9999999999991
 30
0.0
 11
10044.5
 21
-1039.9999999999991
 31
0.0
1001
ACDBBLOCKREPETAG
1070
     1
1071
       41
1005
12E68E
  0
LINE
  5
12E68F
  8
CENTER
 10
10000.0
 20
-769.99999999999955
 30
0.0
 11
10000.0
 21
-1118.9999999999991
 31
0.0
1001
ACDBBLOCKREPETAG
1070
     1
1071
       42
1005
12E68F
  0
LINE
  5
12E690
  8
OBJECT
 10
10065.0
 20
-769.99999999999955
 30
0.0
 11
10065.0
 21
-869.99999999999955
 31
0.0
1001
ACDBBLOCKREPETAG
1070
     1
1071
       43
1005
12E690
  0
LINE
  5
12E691
  8
OBJECT
 10
9935.0
 20
-769.99999999999955
 30
0.0
 11
9935.0
 21
-869.99999999999955
 31
0.0
1001
ACDBBLOCKREPETAG
1070
     1
1071
       44
1005
12E691
  0
LINE
  5
12E692
  8
OBJECT
 10
9955.5
 20
-979.99999999999966
 30
0.0
 11
9935.0
 21
-869.99999999999955
 31
0.0
1001
ACDBBLOCKREPETAG
1070
     1
1071
       45
1005
12E692
  0
LINE
  5
12E693
  8
OBJECT
 10
10065.0
 20
-869.99999999999955
 30
0.0
 11
9935.0
 21
-869.99999999999955
 31
0.0
1001
ACDBBLOCKREPETAG
1070
     1
1071
       46
1005
12E693
  0
LINE
  5
12E694
  8
OBJECT
 10
9947.0
 20
-1029.9999999999991
 30
0.0
 11
9947.0
 21
-1064.9999999999991
 31
0.0
1001
ACDBBLOCKREPETAG
1070
     1
1071
       47
1005
12E694
  0
LINE
  5
12E695
  8
OBJECT
 10
10053.0
 20
-1029.9999999999991
 30
0.0
 11
10053.0
 21
-1064.9999999999991
 31
0.0
1001
ACDBBLOCKREPETAG
1070
     1
1071
       48
1005
12E695
  0
LINE
  5
12E696
  8
OBJECT
 10
9983.0
 20
-1062.9999999999991
 30
0.0
 11
9975.5
 21
-1059.9999999999991
 31
0.0
1001
ACDBBLOCKREPETAG
1070
     1
1071
       49
1005
12E696
  0
LINE
  5
12E697
  8
OBJECT
 10
9958.1850359912914
 20
-1103.999986840259
 30
0.0
 11
9958.1850359912914
 21
-1111.999986840259
 31
0.0
1001
ACDBBLOCKREPETAG
1070
     1
1071
       50
1005
12E697
  0
LINE
  5
12E698
  8
OBJECT
 10
9963.0925013591986
 20
-1103.999986840259
 30
0.0
 11
9963.0925013591986
 21
-1111.999986840259
 31
0.0
1001
ACDBBLOCKREPETAG
1070
     1
1071
       51
1005
12E698
  0
LINE
  5
12E699
  8
OBJECT
 10
9972.9074320950258
 20
-1103.999986840259
 30
0.0
 11
9972.9074320950258
 21
-1111.999986840259
 31
0.0
1001
ACDBBLOCKREPETAG
1070
     1
1071
       52
1005
12E699
  0
LINE
  5
12E69A
  8
OBJECT
 10
9977.8149915527974
 20
-1103.999986840259
 30
0.0
 11
9977.8149915527974
 21
-1111.999986840259
 31
0.0
1001
ACDBBLOCKREPETAG
1070
     1
1071
       53
1005
12E69A
  0
LINE
  5
12E69B
  8
OBJECT
 10
10059.0
 20
-1111.9999999999991
 30
0.0
 11
10059.0
 21
-1114.9999999999991
 31
0.0
1001
ACDBBLOCKREPETAG
1070
     1
1071
       54
1005
12E69B
  0
LINE
  5
12E69C
  8
OBJECT
 10
10059.0
 20
-1114.9999999999991
 30
0.0
 11
10069.0
 21
-1114.9999999999991
 31
0.0
1001
ACDBBLOCKREPETAG
1070
     1
1071
       55
1005
12E69C
  0
LINE
  5
12E69D
  8
OBJECT
 10
10054.18504542377
 20
-1111.9999999999991
 30
0.0
 11
10073.814954576221
 21
-1111.9999999999991
 31
0.0
1001
ACDBBLOCKREPETAG
1070
     1
1071
       56
1005
12E69D
  0
LINE
  5
12E69E
  8
OBJECT
 10
10069.0
 20
-1114.9999999999991
 30
0.0
 11
10069.0
 21
-1111.9999999999991
 31
0.0
1001
ACDBBLOCKREPETAG
1070
     1
1071
       57
1005
12E69E
  0
LINE
  5
12E69F
  8
OBJECT
 10
10054.18503599129
 20
-1103.999986840259
 30
0.0
 11
10054.18503599129
 21
-1111.999986840259
 31
0.0
1001
ACDBBLOCKREPETAG
1070
     1
1071
       58
1005
12E69F
  0
LINE
  5
12E6A0
  8
OBJECT
 10
10059.0925013592
 20
-1103.999986840259
 30
0.0
 11
10059.0925013592
 21
-1111.999986840259
 31
0.0
1001
ACDBBLOCKREPETAG
1070
     1
1071
       59
1005
12E6A0
  0
LINE
  5
12E6A1
  8
OBJECT
 10
10068.90743209502
 20
-1103.999986840259
 30
0.0
 11
10068.90743209502
 21
-1111.999986840259
 31
0.0
1001
ACDBBLOCKREPETAG
1070
     1
1071
       60
1005
12E6A1
  0
LINE
  5
12E6A2
  8
OBJECT
 10
10073.814991552799
 20
-1103.999986840259
 30
0.0
 11
10073.814991552799
 21
-1111.999986840259
 31
0.0
1001
ACDBBLOCKREPETAG
1070
     1
1071
       61
1005
12E6A2
  0
LINE
  5
12E6A3
  8
OBJECT
 10
8044.5000000000036
 20
-1079.999999999992
 30
0.0
 11
7955.5
 21
-1079.999999999992
 31
0.0
1001
ACDBBLOCKREPETAG
1070
     1
1071
        0
1005
12E6A3
  0
LINE
  5
12E6A4
  8
OBJECT
 10
7935.0
 20
-869.99999999999216
 30
0.0
 11
7935.0
 21
-769.99999999999204
 31
0.0
1001
ACDBBLOCKREPETAG
1070
     1
1071
        1
1005
12E6A4
  0
LINE
  5
12E6A5
  8
OBJECT
 10
8065.0
 20
-869.99999999999216
 30
0.0
 11
8065.0
 21
-769.99999999999204
 31
0.0
1001
ACDBBLOCKREPETAG
1070
     1
1071
        2
1005
12E6A5
  0
LINE
  5
12E6A6
  8
OBJECT
 10
7935.0
 20
-869.99999999999216
 30
0.0
 11
8065.0
 21
-869.99999999999216
 31
0.0
1001
ACDBBLOCKREPETAG
1070
     1
1071
        3
1005
12E6A6
  0
LINE
  5
12E6A7
  8
OBJECT
 10
7955.5
 20
-979.99999999999204
 30
0.0
 11
8044.5000000000036
 21
-979.99999999999204
 31
0.0
1001
ACDBBLOCKREPETAG
1070
     1
1071
        4
1005
12E6A7
  0
LINE
  5
12E6A8
  8
OBJECT
 10
7955.5
 20
-979.99999999999204
 30
0.0
 11
7955.5
 21
-1079.999999999992
 31
0.0
1001
ACDBBLOCKREPETAG
1070
     1
1071
        5
1005
12E6A8
  0
LINE
  5
12E6A9
  8
OBJECT
 10
8044.5000000000036
 20
-979.99999999999204
 30
0.0
 11
8044.5000000000036
 21
-1079.999999999992
 31
0.0
1001
ACDBBLOCKREPETAG
1070
     1
1071
        6
1005
12E6A9
  0
LINE
  5
12E6AA
  8
OBJECT
 10
7935.0
 20
-869.99999999999216
 30
0.0
 11
7955.5
 21
-979.99999999999204
 31
0.0
1001
ACDBBLOCKREPETAG
1070
     1
1071
        7
1005
12E6AA
  0
LINE
  5
12E6AB
  8
OBJECT
 10
8044.5000000000036
 20
-979.99999999999204
 30
0.0
 11
8065.0
 21
-869.99999999999216
 31
0.0
1001
ACDBBLOCKREPETAG
1070
     1
1071
        8
1005
12E6AB
  0
LINE
  5
12E6AC
  8
HIDDEN
 10
7962.5
 20
-979.99999999999204
 30
0.0
 11
7962.5
 21
-1079.999999999992
 31
0.0
1001
ACDBBLOCKREPETAG
1070
     1
1071
        9
1005
12E6AC
  0
LINE
  5
12E6AD
  8
HIDDEN
 10
8037.4999999999973
 20
-979.99999999999204
 30
0.0
 11
8037.4999999999973
 21
-1079.999999999992
 31
0.0
1001
ACDBBLOCKREPETAG
1070
     1
1071
       10
1005
12E6AD
  0
LINE
  5
12E6AE
  8
CENTER
 10
8000.0
 20
-769.99999999999955
 30
0.0
 11
8000.0
 21
-1094.999999999992
 31
0.0
1001
ACDBBLOCKREPETAG
1070
     1
1071
       11
1005
12E6AE
  0
LINE
  5
12E6AF
  8
OBJECT
 10
6055.9999999999927
 20
-1103.9999999999991
 30
0.0
 11
6055.9999999999927
 21
-1113.9999999999991
 31
0.0
1001
ACDBBLOCKREPETAG
1070
     1
1071
      121
1005
12E6AF
  0
LINE
  5
12E6B0
  8
OBJECT
 10
5961.75
 20
-1054.699999999996
 30
0.0
 11
5974.25
 21
-1054.699999999996
 31
0.0
1001
ACDBBLOCKREPETAG
1070
     1
1071
      122
1005
12E6B0
  0
LINE
  5
12E6B1
  8
OBJECT
 10
6073.4999999999927
 20
-1062.7
 30
0.0
 11
6073.4999999999927
 21
-1064.9999999999991
 31
0.0
1001
ACDBBLOCKREPETAG
1070
     1
1071
      123
1005
12E6B1
  0
LINE
  5
12E6B2
  8
OBJECT
 10
6057.7499999999927
 20
-1054.699999999996
 30
0.0
 11
6070.2499999999927
 21
-1054.699999999996
 31
0.0
1001
ACDBBLOCKREPETAG
1070
     1
1071
      124
1005
12E6B2
  0
LINE
  5
12E6B3
  8
OBJECT
 10
6054.4999999999927
 20
-1062.7
 30
0.0
 11
6054.4999999999927
 21
-1064.9999999999991
 31
0.0
1001
ACDBBLOCKREPETAG
1070
     1
1071
      125
1005
12E6B3
  0
LINE
  5
12E6B4
  8
OBJECT
 10
5953.0
 20
-1064.9999999999991
 30
0.0
 11
5953.0
 21
-1062.7
 31
0.0
1001
ACDBBLOCKREPETAG
1070
     1
1071
      126
1005
12E6B4
  0
LINE
  5
12E6B5
  8
OBJECT
 10
5983.0
 20
-1064.9999999999991
 30
0.0
 11
5983.0
 21
-1062.7
 31
0.0
1001
ACDBBLOCKREPETAG
1070
     1
1071
      127
1005
12E6B5
  0
LINE
  5
12E6B6
  8
OBJECT
 10
5961.75
 20
-1054.699999999996
 30
0.0
 11
5961.75
 21
-1062.7
 31
0.0
1001
ACDBBLOCKREPETAG
1070
     1
1071
      128
1005
12E6B6
  0
LINE
  5
12E6B7
  8
OBJECT
 10
5974.25
 20
-1054.699999999996
 30
0.0
 11
5974.25
 21
-1062.7
 31
0.0
1001
ACDBBLOCKREPETAG
1070
     1
1071
      129
1005
12E6B7
  0
LINE
  5
12E6B8
  8
OBJECT
 10
5953.0
 20
-1062.7
 30
0.0
 11
5983.0
 21
-1062.7
 31
0.0
1001
ACDBBLOCKREPETAG
1070
     1
1071
      130
1005
12E6B8
  0
LINE
  5
12E6B9
  8
OBJECT
 10
5960.0
 20
-1103.9999999999991
 30
0.0
 11
5960.0
 21
-1113.9999999999991
 31
0.0
1001
ACDBBLOCKREPETAG
1070
     1
1071
      131
1005
12E6B9
  0
LINE
  5
12E6BA
  8
OBJECT
 10
5976.0
 20
-1103.9999999999991
 30
0.0
 11
5976.0
 21
-1113.9999999999991
 31
0.0
1001
ACDBBLOCKREPETAG
1070
     1
1071
      132
1005
12E6BA
  0
LINE
  5
12E6BB
  8
OBJECT
 10
5960.0
 20
-1113.9999999999991
 30
0.0
 11
5976.0
 21
-1113.9999999999991
 31
0.0
1001
ACDBBLOCKREPETAG
1070
     1
1071
      133
1005
12E6BB
  0
LINE
  5
12E6BC
  8
OBJECT
 10
6071.9999999999918
 20
-1103.9999999999991
 30
0.0
 11
6071.9999999999918
 21
-1113.9999999999991
 31
0.0
1001
ACDBBLOCKREPETAG
1070
     1
1071
      134
1005
12E6BC
  0
LINE
  5
12E6BD
  8
OBJECT
 10
6071.9999999999918
 20
-1113.9999999999991
 30
0.0
 11
6055.9999999999927
 21
-1113.9999999999991
 31
0.0
1001
ACDBBLOCKREPETAG
1070
     1
1071
      135
1005
12E6BD
  0
LINE
  5
12E6BE
  8
OBJECT
 10
5944.9999999999927
 20
-1144.9999999999991
 30
0.0
 11
5944.9999999999927
 21
-1103.9999999999991
 31
0.0
1001
ACDBBLOCKREPETAG
1070
     1
1071
      136
1005
12E6BE
  0
LINE
  5
12E6BF
  8
OBJECT
 10
6054.9999999999918
 20
-1103.9999999999991
 30
0.0
 11
6054.9999999999918
 21
-1144.9999999999991
 31
0.0
1001
ACDBBLOCKREPETAG
1070
     1
1071
      137
1005
12E6BF
  0
LINE
  5
12E6C0
  8
OBJECT
 10
6070.2499999999927
 20
-1054.699999999996
 30
0.0
 11
6070.2499999999927
 21
-1062.7
 31
0.0
1001
ACDBBLOCKREPETAG
1070
     1
1071
      138
1005
12E6C0
  0
LINE
  5
12E6C1
  8
OBJECT
 10
6057.7499999999927
 20
-1054.699999999996
 30
0.0
 11
6057.7499999999927
 21
-1062.7
 31
0.0
1001
ACDBBLOCKREPETAG
1070
     1
1071
      139
1005
12E6C1
  0
LINE
  5
12E6C2
  8
OBJECT
 10
6054.4999999999927
 20
-1062.7
 30
0.0
 11
6073.4999999999927
 21
-1062.7
 31
0.0
1001
ACDBBLOCKREPETAG
1070
     1
1071
      140
1005
12E6C2
  0
LINE
  5
12E6C3
  8
OBJECT
 10
6054.9999999999918
 20
-1144.9999999999991
 30
0.0
 11
5944.9999999999927
 21
-1144.9999999999991
 31
0.0
1001
ACDBBLOCKREPETAG
1070
     1
1071
      141
1005
12E6C3
  0
LINE
  5
12E6C4
  8
OBJECT
 10
6075.9999999999927
 20
-1079.9999999999991
 30
0.0
 11
5938.9999999999918
 21
-1079.9999999999991
 31
0.0
1001
ACDBBLOCKREPETAG
1070
     1
1071
      142
1005
12E6C4
  0
LINE
  5
12E6C5
  8
OBJECT
 10
6075.9999999999927
 20
-1079.9999999999991
 30
0.0
 11
6075.9999999999927
 21
-1064.9999999999991
 31
0.0
1001
ACDBBLOCKREPETAG
1070
     1
1071
      143
1005
12E6C5
  0
LINE
  5
12E6C6
  8
OBJECT
 10
6075.9999999999927
 20
-1089.9999999999991
 30
0.0
 11
6075.9999999999927
 21
-1103.9999999999991
 31
0.0
1001
ACDBBLOCKREPETAG
1070
     1
1071
      144
1005
12E6C6
  0
LINE
  5
12E6C7
  8
OBJECT
 10
6068.9999999999909
 20
-1089.9999999999991
 30
0.0
 11
6068.9999999999909
 21
-1079.9999999999991
 31
0.0
1001
ACDBBLOCKREPETAG
1070
     1
1071
      145
1005
12E6C7
  0
LINE
  5
12E6C8
  8
OBJECT
 10
6058.9999999999927
 20
-1089.9999999999991
 30
0.0
 11
6058.9999999999927
 21
-1079.9999999999991
 31
0.0
1001
ACDBBLOCKREPETAG
1070
     1
1071
      146
1005
12E6C8
  0
LINE
  5
12E6C9
  8
OBJECT
 10
5938.9999999999918
 20
-1089.9999999999991
 30
0.0
 11
5938.9999999999918
 21
-1103.9999999999991
 31
0.0
1001
ACDBBLOCKREPETAG
1070
     1
1071
      147
1005
12E6C9
  0
LINE
  5
12E6CA
  8
OBJECT
 10
5938.9999999999918
 20
-1103.9999999999991
 30
0.0
 11
6075.9999999999927
 21
-1103.9999999999991
 31
0.0
1001
ACDBBLOCKREPETAG
1070
     1
1071
      148
1005
12E6CA
  0
LINE
  5
12E6CB
  8
OBJECT
 10
5973.0
 20
-1089.9999999999991
 30
0.0
 11
5973.0
 21
-1079.9999999999991
 31
0.0
1001
ACDBBLOCKREPETAG
1070
     1
1071
      149
1005
12E6CB
  0
LINE
  5
12E6CC
  8
OBJECT
 10
5963.0
 20
-1089.9999999999991
 30
0.0
 11
5963.0
 21
-1079.9999999999991
 31
0.0
1001
ACDBBLOCKREPETAG
1070
     1
1071
      150
1005
12E6CC
  0
LINE
  5
12E6CD
  8
OBJECT
 10
5938.9999999999918
 20
-1089.9999999999991
 30
0.0
 11
6075.9999999999927
 21
-1089.9999999999991
 31
0.0
1001
ACDBBLOCKREPETAG
1070
     1
1071
      151
1005
12E6CD
  0
LINE
  5
12E6CE
  8
OBJECT
 10
5945.9999999999927
 20
-1079.9999999999991
 30
0.0
 11
5945.9999999999927
 21
-1089.9999999999991
 31
0.0
1001
ACDBBLOCKREPETAG
1070
     1
1071
      152
1005
12E6CE
  0
LINE
  5
12E6CF
  8
OBJECT
 10
6053.9999999999927
 20
-1079.9999999999991
 30
0.0
 11
6053.9999999999927
 21
-1089.9999999999991
 31
0.0
1001
ACDBBLOCKREPETAG
1070
     1
1071
      153
1005
12E6CF
  0
LINE
  5
12E6D0
  8
OBJECT
 10
6044.5
 20
-979.99999999999966
 30
0.0
 11
6065.0
 21
-869.99999999999955
 31
0.0
1001
ACDBBLOCKREPETAG
1070
     1
1071
      154
1005
12E6D0
  0
LINE
  5
12E6D1
  8
OBJECT
 10
5955.5
 20
-979.99999999999966
 30
0.0
 11
6044.5
 21
-979.99999999999966
 31
0.0
1001
ACDBBLOCKREPETAG
1070
     1
1071
      155
1005
12E6D1
  0
LINE
  5
12E6D2
  8
OBJECT
 10
5938.9999999999918
 20
-1079.9999999999991
 30
0.0
 11
5938.9999999999918
 21
-1064.9999999999991
 31
0.0
1001
ACDBBLOCKREPETAG
1070
     1
1071
      156
1005
12E6D2
  0
LINE
  5
12E6D3
  8
OBJECT
 10
5938.9999999999918
 20
-1064.9999999999991
 30
0.0
 11
6075.9999999999927
 21
-1064.9999999999991
 31
0.0
1001
ACDBBLOCKREPETAG
1070
     1
1071
      157
1005
12E6D3
  0
LINE
  5
12E6D4
  8
OBJECT
 10
5955.5
 20
-979.99999999999966
 30
0.0
 11
5955.5
 21
-1029.9999999999991
 31
0.0
1001
ACDBBLOCKREPETAG
1070
     1
1071
      158
1005
12E6D4
  0
LINE
  5
12E6D5
  8
OBJECT
 10
6044.5
 20
-979.99999999999966
 30
0.0
 11
6044.5
 21
-1029.9999999999991
 31
0.0
1001
ACDBBLOCKREPETAG
1070
     1
1071
      159
1005
12E6D5
  0
LINE
  5
12E6D6
  8
OBJECT
 10
5947.0
 20
-1029.9999999999991
 30
0.0
 11
6053.0
 21
-1029.9999999999991
 31
0.0
1001
ACDBBLOCKREPETAG
1070
     1
1071
      160
1005
12E6D6
  0
LINE
  5
12E6D7
  8
HIDDEN
 10
5955.5
 20
-1039.9999999999991
 30
0.0
 11
6044.5
 21
-1039.9999999999991
 31
0.0
1001
ACDBBLOCKREPETAG
1070
     1
1071
      161
1005
12E6D7
  0
LINE
  5
12E6D8
  8
CENTER
 10
6000.0
 20
-769.99999999999955
 30
0.0
 11
6000.0
 21
-1159.9999999999991
 31
0.0
1001
ACDBBLOCKREPETAG
1070
     1
1071
      162
1005
12E6D8
  0
LINE
  5
12E6D9
  8
OBJECT
 10
6065.0
 20
-769.99999999999955
 30
0.0
 11
6065.0
 21
-869.99999999999955
 31
0.0
1001
ACDBBLOCKREPETAG
1070
     1
1071
      163
1005
12E6D9
  0
LINE
  5
12E6DA
  8
OBJECT
 10
5935.0
 20
-769.99999999999955
 30
0.0
 11
5935.0
 21
-869.99999999999955
 31
0.0
1001
ACDBBLOCKREPETAG
1070
     1
1071
      164
1005
12E6DA
  0
LINE
  5
12E6DB
  8
OBJECT
 10
5955.5
 20
-979.99999999999966
 30
0.0
 11
5935.0
 21
-869.99999999999955
 31
0.0
1001
ACDBBLOCKREPETAG
1070
     1
1071
      165
1005
12E6DB
  0
LINE
  5
12E6DC
  8
OBJECT
 10
6065.0
 20
-869.99999999999955
 30
0.0
 11
5935.0
 21
-869.99999999999955
 31
0.0
1001
ACDBBLOCKREPETAG
1070
     1
1071
      166
1005
12E6DC
  0
LINE
  5
12E6DD
  8
OBJECT
 10
5947.0
 20
-1029.9999999999991
 30
0.0
 11
5947.0
 21
-1064.9999999999991
 31
0.0
1001
ACDBBLOCKREPETAG
1070
     1
1071
      167
1005
12E6DD
  0
LINE
  5
12E6DE
  8
OBJECT
 10
6053.0
 20
-1029.9999999999991
 30
0.0
 11
6053.0
 21
-1064.9999999999991
 31
0.0
1001
ACDBBLOCKREPETAG
1070
     1
1071
      168
1005
12E6DE
  0
LINE
  5
12E6DF
  8
OBJECT
 10
3975.5
 20
-1059.9999999999991
 30
0.0
 11
3958.9999999999918
 21
-1059.9999999999991
 31
0.0
1001
ACDBBLOCKREPETAG
1070
     1
1071
       12
1005
12E6DF
  0
LINE
  5
12E6E0
  8
OBJECT
 10
3983.0
 20
-1064.9999999999991
 30
0.0
 11
3983.0
 21
-1062.9999999999991
 31
0.0
1001
ACDBBLOCKREPETAG
1070
     1
1071
       13
1005
12E6E0
  0
LINE
  5
12E6E1
  8
OBJECT
 10
4075.9999999999918
 20
-1079.9999999999991
 30
0.0
 11
3938.9999999999932
 21
-1079.9999999999991
 31
0.0
1001
ACDBBLOCKREPETAG
1070
     1
1071
       14
1005
12E6E1
  0
LINE
  5
12E6E2
  8
OBJECT
 10
4075.9999999999918
 20
-1079.9999999999991
 30
0.0
 11
4075.9999999999918
 21
-1064.9999999999991
 31
0.0
1001
ACDBBLOCKREPETAG
1070
     1
1071
       15
1005
12E6E2
  0
LINE
  5
12E6E3
  8
OBJECT
 10
4075.9999999999918
 20
-1089.9999999999991
 30
0.0
 11
4075.9999999999918
 21
-1103.9999999999991
 31
0.0
1001
ACDBBLOCKREPETAG
1070
     1
1071
       16
1005
12E6E3
  0
LINE
  5
12E6E4
  8
OBJECT
 10
4068.9999999999918
 20
-1089.9999999999991
 30
0.0
 11
4068.9999999999918
 21
-1079.9999999999991
 31
0.0
1001
ACDBBLOCKREPETAG
1070
     1
1071
       17
1005
12E6E4
  0
LINE
  5
12E6E5
  8
OBJECT
 10
4058.9999999999932
 20
-1089.9999999999991
 30
0.0
 11
4058.9999999999932
 21
-1079.9999999999991
 31
0.0
1001
ACDBBLOCKREPETAG
1070
     1
1071
       18
1005
12E6E5
  0
LINE
  5
12E6E6
  8
OBJECT
 10
3938.9999999999932
 20
-1089.9999999999991
 30
0.0
 11
3938.9999999999932
 21
-1103.9999999999991
 31
0.0
1001
ACDBBLOCKREPETAG
1070
     1
1071
       19
1005
12E6E6
  0
LINE
  5
12E6E7
  8
OBJECT
 10
3938.9999999999932
 20
-1103.9999999999991
 30
0.0
 11
4075.9999999999918
 21
-1103.9999999999991
 31
0.0
1001
ACDBBLOCKREPETAG
1070
     1
1071
       20
1005
12E6E7
  0
LINE
  5
12E6E8
  8
OBJECT
 10
3973.0
 20
-1089.9999999999991
 30
0.0
 11
3973.0
 21
-1079.9999999999991
 31
0.0
1001
ACDBBLOCKREPETAG
1070
     1
1071
       21
1005
12E6E8
  0
LINE
  5
12E6E9
  8
OBJECT
 10
3963.0
 20
-1089.9999999999991
 30
0.0
 11
3963.0
 21
-1079.9999999999991
 31
0.0
1001
ACDBBLOCKREPETAG
1070
     1
1071
       22
1005
12E6E9
  0
LINE
  5
12E6EA
  8
OBJECT
 10
3938.9999999999932
 20
-1089.9999999999991
 30
0.0
 11
4075.9999999999918
 21
-1089.9999999999991
 31
0.0
1001
ACDBBLOCKREPETAG
1070
     1
1071
       23
1005
12E6EA
  0
LINE
  5
12E6EB
  8
OBJECT
 10
3958.9999999999918
 20
-1059.9999999999991
 30
0.0
 11
3958.9999999999918
 21
-1064.9999999999991
 31
0.0
1001
ACDBBLOCKREPETAG
1070
     1
1071
       24
1005
12E6EB
  0
LINE
  5
12E6EC
  8
OBJECT
 10
3963.0
 20
-1111.9999999999991
 30
0.0
 11
3963.0
 21
-1114.9999999999991
 31
0.0
1001
ACDBBLOCKREPETAG
1070
     1
1071
       25
1005
12E6EC
  0
LINE
  5
12E6ED
  8
OBJECT
 10
3963.0
 20
-1114.9999999999991
 30
0.0
 11
3973.0
 21
-1114.9999999999991
 31
0.0
1001
ACDBBLOCKREPETAG
1070
     1
1071
       26
1005
12E6ED
  0
LINE
  5
12E6EE
  8
OBJECT
 10
3958.185045423772
 20
-1111.9999999999991
 30
0.0
 11
3977.8149545762212
 21
-1111.9999999999991
 31
0.0
1001
ACDBBLOCKREPETAG
1070
     1
1071
       27
1005
12E6EE
  0
LINE
  5
12E6EF
  8
OBJECT
 10
3973.0
 20
-1114.9999999999991
 30
0.0
 11
3973.0
 21
-1111.9999999999991
 31
0.0
1001
ACDBBLOCKREPETAG
1070
     1
1071
       28
1005
12E6EF
  0
LINE
  5
12E6F0
  8
OBJECT
 10
3945.9999999999932
 20
-1079.9999999999991
 30
0.0
 11
3945.9999999999932
 21
-1089.9999999999991
 31
0.0
1001
ACDBBLOCKREPETAG
1070
     1
1071
       29
1005
12E6F0
  0
LINE
  5
12E6F1
  8
OBJECT
 10
4053.9999999999941
 20
-1079.9999999999991
 30
0.0
 11
4053.9999999999941
 21
-1089.9999999999991
 31
0.0
1001
ACDBBLOCKREPETAG
1070
     1
1071
       30
1005
12E6F1
  0
LINE
  5
12E6F2
  8
OBJECT
 10
4044.5
 20
-979.99999999999966
 30
0.0
 11
4065.0
 21
-869.99999999999955
 31
0.0
1001
ACDBBLOCKREPETAG
1070
     1
1071
       31
1005
12E6F2
  0
LINE
  5
12E6F3
  8
OBJECT
 10
3955.5
 20
-979.99999999999966
 30
0.0
 11
4044.5
 21
-979.99999999999966
 31
0.0
1001
ACDBBLOCKREPETAG
1070
     1
1071
       32
1005
12E6F3
  0
LINE
  5
12E6F4
  8
OBJECT
 10
3938.9999999999932
 20
-1079.9999999999991
 30
0.0
 11
3938.9999999999932
 21
-1064.9999999999991
 31
0.0
1001
ACDBBLOCKREPETAG
1070
     1
1071
       33
1005
12E6F4
  0
LINE
  5
12E6F5
  8
OBJECT
 10
3938.9999999999932
 20
-1064.9999999999991
 30
0.0
 11
4075.9999999999918
 21
-1064.9999999999991
 31
0.0
1001
ACDBBLOCKREPETAG
1070
     1
1071
       34
1005
12E6F5
  0
LINE
  5
12E6F6
  8
OBJECT
 10
3955.5
 20
-979.99999999999966
 30
0.0
 11
3955.5
 21
-1029.9999999999991
 31
0.0
1001
ACDBBLOCKREPETAG
1070
     1
1071
       35
1005
12E6F6
  0
LINE
  5
12E6F7
  8
OBJECT
 10
4044.5
 20
-979.99999999999966
 30
0.0
 11
4044.5
 21
-1029.9999999999991
 31
0.0
1001
ACDBBLOCKREPETAG
1070
     1
1071
       36
1005
12E6F7
  0
LINE
  5
12E6F8
  8
OBJECT
 10
3947.0
 20
-1029.9999999999991
 30
0.0
 11
4053.0
 21
-1029.9999999999991
 31
0.0
1001
ACDBBLOCKREPETAG
1070
     1
1071
       37
1005
12E6F8
  0
LINE
  5
12E6F9
  8
OBJECT
 10
4054.9999999999841
 20
-1059.9999999999991
 30
0.0
 11
4054.9999999999841
 21
-1064.9999999999991
 31
0.0
1001
ACDBBLOCKREPETAG
1070
     1
1071
       38
1005
12E6F9
  0
LINE
  5
12E6FA
  8
OBJECT
 10
4073.0
 20
-1059.9999999999991
 30
0.0
 11
4073.0
 21
-1064.9999999999991
 31
0.0
1001
ACDBBLOCKREPETAG
1070
     1
1071
       39
1005
12E6FA
  0
LINE
  5
12E6FB
  8
OBJECT
 10
4073.0
 20
-1059.9999999999991
 30
0.0
 11
4054.9999999999841
 21
-1059.9999999999991
 31
0.0
1001
ACDBBLOCKREPETAG
1070
     1
1071
       40
1005
12E6FB
  0
LINE
  5
12E6FC
  8
HIDDEN
 10
3955.5
 20
-1039.9999999999991
 30
0.0
 11
4044.5
 21
-1039.9999999999991
 31
0.0
1001
ACDBBLOCKREPETAG
1070
     1
1071
       41
1005
12E6FC
  0
LINE
  5
12E6FD
  8
CENTER
 10
4000.0
 20
-769.99999999999955
 30
0.0
 11
4000.0
 21
-1118.9999999999991
 31
0.0
1001
ACDBBLOCKREPETAG
1070
     1
1071
       42
1005
12E6FD
  0
LINE
  5
12E6FE
  8
OBJECT
 10
4065.0
 20
-769.99999999999955
 30
0.0
 11
4065.0
 21
-869.99999999999955
 31
0.0
1001
ACDBBLOCKREPETAG
1070
     1
1071
       43
1005
12E6FE
  0
LINE
  5
12E6FF
  8
OBJECT
 10
3935.0
 20
-769.99999999999955
 30
0.0
 11
3935.0
 21
-869.99999999999955
 31
0.0
1001
ACDBBLOCKREPETAG
1070
     1
1071
       44
1005
12E6FF
  0
LINE
  5
12E700
  8
OBJECT
 10
3955.5
 20
-979.99999999999966
 30
0.0
 11
3935.0
 21
-869.99999999999955
 31
0.0
1001
ACDBBLOCKREPETAG
1070
     1
1071
       45
1005
12E700
  0
LINE
  5
12E701
  8
OBJECT
 10
4065.0
 20
-869.99999999999955
 30
0.0
 11
3935.0
 21
-869.99999999999955
 31
0.0
1001
ACDBBLOCKREPETAG
1070
     1
1071
       46
1005
12E701
  0
LINE
  5
12E702
  8
OBJECT
 10
3947.0
 20
-1029.9999999999991
 30
0.0
 11
3947.0
 21
-1064.9999999999991
 31
0.0
1001
ACDBBLOCKREPETAG
1070
     1
1071
       47
1005
12E702
  0
LINE
  5
12E703
  8
OBJECT
 10
4053.0
 20
-1029.9999999999991
 30
0.0
 11
4053.0
 21
-1064.9999999999991
 31
0.0
1001
ACDBBLOCKREPETAG
1070
     1
1071
       48
1005
12E703
  0
LINE
  5
12E704
  8
OBJECT
 10
3983.0
 20
-1062.9999999999991
 30
0.0
 11
3975.5
 21
-1059.9999999999991
 31
0.0
1001
ACDBBLOCKREPETAG
1070
     1
1071
       49
1005
12E704
  0
LINE
  5
12E705
  8
OBJECT
 10
3958.1850359912951
 20
-1103.999986840259
 30
0.0
 11
3958.1850359912951
 21
-1111.999986840259
 31
0.0
1001
ACDBBLOCKREPETAG
1070
     1
1071
       50
1005
12E705
  0
LINE
  5
12E706
  8
OBJECT
 10
3963.0925013591991
 20
-1103.999986840259
 30
0.0
 11
3963.0925013591991
 21
-1111.999986840259
 31
0.0
1001
ACDBBLOCKREPETAG
1070
     1
1071
       51
1005
12E706
  0
LINE
  5
12E707
  8
OBJECT
 10
3972.907432095024
 20
-1103.999986840259
 30
0.0
 11
3972.907432095024
 21
-1111.999986840259
 31
0.0
1001
ACDBBLOCKREPETAG
1070
     1
1071
       52
1005
12E707
  0
LINE
  5
12E708
  8
OBJECT
 10
3977.814991552797
 20
-1103.999986840259
 30
0.0
 11
3977.814991552797
 21
-1111.999986840259
 31
0.0
1001
ACDBBLOCKREPETAG
1070
     1
1071
       53
1005
12E708
  0
LINE
  5
12E709
  8
OBJECT
 10
4059.0
 20
-1111.9999999999991
 30
0.0
 11
4059.0
 21
-1114.9999999999991
 31
0.0
1001
ACDBBLOCKREPETAG
1070
     1
1071
       54
1005
12E709
  0
LINE
  5
12E70A
  8
OBJECT
 10
4059.0
 20
-1114.9999999999991
 30
0.0
 11
4069.0
 21
-1114.9999999999991
 31
0.0
1001
ACDBBLOCKREPETAG
1070
     1
1071
       55
1005
12E70A
  0
LINE
  5
12E70B
  8
OBJECT
 10
4054.1850454237701
 20
-1111.9999999999991
 30
0.0
 11
4073.8149545762199
 21
-1111.9999999999991
 31
0.0
1001
ACDBBLOCKREPETAG
1070
     1
1071
       56
1005
12E70B
  0
LINE
  5
12E70C
  8
OBJECT
 10
4069.0
 20
-1114.9999999999991
 30
0.0
 11
4069.0
 21
-1111.9999999999991
 31
0.0
1001
ACDBBLOCKREPETAG
1070
     1
1071
       57
1005
12E70C
  0
LINE
  5
12E70D
  8
OBJECT
 10
4054.1850359912919
 20
-1103.999986840259
 30
0.0
 11
4054.1850359912919
 21
-1111.999986840259
 31
0.0
1001
ACDBBLOCKREPETAG
1070
     1
1071
       58
1005
12E70D
  0
LINE
  5
12E70E
  8
OBJECT
 10
4059.0925013591982
 20
-1103.999986840259
 30
0.0
 11
4059.0925013591982
 21
-1111.999986840259
 31
0.0
1001
ACDBBLOCKREPETAG
1070
     1
1071
       59
1005
12E70E
  0
LINE
  5
12E70F
  8
OBJECT
 10
4068.907432095024
 20
-1103.999986840259
 30
0.0
 11
4068.907432095024
 21
-1111.999986840259
 31
0.0
1001
ACDBBLOCKREPETAG
1070
     1
1071
       60
1005
12E70F
  0
LINE
  5
12E710
  8
OBJECT
 10
4073.814991552797
 20
-1103.999986840259
 30
0.0
 11
4073.814991552797
 21
-1111.999986840259
 31
0.0
1001
ACDBBLOCKREPETAG
1070
     1
1071
       61
1005
12E710
  0
LINE
  5
12E711
  8
CENTER
 10
11924.0
 20
-1394.9999999999991
 30
0.0
 11
12091.0
 21
-1394.9999999999991
 31
0.0
1001
ACDBBLOCKREPETAG
1070
     1
1071
       22
1005
12E711
  0
LINE
  5
12E712
  8
CENTER
 10
12000.0
 20
-1318.0518385105161
 30
0.0
 11
12000.0
 21
-1471.948161489478
 31
0.0
1001
ACDBBLOCKREPETAG
1070
     1
1071
       23
1005
12E712
  0
CIRCLE
  5
12E713
  8
OBJECT
 10
12000.0
 20
-1394.9999999999991
 30
0.0
 40
37.5
1001
ACDBBLOCKREPETAG
1070
     1
1071
       24
1005
12E713
  0
CIRCLE
  5
12E714
  8
OBJECT
 10
12000.0
 20
-1394.9999999999991
 30
0.0
 40
47.5
1001
ACDBBLOCKREPETAG
1070
     1
1071
       25
1005
12E714
  0
ARC
  5
12E715
  8
OBJECT
 10
12000.0
 20
-1394.9999999999991
 30
0.0
 40
61.0
 50
40.03737312998139
 51
79.962626870012684
1001
ACDBBLOCKREPETAG
1070
     1
1071
       26
1005
12E715
  0
ARC
  5
12E716
  8
OBJECT
 10
12000.0
 20
-1394.9999999999991
 30
0.0
 40
61.0
 50
160.03737312997501
 51
199.96262687002491
1001
ACDBBLOCKREPETAG
1070
     1
1071
       27
1005
12E716
  0
ARC
  5
12E717
  8
OBJECT
 10
12000.0
 20
-1394.9999999999991
 30
0.0
 40
61.0
 50
280.03737312998732
 51
319.9626268700186
1001
ACDBBLOCKREPETAG
1070
     1
1071
       28
1005
12E717
  0
ARC
  5
12E718
  8
OBJECT
 10
12064.0
 20
-1394.9999999999991
 30
0.0
 40
12.0
 50
319.9626268700186
 51
40.03737312998139
1001
ACDBBLOCKREPETAG
1070
     1
1071
       29
1005
12E718
  0
LINE
  5
12E719
  8
OBJECT
 10
12046.703125
 20
-1355.7594837542299
 30
0.0
 11
12073.1875
 21
-1387.2805541811599
 31
0.0
1001
ACDBBLOCKREPETAG
1070
     1
1071
       30
1005
12E719
  0
LINE
  5
12E71A
  8
OBJECT
 10
12046.703125
 20
-1434.240516245768
 30
0.0
 11
12073.1875
 21
-1402.719445818838
 31
0.0
1001
ACDBBLOCKREPETAG
1070
     1
1071
       31
1005
12E71A
  0
CIRCLE
  5
12E71B
  8
OBJECT
 10
12000.0
 20
-1394.9999999999991
 30
0.0
 40
55.0
1001
ACDBBLOCKREPETAG
1070
     1
1071
       32
1005
12E71B
  0
ARC
  5
12E71C
  8
OBJECT
 10
12064.0
 20
-1394.9999999999991
 30
0.0
 40
12.0
 50
271.2434956101261
 51
88.756504389873882
1001
ACDBBLOCKREPETAG
1070
     1
1071
       33
1005
12E71C
  0
ARC
  5
12E71D
  8
OBJECT
 10
12064.5859375
 20
-1368.0063585775049
 30
0.0
 40
15.0
 50
202.68245018366949
 51
268.7565043898739
1001
ACDBBLOCKREPETAG
1070
     1
1071
       34
1005
12E71D
  0
CIRCLE
  5
12E71E
  8
SLIM
 10
12064.0
 20
-1394.9999999999991
 30
0.0
 40
8.0
1001
ACDBBLOCKREPETAG
1070
     1
1071
       35
1005
12E71E
  0
POLYLINE
  5
12E71F
  8
SLIM
 66
     1
 10
0.0
 20
0.0
 30
0.0
 70
     1
1001
ACDBBLOCKREPETAG
1070
     1
1071
       36
1005
12E71F
  0
VERTEX
  5
12FAE2
  8
SLIM
 10
12061.69059892324
 20
-1390.9999999999991
 30
0.0
  0
VERTEX
  5
12FAE3
  8
SLIM
 10
12059.38119784648
 20
-1394.9999999999991
 30
0.0
  0
VERTEX
  5
12FAE4
  8
SLIM
 10
12061.69059892324
 20
-1398.9999999999991
 30
0.0
  0
VERTEX
  5
12FAE5
  8
SLIM
 10
12066.30940107676
 20
-1398.9999999999991
 30
0.0
  0
VERTEX
  5
12FAE6
  8
SLIM
 10
12068.618802153511
 20
-1394.9999999999991
 30
0.0
  0
VERTEX
  5
12FAE7
  8
SLIM
 10
12066.30940107676
 20
-1390.9999999999991
 30
0.0
  0
SEQEND
  5
12FAE8
  8
SLIM
  0
ARC
  5
12E720
  8
OBJECT
 10
12064.5859375
 20
-1421.993641422489
 30
0.0
 40
15.0
 50
91.243495610126089
 51
157.3175498163304
1001
ACDBBLOCKREPETAG
1070
     1
1071
       37
1005
12E720
  0
ARC
  5
12E721
  8
OBJECT
 10
11968.0
 20
-1339.5743741577919
 30
0.0
 40
12.0
 50
79.962626870012684
 51
160.03737312997501
1001
ACDBBLOCKREPETAG
1070
     1
1071
       38
1005
12E721
  0
LINE
  5
12E722
  8
OBJECT
 10
11942.665153573549
 20
-1374.1741654367599
 30
0.0
 11
11956.721013817751
 21
-1335.477488669944
 31
0.0
1001
ACDBBLOCKREPETAG
1070
     1
1071
       39
1005
12E722
  0
LINE
  5
12E723
  8
OBJECT
 10
12010.631721426451
 20
-1334.9336491909951
 30
0.0
 11
11970.091486182249
 21
-1327.7580428511051
 31
0.0
1001
ACDBBLOCKREPETAG
1070
     1
1071
       40
1005
12E723
  0
ARC
  5
12E724
  8
OBJECT
 10
11968.0
 20
-1339.5743741577919
 30
0.0
 40
12.0
 50
31.243495610056922
 51
208.7565043898139
1001
ACDBBLOCKREPETAG
1070
     1
1071
       41
1005
12E724
  0
ARC
  5
12E725
  8
OBJECT
 10
11944.32985203747
 20
-1352.5637581090109
 30
0.0
 40
15.0
 50
322.68245018387239
 51
28.756504389813902
1001
ACDBBLOCKREPETAG
1070
     1
1071
       42
1005
12E725
  0
CIRCLE
  5
12E726
  8
SLIM
 10
11968.0
 20
-1339.5743741577919
 30
0.0
 40
7.9999999999999982
1001
ACDBBLOCKREPETAG
1070
     1
1071
       43
1005
12E726
  0
POLYLINE
  5
12E727
  8
SLIM
 66
     1
 10
0.0
 20
0.0
 30
0.0
 70
     1
1001
ACDBBLOCKREPETAG
1070
     1
1071
       44
1005
12E727
  0
VERTEX
  5
12FAE9
  8
SLIM
 10
11965.69059892324
 20
-1343.574374157796
 30
0.0
  0
VERTEX
  5
12FAEA
  8
SLIM
 10
11970.30940107676
 20
-1343.574374157793
 30
0.0
  0
VERTEX
  5
12FAEB
  8
SLIM
 10
11972.618802153511
 20
-1339.574374157796
 30
0.0
  0
VERTEX
  5
12FAEC
  8
SLIM
 10
11970.309401076751
 20
-1335.574374157793
 30
0.0
  0
VERTEX
  5
12FAED
  8
SLIM
 10
11965.69059892324
 20
-1335.574374157796
 30
0.0
  0
VERTEX
  5
12FAEE
  8
SLIM
 10
11963.38119784648
 20
-1339.5743741577919
 30
0.0
  0
SEQEND
  5
12FAEF
  8
SLIM
  0
ARC
  5
12E728
  8
OBJECT
 10
11991.084210462521
 20
-1325.5701166865169
 30
0.0
 40
15.0
 50
211.2434956100569
 51
277.31754981622862
1001
ACDBBLOCKREPETAG
1070
     1
1071
       45
1005
12E728
  0
ARC
  5
12E729
  8
OBJECT
 10
11968.0
 20
-1450.425625842202
 30
0.0
 40
12.0
 50
199.96262687002491
 51
280.03737312998732
1001
ACDBBLOCKREPETAG
1070
     1
1071
       46
1005
12E729
  0
LINE
  5
12E72A
  8
OBJECT
 10
12010.631721426451
 20
-1455.0663508090031
 30
0.0
 11
11970.091486182249
 21
-1462.241957148892
 31
0.0
1001
ACDBBLOCKREPETAG
1070
     1
1071
       47
1005
12E72A
  0
LINE
  5
12E72B
  8
OBJECT
 10
11942.665153573549
 20
-1415.8258345632339
 30
0.0
 11
11956.721013817751
 21
-1454.5225113300539
 31
0.0
1001
ACDBBLOCKREPETAG
1070
     1
1071
       48
1005
12E72B
  0
ARC
  5
12E72C
  8
OBJECT
 10
11968.0
 20
-1450.425625842202
 30
0.0
 40
12.0
 50
151.2434956101861
 51
328.75650438994307
1001
ACDBBLOCKREPETAG
1070
     1
1071
       49
1005
12E72C
  0
ARC
  5
12E72D
  8
OBJECT
 10
11991.084210462521
 20
-1464.4298833134769
 30
0.0
 40
15.0
 50
82.682450183771394
 51
148.75650438994299
1001
ACDBBLOCKREPETAG
1070
     1
1071
       50
1005
12E72D
  0
CIRCLE
  5
12E72E
  8
SLIM
 10
11968.0
 20
-1450.425625842202
 30
0.0
 40
8.0
1001
ACDBBLOCKREPETAG
1070
     1
1071
       51
1005
12E72E
  0
POLYLINE
  5
12E72F
  8
SLIM
 66
     1
 10
0.0
 20
0.0
 30
0.0
 70
     1
1001
ACDBBLOCKREPETAG
1070
     1
1071
       52
1005
12E72F
  0
VERTEX
  5
12FAF0
  8
SLIM
 10
11972.618802153511
 20
-1450.425625842202
 30
0.0
  0
VERTEX
  5
12FAF1
  8
SLIM
 10
11970.309401076751
 20
-1446.425625842202
 30
0.0
  0
VERTEX
  5
12FAF2
  8
SLIM
 10
11965.69059892324
 20
-1446.425625842202
 30
0.0
  0
VERTEX
  5
12FAF3
  8
SLIM
 10
11963.38119784648
 20
-1450.425625842202
 30
0.0
  0
VERTEX
  5
12FAF4
  8
SLIM
 10
11965.69059892324
 20
-1454.425625842202
 30
0.0
  0
VERTEX
  5
12FAF5
  8
SLIM
 10
11970.309401076751
 20
-1454.425625842202
 30
0.0
  0
SEQEND
  5
12FAF6
  8
SLIM
  0
ARC
  5
12E730
  8
OBJECT
 10
11944.32985203747
 20
-1437.436241890987
 30
0.0
 40
15.0
 50
331.24349561018607
 51
37.317549816127681
1001
ACDBBLOCKREPETAG
1070
     1
1071
       53
1005
12E730
  0
LINE
  5
12E731
  8
CENTER
 10
9924.0
 20
-1353.9999999999959
 30
0.0
 11
10091.0
 21
-1353.9999999999959
 31
0.0
1001
ACDBBLOCKREPETAG
1070
     1
1071
        0
1005
12E731
  0
LINE
  5
12E732
  8
CENTER
 10
10000.0
 20
-1277.0518385105131
 30
0.0
 11
10000.0
 21
-1430.9481614894751
 31
0.0
1001
ACDBBLOCKREPETAG
1070
     1
1071
        1
1005
12E732
  0
CIRCLE
  5
12E733
  8
OBJECT
 10
10000.0
 20
-1353.9999999999959
 30
0.0
 40
37.5
1001
ACDBBLOCKREPETAG
1070
     1
1071
        2
1005
12E733
  0
CIRCLE
  5
12E734
  8
OBJECT
 10
10000.0
 20
-1353.9999999999959
 30
0.0
 40
49.5
1001
ACDBBLOCKREPETAG
1070
     1
1071
        3
1005
12E734
  0
ARC
  5
12E735
  8
OBJECT
 10
10000.0
 20
-1353.9999999999959
 30
0.0
 40
61.0
 50
40.03737312998139
 51
79.962626870012684
1001
ACDBBLOCKREPETAG
1070
     1
1071
        4
1005
12E735
  0
ARC
  5
12E736
  8
OBJECT
 10
10000.0
 20
-1353.9999999999959
 30
0.0
 40
61.0
 50
160.03737312997501
 51
199.96262687002491
1001
ACDBBLOCKREPETAG
1070
     1
1071
        5
1005
12E736
  0
ARC
  5
12E737
  8
OBJECT
 10
10000.0
 20
-1353.9999999999959
 30
0.0
 40
61.0
 50
280.03737312998732
 51
319.9626268700186
1001
ACDBBLOCKREPETAG
1070
     1
1071
        6
1005
12E737
  0
CIRCLE
  5
12E738
  8
SLIM
 10
10064.0
 20
-1353.9999999999959
 30
0.0
 40
5.0
1001
ACDBBLOCKREPETAG
1070
     1
1071
        7
1005
12E738
  0
ARC
  5
12E739
  8
OBJECT
 10
10064.0
 20
-1353.9999999999959
 30
0.0
 40
12.0
 50
319.9626268700186
 51
40.03737312998139
1001
ACDBBLOCKREPETAG
1070
     1
1071
        8
1005
12E739
  0
LINE
  5
12E73A
  8
OBJECT
 10
10046.703125
 20
-1314.7594837542269
 30
0.0
 11
10073.1875
 21
-1346.280554181157
 31
0.0
1001
ACDBBLOCKREPETAG
1070
     1
1071
        9
1005
12E73A
  0
LINE
  5
12E73B
  8
OBJECT
 10
10046.703125
 20
-1393.2405162457651
 30
0.0
 11
10073.1875
 21
-1361.7194458188351
 31
0.0
1001
ACDBBLOCKREPETAG
1070
     1
1071
       10
1005
12E73B
  0
POLYLINE
  5
12E73C
  8
SLIM
 66
     1
 10
0.0
 20
0.0
 30
0.0
 70
     1
1001
ACDBBLOCKREPETAG
1070
     1
1071
       11
1005
12E73C
  0
VERTEX
  5
12FAF7
  8
SLIM
 10
10059.092522711881
 20
-1345.4999999999959
 30
0.0
  0
VERTEX
  5
12FAF8
  8
SLIM
 10
10054.18504542377
 20
-1353.9999999999959
 30
0.0
  0
VERTEX
  5
12FAF9
  8
SLIM
 10
10059.092522711881
 20
-1362.4999999999959
 30
0.0
  0
VERTEX
  5
12FAFA
  8
SLIM
 10
10068.907477288099
 20
-1362.4999999999959
 30
0.0
  0
VERTEX
  5
12FAFB
  8
SLIM
 10
10073.814954576221
 20
-1353.9999999999959
 30
0.0
  0
VERTEX
  5
12FAFC
  8
SLIM
 10
10068.907477288099
 20
-1345.4999999999959
 30
0.0
  0
SEQEND
  5
12FAFD
  8
SLIM
  0
CIRCLE
  5
12E73D
  8
SLIM
 10
9968.0
 20
-1298.574374157789
 30
0.0
 40
4.9999999999999991
1001
ACDBBLOCKREPETAG
1070
     1
1071
       12
1005
12E73D
  0
ARC
  5
12E73E
  8
OBJECT
 10
9968.0
 20
-1298.574374157789
 30
0.0
 40
12.0
 50
79.962626870012684
 51
160.03737312997501
1001
ACDBBLOCKREPETAG
1070
     1
1071
       13
1005
12E73E
  0
LINE
  5
12E73F
  8
OBJECT
 10
9942.6651535735436
 20
-1333.174165436757
 30
0.0
 11
9956.7210138177488
 21
-1294.4774886699411
 31
0.0
1001
ACDBBLOCKREPETAG
1070
     1
1071
       14
1005
12E73F
  0
LINE
  5
12E740
  8
OBJECT
 10
10010.631721426451
 20
-1293.9336491909919
 30
0.0
 11
9970.091486182253
 21
-1286.7580428511019
 31
0.0
1001
ACDBBLOCKREPETAG
1070
     1
1071
       15
1005
12E740
  0
POLYLINE
  5
12E741
  8
SLIM
 66
     1
 10
0.0
 20
0.0
 30
0.0
 70
     1
1001
ACDBBLOCKREPETAG
1070
     1
1071
       16
1005
12E741
  0
VERTEX
  5
12FAFE
  8
SLIM
 10
9963.0925227118896
 20
-1307.074374157789
 30
0.0
  0
VERTEX
  5
12FAFF
  8
SLIM
 10
9972.9074772881177
 20
-1307.074374157793
 30
0.0
  0
VERTEX
  5
12FB00
  8
SLIM
 10
9977.814954576219
 20
-1298.574374157789
 30
0.0
  0
VERTEX
  5
12FB01
  8
SLIM
 10
9972.9074772881177
 20
-1290.074374157793
 30
0.0
  0
VERTEX
  5
12FB02
  8
SLIM
 10
9963.0925227118896
 20
-1290.074374157789
 30
0.0
  0
VERTEX
  5
12FB03
  8
SLIM
 10
9958.1850454237738
 20
-1298.574374157793
 30
0.0
  0
SEQEND
  5
12FB04
  8
SLIM
  0
CIRCLE
  5
12E742
  8
SLIM
 10
9968.0
 20
-1409.425625842199
 30
0.0
 40
5.0
1001
ACDBBLOCKREPETAG
1070
     1
1071
       17
1005
12E742
  0
ARC
  5
12E743
  8
OBJECT
 10
9968.0
 20
-1409.425625842199
 30
0.0
 40
12.0
 50
199.96262687002491
 51
280.03737312998732
1001
ACDBBLOCKREPETAG
1070
     1
1071
       18
1005
12E743
  0
LINE
  5
12E744
  8
OBJECT
 10
10010.631721426451
 20
-1414.066350808999
 30
0.0
 11
9970.091486182253
 21
-1421.241957148889
 31
0.0
1001
ACDBBLOCKREPETAG
1070
     1
1071
       19
1005
12E744
  0
LINE
  5
12E745
  8
OBJECT
 10
9942.6651535735436
 20
-1374.825834563231
 30
0.0
 11
9956.7210138177488
 21
-1413.5225113300501
 31
0.0
1001
ACDBBLOCKREPETAG
1070
     1
1071
       20
1005
12E745
  0
POLYLINE
  5
12E746
  8
SLIM
 66
     1
 10
0.0
 20
0.0
 30
0.0
 70
     1
1001
ACDBBLOCKREPETAG
1070
     1
1071
       21
1005
12E746
  0
VERTEX
  5
12FB05
  8
SLIM
 10
9977.814954576219
 20
-1409.425625842199
 30
0.0
  0
VERTEX
  5
12FB06
  8
SLIM
 10
9972.9074772881049
 20
-1400.925625842199
 30
0.0
  0
VERTEX
  5
12FB07
  8
SLIM
 10
9963.0925227118896
 20
-1400.925625842199
 30
0.0
  0
VERTEX
  5
12FB08
  8
SLIM
 10
9958.1850454237738
 20
-1409.425625842199
 30
0.0
  0
VERTEX
  5
12FB09
  8
SLIM
 10
9963.0925227118896
 20
-1417.925625842199
 30
0.0
  0
VERTEX
  5
12FB0A
  8
SLIM
 10
9972.9074772881177
 20
-1417.925625842199
 30
0.0
  0
SEQEND
  5
12FB0B
  8
SLIM
  0
LINE
  5
12E747
  8
CENTER
 10
5924.0
 20
-1394.9999999999991
 30
0.0
 11
6091.0
 21
-1394.9999999999991
 31
0.0
1001
ACDBBLOCKREPETAG
1070
     1
1071
       22
1005
12E747
  0
LINE
  5
12E748
  8
CENTER
 10
6000.0
 20
-1318.0518385105161
 30
0.0
 11
6000.0
 21
-1471.948161489478
 31
0.0
1001
ACDBBLOCKREPETAG
1070
     1
1071
       23
1005
12E748
  0
CIRCLE
  5
12E749
  8
OBJECT
 10
6000.0
 20
-1394.9999999999991
 30
0.0
 40
37.5
1001
ACDBBLOCKREPETAG
1070
     1
1071
       24
1005
12E749
  0
CIRCLE
  5
12E74A
  8
OBJECT
 10
6000.0
 20
-1394.9999999999991
 30
0.0
 40
47.5
1001
ACDBBLOCKREPETAG
1070
     1
1071
       25
1005
12E74A
  0
ARC
  5
12E74B
  8
OBJECT
 10
6000.0
 20
-1394.9999999999991
 30
0.0
 40
61.0
 50
40.03737312998139
 51
79.962626870012684
1001
ACDBBLOCKREPETAG
1070
     1
1071
       26
1005
12E74B
  0
ARC
  5
12E74C
  8
OBJECT
 10
6000.0
 20
-1394.9999999999991
 30
0.0
 40
61.0
 50
160.03737312997501
 51
199.96262687002491
1001
ACDBBLOCKREPETAG
1070
     1
1071
       27
1005
12E74C
  0
ARC
  5
12E74D
  8
OBJECT
 10
6000.0
 20
-1394.9999999999991
 30
0.0
 40
61.0
 50
280.03737312998732
 51
319.9626268700186
1001
ACDBBLOCKREPETAG
1070
     1
1071
       28
1005
12E74D
  0
ARC
  5
12E74E
  8
OBJECT
 10
6064.0
 20
-1394.9999999999991
 30
0.0
 40
12.0
 50
319.9626268700186
 51
40.03737312998139
1001
ACDBBLOCKREPETAG
1070
     1
1071
       29
1005
12E74E
  0
LINE
  5
12E74F
  8
OBJECT
 10
6046.703125
 20
-1355.7594837542299
 30
0.0
 11
6073.1875
 21
-1387.2805541811599
 31
0.0
1001
ACDBBLOCKREPETAG
1070
     1
1071
       30
1005
12E74F
  0
LINE
  5
12E750
  8
OBJECT
 10
6046.703125
 20
-1434.240516245768
 30
0.0
 11
6073.1875
 21
-1402.719445818838
 31
0.0
1001
ACDBBLOCKREPETAG
1070
     1
1071
       31
1005
12E750
  0
CIRCLE
  5
12E751
  8
OBJECT
 10
6000.0
 20
-1394.9999999999991
 30
0.0
 40
55.0
1001
ACDBBLOCKREPETAG
1070
     1
1071
       32
1005
12E751
  0
ARC
  5
12E752
  8
OBJECT
 10
6064.0
 20
-1394.9999999999991
 30
0.0
 40
12.0
 50
271.2434956101261
 51
88.756504389873882
1001
ACDBBLOCKREPETAG
1070
     1
1071
       33
1005
12E752
  0
ARC
  5
12E753
  8
OBJECT
 10
6064.5859375
 20
-1368.0063585775049
 30
0.0
 40
15.0
 50
202.68245018366949
 51
268.7565043898739
1001
ACDBBLOCKREPETAG
1070
     1
1071
       34
1005
12E753
  0
CIRCLE
  5
12E754
  8
SLIM
 10
6064.0
 20
-1394.9999999999991
 30
0.0
 40
8.0
1001
ACDBBLOCKREPETAG
1070
     1
1071
       35
1005
12E754
  0
POLYLINE
  5
12E755
  8
SLIM
 66
     1
 10
0.0
 20
0.0
 30
0.0
 70
     1
1001
ACDBBLOCKREPETAG
1070
     1
1071
       36
1005
12E755
  0
VERTEX
  5
12FB0C
  8
SLIM
 10
6061.69059892324
 20
-1390.9999999999991
 30
0.0
  0
VERTEX
  5
12FB0D
  8
SLIM
 10
6059.3811978464846
 20
-1394.9999999999991
 30
0.0
  0
VERTEX
  5
12FB0E
  8
SLIM
 10
6061.69059892324
 20
-1398.9999999999991
 30
0.0
  0
VERTEX
  5
12FB0F
  8
SLIM
 10
6066.30940107676
 20
-1398.9999999999991
 30
0.0
  0
VERTEX
  5
12FB10
  8
SLIM
 10
6068.6188021535154
 20
-1394.9999999999991
 30
0.0
  0
VERTEX
  5
12FB11
  8
SLIM
 10
6066.30940107676
 20
-1390.9999999999991
 30
0.0
  0
SEQEND
  5
12FB12
  8
SLIM
  0
ARC
  5
12E756
  8
OBJECT
 10
6064.5859375
 20
-1421.993641422489
 30
0.0
 40
15.0
 50
91.243495610126089
 51
157.3175498163304
1001
ACDBBLOCKREPETAG
1070
     1
1071
       37
1005
12E756
  0
ARC
  5
12E757
  8
OBJECT
 10
5968.0
 20
-1339.5743741577919
 30
0.0
 40
12.0
 50
79.962626870012684
 51
160.03737312997501
1001
ACDBBLOCKREPETAG
1070
     1
1071
       38
1005
12E757
  0
LINE
  5
12E758
  8
OBJECT
 10
5942.6651535735473
 20
-1374.1741654367599
 30
0.0
 11
5956.721013817747
 21
-1335.477488669944
 31
0.0
1001
ACDBBLOCKREPETAG
1070
     1
1071
       39
1005
12E758
  0
LINE
  5
12E759
  8
OBJECT
 10
6010.6317214264518
 20
-1334.9336491909951
 30
0.0
 11
5970.091486182253
 21
-1327.7580428511051
 31
0.0
1001
ACDBBLOCKREPETAG
1070
     1
1071
       40
1005
12E759
  0
ARC
  5
12E75A
  8
OBJECT
 10
5968.0
 20
-1339.5743741577919
 30
0.0
 40
12.0
 50
31.243495610056922
 51
208.7565043898139
1001
ACDBBLOCKREPETAG
1070
     1
1071
       41
1005
12E75A
  0
ARC
  5
12E75B
  8
OBJECT
 10
5944.3298520374738
 20
-1352.5637581090109
 30
0.0
 40
15.0
 50
322.68245018387239
 51
28.756504389813902
1001
ACDBBLOCKREPETAG
1070
     1
1071
       42
1005
12E75B
  0
CIRCLE
  5
12E75C
  8
SLIM
 10
5968.0
 20
-1339.5743741577919
 30
0.0
 40
7.9999999999999982
1001
ACDBBLOCKREPETAG
1070
     1
1071
       43
1005
12E75C
  0
POLYLINE
  5
12E75D
  8
SLIM
 66
     1
 10
0.0
 20
0.0
 30
0.0
 70
     1
1001
ACDBBLOCKREPETAG
1070
     1
1071
       44
1005
12E75D
  0
VERTEX
  5
12FB13
  8
SLIM
 10
5965.6905989232419
 20
-1343.574374157796
 30
0.0
  0
VERTEX
  5
12FB14
  8
SLIM
 10
5970.30940107676
 20
-1343.574374157793
 30
0.0
  0
VERTEX
  5
12FB15
  8
SLIM
 10
5972.6188021535154
 20
-1339.574374157796
 30
0.0
  0
VERTEX
  5
12FB16
  8
SLIM
 10
5970.3094010767572
 20
-1335.574374157793
 30
0.0
  0
VERTEX
  5
12FB17
  8
SLIM
 10
5965.6905989232419
 20
-1335.574374157796
 30
0.0
  0
VERTEX
  5
12FB18
  8
SLIM
 10
5963.3811978464846
 20
-1339.5743741577919
 30
0.0
  0
SEQEND
  5
12FB19
  8
SLIM
  0
ARC
  5
12E75E
  8
OBJECT
 10
5991.0842104625253
 20
-1325.5701166865169
 30
0.0
 40
15.0
 50
211.2434956100569
 51
277.31754981622862
1001
ACDBBLOCKREPETAG
1070
     1
1071
       45
1005
12E75E
  0
ARC
  5
12E75F
  8
OBJECT
 10
5968.0
 20
-1450.425625842202
 30
0.0
 40
12.0
 50
199.96262687002491
 51
280.03737312998732
1001
ACDBBLOCKREPETAG
1070
     1
1071
       46
1005
12E75F
  0
LINE
  5
12E760
  8
OBJECT
 10
6010.6317214264518
 20
-1455.0663508090031
 30
0.0
 11
5970.091486182253
 21
-1462.241957148892
 31
0.0
1001
ACDBBLOCKREPETAG
1070
     1
1071
       47
1005
12E760
  0
LINE
  5
12E761
  8
OBJECT
 10
5942.6651535735473
 20
-1415.8258345632339
 30
0.0
 11
5956.721013817747
 21
-1454.5225113300539
 31
0.0
1001
ACDBBLOCKREPETAG
1070
     1
1071
       48
1005
12E761
  0
ARC
  5
12E762
  8
OBJECT
 10
5968.0
 20
-1450.425625842202
 30
0.0
 40
12.0
 50
151.2434956101861
 51
328.75650438994307
1001
ACDBBLOCKREPETAG
1070
     1
1071
       49
1005
12E762
  0
ARC
  5
12E763
  8
OBJECT
 10
5991.0842104625253
 20
-1464.4298833134769
 30
0.0
 40
15.0
 50
82.682450183771394
 51
148.75650438994299
1001
ACDBBLOCKREPETAG
1070
     1
1071
       50
1005
12E763
  0
CIRCLE
  5
12E764
  8
SLIM
 10
5968.0
 20
-1450.425625842202
 30
0.0
 40
8.0
1001
ACDBBLOCKREPETAG
1070
     1
1071
       51
1005
12E764
  0
POLYLINE
  5
12E765
  8
SLIM
 66
     1
 10
0.0
 20
0.0
 30
0.0
 70
     1
1001
ACDBBLOCKREPETAG
1070
     1
1071
       52
1005
12E765
  0
VERTEX
  5
12FB1A
  8
SLIM
 10
5972.6188021535154
 20
-1450.425625842202
 30
0.0
  0
VERTEX
  5
12FB1B
  8
SLIM
 10
5970.3094010767572
 20
-1446.425625842202
 30
0.0
  0
VERTEX
  5
12FB1C
  8
SLIM
 10
5965.6905989232419
 20
-1446.425625842202
 30
0.0
  0
VERTEX
  5
12FB1D
  8
SLIM
 10
5963.3811978464846
 20
-1450.425625842202
 30
0.0
  0
VERTEX
  5
12FB1E
  8
SLIM
 10
5965.69059892324
 20
-1454.425625842202
 30
0.0
  0
VERTEX
  5
12FB1F
  8
SLIM
 10
5970.3094010767572
 20
-1454.425625842202
 30
0.0
  0
SEQEND
  5
12FB20
  8
SLIM
  0
ARC
  5
12E766
  8
OBJECT
 10
5944.3298520374738
 20
-1437.436241890987
 30
0.0
 40
15.0
 50
331.24349561018607
 51
37.317549816127681
1001
ACDBBLOCKREPETAG
1070
     1
1071
       53
1005
12E766
  0
LINE
  5
12E767
  8
CENTER
 10
3924.0
 20
-1353.9999999999959
 30
0.0
 11
4091.0
 21
-1353.9999999999959
 31
0.0
1001
ACDBBLOCKREPETAG
1070
     1
1071
        0
1005
12E767
  0
LINE
  5
12E768
  8
CENTER
 10
4000.0
 20
-1277.0518385105131
 30
0.0
 11
4000.0
 21
-1430.9481614894751
 31
0.0
1001
ACDBBLOCKREPETAG
1070
     1
1071
        1
1005
12E768
  0
CIRCLE
  5
12E769
  8
OBJECT
 10
4000.0
 20
-1353.9999999999959
 30
0.0
 40
37.5
1001
ACDBBLOCKREPETAG
1070
     1
1071
        2
1005
12E769
  0
CIRCLE
  5
12E76A
  8
OBJECT
 10
4000.0
 20
-1353.9999999999959
 30
0.0
 40
49.5
1001
ACDBBLOCKREPETAG
1070
     1
1071
        3
1005
12E76A
  0
ARC
  5
12E76B
  8
OBJECT
 10
4000.0
 20
-1353.9999999999959
 30
0.0
 40
61.0
 50
40.03737312998139
 51
79.962626870012684
1001
ACDBBLOCKREPETAG
1070
     1
1071
        4
1005
12E76B
  0
ARC
  5
12E76C
  8
OBJECT
 10
4000.0
 20
-1353.9999999999959
 30
0.0
 40
61.0
 50
160.03737312997501
 51
199.96262687002491
1001
ACDBBLOCKREPETAG
1070
     1
1071
        5
1005
12E76C
  0
ARC
  5
12E76D
  8
OBJECT
 10
4000.0
 20
-1353.9999999999959
 30
0.0
 40
61.0
 50
280.03737312998732
 51
319.9626268700186
1001
ACDBBLOCKREPETAG
1070
     1
1071
        6
1005
12E76D
  0
CIRCLE
  5
12E76E
  8
SLIM
 10
4064.0
 20
-1353.9999999999959
 30
0.0
 40
5.0
1001
ACDBBLOCKREPETAG
1070
     1
1071
        7
1005
12E76E
  0
ARC
  5
12E76F
  8
OBJECT
 10
4064.0
 20
-1353.9999999999959
 30
0.0
 40
12.0
 50
319.9626268700186
 51
40.03737312998139
1001
ACDBBLOCKREPETAG
1070
     1
1071
        8
1005
12E76F
  0
LINE
  5
12E770
  8
OBJECT
 10
4046.7031249999982
 20
-1314.7594837542269
 30
0.0
 11
4073.1875
 21
-1346.280554181157
 31
0.0
1001
ACDBBLOCKREPETAG
1070
     1
1071
        9
1005
12E770
  0
LINE
  5
12E771
  8
OBJECT
 10
4046.7031249999982
 20
-1393.2405162457651
 30
0.0
 11
4073.1875
 21
-1361.7194458188351
 31
0.0
1001
ACDBBLOCKREPETAG
1070
     1
1071
       10
1005
12E771
  0
POLYLINE
  5
12E772
  8
SLIM
 66
     1
 10
0.0
 20
0.0
 30
0.0
 70
     1
1001
ACDBBLOCKREPETAG
1070
     1
1071
       11
1005
12E772
  0
VERTEX
  5
12FB21
  8
SLIM
 10
4059.0925227118851
 20
-1345.4999999999959
 30
0.0
  0
VERTEX
  5
12FB22
  8
SLIM
 10
4054.1850454237701
 20
-1353.9999999999959
 30
0.0
  0
VERTEX
  5
12FB23
  8
SLIM
 10
4059.0925227118851
 20
-1362.4999999999959
 30
0.0
  0
VERTEX
  5
12FB24
  8
SLIM
 10
4068.9074772881072
 20
-1362.4999999999959
 30
0.0
  0
VERTEX
  5
12FB25
  8
SLIM
 10
4073.8149545762199
 20
-1353.9999999999959
 30
0.0
  0
VERTEX
  5
12FB26
  8
SLIM
 10
4068.9074772881072
 20
-1345.4999999999959
 30
0.0
  0
SEQEND
  5
12FB27
  8
SLIM
  0
CIRCLE
  5
12E773
  8
SLIM
 10
3968.0
 20
-1298.574374157789
 30
0.0
 40
4.9999999999999991
1001
ACDBBLOCKREPETAG
1070
     1
1071
       12
1005
12E773
  0
ARC
  5
12E774
  8
OBJECT
 10
3968.0
 20
-1298.574374157789
 30
0.0
 40
12.0
 50
79.962626870012684
 51
160.03737312997501
1001
ACDBBLOCKREPETAG
1070
     1
1071
       13
1005
12E774
  0
LINE
  5
12E775
  8
OBJECT
 10
3942.6651535735441
 20
-1333.174165436757
 30
0.0
 11
3956.721013817747
 21
-1294.4774886699411
 31
0.0
1001
ACDBBLOCKREPETAG
1070
     1
1071
       14
1005
12E775
  0
LINE
  5
12E776
  8
OBJECT
 10
4010.6317214264491
 20
-1293.9336491909919
 30
0.0
 11
3970.091486182253
 21
-1286.7580428511019
 31
0.0
1001
ACDBBLOCKREPETAG
1070
     1
1071
       15
1005
12E776
  0
POLYLINE
  5
12E777
  8
SLIM
 66
     1
 10
0.0
 20
0.0
 30
0.0
 70
     1
1001
ACDBBLOCKREPETAG
1070
     1
1071
       16
1005
12E777
  0
VERTEX
  5
12FB28
  8
SLIM
 10
3963.092522711886
 20
-1307.074374157789
 30
0.0
  0
VERTEX
  5
12FB29
  8
SLIM
 10
3972.907477288114
 20
-1307.074374157793
 30
0.0
  0
VERTEX
  5
12FB2A
  8
SLIM
 10
3977.8149545762212
 20
-1298.574374157789
 30
0.0
  0
VERTEX
  5
12FB2B
  8
SLIM
 10
3972.907477288114
 20
-1290.074374157793
 30
0.0
  0
VERTEX
  5
12FB2C
  8
SLIM
 10
3963.092522711886
 20
-1290.074374157789
 30
0.0
  0
VERTEX
  5
12FB2D
  8
SLIM
 10
3958.185045423772
 20
-1298.574374157793
 30
0.0
  0
SEQEND
  5
12FB2E
  8
SLIM
  0
CIRCLE
  5
12E778
  8
SLIM
 10
3968.0
 20
-1409.425625842199
 30
0.0
 40
5.0
1001
ACDBBLOCKREPETAG
1070
     1
1071
       17
1005
12E778
  0
ARC
  5
12E779
  8
OBJECT
 10
3968.0
 20
-1409.425625842199
 30
0.0
 40
12.0
 50
199.96262687002491
 51
280.03737312998732
1001
ACDBBLOCKREPETAG
1070
     1
1071
       18
1005
12E779
  0
LINE
  5
12E77A
  8
OBJECT
 10
4010.6317214264491
 20
-1414.066350808999
 30
0.0
 11
3970.091486182253
 21
-1421.241957148889
 31
0.0
1001
ACDBBLOCKREPETAG
1070
     1
1071
       19
1005
12E77A
  0
LINE
  5
12E77B
  8
OBJECT
 10
3942.6651535735441
 20
-1374.825834563231
 30
0.0
 11
3956.721013817747
 21
-1413.5225113300501
 31
0.0
1001
ACDBBLOCKREPETAG
1070
     1
1071
       20
1005
12E77B
  0
POLYLINE
  5
12E77C
  8
SLIM
 66
     1
 10
0.0
 20
0.0
 30
0.0
 70
     1
1001
ACDBBLOCKREPETAG
1070
     1
1071
       21
1005
12E77C
  0
VERTEX
  5
12FB2F
  8
SLIM
 10
3977.8149545762212
 20
-1409.425625842199
 30
0.0
  0
VERTEX
  5
12FB30
  8
SLIM
 10
3972.9074772881072
 20
-1400.925625842199
 30
0.0
  0
VERTEX
  5
12FB31
  8
SLIM
 10
3963.092522711886
 20
-1400.925625842199
 30
0.0
  0
VERTEX
  5
12FB32
  8
SLIM
 10
3958.185045423772
 20
-1409.425625842199
 30
0.0
  0
VERTEX
  5
12FB33
  8
SLIM
 10
3963.092522711886
 20
-1417.925625842199
 30
0.0
  0
VERTEX
  5
12FB34
  8
SLIM
 10
3972.907477288114
 20
-1417.925625842199
 30
0.0
  0
SEQEND
  5
12FB35
  8
SLIM
  0
LINE
  5
12E77D
  8
OBJECT
 10
2044.5
 20
-1079.999999999992
 30
0.0
 11
1955.5
 21
-1079.999999999992
 31
0.0
1001
ACDBBLOCKREPETAG
1070
     1
1071
        0
1005
12E77D
  0
LINE
  5
12E77E
  8
OBJECT
 10
1935.0
 20
-869.99999999999216
 30
0.0
 11
1935.0
 21
-769.99999999999204
 31
0.0
1001
ACDBBLOCKREPETAG
1070
     1
1071
        1
1005
12E77E
  0
LINE
  5
12E77F
  8
OBJECT
 10
2065.0
 20
-869.99999999999216
 30
0.0
 11
2065.0
 21
-769.99999999999204
 31
0.0
1001
ACDBBLOCKREPETAG
1070
     1
1071
        2
1005
12E77F
  0
LINE
  5
12E780
  8
OBJECT
 10
1935.0
 20
-869.99999999999216
 30
0.0
 11
2065.0
 21
-869.99999999999216
 31
0.0
1001
ACDBBLOCKREPETAG
1070
     1
1071
        3
1005
12E780
  0
LINE
  5
12E781
  8
OBJECT
 10
1955.5
 20
-979.99999999999204
 30
0.0
 11
2044.5
 21
-979.99999999999204
 31
0.0
1001
ACDBBLOCKREPETAG
1070
     1
1071
        4
1005
12E781
  0
LINE
  5
12E782
  8
OBJECT
 10
1955.5
 20
-979.99999999999204
 30
0.0
 11
1955.5
 21
-1079.999999999992
 31
0.0
1001
ACDBBLOCKREPETAG
1070
     1
1071
        5
1005
12E782
  0
LINE
  5
12E783
  8
OBJECT
 10
2044.5
 20
-979.99999999999204
 30
0.0
 11
2044.5
 21
-1079.999999999992
 31
0.0
1001
ACDBBLOCKREPETAG
1070
     1
1071
        6
1005
12E783
  0
LINE
  5
12E784
  8
OBJECT
 10
1935.0
 20
-869.99999999999216
 30
0.0
 11
1955.5
 21
-979.99999999999204
 31
0.0
1001
ACDBBLOCKREPETAG
1070
     1
1071
        7
1005
12E784
  0
LINE
  5
12E785
  8
OBJECT
 10
2044.5
 20
-979.99999999999204
 30
0.0
 11
2065.0
 21
-869.99999999999216
 31
0.0
1001
ACDBBLOCKREPETAG
1070
     1
1071
        8
1005
12E785
  0
LINE
  5
12E786
  8
HIDDEN
 10
1962.5
 20
-979.99999999999204
 30
0.0
 11
1962.5
 21
-1079.999999999992
 31
0.0
1001
ACDBBLOCKREPETAG
1070
     1
1071
        9
1005
12E786
  0
LINE
  5
12E787
  8
HIDDEN
 10
2037.5
 20
-979.99999999999204
 30
0.0
 11
2037.5
 21
-1079.999999999992
 31
0.0
1001
ACDBBLOCKREPETAG
1070
     1
1071
       10
1005
12E787
  0
LINE
  5
12E788
  8
CENTER
 10
2000.0
 20
-769.99999999999955
 30
0.0
 11
2000.0
 21
-1094.999999999992
 31
0.0
1001
ACDBBLOCKREPETAG
1070
     1
1071
       11
1005
12E788
  0
LINE
  5
12E789
  8
OBJECT
 10
1927.0
 20
-633.99999999999955
 30
0.0
 11
1930.0
 21
-633.99999999999955
 31
0.0
1001
ACDBBLOCKREPETAG
1070
     1
1071
        1
1005
12E789
  0
ARC
  5
12E78A
  8
OBJECT
 10
1927.0
 20
-636.99999999999955
 30
0.0
 40
3.0
 50
90.0
 51
180.0
1001
ACDBBLOCKREPETAG
1070
     1
1071
        2
1005
12E78A
  0
LINE
  5
12E78B
  8
OBJECT
 10
1930.0
 20
-757.99999999999955
 30
0.0
 11
1927.0
 21
-757.99999999999955
 31
0.0
1001
ACDBBLOCKREPETAG
1070
     1
1071
        3
1005
12E78B
  0
ARC
  5
12E78C
  8
OBJECT
 10
1927.0
 20
-754.99999999999955
 30
0.0
 40
3.0
 50
180.0
 51
270.0
1001
ACDBBLOCKREPETAG
1070
     1
1071
        4
1005
12E78C
  0
LINE
  5
12E78D
  8
OBJECT
 10
1924.0
 20
-754.99999999999955
 30
0.0
 11
1924.0
 21
-636.99999999999955
 31
0.0
1001
ACDBBLOCKREPETAG
1070
     1
1071
        5
1005
12E78D
  0
LINE
  5
12E78E
  8
CENTER
 10
1909.0
 20
-199.99999999999909
 30
0.0
 11
1930.0
 21
-199.99999999999909
 31
0.0
1001
ACDBBLOCKREPETAG
1070
     1
1071
        0
1005
12E78E
  0
LINE
  5
12E78F
  8
OBJECT
 10
1927.0
 20
-261.99999999999909
 30
0.0
 11
1930.0
 21
-261.99999999999909
 31
0.0
1001
ACDBBLOCKREPETAG
1070
     1
1071
        1
1005
12E78F
  0
ARC
  5
12E790
  8
OBJECT
 10
1927.0
 20
-258.99999999999909
 30
0.0
 40
3.0
 50
180.0
 51
270.0
1001
ACDBBLOCKREPETAG
1070
     1
1071
        2
1005
12E790
  0
LINE
  5
12E791
  8
OBJECT
 10
1930.0
 20
-137.99999999999909
 30
0.0
 11
1927.0
 21
-137.99999999999909
 31
0.0
1001
ACDBBLOCKREPETAG
1070
     1
1071
        3
1005
12E791
  0
ARC
  5
12E792
  8
OBJECT
 10
1927.0
 20
-140.99999999999909
 30
0.0
 40
3.0
 50
90.0
 51
180.0
1001
ACDBBLOCKREPETAG
1070
     1
1071
        4
1005
12E792
  0
LINE
  5
12E793
  8
OBJECT
 10
1924.0
 20
-140.99999999999909
 30
0.0
 11
1924.0
 21
-258.99999999999909
 31
0.0
1001
ACDBBLOCKREPETAG
1070
     1
1071
        5
1005
12E793
  0
LINE
  5
12E794
  8
OBJECT
 10
2047.0
 20
-322.99999999999898
 30
0.0
 11
2047.0
 21
-329.99999999999898
 31
0.0
1001
ACDBBLOCKREPETAG
1070
     1
1071
        7
1005
12E794
  0
LINE
  5
12E795
  8
OBJECT
 10
2047.0
 20
-329.99999999999898
 30
0.0
 11
1953.0
 21
-329.99999999999898
 31
0.0
1001
ACDBBLOCKREPETAG
1070
     1
1071
        8
1005
12E795
  0
LINE
  5
12E796
  8
OBJECT
 10
1953.0
 20
-329.99999999999898
 30
0.0
 11
1953.0
 21
-322.99999999999898
 31
0.0
1001
ACDBBLOCKREPETAG
1070
     1
1071
        9
1005
12E796
  0
LINE
  5
12E797
  8
OBJECT
 10
1953.0
 20
-322.99999999999898
 30
0.0
 11
2047.0
 21
-322.99999999999898
 31
0.0
1001
ACDBBLOCKREPETAG
1070
     1
1071
       10
1005
12E797
  0
LINE
  5
12E798
  8
CENTER
 10
2000.0
 20
-344.99999999999909
 30
0.0
 11
2000.0
 21
-269.99999999999909
 31
0.0
1001
ACDBBLOCKREPETAG
1070
     1
1071
       11
1005
12E798
  0
LINE
  5
12E799
  8
OBJECT
 10
2044.0
 20
-322.99999999999898
 30
0.0
 11
2044.0
 21
-286.99999999999898
 31
0.0
1001
ACDBBLOCKREPETAG
1070
     1
1071
       12
1005
12E799
  0
LINE
  5
12E79A
  8
OBJECT
 10
2044.0
 20
-286.99999999999898
 30
0.0
 11
1956.0
 21
-286.99999999999898
 31
0.0
1001
ACDBBLOCKREPETAG
1070
     1
1071
       13
1005
12E79A
  0
LINE
  5
12E79B
  8
OBJECT
 10
1956.0
 20
-286.99999999999898
 30
0.0
 11
1956.0
 21
-322.99999999999898
 31
0.0
1001
ACDBBLOCKREPETAG
1070
     1
1071
       14
1005
12E79B
  0
LINE
  5
12E79C
  8
OBJECT
 10
2039.5
 20
-282.99999999999898
 30
0.0
 11
2039.5
 21
-275.99999999999909
 31
0.0
1001
ACDBBLOCKREPETAG
1070
     1
1071
       15
1005
12E79C
  0
LINE
  5
12E79D
  8
OBJECT
 10
1960.5
 20
-275.99999999999909
 30
0.0
 11
1960.5
 21
-282.99999999999898
 31
0.0
1001
ACDBBLOCKREPETAG
1070
     1
1071
       16
1005
12E79D
  0
LINE
  5
12E79E
  8
OBJECT
 10
1960.5
 20
-282.99999999999898
 30
0.0
 11
2039.5
 21
-282.99999999999898
 31
0.0
1001
ACDBBLOCKREPETAG
1070
     1
1071
       17
1005
12E79E
  0
LINE
  5
12E79F
  8
OBJECT
 10
2044.0
 20
-286.99999999999898
 30
0.0
 11
2039.5
 21
-282.99999999999898
 31
0.0
1001
ACDBBLOCKREPETAG
1070
     1
1071
       18
1005
12E79F
  0
LINE
  5
12E7A0
  8
OBJECT
 10
1956.0
 20
-286.99999999999898
 30
0.0
 11
1960.5
 21
-282.99999999999898
 31
0.0
1001
ACDBBLOCKREPETAG
1070
     1
1071
       19
1005
12E7A0
  0
LINE
  5
12E7A1
  8
OBJECT
 10
2062.0
 20
-272.99999999999909
 30
0.0
 11
2062.0
 21
-269.99999999999909
 31
0.0
1001
ACDBBLOCKREPETAG
1070
     1
1071
       20
1005
12E7A1
  0
ARC
  5
12E7A2
  8
OBJECT
 10
2059.0
 20
-272.99999999999909
 30
0.0
 40
3.0
 50
270.0
 51
0.0
1001
ACDBBLOCKREPETAG
1070
     1
1071
       21
1005
12E7A2
  0
LINE
  5
12E7A3
  8
OBJECT
 10
1938.0
 20
-269.99999999999909
 30
0.0
 11
1938.0
 21
-272.99999999999909
 31
0.0
1001
ACDBBLOCKREPETAG
1070
     1
1071
       22
1005
12E7A3
  0
ARC
  5
12E7A4
  8
OBJECT
 10
1941.0
 20
-272.99999999999909
 30
0.0
 40
3.0
 50
180.0
 51
270.0
1001
ACDBBLOCKREPETAG
1070
     1
1071
       23
1005
12E7A4
  0
LINE
  5
12E7A5
  8
OBJECT
 10
1941.0
 20
-275.99999999999909
 30
0.0
 11
2059.0
 21
-275.99999999999909
 31
0.0
1001
ACDBBLOCKREPETAG
1070
     1
1071
       24
1005
12E7A5
  0
LINE
  5
12E7A6
  8
HIDDEN
 10
2030.0
 20
-277.99999999999909
 30
0.0
 11
1970.0
 21
-277.99999999999909
 31
0.0
1001
ACDBBLOCKREPETAG
1070
     1
1071
       25
1005
12E7A6
  0
LINE
  5
12E7A7
  8
DIM
 10
2140.0
 20
-3221.9999999999959
 30
0.0
 11
2218.4796205944581
 21
-3221.9999999999959
 31
0.0
  0
LINE
  5
12E7A8
  8
DIM
 10
2140.0
 20
-3127.9999999999959
 30
0.0
 11
2218.4796205944581
 21
-3127.9999999999959
 31
0.0
  0
LINE
  5
12E7A9
  8
DIM
 10
2208.4796205944581
 20
-3201.9999999999959
 30
0.0
 11
2208.4796205944581
 21
-3147.9999999999959
 31
0.0
  0
INSERT
  5
12E7AA
  8
DIM
  2
_OPEN30
 10
2208.4796205944581
 20
-3221.9999999999959
 30
0.0
 41
20.0
 42
20.0
 43
20.0
 50
270.0
  0
INSERT
  5
12E7AB
  8
DIM
  2
_OPEN30
 10
2208.4796205944581
 20
-3127.9999999999959
 30
0.0
 41
20.0
 42
20.0
 43
20.0
 50
90.0
  0
INSERT
  5
12E7AC
  8
OBJECT
  2
*U628
 10
0.0
 20
0.0
 30
0.0
  0
LINE
  5
12E7AD
  8
DIM
 10
2140.0
 20
-3579.9999999999968
 30
0.0
 11
2216.840928403733
 21
-3579.9999999999968
 31
0.0
  0
LINE
  5
12E7AE
  8
DIM
 10
2155.0
 20
-3535.9999999999968
 30
0.0
 11
2216.840928403733
 21
-3535.9999999999968
 31
0.0
  0
LINE
  5
12E7AF
  8
DIM
 10
2206.840928403733
 20
-3599.9999999999968
 30
0.0
 11
2206.840928403733
 21
-3619.9999999999968
 31
0.0
  0
LINE
  5
12E7B0
  8
DIM
 10
2206.840928403733
 20
-3515.9999999999968
 30
0.0
 11
2206.840928403733
 21
-3495.9999999999968
 31
0.0
  0
LINE
  5
12E7B1
  8
DIM
 10
2206.840928403733
 20
-3579.9999999999968
 30
0.0
 11
2206.840928403733
 21
-3535.9999999999968
 31
0.0
  0
INSERT
  5
12E7B2
  8
DIM
  2
_OPEN30
 10
2206.840928403733
 20
-3579.9999999999968
 30
0.0
 41
20.0
 42
20.0
 43
20.0
 50
90.0
  0
INSERT
  5
12E7B3
  8
DIM
  2
_OPEN30
 10
2206.840928403733
 20
-3535.9999999999968
 30
0.0
 41
20.0
 42
20.0
 43
20.0
 50
270.0
  0
INSERT
  5
12E7B4
  8
OBJECT
  2
*U629
 10
0.0
 20
0.0
 30
0.0
  0
LINE
  5
12E7B5
  8
DIM
 10
2000.0
 20
-3079.9999999999959
 30
0.0
 11
2000.0
 21
-3047.208121984444
 31
0.0
  0
LINE
  5
12E7B6
  8
DIM
 10
2130.0
 20
-3117.9999999999959
 30
0.0
 11
2130.0
 21
-3047.208121984444
 31
0.0
  0
LINE
  5
12E7B7
  8
DIM
 10
2020.0
 20
-3057.208121984444
 30
0.0
 11
2109.9999999999991
 21
-3057.208121984444
 31
0.0
  0
INSERT
  5
12E7B8
  8
DIM
  2
_OPEN30
 10
2000.0
 20
-3057.208121984444
 30
0.0
 41
20.0
 42
20.0
 43
20.0
 50
180.0
  0
INSERT
  5
12E7B9
  8
DIM
  2
_OPEN30
 10
2130.0
 20
-3057.208121984444
 30
0.0
 41
20.0
 42
20.0
 43
20.0
  0
INSERT
  5
12E7BA
  8
OBJECT
  2
*U630
 10
0.0
 20
0.0
 30
0.0
  0
TEXT
  5
12E7BB
  8
SLIM
 10
2631.0
 20
-2952.50001604727
 30
0.0
 40
40.0
  1
C寸法
 41
0.75
  0
TEXT
  5
12E7BC
  8
SLIM
 10
2631.0
 20
-2882.50001604727
 30
0.0
 40
40.0
  1
B寸法
 41
0.75
  0
TEXT
  5
12E7BD
  8
SLIM
 10
2630.2857142857142
 20
-2812.50001604727
 30
0.0
 40
40.0
  1
A寸法
 41
0.75
  0
TEXT
  5
12E7BE
  8
SLIM
 10
3029.2857142857151
 20
-2952.50001604727
 30
0.0
 40
40.0
  1
130
 41
0.75
  0
TEXT
  5
12E7BF
  8
SLIM
 10
2769.2857142857151
 20
-2952.50001604727
 30
0.0
 40
40.0
  1
130
 41
0.75
  0
TEXT
  5
12E7C0
  8
SLIM
 10
2899.2857142857151
 20
-2952.50001604727
 30
0.0
 40
40.0
  1
130
 41
0.75
  0
TEXT
  5
12E7C1
  8
SLIM
 10
3041.4285714285711
 20
-2882.50001604727
 30
0.0
 40
40.0
  1
59
 41
0.75
  0
TEXT
  5
12E7C2
  8
SLIM
 10
2780.0
 20
-2882.50001604727
 30
0.0
 40
40.0
  1
44
 41
0.75
  0
TEXT
  5
12E7C3
  8
SLIM
 10
2910.7142857142858
 20
-2882.50001604727
 30
0.0
 40
40.0
  1
52
 41
0.75
  0
TEXT
  5
12E7C4
  8
SLIM
 10
2831.0
 20
-2687.50001604727
 30
0.0
 40
40.0
  1
横枝管サイズ
 41
0.75
  0
TEXT
  5
12E7C5
  8
SLIM
 10
3014.857142857144
 20
-2742.50001604727
 30
0.0
 40
30.0
  1
75（3）
 41
0.75
  0
TEXT
  5
12E7C6
  8
SLIM
 10
2884.8571428571431
 20
-2742.50001604727
 30
0.0
 40
30.0
  1
65（2）
 41
0.75
  0
TEXT
  5
12E7C7
  8
SLIM
 10
2757.0
 20
-2742.50001604727
 30
0.0
 40
30.0
  1
50（1）
 41
0.75
  0
TEXT
  5
12E7C8
  8
SLIM
 10
3028.571428571428
 20
-2812.50001604727
 30
0.0
 40
40.0
  1
124
 41
0.75
  0
TEXT
  5
12E7C9
  8
SLIM
 10
2780.0
 20
-2812.50001604727
 30
0.0
 40
40.0
  1
94
 41
0.75
  0
TEXT
  5
12E7CA
  8
SLIM
 10
2902.1428571428569
 20
-2812.50001604727
 30
0.0
 40
40.0
  1
110
 41
0.75
  0
TEXT
  5
12E7CB
  8
SLIM
 10
1849.9999999999991
 20
-2712.5
 30
0.0
 40
75.0
  1
枝管サイズ毎の形状
 41
0.75
  0
TEXT
  5
12E7CC
  8
SLIM
 10
3894.25
 20
-3697.4999999999959
 30
0.0
 40
35.0
  1
通常枝75（3）
 41
0.75
  0
TEXT
  5
12E7CD
  8
SLIM
 10
2894.25
 20
-3697.4999999999959
 30
0.0
 40
35.0
  1
通常枝65（2）
 41
0.75
  0
CIRCLE
  5
12E7CE
  8
OBJECT
 10
2400.0
 20
-3520.9999999999968
 30
0.0
 40
62.0
1001
ACDBBLOCKREPETAG
1070
     1
1071
        3
1005
12E7CE
  0
LINE
  5
12E7CF
  8
CENTER
 10
2338.0
 20
-3535.9999999999968
 30
0.0
 11
2462.0
 21
-3535.9999999999968
 31
0.0
1001
ACDBBLOCKREPETAG
1070
     1
1071
        4
1005
12E7CF
  0
CIRCLE
  5
12E7D0
  8
OBJECT
 10
2400.0
 20
-3535.9999999999968
 30
0.0
 40
28.0
1001
ACDBBLOCKREPETAG
1070
     1
1071
        6
1005
12E7D0
  0
CIRCLE
  5
12E7D1
  8
OBJECT
 10
2400.0
 20
-3535.9999999999968
 30
0.0
 40
39.0
1001
ACDBBLOCKREPETAG
1070
     1
1071
        7
1005
12E7D1
  0
ARC
  5
12E7D2
  8
OBJECT
 10
2400.0
 20
-3535.9999999999968
 30
0.0
 40
47.0
 50
290.58196921144412
 51
249.41803078855591
1001
ACDBBLOCKREPETAG
1070
     1
1071
        8
1005
12E7D2
  0
LINE
  5
12E7D3
  8
OBJECT
 10
2383.4772883581431
 20
-3579.9999999999968
 30
0.0
 11
2416.5227116418569
 21
-3579.9999999999968
 31
0.0
1001
ACDBBLOCKREPETAG
1070
     1
1071
        9
1005
12E7D3
  0
LINE
  5
12E7D4
  8
OBJECT
 10
2123.0
 20
-3488.9999999999968
 30
0.0
 11
2130.0
 21
-3488.9999999999968
 31
0.0
1001
ACDBBLOCKREPETAG
1070
     1
1071
        7
1005
12E7D4
  0
LINE
  5
12E7D5
  8
OBJECT
 10
2130.0
 20
-3488.9999999999968
 30
0.0
 11
2130.0
 21
-3579.9999999999968
 31
0.0
1001
ACDBBLOCKREPETAG
1070
     1
1071
        8
1005
12E7D5
  0
LINE
  5
12E7D6
  8
OBJECT
 10
2123.0
 20
-3579.9999999999968
 30
0.0
 11
2123.0
 21
-3488.9999999999968
 31
0.0
1001
ACDBBLOCKREPETAG
1070
     1
1071
        9
1005
12E7D6
  0
LINE
  5
12E7D7
  8
CENTER
 10
2145.0
 20
-3535.9999999999968
 30
0.0
 11
2060.9999999999991
 21
-3535.9999999999968
 31
0.0
1001
ACDBBLOCKREPETAG
1070
     1
1071
       10
1005
12E7D7
  0
LINE
  5
12E7D8
  8
OBJECT
 10
2123.0
 20
-3491.9999999999968
 30
0.0
 11
2087.0
 21
-3491.9999999999968
 31
0.0
1001
ACDBBLOCKREPETAG
1070
     1
1071
       11
1005
12E7D8
  0
LINE
  5
12E7D9
  8
OBJECT
 10
2087.0
 20
-3491.9999999999968
 30
0.0
 11
2087.0
 21
-3579.9999999999968
 31
0.0
1001
ACDBBLOCKREPETAG
1070
     1
1071
       12
1005
12E7D9
  0
LINE
  5
12E7DA
  8
OBJECT
 10
2087.0
 20
-3579.9999999999968
 30
0.0
 11
2130.0
 21
-3579.9999999999968
 31
0.0
1001
ACDBBLOCKREPETAG
1070
     1
1071
       13
1005
12E7DA
  0
LINE
  5
12E7DB
  8
OBJECT
 10
2083.0
 20
-3496.4999999999968
 30
0.0
 11
2076.0
 21
-3496.4999999999968
 31
0.0
1001
ACDBBLOCKREPETAG
1070
     1
1071
       14
1005
12E7DB
  0
LINE
  5
12E7DC
  8
OBJECT
 10
2076.0
 20
-3575.4999999999968
 30
0.0
 11
2083.0
 21
-3575.4999999999968
 31
0.0
1001
ACDBBLOCKREPETAG
1070
     1
1071
       15
1005
12E7DC
  0
LINE
  5
12E7DD
  8
OBJECT
 10
2083.0
 20
-3575.4999999999968
 30
0.0
 11
2083.0
 21
-3496.4999999999968
 31
0.0
1001
ACDBBLOCKREPETAG
1070
     1
1071
       16
1005
12E7DD
  0
LINE
  5
12E7DE
  8
OBJECT
 10
2087.0
 20
-3491.9999999999968
 30
0.0
 11
2083.0
 21
-3496.4999999999968
 31
0.0
1001
ACDBBLOCKREPETAG
1070
     1
1071
       17
1005
12E7DE
  0
LINE
  5
12E7DF
  8
OBJECT
 10
2087.0
 20
-3579.9999999999968
 30
0.0
 11
2083.0
 21
-3575.4999999999968
 31
0.0
1001
ACDBBLOCKREPETAG
1070
     1
1071
       18
1005
12E7DF
  0
LINE
  5
12E7E0
  8
OBJECT
 10
2073.0
 20
-3458.9999999999968
 30
0.0
 11
2070.0
 21
-3458.9999999999968
 31
0.0
1001
ACDBBLOCKREPETAG
1070
     1
1071
       19
1005
12E7E0
  0
ARC
  5
12E7E1
  8
OBJECT
 10
2073.0
 20
-3461.9999999999968
 30
0.0
 40
3.0
 50
0.0
 51
90.0
1001
ACDBBLOCKREPETAG
1070
     1
1071
       20
1005
12E7E1
  0
LINE
  5
12E7E2
  8
OBJECT
 10
2070.0
 20
-3582.9999999999968
 30
0.0
 11
2073.0
 21
-3582.9999999999968
 31
0.0
1001
ACDBBLOCKREPETAG
1070
     1
1071
       21
1005
12E7E2
  0
ARC
  5
12E7E3
  8
OBJECT
 10
2073.0
 20
-3579.9999999999968
 30
0.0
 40
3.0
 50
270.0
 51
0.0
1001
ACDBBLOCKREPETAG
1070
     1
1071
       22
1005
12E7E3
  0
LINE
  5
12E7E4
  8
OBJECT
 10
2076.0
 20
-3579.9999999999968
 30
0.0
 11
2076.0
 21
-3461.9999999999968
 31
0.0
1001
ACDBBLOCKREPETAG
1070
     1
1071
       23
1005
12E7E4
  0
LINE
  5
12E7E5
  8
HIDDEN
 10
2078.0
 20
-3505.9999999999968
 30
0.0
 11
2078.0
 21
-3565.9999999999968
 31
0.0
1001
ACDBBLOCKREPETAG
1070
     1
1071
       24
1005
12E7E5
  0
TEXT
  5
12E7E6
  8
SLIM
 10
1896.75
 20
-3697.4999999999959
 30
0.0
 40
35.0
  1
通常枝50（1）
 41
0.75
  0
TEXT
  5
12E7E7
  8
SLIM
 10
1837.75
 20
282.50000000000011
 30
0.0
 40
35.0
  1
（枝管サイズ毎に寸法が異なります。管底の位置は全サイズで同じです）
 41
0.75
  0
TEXT
  5
12E7E8
  8
SLIM
 10
1850.0
 20
532.5
 30
0.0
 40
75.0
  1
側面図の代表機種
 41
0.75
  0
TEXT
  5
12E7E9
  8
SLIM
 10
1850.0
 20
369.99999999999989
 30
0.0
 40
100.0
  1
3SV-Z61
 41
0.75
  0
LINE
  5
12E7EA
  8
OBJECT
 10
2192.999999999985
 20
-583.00000000000045
 30
0.0
 11
2199.999999999985
 21
-583.00000000000045
 31
0.0
1001
ACDBBLOCKREPETAG
1070
     1
1071
      324
1005
12E7EA
  0
LINE
  5
12E7EB
  8
OBJECT
 10
2199.999999999985
 20
-583.00000000000045
 30
0.0
 11
2199.999999999985
 21
-707.00000000000045
 31
0.0
1001
ACDBBLOCKREPETAG
1070
     1
1071
      325
1005
12E7EB
  0
LINE
  5
12E7EC
  8
OBJECT
 10
2075.9999999999859
 20
-653.35026377572683
 30
0.0
 11
2075.9999999999859
 21
-755.00000000000034
 31
0.0
1001
ACDBBLOCKREPETAG
1070
     1
1071
      326
1005
12E7EC
  0
LINE
  5
12E7ED
  8
OBJECT
 10
2199.999999999985
 20
-707.00000000000045
 30
0.0
 11
2192.999999999985
 21
-707.00000000000045
 31
0.0
1001
ACDBBLOCKREPETAG
1070
     1
1071
      327
1005
12E7ED
  0
LINE
  5
12E7EE
  8
OBJECT
 10
2192.999999999985
 20
-707.00000000000045
 30
0.0
 11
2192.999999999985
 21
-583.00000000000045
 31
0.0
1001
ACDBBLOCKREPETAG
1070
     1
1071
      328
1005
12E7EE
  0
LINE
  5
12E7EF
  8
CENTER
 10
2124.999999999985
 20
-645.00000000000045
 30
0.0
 11
2214.9999999999859
 21
-645.00000000000045
 31
0.0
1001
ACDBBLOCKREPETAG
1070
     1
1071
      329
1005
12E7EF
  0
LINE
  5
12E7F0
  8
OBJECT
 10
2069.9999999999818
 20
-757.99999999999955
 30
0.0
 11
2072.9999999999859
 21
-758.00000000000034
 31
0.0
1001
ACDBBLOCKREPETAG
1070
     1
1071
      330
1005
12E7F0
  0
ARC
  5
12E7F1
  8
OBJECT
 10
2072.9999999999859
 20
-755.00000000000034
 30
0.0
 40
3.0
 50
270.0
 51
0.0
1001
ACDBBLOCKREPETAG
1070
     1
1071
      331
1005
12E7F1
  0
LINE
  5
12E7F2
  8
OBJECT
 10
2192.999999999985
 20
-586.00000000000045
 30
0.0
 11
2156.999999999985
 21
-586.00000000000045
 31
0.0
1001
ACDBBLOCKREPETAG
1070
     1
1071
      332
1005
12E7F2
  0
LINE
  5
12E7F3
  8
OBJECT
 10
2156.999999999985
 20
-586.00000000000045
 30
0.0
 11
2156.999999999985
 21
-704.00000000000045
 31
0.0
1001
ACDBBLOCKREPETAG
1070
     1
1071
      333
1005
12E7F3
  0
LINE
  5
12E7F4
  8
OBJECT
 10
2152.9999999999859
 20
-590.50000000000045
 30
0.0
 11
2152.9999999999859
 21
-699.50000000000045
 31
0.0
1001
ACDBBLOCKREPETAG
1070
     1
1071
      334
1005
12E7F4
  0
LINE
  5
12E7F5
  8
OBJECT
 10
2152.9999999999859
 20
-590.50000000000045
 30
0.0
 11
2139.9999999999859
 21
-590.50000000000045
 31
0.0
1001
ACDBBLOCKREPETAG
1070
     1
1071
      335
1005
12E7F5
  0
LINE
  5
12E7F6
  8
OBJECT
 10
2156.999999999985
 20
-704.00000000000045
 30
0.0
 11
2192.999999999985
 21
-704.00000000000045
 31
0.0
1001
ACDBBLOCKREPETAG
1070
     1
1071
      336
1005
12E7F6
  0
LINE
  5
12E7F7
  8
OBJECT
 10
2156.999999999985
 20
-586.00000000000045
 30
0.0
 11
2152.9999999999859
 21
-590.50000000000045
 31
0.0
1001
ACDBBLOCKREPETAG
1070
     1
1071
      337
1005
12E7F7
  0
LINE
  5
12E7F8
  8
OBJECT
 10
2139.9999999999859
 20
-590.50000000000045
 30
0.0
 11
2139.9999999999859
 21
-675.7449182792875
 31
0.0
1001
ACDBBLOCKREPETAG
1070
     1
1071
      338
1005
12E7F8
  0
ARC
  5
12E7F9
  8
OBJECT
 10
2142.7999999999852
 20
-685.00000000000045
 30
0.0
 40
85.0
 50
91.887731891831123
 51
143.13010235412469
1001
ACDBBLOCKREPETAG
1070
     1
1071
      339
1005
12E7F9
  0
LINE
  5
12E7FA
  8
HIDDEN
 10
2147.999999999985
 20
-600.50000000000057
 30
0.0
 11
2147.999999999985
 21
-689.50000000000045
 31
0.0
1001
ACDBBLOCKREPETAG
1070
     1
1071
      341
1005
12E7FA
  0
LINE
  5
12E7FB
  8
OBJECT
 10
2075.9999999999859
 20
-751.07945073181725
 30
0.0
 11
2146.6313199210308
 21
-699.50000000000045
 31
0.0
1001
ACDBBLOCKREPETAG
1070
     1
1071
      342
1005
12E7FB
  0
LINE
  5
12E7FC
  8
OBJECT
 10
2069.9999999999818
 20
-633.99999999999955
 30
0.0
 11
2074.7999999999852
 21
-633.99999999999955
 31
0.0
1001
ACDBBLOCKREPETAG
1070
     1
1071
      343
1005
12E7FC
  0
LINE
  5
12E7FD
  8
OBJECT
 10
2075.9999999999859
 20
-653.35026377572945
 30
0.0
 11
2074.7999999999852
 21
-633.99999999999955
 31
0.0
1001
ACDBBLOCKREPETAG
1070
     1
1071
      344
1005
12E7FD
  0
LINE
  5
12E7FE
  8
OBJECT
 10
2152.9999999999859
 20
-699.50000000000045
 30
0.0
 11
2146.6313199210308
 21
-699.50000000000045
 31
0.0
1001
ACDBBLOCKREPETAG
1070
     1
1071
      345
1005
12E7FE
  0
LINE
  5
12E7FF
  8
OBJECT
 10
2156.999999999985
 20
-704.00000000000045
 30
0.0
 11
2152.9999999999859
 21
-699.50000000000045
 31
0.0
1001
ACDBBLOCKREPETAG
1070
     1
1071
      346
1005
12E7FF
  0
LINE
  5
12E800
  8
OBJECT
 10
2192.999999999985
 20
-137.99999999999909
 30
0.0
 11
2199.999999999985
 21
-137.99999999999909
 31
0.0
1001
ACDBBLOCKREPETAG
1070
     1
1071
      376
1005
12E800
  0
LINE
  5
12E801
  8
OBJECT
 10
2199.999999999985
 20
-137.99999999999909
 30
0.0
 11
2199.999999999985
 21
-261.99999999999909
 31
0.0
1001
ACDBBLOCKREPETAG
1070
     1
1071
      377
1005
12E801
  0
LINE
  5
12E802
  8
OBJECT
 10
2199.999999999985
 20
-261.99999999999909
 30
0.0
 11
2192.999999999985
 21
-261.99999999999909
 31
0.0
1001
ACDBBLOCKREPETAG
1070
     1
1071
      378
1005
12E802
  0
LINE
  5
12E803
  8
OBJECT
 10
2192.999999999985
 20
-261.99999999999909
 30
0.0
 11
2192.999999999985
 21
-137.99999999999909
 31
0.0
1001
ACDBBLOCKREPETAG
1070
     1
1071
      379
1005
12E803
  0
LINE
  5
12E804
  8
CENTER
 10
2214.9999999999859
 20
-199.99999999999909
 30
0.0
 11
2070.0
 21
-199.99999999999909
 31
0.0
1001
ACDBBLOCKREPETAG
1070
     1
1071
      380
1005
12E804
  0
LINE
  5
12E805
  8
OBJECT
 10
2139.999974964187
 20
-245.0000000000027
 30
0.0
 11
2076.0
 21
-244.99999999999909
 31
0.0
1001
ACDBBLOCKREPETAG
1070
     1
1071
      381
1005
12E805
  0
LINE
  5
12E806
  8
OBJECT
 10
2139.999974964187
 20
-154.99999999999909
 30
0.0
 11
2076.0
 21
-154.99999999999909
 31
0.0
1001
ACDBBLOCKREPETAG
1070
     1
1071
      382
1005
12E806
  0
LINE
  5
12E807
  8
OBJECT
 10
2192.999999999985
 20
-140.99999999999909
 30
0.0
 11
2156.999999999985
 21
-140.99999999999909
 31
0.0
1001
ACDBBLOCKREPETAG
1070
     1
1071
      383
1005
12E807
  0
LINE
  5
12E808
  8
OBJECT
 10
2156.999999999985
 20
-140.99999999999909
 30
0.0
 11
2156.999999999985
 21
-258.99999999999909
 31
0.0
1001
ACDBBLOCKREPETAG
1070
     1
1071
      384
1005
12E808
  0
LINE
  5
12E809
  8
OBJECT
 10
2156.999999999985
 20
-258.99999999999909
 30
0.0
 11
2192.999999999985
 21
-258.99999999999909
 31
0.0
1001
ACDBBLOCKREPETAG
1070
     1
1071
      385
1005
12E809
  0
LINE
  5
12E80A
  8
OBJECT
 10
2152.9999999999859
 20
-145.49999999999909
 30
0.0
 11
2139.9999999999859
 21
-145.49999999999909
 31
0.0
1001
ACDBBLOCKREPETAG
1070
     1
1071
      386
1005
12E80A
  0
LINE
  5
12E80B
  8
OBJECT
 10
2139.9999999999859
 20
-254.49999999999909
 30
0.0
 11
2152.9999999999859
 21
-254.49999999999909
 31
0.0
1001
ACDBBLOCKREPETAG
1070
     1
1071
      387
1005
12E80B
  0
LINE
  5
12E80C
  8
OBJECT
 10
2152.9999999999859
 20
-254.49999999999909
 30
0.0
 11
2152.9999999999859
 21
-145.49999999999909
 31
0.0
1001
ACDBBLOCKREPETAG
1070
     1
1071
      388
1005
12E80C
  0
LINE
  5
12E80D
  8
OBJECT
 10
2156.999999999985
 20
-140.99999999999909
 30
0.0
 11
2152.9999999999859
 21
-145.49999999999909
 31
0.0
1001
ACDBBLOCKREPETAG
1070
     1
1071
      389
1005
12E80D
  0
LINE
  5
12E80E
  8
OBJECT
 10
2156.999999999985
 20
-258.99999999999909
 30
0.0
 11
2152.9999999999859
 21
-254.49999999999909
 31
0.0
1001
ACDBBLOCKREPETAG
1070
     1
1071
      390
1005
12E80E
  0
LINE
  5
12E80F
  8
OBJECT
 10
2073.0
 20
-137.99999999999909
 30
0.0
 11
2070.0
 21
-137.99999999999909
 31
0.0
1001
ACDBBLOCKREPETAG
1070
     1
1071
      391
1005
12E80F
  0
ARC
  5
12E810
  8
OBJECT
 10
2073.0
 20
-140.99999999999909
 30
0.0
 40
3.0
 50
0.0
 51
90.0
1001
ACDBBLOCKREPETAG
1070
     1
1071
      392
1005
12E810
  0
LINE
  5
12E811
  8
OBJECT
 10
2070.0
 20
-261.99999999999909
 30
0.0
 11
2073.0
 21
-261.99999999999909
 31
0.0
1001
ACDBBLOCKREPETAG
1070
     1
1071
      393
1005
12E811
  0
ARC
  5
12E812
  8
OBJECT
 10
2073.0
 20
-258.99999999999909
 30
0.0
 40
3.0
 50
270.0
 51
0.0
1001
ACDBBLOCKREPETAG
1070
     1
1071
      394
1005
12E812
  0
LINE
  5
12E813
  8
OBJECT
 10
2076.0
 20
-258.99999999999909
 30
0.0
 11
2076.0
 21
-210.3227903203578
 31
0.0
1001
ACDBBLOCKREPETAG
1070
     1
1071
      395
1005
12E813
  0
LINE
  5
12E814
  8
OBJECT
 10
2076.0
 20
-189.6772096796403
 30
0.0
 11
2076.0
 21
-140.99999999999909
 31
0.0
1001
ACDBBLOCKREPETAG
1070
     1
1071
      396
1005
12E814
  0
LINE
  5
12E815
  8
HIDDEN
 10
2147.999999999985
 20
-155.49999999999909
 30
0.0
 11
2147.999999999985
 21
-244.49999999999909
 31
0.0
1001
ACDBBLOCKREPETAG
1070
     1
1071
      397
1005
12E815
  0
LINE
  5
12E816
  8
OBJECT
 10
2139.999974964187
 20
-254.4999509238105
 30
0.0
 11
2139.999974964187
 21
-145.4999509238105
 31
0.0
1001
ACDBBLOCKREPETAG
1070
     1
1071
      399
1005
12E816
  0
ARC
  5
12E817
  8
OBJECT
 10
2119.8000000000252
 20
-199.99999999999909
 30
0.0
 40
45.000000000000547
 50
90.0
 51
270.0
1001
ACDBBLOCKREPETAG
1070
     1
1071
      400
1005
12E817
  0
TEXT
  5
12E818
  8
SLIM
 10
-25.796370766537851
 20
667.19448474768467
 30
0.0
 40
100.0
  1
3SV-Z6X-S
 41
0.75
  0
TEXT
  5
12E819
  8
SLIM
 10
-25.796370766537851
 20
517.19448474768467
 30
0.0
 40
100.0
  1
3SV-Z6X-W
 41
0.75
  0
TEXT
  5
12E81A
  8
SLIM
 10
0.0000035665234464
 20
24.000004585317601
 30
0.0
 40
79.999999999972701
  1
枝管バリエーション
 41
0.75
1001
ACDBBLOCKREPETAG
1070
     1
1071
      119
1005
F48AB
  0
TEXT
  5
12E81B
  8
SLIM
 10
3853.75
 20
-1621.4999999999959
 30
0.0
 40
35.0
  1
両受けスタイル（W）
 41
0.75
  0
TEXT
  5
12E81C
  8
SLIM
 10
5811.8000000000002
 20
-1718.9999999999991
 30
0.0
 40
28.0
  1
※ 対応スラブ厚　150mm以上
 41
0.75
  0
TEXT
  5
12E81D
  8
SLIM
 10
5611.5
 20
-1812.333333333333
 30
0.0
 40
28.0
  1
国土交通大臣認定・（財）日本消防設備安全センター性能評定取得品
 41
0.75
  0
TEXT
  5
12E81E
  8
SLIM
 10
5631.1000000000004
 20
-1858.9999999999991
 30
0.0
 40
28.0
  1
注）ご採用にあたり、認定書及び評定書の内容をご確認ください。
 41
0.75
  0
TEXT
  5
12E81F
  8
SLIM
 10
11824.6
 20
-1677.9999999999959
 30
0.0
 40
28.0
  1
※ 対応スラブ厚　150～260
 41
0.75
  0
TEXT
  5
12E820
  8
SLIM
 10
11611.5
 20
-1771.3333333333289
 30
0.0
 40
28.0
  1
国土交通大臣認定・（財）日本消防設備安全センター性能評定取得品
 41
0.75
  0
TEXT
  5
12E821
  8
SLIM
 10
11631.1
 20
-1817.9999999999959
 30
0.0
 40
28.0
  1
注）ご採用にあたり、認定書及び評定書の内容をご確認ください。
 41
0.75
  0
TEXT
  5
12E822
  8
SLIM
 10
9824.6000000000004
 20
-1677.9999999999959
 30
0.0
 40
28.0
  1
※ 対応スラブ厚　180～260
 41
0.75
  0
TEXT
  5
12E823
  8
SLIM
 10
9611.5000000000018
 20
-1771.3333333333289
 30
0.0
 40
28.0
  1
国土交通大臣認定・（財）日本消防設備安全センター性能評定取得品
 41
0.75
  0
TEXT
  5
12E824
  8
SLIM
 10
9631.1000000000004
 20
-1817.9999999999959
 30
0.0
 40
28.0
  1
注）ご採用にあたり、認定書及び評定書の内容をご確認ください。
 41
0.75
  0
TEXT
  5
12E825
  8
SLIM
 10
9739.1250000000018
 20
-1621.4999999999959
 30
0.0
 40
35.0
  1
両受けスタイル（W）＋シンドカット
 41
0.75
  0
TEXT
  5
12E826
  8
SLIM
 10
11743.5
 20
-1621.4999999999959
 30
0.0
 40
35.0
  1
カンペイ君（WKP）＋シンドカット
 41
0.75
  0
TEXT
  5
12E827
  8
SLIM
 10
7741.625
 20
-1347.499999999998
 30
0.0
 40
35.0
  1
片受けスタイル（S）＋シンドカット
 41
0.75
  0
TEXT
  5
12E828
  8
SLIM
 10
5858.1250000000009
 20
-1662.4999999999991
 30
0.0
 40
35.0
  1
カンペイ君（WKP）
 41
0.75
  0
TEXT
  5
12E829
  8
SLIM
 10
1856.25
 20
-1347.499999999998
 30
0.0
 40
35.0
  1
片受けスタイル（S）
 41
0.75
  0
TEXT
  5
12E82A
  8
SLIM
 10
-25.796370766537851
 20
367.19448474768478
 30
0.0
 40
100.0
  1
3SV-Z6X-WKP
 41
0.75
  0
VIEWPORT
  5
F6BA7
 67
     1
  8
0
 10
145.33033752441401
 20
101.8328354358673
 30
0.0
 40
334.0025019414623
 41
222.19657968139651
 68
     1
 69
     1
1001
ACAD
1000
MVIEW
1002
{
1070
    16
1010
0.0
1020
0.0
1030
0.0
1010
0.0
1020
0.0
1030
1.0
1040
0.0
1040
222.19657968139651
1040
145.33033752441401
1040
101.8328354358673
1040
50.0
1040
0.0
1040
0.0
1070
     0
1070
     0
1070
     1
1070
     1
1070
     0
1070
     0
1070
     0
1070
     0
1040
0.0
1040
0.0
1040
0.0
1040
10.0
1040
10.0
1040
10.0
1040
10.0
1070
     0
1002
{
1002
}
1002
}
  0
VIEWPORT
  5
F6BA9
 67
     1
  8
OBJECT
 10
145.3303314447403
 20
101.8328338861465
 30
0.0
 40
232.5285303115844
 41
162.93253421783439
 68
     2
 69
     2
1001
ACAD
1000
MVIEW
1002
{
1070
    16
1010
0.0
1020
0.0
1030
0.0
1010
0.0
1020
0.0
1030
1.0
1040
0.0
1040
25942.55904403147
1040
2377.604457077377
1040
-7591.5176687056619
1040
50.0
1040
0.0
1040
0.0
1070
     0
1070
   600
1070
     1
1070
     1
1070
     0
1070
     0
1070
     0
1070
     0
1040
0.0
1040
0.0
1040
0.0
1040
1.0
1040
1.0
1040
0.0
1040
0.0
1070
     0
1002
{
1002
}
1002
}
  0
ENDSEC
  0
EOF
