  0
SECTION
  2
HEADER
  9
$ACADVER
  1
AC1009
  9
$INSBASE
 10
0.0
 20
0.0
 30
0.0
  9
$EXTMIN
 10
0.0
 20
-1889.0
 30
0.0
  9
$EXTMAX
 10
12387.100000000009
 20
770.0
 30
0.0
  9
$LIMMIN
 10
0.0
 20
0.0
  9
$LIMMAX
 10
210.0
 20
297.0
  9
$ORTHOMODE
 70
     0
  9
$REGENMODE
 70
     1
  9
$FILLMODE
 70
     1
  9
$QTEXTMODE
 70
     0
  9
$MIRRTEXT
 70
     0
  9
$DRAGMODE
 70
     2
  9
$LTSCALE
 40
1.0
  9
$OSMODE
 70
   125
  9
$ATTMODE
 70
     1
  9
$TEXTSIZE
 40
4.0
  9
$TRACEWID
 40
0.05
  9
$TEXTSTYLE
  7
STANDARD
  9
$CLAYER
  8
OBJECT
  9
$CELTYPE
  6
BYLAYER
  9
$CECOLOR
 62
   256
  9
$DIMSCALE
 40
10.0
  9
$DIMASZ
 40
2.0
  9
$DIMEXO
 40
1.0
  9
$DIMDLI
 40
10.0
  9
$DIMRND
 40
0.0
  9
$DIMDLE
 40
0.0
  9
$DIMEXE
 40
1.0
  9
$DIMTP
 40
0.0
  9
$DIMTM
 40
0.0
  9
$DIMTXT
 40
3.2000000000000002
  9
$DIMCEN
 40
0.0
  9
$DIMTSZ
 40
0.0
  9
$DIMTOL
 70
     0
  9
$DIMLIM
 70
     0
  9
$DIMTIH
 70
     0
  9
$DIMTOH
 70
     0
  9
$DIMSE1
 70
     0
  9
$DIMSE2
 70
     0
  9
$DIMTAD
 70
     1
  9
$DIMZIN
 70
     8
  9
$DIMBLK
  1
OPEN30
  9
$DIMASO
 70
     1
  9
$DIMSHO
 70
     1
  9
$DIMPOST
  1

  9
$DIMAPOST
  1

  9
$DIMALT
 70
     0
  9
$DIMALTD
 70
     2
  9
$DIMALTF
 40
25.399999999999999
  9
$DIMLFAC
 40
1.0
  9
$DIMTOFL
 70
     1
  9
$DIMTVP
 40
0.0
  9
$DIMTIX
 70
     0
  9
$DIMSOXD
 70
     0
  9
$DIMSAH
 70
     0
  9
$DIMBLK1
  1

  9
$DIMBLK2
  1

  9
$DIMSTYLE
  2
S10
  9
$DIMCLRD
 70
   256
  9
$DIMCLRE
 70
   256
  9
$DIMCLRT
 70
   256
  9
$DIMTFAC
 40
1.0
  9
$DIMGAP
 40
0.9
  9
$LUNITS
 70
     2
  9
$LUPREC
 70
     2
  9
$SKETCHINC
 40
0.1
  9
$FILLETRAD
 40
0.0
  9
$AUNITS
 70
     0
  9
$AUPREC
 70
     2
  9
$MENU
  1
ACAD
  9
$ELEVATION
 40
0.0
  9
$PELEVATION
 40
0.0
  9
$THICKNESS
 40
0.0
  9
$LIMCHECK
 70
     0
  9
$BLIPMODE
 70
     0
  9
$CHAMFERA
 40
2.0
  9
$CHAMFERB
 40
2.0
  9
$SKPOLY
 70
     0
  9
$TDCREATE
 40
2453095.4929404748
  9
$TDUPDATE
 40
2456678.7788492818
  9
$TDINDWG
 40
18.479920335599999
  9
$TDUSRTIMER
 40
18.479919606500001
  9
$USRTIMER
 70
     1
  9
$ANGBASE
 50
0.0
  9
$ANGDIR
 70
     0
  9
$PDMODE
 70
    35
  9
$PDSIZE
 40
2.0
  9
$PLINEWID
 40
0.0
  9
$COORDS
 70
     1
  9
$SPLFRAME
 70
     0
  9
$SPLINETYPE
 70
     6
  9
$SPLINESEGS
 70
     8
  9
$ATTDIA
 70
     1
  9
$ATTREQ
 70
     1
  9
$HANDLING
 70
     1
  9
$HANDSEED
  5
126D11
  9
$SURFTAB1
 70
     6
  9
$SURFTAB2
 70
     6
  9
$SURFTYPE
 70
     6
  9
$SURFU
 70
     6
  9
$SURFV
 70
     6
  9
$UCSNAME
  2

  9
$UCSORG
 10
0.0
 20
0.0
 30
0.0
  9
$UCSXDIR
 10
1.0
 20
0.0
 30
0.0
  9
$UCSYDIR
 10
0.0
 20
1.0
 30
0.0
  9
$PUCSNAME
  2

  9
$PUCSORG
 10
0.0
 20
0.0
 30
0.0
  9
$PUCSXDIR
 10
1.0
 20
0.0
 30
0.0
  9
$PUCSYDIR
 10
0.0
 20
1.0
 30
0.0
  9
$USERI1
 70
     0
  9
$USERI2
 70
     0
  9
$USERI3
 70
     0
  9
$USERI4
 70
     0
  9
$USERI5
 70
     0
  9
$USERR1
 40
0.0
  9
$USERR2
 40
0.0
  9
$USERR3
 40
0.0
  9
$USERR4
 40
0.0
  9
$USERR5
 40
0.0
  9
$WORLDVIEW
 70
     1
  9
$SHADEDGE
 70
     3
  9
$SHADEDIF
 70
    70
  9
$TILEMODE
 70
     1
  9
$MAXACTVP
 70
    64
  9
$PLIMCHECK
 70
     0
  9
$PEXTMIN
 10
29.066066288948051
 20
20.366566777229309
 30
0.0
  9
$PEXTMAX
 10
261.5945966005325
 20
183.29910099506381
 30
0.0
  9
$PLIMMIN
 10
-3.17498779296875
 20
-3.1749999523162842
  9
$PLIMMAX
 10
293.83566284179687
 20
206.8406708240509
  9
$UNITMODE
 70
     0
  9
$VISRETAIN
 70
     1
  9
$PLINEGEN
 70
     0
  9
$PSLTSCALE
 70
     1
  0
ENDSEC
  0
SECTION
  2
TABLES
  0
TABLE
  2
VPORT
 70
     1
  0
VPORT
  2
*ACTIVE
 70
     0
 10
0.0
 20
0.0
 11
1.0
 21
1.0
 12
6666.5469202561717
 22
-2155.9134001478951
 13
0.0
 23
0.0
 14
1.0
 24
1.0
 15
0.0
 25
0.0
 16
0.0
 26
0.0
 36
1.0
 17
0.0
 27
0.0
 37
0.0
 40
11477.178145457059
 41
1.964560862865947
 42
50.0
 43
0.0
 44
0.0
 50
0.0
 51
0.0
 71
     0
 72
   600
 73
     1
 74
     1
 75
     0
 76
     0
 77
     0
 78
     0
  0
ENDTAB
  0
TABLE
  2
LTYPE
 70
     5
  0
LTYPE
  2
CONTINUOUS
 70
     0
  3
Solid line
 72
    65
 73
     0
 40
0.0
  0
LTYPE
  2
PHANTOM2
 70
     0
  3
___ _ _ ___ _ _ ___ _ _ ___ _ _
 72
    65
 73
     6
 40
1.25
 49
0.625
 49
-0.125
 49
0.125
 49
-0.125
 49
0.125
 49
-0.125
  0
LTYPE
  2
ACAD_ISO08W100
 70
     0
  3
ISO long-dash short-dash ____ __ ____ __ ____ _
 72
    65
 73
     4
 40
36.0
 49
24.0
 49
-3.0
 49
6.0
 49
-3.0
  0
LTYPE
  2
ACAD_ISO02W100
 70
     0
  3
ISO dash __ __ __ __ __ __ __ __ __ __ __ __ __
 72
    65
 73
     2
 40
15.0
 49
12.0
 49
-3.0
  0
ENDTAB
  0
TABLE
  2
LAYER
 70
     7
  0
LAYER
  2
0
 70
     0
 62
     7
  6
CONTINUOUS
  0
LAYER
  2
OBJECT
 70
     0
 62
     4
  6
CONTINUOUS
  0
LAYER
  2
DEFPOINTS
 70
     0
 62
     7
  6
CONTINUOUS
  0
LAYER
  2
HIDDEN
 70
     0
 62
     2
  6
ACAD_ISO02W100
  0
LAYER
  2
CENTER
 70
     0
 62
     2
  6
ACAD_ISO08W100
  0
LAYER
  2
DOTS
 70
     0
 62
     1
  6
CONTINUOUS
  0
LAYER
  2
SLIM
 70
     0
 62
     2
  6
CONTINUOUS
  0
ENDTAB
  0
TABLE
  2
STYLE
 70
     2
  0
STYLE
  2
STANDARD
 70
     0
 40
0.0
 41
0.75
 50
0.0
 71
     0
 42
4.0
  3
simplex.shx
  4
bigfont.shx
  0
STYLE
  2
ANNOTATIVE
 70
     0
 40
0.0
 41
1.0
 50
0.0
 71
     0
 42
0.2
  3
txt
  4

  0
ENDTAB
  0
TABLE
  2
VIEW
 70
     0
  0
ENDTAB
  0
TABLE
  2
UCS
 70
     0
  0
ENDTAB
  0
TABLE
  2
APPID
 70
    19
  0
APPID
  2
ACAD
 70
     0
  0
APPID
  2
ACADANNOTATIVE
 70
     0
  0
APPID
  2
ACAD_PSEXT
 70
     0
  0
APPID
  2
ACAD_EXEMPT_FROM_CAD_STANDARDS
 70
     0
  0
APPID
  2
ACAECLAYERSTANDARD
 70
     0
  0
APPID
  2
ACAUTHENVIRON
 70
     0
  0
APPID
  2
ACDBDYNAMICBLOCKTRUENAME
 70
     0
  0
APPID
  2
ACDBDYNAMICBLOCKGUID
 70
     0
  0
APPID
  2
ACDBBLOCKREPETAG
 70
     0
  0
APPID
  2
ACDBBLOCKREPBTAG
 70
     0
  0
APPID
  2
ACAD_NAV_VCDISPLAY
 70
     0
  0
APPID
  2
ACAD_DSTYLE_DIMRADIAL_EXTENSION
 70
     0
  0
APPID
  2
ACAD_DSTYLE_DIMJAG
 70
     0
  0
APPID
  2
ACAD_DSTYLE_DIMTALN
 70
     0
  0
APPID
  2
ACADANNOPO
 70
     0
  0
APPID
  2
GRADIENTCOLOR1ACI
 70
     0
  0
APPID
  2
GRADIENTCOLOR2ACI
 70
     0
  0
APPID
  2
CONTENTBLOCKICON
 70
     0
  0
APPID
  2
ACAD_MLEADERVER
 70
     0
  0
ENDTAB
  0
TABLE
  2
DIMSTYLE
 70
     3
  0
DIMSTYLE
  2
STANDARD
 70
     0
  3

  4

  5

  6

  7

 40
1.0
 41
0.18
 42
0.0625
 43
0.38
 44
0.18
 45
0.0
 46
0.0
 47
0.0
 48
0.0
140
0.18
141
0.09
142
0.0
143
25.399999999999999
144
1.0
145
0.0
146
1.0
147
0.09
 71
     0
 72
     0
 73
     1
 74
     1
 75
     0
 76
     0
 77
     0
 78
     0
170
     0
171
     2
172
     0
173
     0
174
     0
175
     0
176
     0
177
     0
178
     0
  0
DIMSTYLE
  2
ANNOTATIVE
 70
     0
  3

  4

  5

  6

  7

 40
1.0
 41
0.18
 42
0.0625
 43
0.38
 44
0.18
 45
0.0
 46
0.0
 47
0.0
 48
0.0
140
0.18
141
0.09
142
0.0
143
25.399999999999999
144
1.0
145
0.0
146
1.0
147
0.09
 71
     0
 72
     0
 73
     1
 74
     1
 75
     0
 76
     0
 77
     0
 78
     0
170
     0
171
     2
172
     0
173
     0
174
     0
175
     0
176
     0
177
     0
178
     0
  0
DIMSTYLE
  2
S10
 70
     0
  3

  4

  5

  6

  7

 40
10.0
 41
2.0
 42
1.0
 43
10.0
 44
1.0
 45
0.0
 46
0.0
 47
0.0
 48
0.0
140
3.2000000000000002
141
0.0
142
0.0
143
25.399999999999999
144
1.0
145
0.0
146
1.0
147
0.9
 71
     0
 72
     0
 73
     0
 74
     0
 75
     0
 76
     0
 77
     1
 78
     8
170
     0
171
     2
172
     1
173
     0
174
     0
175
     0
176
   256
177
   256
178
   256
  0
ENDTAB
  0
ENDSEC
  0
SECTION
  2
BLOCKS
  0
BLOCK
  8
0
  2
$MODEL_SPACE
 70
     0
 10
0.0
 20
0.0
 30
0.0
  3
$MODEL_SPACE
  1

  0
ENDBLK
  5
126C33
  8
0
  0
BLOCK
 67
     1
  8
0
  2
$PAPER_SPACE
 70
     0
 10
0.0
 20
0.0
 30
0.0
  3
$PAPER_SPACE
  1

  0
ENDBLK
  5
126C2F
 67
     1
  8
0
  0
BLOCK
  8
0
  2
_OPEN30
 70
     0
 10
0.0
 20
0.0
 30
0.0
  3
_OPEN30
  1

  0
LINE
  5
202
  8
0
  6
BYBLOCK
 62
     0
 10
-1.0
 20
0.26794919
 30
0.0
 11
0.0
 21
0.0
 31
0.0
  0
LINE
  5
203
  8
0
  6
BYBLOCK
 62
     0
 10
0.0
 20
0.0
 30
0.0
 11
-1.0
 21
-0.26794919
 31
0.0
  0
LINE
  5
204
  8
0
  6
BYBLOCK
 62
     0
 10
0.0
 20
0.0
 30
0.0
 11
-1.0
 21
0.0
 31
0.0
  0
ENDBLK
  5
206
  8
0
  0
ENDSEC
  0
SECTION
  2
ENTITIES
  0
LINE
  5
126433
  8
OBJECT
 10
11918.0
 20
-470.99999999999932
 30
0.0
 11
11918.0
 21
-449.99999999999932
 31
0.0
1001
ACDBBLOCKREPETAG
1070
     1
1071
        0
1005
126433
  0
LINE
  5
126434
  8
OBJECT
 10
11918.0
 20
-449.99999999999932
 30
0.0
 11
12082.0
 21
-449.99999999999932
 31
0.0
1001
ACDBBLOCKREPETAG
1070
     1
1071
        1
1005
126434
  0
LINE
  5
126435
  8
HIDDEN
 10
11943.0
 20
-519.99999999999955
 30
0.0
 11
12057.0
 21
-519.99999999999955
 31
0.0
1001
ACDBBLOCKREPETAG
1070
     1
1071
        2
1005
126435
  0
LINE
  5
126436
  8
OBJECT
 10
12082.0
 20
-470.99999999999932
 30
0.0
 11
11918.0
 21
-470.99999999999932
 31
0.0
1001
ACDBBLOCKREPETAG
1070
     1
1071
        3
1005
126436
  0
LINE
  5
126437
  8
CENTER
 10
12000.0
 20
-434.99999999999949
 30
0.0
 11
12000.0
 21
-799.99999999999955
 31
0.0
1001
ACDBBLOCKREPETAG
1070
     1
1071
        4
1005
126437
  0
LINE
  5
126438
  8
OBJECT
 10
11925.0
 20
-533.99999999999955
 30
0.0
 11
11925.0
 21
-787.99999999999955
 31
0.0
1001
ACDBBLOCKREPETAG
1070
     1
1071
        5
1005
126438
  0
LINE
  5
126439
  8
OBJECT
 10
11928.0
 20
-470.99999999999932
 30
0.0
 11
11928.0
 21
-533.99999999999955
 31
0.0
1001
ACDBBLOCKREPETAG
1070
     1
1071
        6
1005
126439
  0
LINE
  5
12643A
  8
OBJECT
 10
12072.0
 20
-533.99999999999955
 30
0.0
 11
12072.0
 21
-470.99999999999932
 31
0.0
1001
ACDBBLOCKREPETAG
1070
     1
1071
        7
1005
12643A
  0
LINE
  5
12643B
  8
OBJECT
 10
11920.0
 20
-787.99999999999955
 30
0.0
 11
12080.0
 21
-787.99999999999955
 31
0.0
1001
ACDBBLOCKREPETAG
1070
     1
1071
        8
1005
12643B
  0
LINE
  5
12643C
  8
OBJECT
 10
12080.0
 20
-533.99999999999955
 30
0.0
 11
11925.0
 21
-533.99999999999955
 31
0.0
1001
ACDBBLOCKREPETAG
1070
     1
1071
        9
1005
12643C
  0
LINE
  5
12643D
  8
OBJECT
 10
11920.0
 20
-787.99999999999955
 30
0.0
 11
11920.0
 21
-799.99999999999955
 31
0.0
1001
ACDBBLOCKREPETAG
1070
     1
1071
       10
1005
12643D
  0
LINE
  5
12643E
  8
OBJECT
 10
11920.0
 20
-799.99999999999955
 30
0.0
 11
12080.0
 21
-799.99999999999955
 31
0.0
1001
ACDBBLOCKREPETAG
1070
     1
1071
       11
1005
12643E
  0
LINE
  5
12643F
  8
OBJECT
 10
12080.0
 20
-799.99999999999955
 30
0.0
 11
12080.0
 21
-787.99999999999955
 31
0.0
1001
ACDBBLOCKREPETAG
1070
     1
1071
       12
1005
12643F
  0
LINE
  5
126440
  8
OBJECT
 10
12074.99999999986
 20
-657.99999999985039
 30
0.0
 11
12075.0
 21
-787.99999999999955
 31
0.0
1001
ACDBBLOCKREPETAG
1070
     1
1071
       14
1005
126440
  0
LINE
  5
126441
  8
OBJECT
 10
12074.99999080298
 20
-657.99998602702135
 30
0.0
 11
12080.0
 21
-657.99998602702135
 31
0.0
1001
ACDBBLOCKREPETAG
1070
     1
1071
       15
1005
126441
  0
LINE
  5
126442
  8
OBJECT
 10
11920.79408171202
 20
-449.99999999999932
 30
0.0
 11
11920.79408171202
 21
-470.99999999999932
 31
0.0
1001
ACDBBLOCKREPETAG
1070
     1
1071
       16
1005
126442
  0
LINE
  5
126443
  8
OBJECT
 10
11928.737896000001
 20
-449.99999999999932
 30
0.0
 11
11928.737896000001
 21
-470.99999999999932
 31
0.0
1001
ACDBBLOCKREPETAG
1070
     1
1071
       17
1005
126443
  0
LINE
  5
126444
  8
OBJECT
 10
11970.833026
 20
-449.99999999999932
 30
0.0
 11
11970.833026
 21
-470.99999999999932
 31
0.0
1001
ACDBBLOCKREPETAG
1070
     1
1071
       18
1005
126444
  0
LINE
  5
126445
  8
OBJECT
 10
11978.7768389218
 20
-449.99999999999932
 30
0.0
 11
11978.7768389218
 21
-470.99999999999932
 31
0.0
1001
ACDBBLOCKREPETAG
1070
     1
1071
       19
1005
126445
  0
LINE
  5
126446
  8
OBJECT
 10
12082.0
 20
-470.99999999999932
 30
0.0
 11
12082.0
 21
-449.99999999999932
 31
0.0
1001
ACDBBLOCKREPETAG
1070
     1
1071
       20
1005
126446
  0
LINE
  5
126447
  8
OBJECT
 10
12079.205918287969
 20
-449.99999999999932
 30
0.0
 11
12079.205918287969
 21
-470.99999999999932
 31
0.0
1001
ACDBBLOCKREPETAG
1070
     1
1071
       21
1005
126447
  0
LINE
  5
126448
  8
OBJECT
 10
12071.262103999999
 20
-449.99999999999932
 30
0.0
 11
12071.262103999999
 21
-470.99999999999932
 31
0.0
1001
ACDBBLOCKREPETAG
1070
     1
1071
       22
1005
126448
  0
LINE
  5
126449
  8
OBJECT
 10
12029.166974
 20
-449.99999999999932
 30
0.0
 11
12029.166974
 21
-470.99999999999932
 31
0.0
1001
ACDBBLOCKREPETAG
1070
     1
1071
       23
1005
126449
  0
LINE
  5
12644A
  8
OBJECT
 10
12021.2231610782
 20
-449.99999999999932
 30
0.0
 11
12021.2231610782
 21
-470.99999999999932
 31
0.0
1001
ACDBBLOCKREPETAG
1070
     1
1071
       24
1005
12644A
  0
ARC
  5
12644B
  8
OBJECT
 10
12200.687274671671
 20
-649.40809941010718
 30
0.0
 40
170.6350503965856
 50
137.44134459184301
 51
149.91949581337221
1001
ACDBBLOCKREPETAG
1070
     1
1071
       25
1005
12644B
  0
ARC
  5
12644C
  8
OBJECT
 10
12118.845598704051
 20
-605.88272669536445
 30
0.0
 40
78.072222021763665
 50
147.4551531038293
 51
164.66365997718549
1001
ACDBBLOCKREPETAG
1070
     1
1071
       26
1005
12644C
  0
ARC
  5
12644D
  8
OBJECT
 10
12085.755434960871
 20
-595.99999999999955
 30
0.0
 40
43.55353926885617
 50
165.688452300753
 51
194.3115476992468
1001
ACDBBLOCKREPETAG
1070
     1
1071
       27
1005
12644D
  0
ARC
  5
12644E
  8
OBJECT
 10
12200.687274671671
 20
-542.59190058989179
 30
0.0
 40
170.6350503965856
 50
210.08050418662771
 51
222.55865540815699
1001
ACDBBLOCKREPETAG
1070
     1
1071
       28
1005
12644E
  0
ARC
  5
12644F
  8
OBJECT
 10
12118.845598704051
 20
-586.11727330463452
 30
0.0
 40
78.072222021763665
 50
195.33634002281451
 51
212.5448468961705
1001
ACDBBLOCKREPETAG
1070
     1
1071
       29
1005
12644F
  0
POINT
  5
126450
  8
DOTS
 10
12000.0
 20
-654.99999999999966
 30
0.0
1001
ACDBBLOCKREPETAG
1070
     1
1071
      204
1005
126450
  0
LINE
  5
126451
  8
SLIM
 10
11927.30183005652
 20
-155.95484036957669
 30
0.0
 11
11955.954840369581
 21
-127.30183005652241
 31
0.0
1001
GRADIENTCOLOR1ACI
1070
     5
1001
GRADIENTCOLOR2ACI
1070
     2
1001
ACAD
1010
0.0
1020
0.0
1030
0.0
1001
ACDBBLOCKREPETAG
1070
     1
1071
      416
1005
126451
  0
LINE
  5
126452
  8
SLIM
 10
11919.48615207084
 20
-172.7507744763318
 30
0.0
 11
11938.29030895727
 21
-153.9466175898965
 31
0.0
1001
GRADIENTCOLOR1ACI
1070
     5
1001
GRADIENTCOLOR2ACI
1070
     2
1001
ACAD
1010
0.0
1020
0.0
1030
0.0
1001
ACDBBLOCKREPETAG
1070
     1
1071
      417
1005
126452
  0
LINE
  5
126453
  8
SLIM
 10
11953.9466175899
 20
-138.29030895727169
 30
0.0
 11
11972.75077447633
 21
-119.4861520708365
 31
0.0
1001
GRADIENTCOLOR1ACI
1070
     5
1001
GRADIENTCOLOR2ACI
1070
     2
1001
ACAD
1010
0.0
1020
0.0
1030
0.0
1001
ACDBBLOCKREPETAG
1070
     1
1071
      418
1005
126453
  0
LINE
  5
126454
  8
SLIM
 10
11916.35966799338
 20
-184.85751467486031
 30
0.0
 11
11920.236091437009
 21
-180.9810912312297
 31
0.0
1001
GRADIENTCOLOR1ACI
1070
     5
1001
GRADIENTCOLOR2ACI
1070
     2
1001
ACAD
1010
0.0
1020
0.0
1030
0.0
1001
ACDBBLOCKREPETAG
1070
     1
1071
      419
1005
126454
  0
LINE
  5
126455
  8
SLIM
 10
11980.98109123123
 20
-120.2360914370078
 30
0.0
 11
11984.857514674861
 21
-116.359667993377
 31
0.0
1001
GRADIENTCOLOR1ACI
1070
     5
1001
GRADIENTCOLOR2ACI
1070
     2
1001
ACAD
1010
0.0
1020
0.0
1030
0.0
1001
ACDBBLOCKREPETAG
1070
     1
1071
      420
1005
126455
  0
LINE
  5
126456
  8
SLIM
 10
11915.14405758905
 20
-195.0533812002549
 30
0.0
 11
11918.412550338729
 21
-191.78488845057959
 31
0.0
1001
GRADIENTCOLOR1ACI
1070
     5
1001
GRADIENTCOLOR2ACI
1070
     2
1001
ACAD
1010
0.0
1020
0.0
1030
0.0
1001
ACDBBLOCKREPETAG
1070
     1
1071
      421
1005
126456
  0
LINE
  5
126457
  8
SLIM
 10
11991.78488845058
 20
-118.4125503387271
 30
0.0
 11
11995.05338120025
 21
-115.1440575890517
 31
0.0
1001
GRADIENTCOLOR1ACI
1070
     5
1001
GRADIENTCOLOR2ACI
1070
     2
1001
ACAD
1010
0.0
1020
0.0
1030
0.0
1001
ACDBBLOCKREPETAG
1070
     1
1071
      422
1005
126457
  0
LINE
  5
126458
  8
SLIM
 10
11915.097963557469
 20
-204.07973135290339
 30
0.0
 11
11918.00833819905
 21
-201.1693567113285
 31
0.0
1001
GRADIENTCOLOR1ACI
1070
     5
1001
GRADIENTCOLOR2ACI
1070
     2
1001
ACAD
1010
0.0
1020
0.0
1030
0.0
1001
ACDBBLOCKREPETAG
1070
     1
1071
      423
1005
126458
  0
LINE
  5
126459
  8
SLIM
 10
12001.169356711331
 20
-118.0083381990472
 30
0.0
 11
12004.0797313529
 21
-115.0979635574724
 31
0.0
1001
GRADIENTCOLOR1ACI
1070
     5
1001
GRADIENTCOLOR2ACI
1070
     2
1001
ACAD
1010
0.0
1020
0.0
1030
0.0
1001
ACDBBLOCKREPETAG
1070
     1
1071
      424
1005
126459
  0
LINE
  5
12645A
  8
SLIM
 10
11915.889972620869
 20
-212.2679784105739
 30
0.0
 11
11918.56326394268
 21
-209.59468708876071
 31
0.0
1001
GRADIENTCOLOR1ACI
1070
     5
1001
GRADIENTCOLOR2ACI
1070
     2
1001
ACAD
1010
0.0
1020
0.0
1030
0.0
1001
ACDBBLOCKREPETAG
1070
     1
1071
      425
1005
12645A
  0
LINE
  5
12645B
  8
SLIM
 10
12009.59468708876
 20
-118.5632639426843
 30
0.0
 11
12012.267978410569
 21
-115.88997262087101
 31
0.0
1001
GRADIENTCOLOR1ACI
1070
     5
1001
GRADIENTCOLOR2ACI
1070
     2
1001
ACAD
1010
0.0
1020
0.0
1030
0.0
1001
ACDBBLOCKREPETAG
1070
     1
1071
      426
1005
12645B
  0
LINE
  5
12645C
  8
SLIM
 10
11917.338265695151
 20
-219.7999414573614
 30
0.0
 11
11919.844379359491
 21
-217.29382779302409
 31
0.0
1001
GRADIENTCOLOR1ACI
1070
     5
1001
GRADIENTCOLOR2ACI
1070
     2
1001
ACAD
1010
0.0
1020
0.0
1030
0.0
1001
ACDBBLOCKREPETAG
1070
     1
1071
      427
1005
12645C
  0
LINE
  5
12645D
  8
SLIM
 10
12017.293827793021
 20
-119.84437935949001
 30
0.0
 11
12019.799941457361
 21
-117.3382656951527
 31
0.0
1001
GRADIENTCOLOR1ACI
1070
     5
1001
GRADIENTCOLOR2ACI
1070
     2
1001
ACAD
1010
0.0
1020
0.0
1030
0.0
1001
ACDBBLOCKREPETAG
1070
     1
1071
      428
1005
12645D
  0
LINE
  5
12645E
  8
SLIM
 10
11919.331259406301
 20
-226.78720386727881
 30
0.0
 11
11922.844692636791
 21
-223.27377063679211
 31
0.0
1001
GRADIENTCOLOR1ACI
1070
     5
1001
GRADIENTCOLOR2ACI
1070
     2
1001
ACAD
1010
0.0
1020
0.0
1030
0.0
1001
ACDBBLOCKREPETAG
1070
     1
1071
      429
1005
12645E
  0
LINE
  5
12645F
  8
SLIM
 10
12023.27377163679
 20
-122.8446916367926
 30
0.0
 11
12026.787203867279
 21
-119.3312594063045
 31
0.0
1001
GRADIENTCOLOR1ACI
1070
     5
1001
GRADIENTCOLOR2ACI
1070
     2
1001
ACAD
1010
0.0
1020
0.0
1030
0.0
1001
ACDBBLOCKREPETAG
1070
     1
1071
      430
1005
12645F
  0
LINE
  5
126460
  8
SLIM
 10
11921.79571631862
 20
-233.30300307603281
 30
0.0
 11
11927.334820697321
 21
-227.76389869732679
 31
0.0
1001
GRADIENTCOLOR1ACI
1070
     5
1001
GRADIENTCOLOR2ACI
1070
     2
1001
ACAD
1010
0.0
1020
0.0
1030
0.0
1001
ACDBBLOCKREPETAG
1070
     1
1071
      431
1005
126460
  0
LINE
  5
126461
  8
SLIM
 10
12027.76389969732
 20
-127.33481969732929
 30
0.0
 11
12033.303003076029
 21
-121.7957163186195
 31
0.0
1001
GRADIENTCOLOR1ACI
1070
     5
1001
GRADIENTCOLOR2ACI
1070
     2
1001
ACAD
1010
0.0
1020
0.0
1030
0.0
1001
ACDBBLOCKREPETAG
1070
     1
1071
      432
1005
126461
  0
LINE
  5
126462
  8
SLIM
 10
11924.681663531341
 20
-239.39731198437761
 30
0.0
 11
11930.63987686439
 21
-233.4390986513296
 31
0.0
1001
GRADIENTCOLOR1ACI
1070
     5
1001
GRADIENTCOLOR2ACI
1070
     2
1001
ACAD
1010
0.0
1020
0.0
1030
0.0
1001
ACDBBLOCKREPETAG
1070
     1
1071
      433
1005
126462
  0
LINE
  5
126463
  8
SLIM
 10
12033.43909865133
 20
-130.63987686439191
 30
0.0
 11
12039.397311984379
 21
-124.681663531344
 31
0.0
1001
GRADIENTCOLOR1ACI
1070
     5
1001
GRADIENTCOLOR2ACI
1070
     2
1001
ACAD
1010
0.0
1020
0.0
1030
0.0
1001
ACDBBLOCKREPETAG
1070
     1
1071
      434
1005
126463
  0
LINE
  5
126464
  8
SLIM
 10
11927.954461102419
 20
-245.10477053436679
 30
0.0
 11
11933.77500701499
 21
-239.28422462179759
 31
0.0
1001
GRADIENTCOLOR1ACI
1070
     5
1001
GRADIENTCOLOR2ACI
1070
     2
1001
ACAD
1010
0.0
1020
0.0
1030
0.0
1001
ACDBBLOCKREPETAG
1070
     1
1071
      435
1005
126464
  0
LINE
  5
126465
  8
SLIM
 10
12039.284224621801
 20
-133.77500701499301
 30
0.0
 11
12045.10477053437
 21
-127.95446110242381
 31
0.0
1001
GRADIENTCOLOR1ACI
1070
     5
1001
GRADIENTCOLOR2ACI
1070
     2
1001
ACAD
1010
0.0
1020
0.0
1030
0.0
1001
ACDBBLOCKREPETAG
1070
     1
1071
      436
1005
126465
  0
LINE
  5
126466
  8
SLIM
 10
11931.59033196866
 20
-250.44915578919529
 30
0.0
 11
11937.31820758806
 21
-244.72128016980349
 31
0.0
1001
GRADIENTCOLOR1ACI
1070
     5
1001
GRADIENTCOLOR2ACI
1070
     2
1001
ACAD
1010
0.0
1020
0.0
1030
0.0
1001
ACDBBLOCKREPETAG
1070
     1
1071
      437
1005
126466
  0
LINE
  5
126467
  8
SLIM
 10
12044.721280169801
 20
-137.31820758805651
 30
0.0
 11
12050.449155789191
 21
-131.59033196866449
 31
0.0
1001
GRADIENTCOLOR1ACI
1070
     5
1001
GRADIENTCOLOR2ACI
1070
     2
1001
ACAD
1010
0.0
1020
0.0
1030
0.0
1001
ACDBBLOCKREPETAG
1070
     1
1071
      438
1005
126467
  0
LINE
  5
126468
  8
SLIM
 10
11935.573749692519
 20
-255.44599418640331
 30
0.0
 11
11941.24811054159
 21
-249.77163333734029
 31
0.0
1001
GRADIENTCOLOR1ACI
1070
     5
1001
GRADIENTCOLOR2ACI
1070
     2
1001
ACAD
1010
0.0
1020
0.0
1030
0.0
1001
ACDBBLOCKREPETAG
1070
     1
1071
      439
1005
126468
  0
LINE
  5
126469
  8
SLIM
 10
12053.01974387892
 20
-137.99999999999901
 30
0.0
 11
12055.445994186401
 21
-135.57374969252561
 31
0.0
1001
GRADIENTCOLOR1ACI
1070
     5
1001
GRADIENTCOLOR2ACI
1070
     2
1001
ACAD
1010
0.0
1020
0.0
1030
0.0
1001
ACDBBLOCKREPETAG
1070
     1
1071
      440
1005
126469
  0
LINE
  5
12646A
  8
SLIM
 10
11939.895923599141
 20
-260.10407640085549
 30
0.0
 11
11945.55277784863
 21
-254.44722215136329
 31
0.0
1001
GRADIENTCOLOR1ACI
1070
     5
1001
GRADIENTCOLOR2ACI
1070
     2
1001
ACAD
1010
0.0
1020
0.0
1030
0.0
1001
ACDBBLOCKREPETAG
1070
     1
1071
      441
1005
12646A
  0
LINE
  5
12646B
  8
SLIM
 10
11944.55400581359
 20
-264.4262503074724
 30
0.0
 11
11950.228366662661
 21
-258.75188945840949
 31
0.0
1001
GRADIENTCOLOR1ACI
1070
     5
1001
GRADIENTCOLOR2ACI
1070
     2
1001
ACAD
1010
0.0
1020
0.0
1030
0.0
1001
ACDBBLOCKREPETAG
1070
     1
1071
      442
1005
12646B
  0
LINE
  5
12646C
  8
SLIM
 10
11949.5508442108
 20
-268.40966803133369
 30
0.0
 11
11955.27871983019
 21
-262.68179241194167
 31
0.0
1001
GRADIENTCOLOR1ACI
1070
     5
1001
GRADIENTCOLOR2ACI
1070
     2
1001
ACAD
1010
0.0
1020
0.0
1030
0.0
1001
ACDBBLOCKREPETAG
1070
     1
1071
      443
1005
12646C
  0
LINE
  5
12646D
  8
SLIM
 10
11954.89522946563
 20
-272.04553889757432
 30
0.0
 11
11960.715775378199
 21
-266.22499298500497
 31
0.0
1001
GRADIENTCOLOR1ACI
1070
     5
1001
GRADIENTCOLOR2ACI
1070
     2
1001
ACAD
1010
0.0
1020
0.0
1030
0.0
1001
ACDBBLOCKREPETAG
1070
     1
1071
      444
1005
12646D
  0
LINE
  5
12646E
  8
SLIM
 10
11960.602688015621
 20
-275.31833646865419
 30
0.0
 11
11966.56090134867
 21
-269.36012313560622
 31
0.0
1001
GRADIENTCOLOR1ACI
1070
     5
1001
GRADIENTCOLOR2ACI
1070
     2
1001
ACAD
1010
0.0
1020
0.0
1030
0.0
1001
ACDBBLOCKREPETAG
1070
     1
1071
      445
1005
12646E
  0
LINE
  5
12646F
  8
SLIM
 10
11966.69699692396
 20
-278.20428368137863
 30
0.0
 11
11972.236100802669
 21
-272.66517980267162
 31
0.0
1001
GRADIENTCOLOR1ACI
1070
     5
1001
GRADIENTCOLOR2ACI
1070
     2
1001
ACAD
1010
0.0
1020
0.0
1030
0.0
1001
ACDBBLOCKREPETAG
1070
     1
1071
      446
1005
12646F
  0
LINE
  5
126470
  8
SLIM
 10
11973.212796132721
 20
-280.66874059369371
 30
0.0
 11
11976.72622886321
 21
-277.15530786320562
 31
0.0
1001
GRADIENTCOLOR1ACI
1070
     5
1001
GRADIENTCOLOR2ACI
1070
     2
1001
ACAD
1010
0.0
1020
0.0
1030
0.0
1001
ACDBBLOCKREPETAG
1070
     1
1071
      447
1005
126470
  0
LINE
  5
126471
  8
SLIM
 10
11980.200058542639
 20
-282.66173430484548
 30
0.0
 11
11982.70617220697
 21
-280.15562064050812
 31
0.0
1001
GRADIENTCOLOR1ACI
1070
     5
1001
GRADIENTCOLOR2ACI
1070
     2
1001
ACAD
1010
0.0
1020
0.0
1030
0.0
1001
ACDBBLOCKREPETAG
1070
     1
1071
      448
1005
126471
  0
LINE
  5
126472
  8
SLIM
 10
11987.73202158942
 20
-284.11002737912702
 30
0.0
 11
11990.40531291124
 21
-281.43673605731391
 31
0.0
1001
GRADIENTCOLOR1ACI
1070
     5
1001
GRADIENTCOLOR2ACI
1070
     2
1001
ACAD
1010
0.0
1020
0.0
1030
0.0
1001
ACDBBLOCKREPETAG
1070
     1
1071
      449
1005
126472
  0
LINE
  5
126473
  8
SLIM
 10
11995.9202686471
 20
-284.90203644252568
 30
0.0
 11
11998.83064328866
 21
-281.99166180095108
 31
0.0
1001
GRADIENTCOLOR1ACI
1070
     5
1001
GRADIENTCOLOR2ACI
1070
     2
1001
ACAD
1010
0.0
1020
0.0
1030
0.0
1001
ACDBBLOCKREPETAG
1070
     1
1071
      450
1005
126473
  0
LINE
  5
126474
  8
SLIM
 10
12004.94661879974
 20
-284.8559424109464
 30
0.0
 11
12008.21511154942
 21
-281.58744966127108
 31
0.0
1001
GRADIENTCOLOR1ACI
1070
     5
1001
GRADIENTCOLOR2ACI
1070
     2
1001
ACAD
1010
0.0
1020
0.0
1030
0.0
1001
ACDBBLOCKREPETAG
1070
     1
1071
      451
1005
126474
  0
LINE
  5
126475
  8
SLIM
 10
12015.142485325139
 20
-283.64033200662112
 30
0.0
 11
12019.01890876877
 21
-279.76390856299031
 31
0.0
1001
GRADIENTCOLOR1ACI
1070
     5
1001
GRADIENTCOLOR2ACI
1070
     2
1001
ACAD
1010
0.0
1020
0.0
1030
0.0
1001
ACDBBLOCKREPETAG
1070
     1
1071
      452
1005
126475
  0
LINE
  5
126476
  8
SLIM
 10
12027.249225523659
 20
-280.51384792916173
 30
0.0
 11
12045.76307345283
 21
-261.99999999999909
 31
0.0
1001
GRADIENTCOLOR1ACI
1070
     5
1001
GRADIENTCOLOR2ACI
1070
     2
1001
ACAD
1010
0.0
1020
0.0
1030
0.0
1001
ACDBBLOCKREPETAG
1070
     1
1071
      453
1005
126476
  0
LINE
  5
126477
  8
SLIM
 10
12044.045159630419
 20
-272.6981699434757
 30
0.0
 11
12054.743329573899
 21
-261.99999999999909
 31
0.0
1001
GRADIENTCOLOR1ACI
1070
     5
1001
GRADIENTCOLOR2ACI
1070
     2
1001
ACAD
1010
0.0
1020
0.0
1030
0.0
1001
ACDBBLOCKREPETAG
1070
     1
1071
      454
1005
126477
  0
ARC
  5
126478
  8
OBJECT
 10
12000.0
 20
-199.99999999999909
 30
0.0
 40
77.0
 50
202.25886899982271
 51
247.7411309999043
1001
ACDBBLOCKREPETAG
1070
     1
1071
      212
1005
126478
  0
ARC
  5
126479
  8
OBJECT
 10
12000.0
 20
-199.99999999999909
 30
0.0
 40
77.0
 50
292.25886900009567
 51
337.74113100017729
1001
ACDBBLOCKREPETAG
1070
     1
1071
      215
1005
126479
  0
ARC
  5
12647A
  8
OBJECT
 10
12000.0
 20
-199.99999999999909
 30
0.0
 40
77.0
 50
112.2588690000957
 51
157.74113100017721
1001
ACDBBLOCKREPETAG
1070
     1
1071
      216
1005
12647A
  0
ARC
  5
12647B
  8
OBJECT
 10
12000.0
 20
-199.99999999999909
 30
0.0
 40
77.0
 50
22.25886899982272
 51
67.741130999904328
1001
ACDBBLOCKREPETAG
1070
     1
1071
      220
1005
12647B
  0
CIRCLE
  5
12647C
  8
OBJECT
 10
12000.0
 20
-199.99999999999909
 30
0.0
 40
70.0
1001
ACDBBLOCKREPETAG
1070
     1
1071
      221
1005
12647C
  0
LINE
  5
12647D
  8
OBJECT
 10
12029.16697499998
 20
-271.26210499999888
 30
0.0
 11
12021.223162444099
 21
-279.20591755589248
 31
0.0
1001
ACDBBLOCKREPETAG
1070
     1
1071
      222
1005
12647D
  0
LINE
  5
12647E
  8
OBJECT
 10
11970.833026
 20
-271.26210499999888
 30
0.0
 11
11978.77683892192
 21
-279.20591792191681
 31
0.0
1001
ACDBBLOCKREPETAG
1070
     1
1071
      223
1005
12647E
  0
ARC
  5
12647F
  8
OBJECT
 10
12000.0
 20
-199.99999999999909
 30
0.0
 40
82.000000000000014
 50
255.00000044864029
 51
285.00000053969478
1001
ACDBBLOCKREPETAG
1070
     1
1071
      224
1005
12647F
  0
LINE
  5
126480
  8
OBJECT
 10
11928.737896000001
 20
-229.1669739999989
 30
0.0
 11
11920.794081712051
 21
-221.2231597120545
 31
0.0
1001
ACDBBLOCKREPETAG
1070
     1
1071
      225
1005
126480
  0
ARC
  5
126481
  8
OBJECT
 10
12000.0
 20
-199.99999999999909
 30
0.0
 40
82.000000000000014
 50
165.0000004487506
 51
194.9999985630001
1001
ACDBBLOCKREPETAG
1070
     1
1071
      226
1005
126481
  0
LINE
  5
126482
  8
OBJECT
 10
11970.833026
 20
-128.7378949999993
 30
0.0
 11
11978.77683892192
 21
-120.7940820780795
 31
0.0
1001
ACDBBLOCKREPETAG
1070
     1
1071
      227
1005
126482
  0
ARC
  5
126483
  8
OBJECT
 10
12000.0
 20
-199.99999999999909
 30
0.0
 40
82.000000000000014
 50
74.999999460305204
 51
104.99999955135971
1001
ACDBBLOCKREPETAG
1070
     1
1071
      228
1005
126483
  0
LINE
  5
126484
  8
OBJECT
 10
12029.16697499998
 20
-128.7378949999993
 30
0.0
 11
12021.223162444099
 21
-120.79408244410391
 31
0.0
1001
ACDBBLOCKREPETAG
1070
     1
1071
      229
1005
126484
  0
LINE
  5
126485
  8
OBJECT
 10
11962.402059
 20
-161.93893300000039
 30
0.0
 11
12037.08411027142
 21
-174.5180316957439
 31
0.0
1001
ACDBBLOCKREPETAG
1070
     1
1071
      230
1005
126485
  0
LINE
  5
126486
  8
OBJECT
 10
12044.093656999999
 20
-169.70149399999991
 30
0.0
 11
12037.08411027142
 21
-174.5180316957439
 31
0.0
1001
ACDBBLOCKREPETAG
1070
     1
1071
      231
1005
126486
  0
LINE
  5
126487
  8
OBJECT
 10
11928.737896000001
 20
-170.833024999999
 30
0.0
 11
11920.79408207808
 21
-178.77683892191911
 31
0.0
1001
ACDBBLOCKREPETAG
1070
     1
1071
      232
1005
126487
  0
CIRCLE
  5
126488
  8
OBJECT
 10
12000.0
 20
-199.99999999999909
 30
0.0
 40
53.500000000000007
1001
ACDBBLOCKREPETAG
1070
     1
1071
      233
1005
126488
  0
ARC
  5
126489
  8
OBJECT
 10
12000.0
 20
-199.99999999999909
 30
0.0
 40
50.0
 50
131.7018096435265
 51
168.52376955955751
1001
ACDBBLOCKREPETAG
1070
     1
1071
      234
1005
126489
  0
ARC
  5
12648A
  8
OBJECT
 10
12000.0
 20
-199.99999999999909
 30
0.0
 40
50.0
 50
238.8199429999047
 51
34.494506250115712
1001
ACDBBLOCKREPETAG
1070
     1
1071
      235
1005
12648A
  0
LINE
  5
12648B
  8
OBJECT
 10
12071.262104999991
 20
-170.833024999999
 30
0.0
 11
12079.20591755589
 21
-178.77683755589439
 31
0.0
1001
ACDBBLOCKREPETAG
1070
     1
1071
      236
1005
12648B
  0
ARC
  5
12648C
  8
OBJECT
 10
12000.0
 20
-199.99999999999909
 30
0.0
 40
82.000000000000014
 50
345.0000004487506
 51
15.000000539345651
1001
ACDBBLOCKREPETAG
1070
     1
1071
      237
1005
12648C
  0
LINE
  5
12648D
  8
OBJECT
 10
12071.262104999991
 20
-229.1669739999989
 30
0.0
 11
12079.20591792192
 21
-221.2231610780791
 31
0.0
1001
ACDBBLOCKREPETAG
1070
     1
1071
      238
1005
12648D
  0
LINE
  5
12648E
  8
OBJECT
 10
12045.661800227321
 20
-137.99999999999909
 30
0.0
 11
12080.0
 21
-137.99999999999909
 31
0.0
1001
ACDBBLOCKREPETAG
1070
     1
1071
      239
1005
12648E
  0
LINE
  5
12648F
  8
OBJECT
 10
12045.661800227321
 20
-261.99999999999909
 30
0.0
 11
12080.0
 21
-261.99999999999909
 31
0.0
1001
ACDBBLOCKREPETAG
1070
     1
1071
      240
1005
12648F
  0
LINE
  5
126490
  8
CENTER
 10
12080.0
 20
-199.99999999999909
 30
0.0
 11
11900.00189721606
 21
-199.99999999999909
 31
0.0
1001
ACDBBLOCKREPETAG
1070
     1
1071
      249
1005
126490
  0
LINE
  5
126491
  8
CENTER
 10
12000.0
 20
-299.99999999999892
 30
0.0
 11
12000.0
 21
-99.999999999999091
 31
0.0
1001
ACDBBLOCKREPETAG
1070
     1
1071
      250
1005
126491
  0
ARC
  5
126492
  8
OBJECT
 10
12000.0
 20
-199.99999999999909
 30
0.0
 40
85.0
 50
46.837102859852038
 51
313.16289714014772
1001
ACDBBLOCKREPETAG
1070
     1
1071
      251
1005
126492
  0
LINE
  5
126493
  8
OBJECT
 10
11946.69219414375
 20
-195.46638161316051
 30
0.0
 11
11970.45403438563
 21
-193.79865146436981
 31
0.0
1001
ACDBBLOCKREPETAG
1070
     1
1071
      340
1005
126493
  0
LINE
  5
126494
  8
OBJECT
 10
11947.385434727061
 20
-190.305593971766
 30
0.0
 11
11966.9884352629
 21
-188.92975272660161
 31
0.0
1001
ACDBBLOCKREPETAG
1070
     1
1071
      341
1005
126494
  0
LINE
  5
126495
  8
OBJECT
 10
11974.11353747527
 20
-242.77722592637201
 30
0.0
 11
11982.136698837399
 21
-234.1690987954708
 31
0.0
1001
ACDBBLOCKREPETAG
1070
     1
1071
      342
1005
126495
  0
ARC
  5
126496
  8
OBJECT
 10
11982.116007124539
 20
-183.28188966318251
 30
0.0
 40
60.031113246032611
 50
254.07020130412749
 51
262.33936106086588
1001
ACDBBLOCKREPETAG
1070
     1
1071
      343
1005
126496
  0
LINE
  5
126497
  8
OBJECT
 10
11977.612599732511
 20
-197.67495277149911
 30
0.0
 11
11982.136698837399
 21
-234.1690987954708
 31
0.0
1001
ACDBBLOCKREPETAG
1070
     1
1071
      344
1005
126497
  0
ARC
  5
126498
  8
OBJECT
 10
11967.688565345639
 20
-198.90521351131881
 30
0.0
 40
10.0
 50
7.0667782929989968
 51
94.014734370532395
1001
ACDBBLOCKREPETAG
1070
     1
1071
      345
1005
126498
  0
ARC
  5
126499
  8
OBJECT
 10
11970.94412537097
 20
-200.78147401875589
 30
0.0
 40
7.0
 50
7.0667782929989968
 51
94.014733775014648
1001
ACDBBLOCKREPETAG
1070
     1
1071
      346
1005
126499
  0
POINT
  5
12649A
  8
DOTS
 10
12000.0
 20
-199.99999999999909
 30
0.0
 50
270.0
1001
ACDBBLOCKREPETAG
1070
     1
1071
      349
1005
12649A
  0
LINE
  5
12649B
  8
OBJECT
 10
12202.99999999998
 20
-483.0000000000008
 30
0.0
 11
12209.99999999998
 21
-483.0000000000008
 31
0.0
1001
ACDBBLOCKREPETAG
1070
     1
1071
       83
1005
12649B
  0
LINE
  5
12649C
  8
OBJECT
 10
12209.99999999998
 20
-483.0000000000008
 30
0.0
 11
12209.99999999998
 21
-607.0000000000008
 31
0.0
1001
ACDBBLOCKREPETAG
1070
     1
1071
       84
1005
12649C
  0
LINE
  5
12649D
  8
OBJECT
 10
12085.99999999998
 20
-553.3502637757274
 30
0.0
 11
12085.99999999998
 21
-655.00000000000068
 31
0.0
1001
ACDBBLOCKREPETAG
1070
     1
1071
       85
1005
12649D
  0
LINE
  5
12649E
  8
OBJECT
 10
12209.99999999998
 20
-607.0000000000008
 30
0.0
 11
12202.99999999998
 21
-607.0000000000008
 31
0.0
1001
ACDBBLOCKREPETAG
1070
     1
1071
       86
1005
12649E
  0
LINE
  5
12649F
  8
OBJECT
 10
12202.99999999998
 20
-607.0000000000008
 30
0.0
 11
12202.99999999998
 21
-483.0000000000008
 31
0.0
1001
ACDBBLOCKREPETAG
1070
     1
1071
       87
1005
12649F
  0
LINE
  5
1264A0
  8
CENTER
 10
12134.99999999998
 20
-545.0000000000008
 30
0.0
 11
12224.99999999998
 21
-545.0000000000008
 31
0.0
1001
ACDBBLOCKREPETAG
1070
     1
1071
       88
1005
1264A0
  0
LINE
  5
1264A1
  8
OBJECT
 10
12079.99999999998
 20
-658.0
 30
0.0
 11
12082.99999999998
 21
-658.0000000000008
 31
0.0
1001
ACDBBLOCKREPETAG
1070
     1
1071
       89
1005
1264A1
  0
ARC
  5
1264A2
  8
OBJECT
 10
12082.99999999998
 20
-655.00000000000068
 30
0.0
 40
3.0
 50
270.0
 51
0.0
1001
ACDBBLOCKREPETAG
1070
     1
1071
       90
1005
1264A2
  0
LINE
  5
1264A3
  8
OBJECT
 10
12202.99999999998
 20
-486.0000000000008
 30
0.0
 11
12166.99999999998
 21
-486.0000000000008
 31
0.0
1001
ACDBBLOCKREPETAG
1070
     1
1071
       91
1005
1264A3
  0
LINE
  5
1264A4
  8
OBJECT
 10
12166.99999999998
 20
-486.0000000000008
 30
0.0
 11
12166.99999999998
 21
-604.0000000000008
 31
0.0
1001
ACDBBLOCKREPETAG
1070
     1
1071
       92
1005
1264A4
  0
LINE
  5
1264A5
  8
OBJECT
 10
12162.99999999998
 20
-490.5000000000008
 30
0.0
 11
12162.99999999998
 21
-599.5000000000008
 31
0.0
1001
ACDBBLOCKREPETAG
1070
     1
1071
       93
1005
1264A5
  0
LINE
  5
1264A6
  8
OBJECT
 10
12162.99999999998
 20
-490.5000000000008
 30
0.0
 11
12149.99999999998
 21
-490.5000000000008
 31
0.0
1001
ACDBBLOCKREPETAG
1070
     1
1071
       94
1005
1264A6
  0
LINE
  5
1264A7
  8
OBJECT
 10
12166.99999999998
 20
-604.0000000000008
 30
0.0
 11
12202.99999999998
 21
-604.0000000000008
 31
0.0
1001
ACDBBLOCKREPETAG
1070
     1
1071
       95
1005
1264A7
  0
LINE
  5
1264A8
  8
OBJECT
 10
12166.99999999998
 20
-486.0000000000008
 30
0.0
 11
12162.99999999998
 21
-490.5000000000008
 31
0.0
1001
ACDBBLOCKREPETAG
1070
     1
1071
       96
1005
1264A8
  0
LINE
  5
1264A9
  8
OBJECT
 10
12149.99999999998
 20
-490.5000000000008
 30
0.0
 11
12149.99999999998
 21
-575.74491827928784
 31
0.0
1001
ACDBBLOCKREPETAG
1070
     1
1071
       97
1005
1264A9
  0
ARC
  5
1264AA
  8
OBJECT
 10
12152.799999999979
 20
-585.00000000000068
 30
0.0
 40
85.0
 50
91.887731891831123
 51
143.1301023540934
1001
ACDBBLOCKREPETAG
1070
     1
1071
       98
1005
1264AA
  0
LINE
  5
1264AB
  8
HIDDEN
 10
12157.99999999998
 20
-500.5000000000008
 30
0.0
 11
12157.99999999998
 21
-589.5000000000008
 31
0.0
1001
ACDBBLOCKREPETAG
1070
     1
1071
      100
1005
1264AB
  0
LINE
  5
1264AC
  8
OBJECT
 10
12085.99999999998
 20
-651.07945073181781
 30
0.0
 11
12156.631319921031
 21
-599.5000000000008
 31
0.0
1001
ACDBBLOCKREPETAG
1070
     1
1071
      101
1005
1264AC
  0
LINE
  5
1264AD
  8
OBJECT
 10
12079.99999999998
 20
-534.0
 30
0.0
 11
12084.799999999979
 21
-534.0
 31
0.0
1001
ACDBBLOCKREPETAG
1070
     1
1071
      102
1005
1264AD
  0
LINE
  5
1264AE
  8
OBJECT
 10
12085.99999999998
 20
-553.35026377573001
 30
0.0
 11
12084.799999999979
 21
-534.0
 31
0.0
1001
ACDBBLOCKREPETAG
1070
     1
1071
      103
1005
1264AE
  0
LINE
  5
1264AF
  8
OBJECT
 10
12162.99999999998
 20
-599.5000000000008
 30
0.0
 11
12156.631319921031
 21
-599.5000000000008
 31
0.0
1001
ACDBBLOCKREPETAG
1070
     1
1071
      104
1005
1264AF
  0
LINE
  5
1264B0
  8
OBJECT
 10
12166.99999999998
 20
-604.0000000000008
 30
0.0
 11
12162.99999999998
 21
-599.5000000000008
 31
0.0
1001
ACDBBLOCKREPETAG
1070
     1
1071
      105
1005
1264B0
  0
LINE
  5
1264B1
  8
OBJECT
 10
12202.99999999998
 20
-137.99999999999909
 30
0.0
 11
12209.99999999998
 21
-137.99999999999909
 31
0.0
1001
ACDBBLOCKREPETAG
1070
     1
1071
       85
1005
1264B1
  0
LINE
  5
1264B2
  8
OBJECT
 10
12209.99999999998
 20
-137.99999999999909
 30
0.0
 11
12209.99999999998
 21
-261.99999999999909
 31
0.0
1001
ACDBBLOCKREPETAG
1070
     1
1071
       86
1005
1264B2
  0
LINE
  5
1264B3
  8
OBJECT
 10
12209.99999999998
 20
-261.99999999999909
 30
0.0
 11
12202.99999999998
 21
-261.99999999999909
 31
0.0
1001
ACDBBLOCKREPETAG
1070
     1
1071
       87
1005
1264B3
  0
LINE
  5
1264B4
  8
OBJECT
 10
12202.99999999998
 20
-261.99999999999909
 30
0.0
 11
12202.99999999998
 21
-137.99999999999909
 31
0.0
1001
ACDBBLOCKREPETAG
1070
     1
1071
       88
1005
1264B4
  0
LINE
  5
1264B5
  8
CENTER
 10
12224.99999999998
 20
-199.99999999999909
 30
0.0
 11
12080.0
 21
-199.99999999999909
 31
0.0
1001
ACDBBLOCKREPETAG
1070
     1
1071
       89
1005
1264B5
  0
LINE
  5
1264B6
  8
OBJECT
 10
12149.999974964179
 20
-245.0000000000027
 30
0.0
 11
12086.0
 21
-244.99999999999909
 31
0.0
1001
ACDBBLOCKREPETAG
1070
     1
1071
       90
1005
1264B6
  0
LINE
  5
1264B7
  8
OBJECT
 10
12149.999974964179
 20
-154.99999999999909
 30
0.0
 11
12086.0
 21
-154.99999999999909
 31
0.0
1001
ACDBBLOCKREPETAG
1070
     1
1071
       91
1005
1264B7
  0
LINE
  5
1264B8
  8
OBJECT
 10
12202.99999999998
 20
-140.99999999999909
 30
0.0
 11
12166.99999999998
 21
-140.99999999999909
 31
0.0
1001
ACDBBLOCKREPETAG
1070
     1
1071
       92
1005
1264B8
  0
LINE
  5
1264B9
  8
OBJECT
 10
12166.99999999998
 20
-140.99999999999909
 30
0.0
 11
12166.99999999998
 21
-258.99999999999909
 31
0.0
1001
ACDBBLOCKREPETAG
1070
     1
1071
       93
1005
1264B9
  0
LINE
  5
1264BA
  8
OBJECT
 10
12166.99999999998
 20
-258.99999999999909
 30
0.0
 11
12202.99999999998
 21
-258.99999999999909
 31
0.0
1001
ACDBBLOCKREPETAG
1070
     1
1071
       94
1005
1264BA
  0
LINE
  5
1264BB
  8
OBJECT
 10
12162.99999999998
 20
-145.49999999999909
 30
0.0
 11
12149.99999999998
 21
-145.49999999999909
 31
0.0
1001
ACDBBLOCKREPETAG
1070
     1
1071
       95
1005
1264BB
  0
LINE
  5
1264BC
  8
OBJECT
 10
12149.99999999998
 20
-254.49999999999909
 30
0.0
 11
12162.99999999998
 21
-254.49999999999909
 31
0.0
1001
ACDBBLOCKREPETAG
1070
     1
1071
       96
1005
1264BC
  0
LINE
  5
1264BD
  8
OBJECT
 10
12162.99999999998
 20
-254.49999999999909
 30
0.0
 11
12162.99999999998
 21
-145.49999999999909
 31
0.0
1001
ACDBBLOCKREPETAG
1070
     1
1071
       97
1005
1264BD
  0
LINE
  5
1264BE
  8
OBJECT
 10
12166.99999999998
 20
-140.99999999999909
 30
0.0
 11
12162.99999999998
 21
-145.49999999999909
 31
0.0
1001
ACDBBLOCKREPETAG
1070
     1
1071
       98
1005
1264BE
  0
LINE
  5
1264BF
  8
OBJECT
 10
12166.99999999998
 20
-258.99999999999909
 30
0.0
 11
12162.99999999998
 21
-254.49999999999909
 31
0.0
1001
ACDBBLOCKREPETAG
1070
     1
1071
       99
1005
1264BF
  0
LINE
  5
1264C0
  8
OBJECT
 10
12083.0
 20
-137.99999999999909
 30
0.0
 11
12080.0
 21
-137.99999999999909
 31
0.0
1001
ACDBBLOCKREPETAG
1070
     1
1071
      100
1005
1264C0
  0
ARC
  5
1264C1
  8
OBJECT
 10
12083.0
 20
-140.99999999999909
 30
0.0
 40
3.0
 50
0.0
 51
90.0
1001
ACDBBLOCKREPETAG
1070
     1
1071
      101
1005
1264C1
  0
LINE
  5
1264C2
  8
OBJECT
 10
12080.0
 20
-261.99999999999909
 30
0.0
 11
12083.0
 21
-261.99999999999909
 31
0.0
1001
ACDBBLOCKREPETAG
1070
     1
1071
      102
1005
1264C2
  0
ARC
  5
1264C3
  8
OBJECT
 10
12083.0
 20
-258.99999999999909
 30
0.0
 40
3.0
 50
270.0
 51
0.0
1001
ACDBBLOCKREPETAG
1070
     1
1071
      103
1005
1264C3
  0
LINE
  5
1264C4
  8
OBJECT
 10
12086.0
 20
-258.99999999999909
 30
0.0
 11
12086.0
 21
-210.3227903203578
 31
0.0
1001
ACDBBLOCKREPETAG
1070
     1
1071
      104
1005
1264C4
  0
LINE
  5
1264C5
  8
OBJECT
 10
12086.0
 20
-189.6772096796403
 30
0.0
 11
12086.0
 21
-140.99999999999909
 31
0.0
1001
ACDBBLOCKREPETAG
1070
     1
1071
      105
1005
1264C5
  0
LINE
  5
1264C6
  8
HIDDEN
 10
12157.99999999998
 20
-155.49999999999909
 30
0.0
 11
12157.99999999998
 21
-244.49999999999909
 31
0.0
1001
ACDBBLOCKREPETAG
1070
     1
1071
      106
1005
1264C6
  0
LINE
  5
1264C7
  8
OBJECT
 10
12149.999974964179
 20
-254.4999509238105
 30
0.0
 11
12149.999974964179
 21
-145.4999509238105
 31
0.0
1001
ACDBBLOCKREPETAG
1070
     1
1071
      108
1005
1264C7
  0
ARC
  5
1264C8
  8
OBJECT
 10
12129.800000000019
 20
-199.99999999999909
 30
0.0
 40
45.000000000000547
 50
90.0
 51
270.0
1001
ACDBBLOCKREPETAG
1070
     1
1071
      109
1005
1264C8
  0
LINE
  5
1264C9
  8
OBJECT
 10
9918.0
 20
-470.99999999999932
 30
0.0
 11
9918.0
 21
-449.99999999999932
 31
0.0
1001
ACDBBLOCKREPETAG
1070
     1
1071
        0
1005
1264C9
  0
LINE
  5
1264CA
  8
OBJECT
 10
9918.0
 20
-449.99999999999932
 30
0.0
 11
10082.0
 21
-449.99999999999932
 31
0.0
1001
ACDBBLOCKREPETAG
1070
     1
1071
        1
1005
1264CA
  0
LINE
  5
1264CB
  8
HIDDEN
 10
9943.0
 20
-519.99999999999955
 30
0.0
 11
10057.0
 21
-519.99999999999955
 31
0.0
1001
ACDBBLOCKREPETAG
1070
     1
1071
        2
1005
1264CB
  0
LINE
  5
1264CC
  8
OBJECT
 10
10082.0
 20
-470.99999999999932
 30
0.0
 11
9918.0
 21
-470.99999999999932
 31
0.0
1001
ACDBBLOCKREPETAG
1070
     1
1071
        3
1005
1264CC
  0
LINE
  5
1264CD
  8
CENTER
 10
10000.0
 20
-434.99999999999949
 30
0.0
 11
10000.0
 21
-799.99999999999955
 31
0.0
1001
ACDBBLOCKREPETAG
1070
     1
1071
        4
1005
1264CD
  0
LINE
  5
1264CE
  8
OBJECT
 10
9925.0
 20
-533.99999999999955
 30
0.0
 11
9925.0
 21
-787.99999999999955
 31
0.0
1001
ACDBBLOCKREPETAG
1070
     1
1071
        5
1005
1264CE
  0
LINE
  5
1264CF
  8
OBJECT
 10
9928.0
 20
-470.99999999999932
 30
0.0
 11
9928.0
 21
-533.99999999999955
 31
0.0
1001
ACDBBLOCKREPETAG
1070
     1
1071
        6
1005
1264CF
  0
LINE
  5
1264D0
  8
OBJECT
 10
10072.0
 20
-533.99999999999955
 30
0.0
 11
10072.0
 21
-470.99999999999932
 31
0.0
1001
ACDBBLOCKREPETAG
1070
     1
1071
        7
1005
1264D0
  0
LINE
  5
1264D1
  8
OBJECT
 10
9920.0
 20
-787.99999999999955
 30
0.0
 11
10080.0
 21
-787.99999999999955
 31
0.0
1001
ACDBBLOCKREPETAG
1070
     1
1071
        8
1005
1264D1
  0
LINE
  5
1264D2
  8
OBJECT
 10
10080.0
 20
-533.99999999999955
 30
0.0
 11
9925.0
 21
-533.99999999999955
 31
0.0
1001
ACDBBLOCKREPETAG
1070
     1
1071
        9
1005
1264D2
  0
LINE
  5
1264D3
  8
OBJECT
 10
9920.0
 20
-787.99999999999955
 30
0.0
 11
9920.0
 21
-799.99999999999955
 31
0.0
1001
ACDBBLOCKREPETAG
1070
     1
1071
       10
1005
1264D3
  0
LINE
  5
1264D4
  8
OBJECT
 10
9920.0
 20
-799.99999999999955
 30
0.0
 11
10080.0
 21
-799.99999999999955
 31
0.0
1001
ACDBBLOCKREPETAG
1070
     1
1071
       11
1005
1264D4
  0
LINE
  5
1264D5
  8
OBJECT
 10
10080.0
 20
-799.99999999999955
 30
0.0
 11
10080.0
 21
-787.99999999999955
 31
0.0
1001
ACDBBLOCKREPETAG
1070
     1
1071
       12
1005
1264D5
  0
LINE
  5
1264D6
  8
OBJECT
 10
10074.99999999986
 20
-657.99999999985039
 30
0.0
 11
10075.0
 21
-787.99999999999955
 31
0.0
1001
ACDBBLOCKREPETAG
1070
     1
1071
       14
1005
1264D6
  0
LINE
  5
1264D7
  8
OBJECT
 10
10074.99999080298
 20
-657.99998602702135
 30
0.0
 11
10080.0
 21
-657.99998602702135
 31
0.0
1001
ACDBBLOCKREPETAG
1070
     1
1071
       15
1005
1264D7
  0
LINE
  5
1264D8
  8
OBJECT
 10
9920.7940817120234
 20
-449.99999999999932
 30
0.0
 11
9920.7940817120234
 21
-470.99999999999932
 31
0.0
1001
ACDBBLOCKREPETAG
1070
     1
1071
       16
1005
1264D8
  0
LINE
  5
1264D9
  8
OBJECT
 10
9928.7378959999969
 20
-449.99999999999932
 30
0.0
 11
9928.7378959999969
 21
-470.99999999999932
 31
0.0
1001
ACDBBLOCKREPETAG
1070
     1
1071
       17
1005
1264D9
  0
LINE
  5
1264DA
  8
OBJECT
 10
9970.8330260000002
 20
-449.99999999999932
 30
0.0
 11
9970.8330260000002
 21
-470.99999999999932
 31
0.0
1001
ACDBBLOCKREPETAG
1070
     1
1071
       18
1005
1264DA
  0
LINE
  5
1264DB
  8
OBJECT
 10
9978.7768389218036
 20
-449.99999999999932
 30
0.0
 11
9978.7768389218036
 21
-470.99999999999932
 31
0.0
1001
ACDBBLOCKREPETAG
1070
     1
1071
       19
1005
1264DB
  0
LINE
  5
1264DC
  8
OBJECT
 10
10082.0
 20
-470.99999999999932
 30
0.0
 11
10082.0
 21
-449.99999999999932
 31
0.0
1001
ACDBBLOCKREPETAG
1070
     1
1071
       20
1005
1264DC
  0
LINE
  5
1264DD
  8
OBJECT
 10
10079.205918287969
 20
-449.99999999999932
 30
0.0
 11
10079.205918287969
 21
-470.99999999999932
 31
0.0
1001
ACDBBLOCKREPETAG
1070
     1
1071
       21
1005
1264DD
  0
LINE
  5
1264DE
  8
OBJECT
 10
10071.262103999999
 20
-449.99999999999932
 30
0.0
 11
10071.262103999999
 21
-470.99999999999932
 31
0.0
1001
ACDBBLOCKREPETAG
1070
     1
1071
       22
1005
1264DE
  0
LINE
  5
1264DF
  8
OBJECT
 10
10029.166974
 20
-449.99999999999932
 30
0.0
 11
10029.166974
 21
-470.99999999999932
 31
0.0
1001
ACDBBLOCKREPETAG
1070
     1
1071
       23
1005
1264DF
  0
LINE
  5
1264E0
  8
OBJECT
 10
10021.2231610782
 20
-449.99999999999932
 30
0.0
 11
10021.2231610782
 21
-470.99999999999932
 31
0.0
1001
ACDBBLOCKREPETAG
1070
     1
1071
       24
1005
1264E0
  0
ARC
  5
1264E1
  8
OBJECT
 10
10200.687274671671
 20
-649.40809941010718
 30
0.0
 40
170.6350503965856
 50
137.44134459184301
 51
149.91949581337221
1001
ACDBBLOCKREPETAG
1070
     1
1071
       25
1005
1264E1
  0
ARC
  5
1264E2
  8
OBJECT
 10
10118.845598704051
 20
-605.88272669536445
 30
0.0
 40
78.072222021763665
 50
147.4551531038293
 51
164.66365997718549
1001
ACDBBLOCKREPETAG
1070
     1
1071
       26
1005
1264E2
  0
ARC
  5
1264E3
  8
OBJECT
 10
10085.755434960871
 20
-595.99999999999955
 30
0.0
 40
43.55353926885617
 50
165.688452300753
 51
194.3115476992468
1001
ACDBBLOCKREPETAG
1070
     1
1071
       27
1005
1264E3
  0
ARC
  5
1264E4
  8
OBJECT
 10
10200.687274671671
 20
-542.59190058989179
 30
0.0
 40
170.6350503965856
 50
210.08050418662771
 51
222.55865540815699
1001
ACDBBLOCKREPETAG
1070
     1
1071
       28
1005
1264E4
  0
ARC
  5
1264E5
  8
OBJECT
 10
10118.845598704051
 20
-586.11727330463452
 30
0.0
 40
78.072222021763665
 50
195.33634002281451
 51
212.5448468961705
1001
ACDBBLOCKREPETAG
1070
     1
1071
       29
1005
1264E5
  0
POINT
  5
1264E6
  8
DOTS
 10
10000.0
 20
-654.99999999999966
 30
0.0
1001
ACDBBLOCKREPETAG
1070
     1
1071
      204
1005
1264E6
  0
LINE
  5
1264E7
  8
SLIM
 10
9927.3018300565236
 20
-155.95484036957669
 30
0.0
 11
9955.9548403695771
 21
-127.30183005652241
 31
0.0
1001
GRADIENTCOLOR1ACI
1070
     5
1001
GRADIENTCOLOR2ACI
1070
     2
1001
ACAD
1010
0.0
1020
0.0
1030
0.0
1001
ACDBBLOCKREPETAG
1070
     1
1071
      416
1005
1264E7
  0
LINE
  5
1264E8
  8
SLIM
 10
9919.4861520708382
 20
-172.7507744763318
 30
0.0
 11
9938.2903089572719
 21
-153.9466175898965
 31
0.0
1001
GRADIENTCOLOR1ACI
1070
     5
1001
GRADIENTCOLOR2ACI
1070
     2
1001
ACAD
1010
0.0
1020
0.0
1030
0.0
1001
ACDBBLOCKREPETAG
1070
     1
1071
      417
1005
1264E8
  0
LINE
  5
1264E9
  8
SLIM
 10
9953.9466175898997
 20
-138.29030895727169
 30
0.0
 11
9972.7507744763316
 21
-119.4861520708365
 31
0.0
1001
GRADIENTCOLOR1ACI
1070
     5
1001
GRADIENTCOLOR2ACI
1070
     2
1001
ACAD
1010
0.0
1020
0.0
1030
0.0
1001
ACDBBLOCKREPETAG
1070
     1
1071
      418
1005
1264E9
  0
LINE
  5
1264EA
  8
SLIM
 10
9916.3596679933817
 20
-184.85751467486031
 30
0.0
 11
9920.2360914370074
 21
-180.9810912312297
 31
0.0
1001
GRADIENTCOLOR1ACI
1070
     5
1001
GRADIENTCOLOR2ACI
1070
     2
1001
ACAD
1010
0.0
1020
0.0
1030
0.0
1001
ACDBBLOCKREPETAG
1070
     1
1071
      419
1005
1264EA
  0
LINE
  5
1264EB
  8
SLIM
 10
9980.9810912312314
 20
-120.2360914370078
 30
0.0
 11
9984.8575146748644
 21
-116.359667993377
 31
0.0
1001
GRADIENTCOLOR1ACI
1070
     5
1001
GRADIENTCOLOR2ACI
1070
     2
1001
ACAD
1010
0.0
1020
0.0
1030
0.0
1001
ACDBBLOCKREPETAG
1070
     1
1071
      420
1005
1264EB
  0
LINE
  5
1264EC
  8
SLIM
 10
9915.1440575890538
 20
-195.0533812002549
 30
0.0
 11
9918.4125503387295
 21
-191.78488845057959
 31
0.0
1001
GRADIENTCOLOR1ACI
1070
     5
1001
GRADIENTCOLOR2ACI
1070
     2
1001
ACAD
1010
0.0
1020
0.0
1030
0.0
1001
ACDBBLOCKREPETAG
1070
     1
1071
      421
1005
1264EC
  0
LINE
  5
1264ED
  8
SLIM
 10
9991.7848884505802
 20
-118.4125503387271
 30
0.0
 11
9995.0533812002577
 21
-115.1440575890517
 31
0.0
1001
GRADIENTCOLOR1ACI
1070
     5
1001
GRADIENTCOLOR2ACI
1070
     2
1001
ACAD
1010
0.0
1020
0.0
1030
0.0
1001
ACDBBLOCKREPETAG
1070
     1
1071
      422
1005
1264ED
  0
LINE
  5
1264EE
  8
SLIM
 10
9915.0979635574713
 20
-204.07973135290339
 30
0.0
 11
9918.0083381990517
 21
-201.1693567113285
 31
0.0
1001
GRADIENTCOLOR1ACI
1070
     5
1001
GRADIENTCOLOR2ACI
1070
     2
1001
ACAD
1010
0.0
1020
0.0
1030
0.0
1001
ACDBBLOCKREPETAG
1070
     1
1071
      423
1005
1264EE
  0
LINE
  5
1264EF
  8
SLIM
 10
10001.169356711331
 20
-118.0083381990472
 30
0.0
 11
10004.0797313529
 21
-115.0979635574724
 31
0.0
1001
GRADIENTCOLOR1ACI
1070
     5
1001
GRADIENTCOLOR2ACI
1070
     2
1001
ACAD
1010
0.0
1020
0.0
1030
0.0
1001
ACDBBLOCKREPETAG
1070
     1
1071
      424
1005
1264EF
  0
LINE
  5
1264F0
  8
SLIM
 10
9915.8899726208747
 20
-212.2679784105739
 30
0.0
 11
9918.5632639426876
 21
-209.59468708876071
 31
0.0
1001
GRADIENTCOLOR1ACI
1070
     5
1001
GRADIENTCOLOR2ACI
1070
     2
1001
ACAD
1010
0.0
1020
0.0
1030
0.0
1001
ACDBBLOCKREPETAG
1070
     1
1071
      425
1005
1264F0
  0
LINE
  5
1264F1
  8
SLIM
 10
10009.59468708876
 20
-118.5632639426843
 30
0.0
 11
10012.26797841056
 21
-115.88997262087101
 31
0.0
1001
GRADIENTCOLOR1ACI
1070
     5
1001
GRADIENTCOLOR2ACI
1070
     2
1001
ACAD
1010
0.0
1020
0.0
1030
0.0
1001
ACDBBLOCKREPETAG
1070
     1
1071
      426
1005
1264F1
  0
LINE
  5
1264F2
  8
SLIM
 10
9917.3382656951544
 20
-219.7999414573614
 30
0.0
 11
9919.8443793594906
 21
-217.29382779302409
 31
0.0
1001
GRADIENTCOLOR1ACI
1070
     5
1001
GRADIENTCOLOR2ACI
1070
     2
1001
ACAD
1010
0.0
1020
0.0
1030
0.0
1001
ACDBBLOCKREPETAG
1070
     1
1071
      427
1005
1264F2
  0
LINE
  5
1264F3
  8
SLIM
 10
10017.293827793021
 20
-119.84437935949001
 30
0.0
 11
10019.799941457361
 21
-117.3382656951527
 31
0.0
1001
GRADIENTCOLOR1ACI
1070
     5
1001
GRADIENTCOLOR2ACI
1070
     2
1001
ACAD
1010
0.0
1020
0.0
1030
0.0
1001
ACDBBLOCKREPETAG
1070
     1
1071
      428
1005
1264F3
  0
LINE
  5
1264F4
  8
SLIM
 10
9919.3312594063045
 20
-226.78720386727881
 30
0.0
 11
9922.8446926367924
 21
-223.27377063679211
 31
0.0
1001
GRADIENTCOLOR1ACI
1070
     5
1001
GRADIENTCOLOR2ACI
1070
     2
1001
ACAD
1010
0.0
1020
0.0
1030
0.0
1001
ACDBBLOCKREPETAG
1070
     1
1071
      429
1005
1264F4
  0
LINE
  5
1264F5
  8
SLIM
 10
10023.27377163679
 20
-122.8446916367926
 30
0.0
 11
10026.787203867279
 21
-119.3312594063045
 31
0.0
1001
GRADIENTCOLOR1ACI
1070
     5
1001
GRADIENTCOLOR2ACI
1070
     2
1001
ACAD
1010
0.0
1020
0.0
1030
0.0
1001
ACDBBLOCKREPETAG
1070
     1
1071
      430
1005
1264F5
  0
LINE
  5
1264F6
  8
SLIM
 10
9921.7957163186184
 20
-233.30300307603281
 30
0.0
 11
9927.3348206973278
 21
-227.76389869732679
 31
0.0
1001
GRADIENTCOLOR1ACI
1070
     5
1001
GRADIENTCOLOR2ACI
1070
     2
1001
ACAD
1010
0.0
1020
0.0
1030
0.0
1001
ACDBBLOCKREPETAG
1070
     1
1071
      431
1005
1264F6
  0
LINE
  5
1264F7
  8
SLIM
 10
10027.76389969732
 20
-127.33481969732929
 30
0.0
 11
10033.303003076029
 21
-121.7957163186195
 31
0.0
1001
GRADIENTCOLOR1ACI
1070
     5
1001
GRADIENTCOLOR2ACI
1070
     2
1001
ACAD
1010
0.0
1020
0.0
1030
0.0
1001
ACDBBLOCKREPETAG
1070
     1
1071
      432
1005
1264F7
  0
LINE
  5
1264F8
  8
SLIM
 10
9924.6816635313444
 20
-239.39731198437761
 30
0.0
 11
9930.6398768643921
 21
-233.4390986513296
 31
0.0
1001
GRADIENTCOLOR1ACI
1070
     5
1001
GRADIENTCOLOR2ACI
1070
     2
1001
ACAD
1010
0.0
1020
0.0
1030
0.0
1001
ACDBBLOCKREPETAG
1070
     1
1071
      433
1005
1264F8
  0
LINE
  5
1264F9
  8
SLIM
 10
10033.43909865133
 20
-130.63987686439191
 30
0.0
 11
10039.39731198437
 21
-124.681663531344
 31
0.0
1001
GRADIENTCOLOR1ACI
1070
     5
1001
GRADIENTCOLOR2ACI
1070
     2
1001
ACAD
1010
0.0
1020
0.0
1030
0.0
1001
ACDBBLOCKREPETAG
1070
     1
1071
      434
1005
1264F9
  0
LINE
  5
1264FA
  8
SLIM
 10
9927.9544611024248
 20
-245.10477053436679
 30
0.0
 11
9933.7750070149923
 21
-239.28422462179759
 31
0.0
1001
GRADIENTCOLOR1ACI
1070
     5
1001
GRADIENTCOLOR2ACI
1070
     2
1001
ACAD
1010
0.0
1020
0.0
1030
0.0
1001
ACDBBLOCKREPETAG
1070
     1
1071
      435
1005
1264FA
  0
LINE
  5
1264FB
  8
SLIM
 10
10039.284224621801
 20
-133.77500701499301
 30
0.0
 11
10045.104770534361
 21
-127.95446110242381
 31
0.0
1001
GRADIENTCOLOR1ACI
1070
     5
1001
GRADIENTCOLOR2ACI
1070
     2
1001
ACAD
1010
0.0
1020
0.0
1030
0.0
1001
ACDBBLOCKREPETAG
1070
     1
1071
      436
1005
1264FB
  0
LINE
  5
1264FC
  8
SLIM
 10
9931.5903319686659
 20
-250.44915578919529
 30
0.0
 11
9937.3182075880577
 21
-244.72128016980349
 31
0.0
1001
GRADIENTCOLOR1ACI
1070
     5
1001
GRADIENTCOLOR2ACI
1070
     2
1001
ACAD
1010
0.0
1020
0.0
1030
0.0
1001
ACDBBLOCKREPETAG
1070
     1
1071
      437
1005
1264FC
  0
LINE
  5
1264FD
  8
SLIM
 10
10044.721280169801
 20
-137.31820758805651
 30
0.0
 11
10050.449155789191
 21
-131.59033196866449
 31
0.0
1001
GRADIENTCOLOR1ACI
1070
     5
1001
GRADIENTCOLOR2ACI
1070
     2
1001
ACAD
1010
0.0
1020
0.0
1030
0.0
1001
ACDBBLOCKREPETAG
1070
     1
1071
      438
1005
1264FD
  0
LINE
  5
1264FE
  8
SLIM
 10
9935.5737496925303
 20
-255.44599418640331
 30
0.0
 11
9941.2481105415936
 21
-249.77163333734029
 31
0.0
1001
GRADIENTCOLOR1ACI
1070
     5
1001
GRADIENTCOLOR2ACI
1070
     2
1001
ACAD
1010
0.0
1020
0.0
1030
0.0
1001
ACDBBLOCKREPETAG
1070
     1
1071
      439
1005
1264FE
  0
LINE
  5
1264FF
  8
SLIM
 10
10053.019743878929
 20
-137.99999999999901
 30
0.0
 11
10055.445994186401
 21
-135.57374969252561
 31
0.0
1001
GRADIENTCOLOR1ACI
1070
     5
1001
GRADIENTCOLOR2ACI
1070
     2
1001
ACAD
1010
0.0
1020
0.0
1030
0.0
1001
ACDBBLOCKREPETAG
1070
     1
1071
      440
1005
1264FF
  0
LINE
  5
126500
  8
SLIM
 10
9939.8959235991442
 20
-260.10407640085549
 30
0.0
 11
9945.5527778486357
 21
-254.44722215136329
 31
0.0
1001
GRADIENTCOLOR1ACI
1070
     5
1001
GRADIENTCOLOR2ACI
1070
     2
1001
ACAD
1010
0.0
1020
0.0
1030
0.0
1001
ACDBBLOCKREPETAG
1070
     1
1071
      441
1005
126500
  0
LINE
  5
126501
  8
SLIM
 10
9944.5540058135957
 20
-264.4262503074724
 30
0.0
 11
9950.2283666626608
 21
-258.75188945840949
 31
0.0
1001
GRADIENTCOLOR1ACI
1070
     5
1001
GRADIENTCOLOR2ACI
1070
     2
1001
ACAD
1010
0.0
1020
0.0
1030
0.0
1001
ACDBBLOCKREPETAG
1070
     1
1071
      442
1005
126501
  0
LINE
  5
126502
  8
SLIM
 10
9949.5508442108039
 20
-268.40966803133369
 30
0.0
 11
9955.2787198301976
 21
-262.68179241194167
 31
0.0
1001
GRADIENTCOLOR1ACI
1070
     5
1001
GRADIENTCOLOR2ACI
1070
     2
1001
ACAD
1010
0.0
1020
0.0
1030
0.0
1001
ACDBBLOCKREPETAG
1070
     1
1071
      443
1005
126502
  0
LINE
  5
126503
  8
SLIM
 10
9954.8952294656319
 20
-272.04553889757432
 30
0.0
 11
9960.7157753781994
 21
-266.22499298500497
 31
0.0
1001
GRADIENTCOLOR1ACI
1070
     5
1001
GRADIENTCOLOR2ACI
1070
     2
1001
ACAD
1010
0.0
1020
0.0
1030
0.0
1001
ACDBBLOCKREPETAG
1070
     1
1071
      444
1005
126503
  0
LINE
  5
126504
  8
SLIM
 10
9960.6026880156223
 20
-275.31833646865419
 30
0.0
 11
9966.5609013486755
 21
-269.36012313560622
 31
0.0
1001
GRADIENTCOLOR1ACI
1070
     5
1001
GRADIENTCOLOR2ACI
1070
     2
1001
ACAD
1010
0.0
1020
0.0
1030
0.0
1001
ACDBBLOCKREPETAG
1070
     1
1071
      445
1005
126504
  0
LINE
  5
126505
  8
SLIM
 10
9966.6969969239635
 20
-278.20428368137863
 30
0.0
 11
9972.2361008026728
 21
-272.66517980267162
 31
0.0
1001
GRADIENTCOLOR1ACI
1070
     5
1001
GRADIENTCOLOR2ACI
1070
     2
1001
ACAD
1010
0.0
1020
0.0
1030
0.0
1001
ACDBBLOCKREPETAG
1070
     1
1071
      446
1005
126505
  0
LINE
  5
126506
  8
SLIM
 10
9973.2127961327205
 20
-280.66874059369371
 30
0.0
 11
9976.7262288632082
 21
-277.15530786320562
 31
0.0
1001
GRADIENTCOLOR1ACI
1070
     5
1001
GRADIENTCOLOR2ACI
1070
     2
1001
ACAD
1010
0.0
1020
0.0
1030
0.0
1001
ACDBBLOCKREPETAG
1070
     1
1071
      447
1005
126506
  0
LINE
  5
126507
  8
SLIM
 10
9980.2000585426413
 20
-282.66173430484548
 30
0.0
 11
9982.7061722069757
 21
-280.15562064050812
 31
0.0
1001
GRADIENTCOLOR1ACI
1070
     5
1001
GRADIENTCOLOR2ACI
1070
     2
1001
ACAD
1010
0.0
1020
0.0
1030
0.0
1001
ACDBBLOCKREPETAG
1070
     1
1071
      448
1005
126507
  0
LINE
  5
126508
  8
SLIM
 10
9987.7320215894215
 20
-284.11002737912702
 30
0.0
 11
9990.4053129112399
 21
-281.43673605731391
 31
0.0
1001
GRADIENTCOLOR1ACI
1070
     5
1001
GRADIENTCOLOR2ACI
1070
     2
1001
ACAD
1010
0.0
1020
0.0
1030
0.0
1001
ACDBBLOCKREPETAG
1070
     1
1071
      449
1005
126508
  0
LINE
  5
126509
  8
SLIM
 10
9995.9202686470962
 20
-284.90203644252568
 30
0.0
 11
9998.8306432886711
 21
-281.99166180095108
 31
0.0
1001
GRADIENTCOLOR1ACI
1070
     5
1001
GRADIENTCOLOR2ACI
1070
     2
1001
ACAD
1010
0.0
1020
0.0
1030
0.0
1001
ACDBBLOCKREPETAG
1070
     1
1071
      450
1005
126509
  0
LINE
  5
12650A
  8
SLIM
 10
10004.94661879974
 20
-284.8559424109464
 30
0.0
 11
10008.21511154942
 21
-281.58744966127108
 31
0.0
1001
GRADIENTCOLOR1ACI
1070
     5
1001
GRADIENTCOLOR2ACI
1070
     2
1001
ACAD
1010
0.0
1020
0.0
1030
0.0
1001
ACDBBLOCKREPETAG
1070
     1
1071
      451
1005
12650A
  0
LINE
  5
12650B
  8
SLIM
 10
10015.142485325139
 20
-283.64033200662112
 30
0.0
 11
10019.01890876877
 21
-279.76390856299031
 31
0.0
1001
GRADIENTCOLOR1ACI
1070
     5
1001
GRADIENTCOLOR2ACI
1070
     2
1001
ACAD
1010
0.0
1020
0.0
1030
0.0
1001
ACDBBLOCKREPETAG
1070
     1
1071
      452
1005
12650B
  0
LINE
  5
12650C
  8
SLIM
 10
10027.249225523659
 20
-280.51384792916173
 30
0.0
 11
10045.76307345283
 21
-261.99999999999909
 31
0.0
1001
GRADIENTCOLOR1ACI
1070
     5
1001
GRADIENTCOLOR2ACI
1070
     2
1001
ACAD
1010
0.0
1020
0.0
1030
0.0
1001
ACDBBLOCKREPETAG
1070
     1
1071
      453
1005
12650C
  0
LINE
  5
12650D
  8
SLIM
 10
10044.045159630419
 20
-272.6981699434757
 30
0.0
 11
10054.743329573899
 21
-261.99999999999909
 31
0.0
1001
GRADIENTCOLOR1ACI
1070
     5
1001
GRADIENTCOLOR2ACI
1070
     2
1001
ACAD
1010
0.0
1020
0.0
1030
0.0
1001
ACDBBLOCKREPETAG
1070
     1
1071
      454
1005
12650D
  0
ARC
  5
12650E
  8
OBJECT
 10
10000.0
 20
-199.99999999999909
 30
0.0
 40
77.0
 50
202.25886899982271
 51
247.7411309999043
1001
ACDBBLOCKREPETAG
1070
     1
1071
      212
1005
12650E
  0
ARC
  5
12650F
  8
OBJECT
 10
10000.0
 20
-199.99999999999909
 30
0.0
 40
77.0
 50
292.25886900009567
 51
337.74113100017729
1001
ACDBBLOCKREPETAG
1070
     1
1071
      215
1005
12650F
  0
ARC
  5
126510
  8
OBJECT
 10
10000.0
 20
-199.99999999999909
 30
0.0
 40
77.0
 50
112.2588690000957
 51
157.74113100017721
1001
ACDBBLOCKREPETAG
1070
     1
1071
      216
1005
126510
  0
ARC
  5
126511
  8
OBJECT
 10
10000.0
 20
-199.99999999999909
 30
0.0
 40
77.0
 50
22.25886899982272
 51
67.741130999904328
1001
ACDBBLOCKREPETAG
1070
     1
1071
      220
1005
126511
  0
CIRCLE
  5
126512
  8
OBJECT
 10
10000.0
 20
-199.99999999999909
 30
0.0
 40
70.0
1001
ACDBBLOCKREPETAG
1070
     1
1071
      221
1005
126512
  0
LINE
  5
126513
  8
OBJECT
 10
10029.166974999989
 20
-271.26210499999888
 30
0.0
 11
10021.223162444099
 21
-279.20591755589248
 31
0.0
1001
ACDBBLOCKREPETAG
1070
     1
1071
      222
1005
126513
  0
LINE
  5
126514
  8
OBJECT
 10
9970.8330260000002
 20
-271.26210499999888
 30
0.0
 11
9978.77683892192
 21
-279.20591792191681
 31
0.0
1001
ACDBBLOCKREPETAG
1070
     1
1071
      223
1005
126514
  0
ARC
  5
126515
  8
OBJECT
 10
10000.0
 20
-199.99999999999909
 30
0.0
 40
82.000000000000014
 50
255.00000044864029
 51
285.00000053969478
1001
ACDBBLOCKREPETAG
1070
     1
1071
      224
1005
126515
  0
LINE
  5
126516
  8
OBJECT
 10
9928.7378959999969
 20
-229.1669739999989
 30
0.0
 11
9920.7940817120543
 21
-221.2231597120545
 31
0.0
1001
ACDBBLOCKREPETAG
1070
     1
1071
      225
1005
126516
  0
ARC
  5
126517
  8
OBJECT
 10
10000.0
 20
-199.99999999999909
 30
0.0
 40
82.000000000000014
 50
165.0000004487506
 51
194.9999985630001
1001
ACDBBLOCKREPETAG
1070
     1
1071
      226
1005
126517
  0
LINE
  5
126518
  8
OBJECT
 10
9970.8330260000002
 20
-128.7378949999993
 30
0.0
 11
9978.77683892192
 21
-120.7940820780795
 31
0.0
1001
ACDBBLOCKREPETAG
1070
     1
1071
      227
1005
126518
  0
ARC
  5
126519
  8
OBJECT
 10
10000.0
 20
-199.99999999999909
 30
0.0
 40
82.000000000000014
 50
74.999999460305204
 51
104.99999955135971
1001
ACDBBLOCKREPETAG
1070
     1
1071
      228
1005
126519
  0
LINE
  5
12651A
  8
OBJECT
 10
10029.166974999989
 20
-128.7378949999993
 30
0.0
 11
10021.223162444099
 21
-120.79408244410391
 31
0.0
1001
ACDBBLOCKREPETAG
1070
     1
1071
      229
1005
12651A
  0
LINE
  5
12651B
  8
OBJECT
 10
9962.402059
 20
-161.93893300000039
 30
0.0
 11
10037.08411027142
 21
-174.5180316957439
 31
0.0
1001
ACDBBLOCKREPETAG
1070
     1
1071
      230
1005
12651B
  0
LINE
  5
12651C
  8
OBJECT
 10
10044.09365699999
 20
-169.70149399999991
 30
0.0
 11
10037.08411027142
 21
-174.5180316957439
 31
0.0
1001
ACDBBLOCKREPETAG
1070
     1
1071
      231
1005
12651C
  0
LINE
  5
12651D
  8
OBJECT
 10
9928.7378959999969
 20
-170.833024999999
 30
0.0
 11
9920.7940820780805
 21
-178.77683892191911
 31
0.0
1001
ACDBBLOCKREPETAG
1070
     1
1071
      232
1005
12651D
  0
CIRCLE
  5
12651E
  8
OBJECT
 10
10000.0
 20
-199.99999999999909
 30
0.0
 40
53.500000000000007
1001
ACDBBLOCKREPETAG
1070
     1
1071
      233
1005
12651E
  0
ARC
  5
12651F
  8
OBJECT
 10
10000.0
 20
-199.99999999999909
 30
0.0
 40
50.0
 50
131.7018096435265
 51
168.52376955955751
1001
ACDBBLOCKREPETAG
1070
     1
1071
      234
1005
12651F
  0
ARC
  5
126520
  8
OBJECT
 10
10000.0
 20
-199.99999999999909
 30
0.0
 40
50.0
 50
238.8199429999047
 51
34.494506250115712
1001
ACDBBLOCKREPETAG
1070
     1
1071
      235
1005
126520
  0
LINE
  5
126521
  8
OBJECT
 10
10071.262104999991
 20
-170.833024999999
 30
0.0
 11
10079.20591755589
 21
-178.77683755589439
 31
0.0
1001
ACDBBLOCKREPETAG
1070
     1
1071
      236
1005
126521
  0
ARC
  5
126522
  8
OBJECT
 10
10000.0
 20
-199.99999999999909
 30
0.0
 40
82.000000000000014
 50
345.0000004487506
 51
15.000000539345651
1001
ACDBBLOCKREPETAG
1070
     1
1071
      237
1005
126522
  0
LINE
  5
126523
  8
OBJECT
 10
10071.262104999991
 20
-229.1669739999989
 30
0.0
 11
10079.20591792192
 21
-221.2231610780791
 31
0.0
1001
ACDBBLOCKREPETAG
1070
     1
1071
      238
1005
126523
  0
LINE
  5
126524
  8
OBJECT
 10
10045.661800227321
 20
-137.99999999999909
 30
0.0
 11
10080.0
 21
-137.99999999999909
 31
0.0
1001
ACDBBLOCKREPETAG
1070
     1
1071
      239
1005
126524
  0
LINE
  5
126525
  8
OBJECT
 10
10045.661800227321
 20
-261.99999999999909
 30
0.0
 11
10080.0
 21
-261.99999999999909
 31
0.0
1001
ACDBBLOCKREPETAG
1070
     1
1071
      240
1005
126525
  0
LINE
  5
126526
  8
CENTER
 10
10080.0
 20
-199.99999999999909
 30
0.0
 11
9900.0018972160615
 21
-199.99999999999909
 31
0.0
1001
ACDBBLOCKREPETAG
1070
     1
1071
      249
1005
126526
  0
LINE
  5
126527
  8
CENTER
 10
10000.0
 20
-299.99999999999892
 30
0.0
 11
10000.0
 21
-99.999999999999091
 31
0.0
1001
ACDBBLOCKREPETAG
1070
     1
1071
      250
1005
126527
  0
ARC
  5
126528
  8
OBJECT
 10
10000.0
 20
-199.99999999999909
 30
0.0
 40
85.0
 50
46.837102859852038
 51
313.16289714014772
1001
ACDBBLOCKREPETAG
1070
     1
1071
      251
1005
126528
  0
LINE
  5
126529
  8
OBJECT
 10
9946.6921941437577
 20
-195.46638161316051
 30
0.0
 11
9970.4540343856352
 21
-193.79865146436981
 31
0.0
1001
ACDBBLOCKREPETAG
1070
     1
1071
      340
1005
126529
  0
LINE
  5
12652A
  8
OBJECT
 10
9947.3854347270626
 20
-190.305593971766
 30
0.0
 11
9966.9884352628997
 21
-188.92975272660161
 31
0.0
1001
ACDBBLOCKREPETAG
1070
     1
1071
      341
1005
12652A
  0
LINE
  5
12652B
  8
OBJECT
 10
9974.1135374752757
 20
-242.77722592637201
 30
0.0
 11
9982.1366988374084
 21
-234.1690987954708
 31
0.0
1001
ACDBBLOCKREPETAG
1070
     1
1071
      342
1005
12652B
  0
ARC
  5
12652C
  8
OBJECT
 10
9982.1160071245395
 20
-183.28188966318251
 30
0.0
 40
60.031113246032611
 50
254.07020130412749
 51
262.33936106086588
1001
ACDBBLOCKREPETAG
1070
     1
1071
      343
1005
12652C
  0
LINE
  5
12652D
  8
OBJECT
 10
9977.6125997325162
 20
-197.67495277149911
 30
0.0
 11
9982.1366988374084
 21
-234.1690987954708
 31
0.0
1001
ACDBBLOCKREPETAG
1070
     1
1071
      344
1005
12652D
  0
ARC
  5
12652E
  8
OBJECT
 10
9967.6885653456393
 20
-198.90521351131881
 30
0.0
 40
10.0
 50
7.0667782929989968
 51
94.014734370532395
1001
ACDBBLOCKREPETAG
1070
     1
1071
      345
1005
12652E
  0
ARC
  5
12652F
  8
OBJECT
 10
9970.9441253709756
 20
-200.78147401875589
 30
0.0
 40
7.0
 50
7.0667782929989968
 51
94.014733775014648
1001
ACDBBLOCKREPETAG
1070
     1
1071
      346
1005
12652F
  0
POINT
  5
126530
  8
DOTS
 10
10000.0
 20
-199.99999999999909
 30
0.0
 50
270.0
1001
ACDBBLOCKREPETAG
1070
     1
1071
      349
1005
126530
  0
LINE
  5
126531
  8
OBJECT
 10
10202.99999999998
 20
-483.0000000000008
 30
0.0
 11
10209.99999999998
 21
-483.0000000000008
 31
0.0
1001
ACDBBLOCKREPETAG
1070
     1
1071
       83
1005
126531
  0
LINE
  5
126532
  8
OBJECT
 10
10209.99999999998
 20
-483.0000000000008
 30
0.0
 11
10209.99999999998
 21
-607.0000000000008
 31
0.0
1001
ACDBBLOCKREPETAG
1070
     1
1071
       84
1005
126532
  0
LINE
  5
126533
  8
OBJECT
 10
10085.99999999998
 20
-553.3502637757274
 30
0.0
 11
10085.99999999998
 21
-655.00000000000068
 31
0.0
1001
ACDBBLOCKREPETAG
1070
     1
1071
       85
1005
126533
  0
LINE
  5
126534
  8
OBJECT
 10
10209.99999999998
 20
-607.0000000000008
 30
0.0
 11
10202.99999999998
 21
-607.0000000000008
 31
0.0
1001
ACDBBLOCKREPETAG
1070
     1
1071
       86
1005
126534
  0
LINE
  5
126535
  8
OBJECT
 10
10202.99999999998
 20
-607.0000000000008
 30
0.0
 11
10202.99999999998
 21
-483.0000000000008
 31
0.0
1001
ACDBBLOCKREPETAG
1070
     1
1071
       87
1005
126535
  0
LINE
  5
126536
  8
CENTER
 10
10134.99999999998
 20
-545.0000000000008
 30
0.0
 11
10224.99999999998
 21
-545.0000000000008
 31
0.0
1001
ACDBBLOCKREPETAG
1070
     1
1071
       88
1005
126536
  0
LINE
  5
126537
  8
OBJECT
 10
10079.99999999998
 20
-658.0
 30
0.0
 11
10082.99999999998
 21
-658.0000000000008
 31
0.0
1001
ACDBBLOCKREPETAG
1070
     1
1071
       89
1005
126537
  0
ARC
  5
126538
  8
OBJECT
 10
10082.99999999998
 20
-655.00000000000068
 30
0.0
 40
3.0
 50
270.0
 51
0.0
1001
ACDBBLOCKREPETAG
1070
     1
1071
       90
1005
126538
  0
LINE
  5
126539
  8
OBJECT
 10
10202.99999999998
 20
-486.0000000000008
 30
0.0
 11
10166.99999999998
 21
-486.0000000000008
 31
0.0
1001
ACDBBLOCKREPETAG
1070
     1
1071
       91
1005
126539
  0
LINE
  5
12653A
  8
OBJECT
 10
10166.99999999998
 20
-486.0000000000008
 30
0.0
 11
10166.99999999998
 21
-604.0000000000008
 31
0.0
1001
ACDBBLOCKREPETAG
1070
     1
1071
       92
1005
12653A
  0
LINE
  5
12653B
  8
OBJECT
 10
10162.99999999998
 20
-490.5000000000008
 30
0.0
 11
10162.99999999998
 21
-599.5000000000008
 31
0.0
1001
ACDBBLOCKREPETAG
1070
     1
1071
       93
1005
12653B
  0
LINE
  5
12653C
  8
OBJECT
 10
10162.99999999998
 20
-490.5000000000008
 30
0.0
 11
10149.99999999998
 21
-490.5000000000008
 31
0.0
1001
ACDBBLOCKREPETAG
1070
     1
1071
       94
1005
12653C
  0
LINE
  5
12653D
  8
OBJECT
 10
10166.99999999998
 20
-604.0000000000008
 30
0.0
 11
10202.99999999998
 21
-604.0000000000008
 31
0.0
1001
ACDBBLOCKREPETAG
1070
     1
1071
       95
1005
12653D
  0
LINE
  5
12653E
  8
OBJECT
 10
10166.99999999998
 20
-486.0000000000008
 30
0.0
 11
10162.99999999998
 21
-490.5000000000008
 31
0.0
1001
ACDBBLOCKREPETAG
1070
     1
1071
       96
1005
12653E
  0
LINE
  5
12653F
  8
OBJECT
 10
10149.99999999998
 20
-490.5000000000008
 30
0.0
 11
10149.99999999998
 21
-575.74491827928784
 31
0.0
1001
ACDBBLOCKREPETAG
1070
     1
1071
       97
1005
12653F
  0
ARC
  5
126540
  8
OBJECT
 10
10152.799999999979
 20
-585.00000000000068
 30
0.0
 40
85.0
 50
91.887731891831123
 51
143.1301023540934
1001
ACDBBLOCKREPETAG
1070
     1
1071
       98
1005
126540
  0
LINE
  5
126541
  8
HIDDEN
 10
10157.99999999998
 20
-500.5000000000008
 30
0.0
 11
10157.99999999998
 21
-589.5000000000008
 31
0.0
1001
ACDBBLOCKREPETAG
1070
     1
1071
      100
1005
126541
  0
LINE
  5
126542
  8
OBJECT
 10
10085.99999999998
 20
-651.07945073181781
 30
0.0
 11
10156.631319921031
 21
-599.5000000000008
 31
0.0
1001
ACDBBLOCKREPETAG
1070
     1
1071
      101
1005
126542
  0
LINE
  5
126543
  8
OBJECT
 10
10079.99999999998
 20
-534.0
 30
0.0
 11
10084.799999999979
 21
-534.0
 31
0.0
1001
ACDBBLOCKREPETAG
1070
     1
1071
      102
1005
126543
  0
LINE
  5
126544
  8
OBJECT
 10
10085.99999999998
 20
-553.35026377573001
 30
0.0
 11
10084.799999999979
 21
-534.0
 31
0.0
1001
ACDBBLOCKREPETAG
1070
     1
1071
      103
1005
126544
  0
LINE
  5
126545
  8
OBJECT
 10
10162.99999999998
 20
-599.5000000000008
 30
0.0
 11
10156.631319921031
 21
-599.5000000000008
 31
0.0
1001
ACDBBLOCKREPETAG
1070
     1
1071
      104
1005
126545
  0
LINE
  5
126546
  8
OBJECT
 10
10166.99999999998
 20
-604.0000000000008
 30
0.0
 11
10162.99999999998
 21
-599.5000000000008
 31
0.0
1001
ACDBBLOCKREPETAG
1070
     1
1071
      105
1005
126546
  0
LINE
  5
126547
  8
OBJECT
 10
10202.99999999998
 20
-137.99999999999909
 30
0.0
 11
10209.99999999998
 21
-137.99999999999909
 31
0.0
1001
ACDBBLOCKREPETAG
1070
     1
1071
       85
1005
126547
  0
LINE
  5
126548
  8
OBJECT
 10
10209.99999999998
 20
-137.99999999999909
 30
0.0
 11
10209.99999999998
 21
-261.99999999999909
 31
0.0
1001
ACDBBLOCKREPETAG
1070
     1
1071
       86
1005
126548
  0
LINE
  5
126549
  8
OBJECT
 10
10209.99999999998
 20
-261.99999999999909
 30
0.0
 11
10202.99999999998
 21
-261.99999999999909
 31
0.0
1001
ACDBBLOCKREPETAG
1070
     1
1071
       87
1005
126549
  0
LINE
  5
12654A
  8
OBJECT
 10
10202.99999999998
 20
-261.99999999999909
 30
0.0
 11
10202.99999999998
 21
-137.99999999999909
 31
0.0
1001
ACDBBLOCKREPETAG
1070
     1
1071
       88
1005
12654A
  0
LINE
  5
12654B
  8
CENTER
 10
10224.99999999998
 20
-199.99999999999909
 30
0.0
 11
10080.0
 21
-199.99999999999909
 31
0.0
1001
ACDBBLOCKREPETAG
1070
     1
1071
       89
1005
12654B
  0
LINE
  5
12654C
  8
OBJECT
 10
10149.99997496419
 20
-245.0000000000027
 30
0.0
 11
10086.0
 21
-244.99999999999909
 31
0.0
1001
ACDBBLOCKREPETAG
1070
     1
1071
       90
1005
12654C
  0
LINE
  5
12654D
  8
OBJECT
 10
10149.99997496419
 20
-154.99999999999909
 30
0.0
 11
10086.0
 21
-154.99999999999909
 31
0.0
1001
ACDBBLOCKREPETAG
1070
     1
1071
       91
1005
12654D
  0
LINE
  5
12654E
  8
OBJECT
 10
10202.99999999998
 20
-140.99999999999909
 30
0.0
 11
10166.99999999998
 21
-140.99999999999909
 31
0.0
1001
ACDBBLOCKREPETAG
1070
     1
1071
       92
1005
12654E
  0
LINE
  5
12654F
  8
OBJECT
 10
10166.99999999998
 20
-140.99999999999909
 30
0.0
 11
10166.99999999998
 21
-258.99999999999909
 31
0.0
1001
ACDBBLOCKREPETAG
1070
     1
1071
       93
1005
12654F
  0
LINE
  5
126550
  8
OBJECT
 10
10166.99999999998
 20
-258.99999999999909
 30
0.0
 11
10202.99999999998
 21
-258.99999999999909
 31
0.0
1001
ACDBBLOCKREPETAG
1070
     1
1071
       94
1005
126550
  0
LINE
  5
126551
  8
OBJECT
 10
10162.99999999998
 20
-145.49999999999909
 30
0.0
 11
10149.99999999998
 21
-145.49999999999909
 31
0.0
1001
ACDBBLOCKREPETAG
1070
     1
1071
       95
1005
126551
  0
LINE
  5
126552
  8
OBJECT
 10
10149.99999999998
 20
-254.49999999999909
 30
0.0
 11
10162.99999999998
 21
-254.49999999999909
 31
0.0
1001
ACDBBLOCKREPETAG
1070
     1
1071
       96
1005
126552
  0
LINE
  5
126553
  8
OBJECT
 10
10162.99999999998
 20
-254.49999999999909
 30
0.0
 11
10162.99999999998
 21
-145.49999999999909
 31
0.0
1001
ACDBBLOCKREPETAG
1070
     1
1071
       97
1005
126553
  0
LINE
  5
126554
  8
OBJECT
 10
10166.99999999998
 20
-140.99999999999909
 30
0.0
 11
10162.99999999998
 21
-145.49999999999909
 31
0.0
1001
ACDBBLOCKREPETAG
1070
     1
1071
       98
1005
126554
  0
LINE
  5
126555
  8
OBJECT
 10
10166.99999999998
 20
-258.99999999999909
 30
0.0
 11
10162.99999999998
 21
-254.49999999999909
 31
0.0
1001
ACDBBLOCKREPETAG
1070
     1
1071
       99
1005
126555
  0
LINE
  5
126556
  8
OBJECT
 10
10083.0
 20
-137.99999999999909
 30
0.0
 11
10080.0
 21
-137.99999999999909
 31
0.0
1001
ACDBBLOCKREPETAG
1070
     1
1071
      100
1005
126556
  0
ARC
  5
126557
  8
OBJECT
 10
10083.0
 20
-140.99999999999909
 30
0.0
 40
3.0
 50
0.0
 51
90.0
1001
ACDBBLOCKREPETAG
1070
     1
1071
      101
1005
126557
  0
LINE
  5
126558
  8
OBJECT
 10
10080.0
 20
-261.99999999999909
 30
0.0
 11
10083.0
 21
-261.99999999999909
 31
0.0
1001
ACDBBLOCKREPETAG
1070
     1
1071
      102
1005
126558
  0
ARC
  5
126559
  8
OBJECT
 10
10083.0
 20
-258.99999999999909
 30
0.0
 40
3.0
 50
270.0
 51
0.0
1001
ACDBBLOCKREPETAG
1070
     1
1071
      103
1005
126559
  0
LINE
  5
12655A
  8
OBJECT
 10
10086.0
 20
-258.99999999999909
 30
0.0
 11
10086.0
 21
-210.3227903203578
 31
0.0
1001
ACDBBLOCKREPETAG
1070
     1
1071
      104
1005
12655A
  0
LINE
  5
12655B
  8
OBJECT
 10
10086.0
 20
-189.6772096796403
 30
0.0
 11
10086.0
 21
-140.99999999999909
 31
0.0
1001
ACDBBLOCKREPETAG
1070
     1
1071
      105
1005
12655B
  0
LINE
  5
12655C
  8
HIDDEN
 10
10157.99999999998
 20
-155.49999999999909
 30
0.0
 11
10157.99999999998
 21
-244.49999999999909
 31
0.0
1001
ACDBBLOCKREPETAG
1070
     1
1071
      106
1005
12655C
  0
LINE
  5
12655D
  8
OBJECT
 10
10149.99997496419
 20
-254.4999509238105
 30
0.0
 11
10149.99997496419
 21
-145.4999509238105
 31
0.0
1001
ACDBBLOCKREPETAG
1070
     1
1071
      108
1005
12655D
  0
ARC
  5
12655E
  8
OBJECT
 10
10129.800000000019
 20
-199.99999999999909
 30
0.0
 40
45.000000000000547
 50
90.0
 51
270.0
1001
ACDBBLOCKREPETAG
1070
     1
1071
      109
1005
12655E
  0
LINE
  5
12655F
  8
OBJECT
 10
7918.0
 20
-470.99999999999932
 30
0.0
 11
7918.0
 21
-449.99999999999932
 31
0.0
1001
ACDBBLOCKREPETAG
1070
     1
1071
        0
1005
12655F
  0
LINE
  5
126560
  8
OBJECT
 10
7918.0
 20
-449.99999999999932
 30
0.0
 11
8082.0000000000036
 21
-449.99999999999932
 31
0.0
1001
ACDBBLOCKREPETAG
1070
     1
1071
        1
1005
126560
  0
LINE
  5
126561
  8
HIDDEN
 10
7943.0
 20
-519.99999999999955
 30
0.0
 11
8057.0
 21
-519.99999999999955
 31
0.0
1001
ACDBBLOCKREPETAG
1070
     1
1071
        2
1005
126561
  0
LINE
  5
126562
  8
OBJECT
 10
8082.0000000000036
 20
-470.99999999999932
 30
0.0
 11
7918.0
 21
-470.99999999999932
 31
0.0
1001
ACDBBLOCKREPETAG
1070
     1
1071
        3
1005
126562
  0
LINE
  5
126563
  8
CENTER
 10
8000.0
 20
-434.99999999999949
 30
0.0
 11
8000.0
 21
-799.99999999999955
 31
0.0
1001
ACDBBLOCKREPETAG
1070
     1
1071
        4
1005
126563
  0
LINE
  5
126564
  8
OBJECT
 10
7925.0
 20
-533.99999999999955
 30
0.0
 11
7925.0
 21
-787.99999999999955
 31
0.0
1001
ACDBBLOCKREPETAG
1070
     1
1071
        5
1005
126564
  0
LINE
  5
126565
  8
OBJECT
 10
7928.0
 20
-470.99999999999932
 30
0.0
 11
7928.0
 21
-533.99999999999955
 31
0.0
1001
ACDBBLOCKREPETAG
1070
     1
1071
        6
1005
126565
  0
LINE
  5
126566
  8
OBJECT
 10
8072.0
 20
-533.99999999999955
 30
0.0
 11
8072.0
 21
-470.99999999999932
 31
0.0
1001
ACDBBLOCKREPETAG
1070
     1
1071
        7
1005
126566
  0
LINE
  5
126567
  8
OBJECT
 10
7920.0
 20
-787.99999999999955
 30
0.0
 11
8080.0
 21
-787.99999999999955
 31
0.0
1001
ACDBBLOCKREPETAG
1070
     1
1071
        8
1005
126567
  0
LINE
  5
126568
  8
OBJECT
 10
8080.0
 20
-533.99999999999955
 30
0.0
 11
7925.0
 21
-533.99999999999955
 31
0.0
1001
ACDBBLOCKREPETAG
1070
     1
1071
        9
1005
126568
  0
LINE
  5
126569
  8
OBJECT
 10
7920.0
 20
-787.99999999999955
 30
0.0
 11
7920.0
 21
-799.99999999999955
 31
0.0
1001
ACDBBLOCKREPETAG
1070
     1
1071
       10
1005
126569
  0
LINE
  5
12656A
  8
OBJECT
 10
7920.0
 20
-799.99999999999955
 30
0.0
 11
8080.0
 21
-799.99999999999955
 31
0.0
1001
ACDBBLOCKREPETAG
1070
     1
1071
       11
1005
12656A
  0
LINE
  5
12656B
  8
OBJECT
 10
8080.0
 20
-799.99999999999955
 30
0.0
 11
8080.0
 21
-787.99999999999955
 31
0.0
1001
ACDBBLOCKREPETAG
1070
     1
1071
       12
1005
12656B
  0
LINE
  5
12656C
  8
OBJECT
 10
8074.9999999998618
 20
-657.99999999985039
 30
0.0
 11
8075.0
 21
-787.99999999999955
 31
0.0
1001
ACDBBLOCKREPETAG
1070
     1
1071
       14
1005
12656C
  0
LINE
  5
12656D
  8
OBJECT
 10
8074.9999908029858
 20
-657.99998602702135
 30
0.0
 11
8080.0
 21
-657.99998602702135
 31
0.0
1001
ACDBBLOCKREPETAG
1070
     1
1071
       15
1005
12656D
  0
LINE
  5
12656E
  8
OBJECT
 10
7920.7940817120261
 20
-449.99999999999932
 30
0.0
 11
7920.7940817120261
 21
-470.99999999999932
 31
0.0
1001
ACDBBLOCKREPETAG
1070
     1
1071
       16
1005
12656E
  0
LINE
  5
12656F
  8
OBJECT
 10
7928.7378959999978
 20
-449.99999999999932
 30
0.0
 11
7928.7378959999978
 21
-470.99999999999932
 31
0.0
1001
ACDBBLOCKREPETAG
1070
     1
1071
       17
1005
12656F
  0
LINE
  5
126570
  8
OBJECT
 10
7970.8330260000021
 20
-449.99999999999932
 30
0.0
 11
7970.8330260000021
 21
-470.99999999999932
 31
0.0
1001
ACDBBLOCKREPETAG
1070
     1
1071
       18
1005
126570
  0
LINE
  5
126571
  8
OBJECT
 10
7978.7768389218018
 20
-449.99999999999932
 30
0.0
 11
7978.7768389218018
 21
-470.99999999999932
 31
0.0
1001
ACDBBLOCKREPETAG
1070
     1
1071
       19
1005
126571
  0
LINE
  5
126572
  8
OBJECT
 10
8082.0
 20
-470.99999999999932
 30
0.0
 11
8082.0
 21
-449.99999999999932
 31
0.0
1001
ACDBBLOCKREPETAG
1070
     1
1071
       20
1005
126572
  0
LINE
  5
126573
  8
OBJECT
 10
8079.205918287973
 20
-449.99999999999932
 30
0.0
 11
8079.205918287973
 21
-470.99999999999932
 31
0.0
1001
ACDBBLOCKREPETAG
1070
     1
1071
       21
1005
126573
  0
LINE
  5
126574
  8
OBJECT
 10
8071.262104000004
 20
-449.99999999999932
 30
0.0
 11
8071.262104000004
 21
-470.99999999999932
 31
0.0
1001
ACDBBLOCKREPETAG
1070
     1
1071
       22
1005
126574
  0
LINE
  5
126575
  8
OBJECT
 10
8029.1669739999998
 20
-449.99999999999932
 30
0.0
 11
8029.1669739999998
 21
-470.99999999999932
 31
0.0
1001
ACDBBLOCKREPETAG
1070
     1
1071
       23
1005
126575
  0
LINE
  5
126576
  8
OBJECT
 10
8021.2231610782001
 20
-449.99999999999932
 30
0.0
 11
8021.2231610782001
 21
-470.99999999999932
 31
0.0
1001
ACDBBLOCKREPETAG
1070
     1
1071
       24
1005
126576
  0
ARC
  5
126577
  8
OBJECT
 10
8200.6872746716726
 20
-649.40809941010718
 30
0.0
 40
170.6350503965856
 50
137.44134459184301
 51
149.91949581337221
1001
ACDBBLOCKREPETAG
1070
     1
1071
       25
1005
126577
  0
ARC
  5
126578
  8
OBJECT
 10
8118.8455987040506
 20
-605.88272669536445
 30
0.0
 40
78.072222021763665
 50
147.4551531038293
 51
164.66365997719919
1001
ACDBBLOCKREPETAG
1070
     1
1071
       26
1005
126578
  0
ARC
  5
126579
  8
OBJECT
 10
8085.7554349608708
 20
-595.99999999999955
 30
0.0
 40
43.55353926885617
 50
165.688452300753
 51
194.3115476992468
1001
ACDBBLOCKREPETAG
1070
     1
1071
       27
1005
126579
  0
ARC
  5
12657A
  8
OBJECT
 10
8200.6872746716726
 20
-542.59190058989179
 30
0.0
 40
170.6350503965856
 50
210.08050418662771
 51
222.55865540815699
1001
ACDBBLOCKREPETAG
1070
     1
1071
       28
1005
12657A
  0
ARC
  5
12657B
  8
OBJECT
 10
8118.8455987040506
 20
-586.11727330463452
 30
0.0
 40
78.072222021763665
 50
195.3363400228005
 51
212.5448468961705
1001
ACDBBLOCKREPETAG
1070
     1
1071
       29
1005
12657B
  0
POINT
  5
12657C
  8
DOTS
 10
8000.0
 20
-654.99999999999966
 30
0.0
1001
ACDBBLOCKREPETAG
1070
     1
1071
      204
1005
12657C
  0
LINE
  5
12657D
  8
SLIM
 10
7927.3018300565236
 20
-155.95484036957669
 30
0.0
 11
7955.9548403695781
 21
-127.30183005652241
 31
0.0
1001
GRADIENTCOLOR1ACI
1070
     5
1001
GRADIENTCOLOR2ACI
1070
     2
1001
ACAD
1010
0.0
1020
0.0
1030
0.0
1001
ACDBBLOCKREPETAG
1070
     1
1071
      416
1005
12657D
  0
LINE
  5
12657E
  8
SLIM
 10
7919.4861520708373
 20
-172.7507744763318
 30
0.0
 11
7938.2903089572737
 21
-153.9466175898965
 31
0.0
1001
GRADIENTCOLOR1ACI
1070
     5
1001
GRADIENTCOLOR2ACI
1070
     2
1001
ACAD
1010
0.0
1020
0.0
1030
0.0
1001
ACDBBLOCKREPETAG
1070
     1
1071
      417
1005
12657E
  0
LINE
  5
12657F
  8
SLIM
 10
7953.9466175898979
 20
-138.29030895727169
 30
0.0
 11
7972.7507744763334
 21
-119.4861520708365
 31
0.0
1001
GRADIENTCOLOR1ACI
1070
     5
1001
GRADIENTCOLOR2ACI
1070
     2
1001
ACAD
1010
0.0
1020
0.0
1030
0.0
1001
ACDBBLOCKREPETAG
1070
     1
1071
      418
1005
12657F
  0
LINE
  5
126580
  8
SLIM
 10
7916.3596679933771
 20
-184.85751467486031
 30
0.0
 11
7920.2360914370101
 21
-180.9810912312297
 31
0.0
1001
GRADIENTCOLOR1ACI
1070
     5
1001
GRADIENTCOLOR2ACI
1070
     2
1001
ACAD
1010
0.0
1020
0.0
1030
0.0
1001
ACDBBLOCKREPETAG
1070
     1
1071
      419
1005
126580
  0
LINE
  5
126581
  8
SLIM
 10
7980.9810912312296
 20
-120.2360914370078
 30
0.0
 11
7984.8575146748608
 21
-116.359667993377
 31
0.0
1001
GRADIENTCOLOR1ACI
1070
     5
1001
GRADIENTCOLOR2ACI
1070
     2
1001
ACAD
1010
0.0
1020
0.0
1030
0.0
1001
ACDBBLOCKREPETAG
1070
     1
1071
      420
1005
126581
  0
LINE
  5
126582
  8
SLIM
 10
7915.1440575890529
 20
-195.0533812002549
 30
0.0
 11
7918.4125503387259
 21
-191.78488845057959
 31
0.0
1001
GRADIENTCOLOR1ACI
1070
     5
1001
GRADIENTCOLOR2ACI
1070
     2
1001
ACAD
1010
0.0
1020
0.0
1030
0.0
1001
ACDBBLOCKREPETAG
1070
     1
1071
      421
1005
126582
  0
LINE
  5
126583
  8
SLIM
 10
7991.7848884505765
 20
-118.4125503387271
 30
0.0
 11
7995.0533812002559
 21
-115.1440575890517
 31
0.0
1001
GRADIENTCOLOR1ACI
1070
     5
1001
GRADIENTCOLOR2ACI
1070
     2
1001
ACAD
1010
0.0
1020
0.0
1030
0.0
1001
ACDBBLOCKREPETAG
1070
     1
1071
      422
1005
126583
  0
LINE
  5
126584
  8
SLIM
 10
7915.097963557474
 20
-204.07973135290339
 30
0.0
 11
7918.008338199048
 21
-201.1693567113285
 31
0.0
1001
GRADIENTCOLOR1ACI
1070
     5
1001
GRADIENTCOLOR2ACI
1070
     2
1001
ACAD
1010
0.0
1020
0.0
1030
0.0
1001
ACDBBLOCKREPETAG
1070
     1
1071
      423
1005
126584
  0
LINE
  5
126585
  8
SLIM
 10
8001.1693567113307
 20
-118.0083381990472
 30
0.0
 11
8004.0797313529074
 21
-115.0979635574724
 31
0.0
1001
GRADIENTCOLOR1ACI
1070
     5
1001
GRADIENTCOLOR2ACI
1070
     2
1001
ACAD
1010
0.0
1020
0.0
1030
0.0
1001
ACDBBLOCKREPETAG
1070
     1
1071
      424
1005
126585
  0
LINE
  5
126586
  8
SLIM
 10
7915.889972620871
 20
-212.2679784105739
 30
0.0
 11
7918.5632639426858
 21
-209.59468708876071
 31
0.0
1001
GRADIENTCOLOR1ACI
1070
     5
1001
GRADIENTCOLOR2ACI
1070
     2
1001
ACAD
1010
0.0
1020
0.0
1030
0.0
1001
ACDBBLOCKREPETAG
1070
     1
1071
      425
1005
126586
  0
LINE
  5
126587
  8
SLIM
 10
8009.5946870887637
 20
-118.5632639426843
 30
0.0
 11
8012.2679784105749
 21
-115.88997262087101
 31
0.0
1001
GRADIENTCOLOR1ACI
1070
     5
1001
GRADIENTCOLOR2ACI
1070
     2
1001
ACAD
1010
0.0
1020
0.0
1030
0.0
1001
ACDBBLOCKREPETAG
1070
     1
1071
      426
1005
126587
  0
LINE
  5
126588
  8
SLIM
 10
7917.3382656951526
 20
-219.7999414573614
 30
0.0
 11
7919.8443793594897
 21
-217.29382779302409
 31
0.0
1001
GRADIENTCOLOR1ACI
1070
     5
1001
GRADIENTCOLOR2ACI
1070
     2
1001
ACAD
1010
0.0
1020
0.0
1030
0.0
1001
ACDBBLOCKREPETAG
1070
     1
1071
      427
1005
126588
  0
LINE
  5
126589
  8
SLIM
 10
8017.2938277930252
 20
-119.84437935949001
 30
0.0
 11
8019.7999414573624
 21
-117.3382656951527
 31
0.0
1001
GRADIENTCOLOR1ACI
1070
     5
1001
GRADIENTCOLOR2ACI
1070
     2
1001
ACAD
1010
0.0
1020
0.0
1030
0.0
1001
ACDBBLOCKREPETAG
1070
     1
1071
      428
1005
126589
  0
LINE
  5
12658A
  8
SLIM
 10
7919.3312594063054
 20
-226.78720386727881
 30
0.0
 11
7922.8446926367924
 21
-223.27377063679211
 31
0.0
1001
GRADIENTCOLOR1ACI
1070
     5
1001
GRADIENTCOLOR2ACI
1070
     2
1001
ACAD
1010
0.0
1020
0.0
1030
0.0
1001
ACDBBLOCKREPETAG
1070
     1
1071
      429
1005
12658A
  0
LINE
  5
12658B
  8
SLIM
 10
8023.2737716367947
 20
-122.8446916367926
 30
0.0
 11
8026.7872038672767
 21
-119.3312594063045
 31
0.0
1001
GRADIENTCOLOR1ACI
1070
     5
1001
GRADIENTCOLOR2ACI
1070
     2
1001
ACAD
1010
0.0
1020
0.0
1030
0.0
1001
ACDBBLOCKREPETAG
1070
     1
1071
      430
1005
12658B
  0
LINE
  5
12658C
  8
SLIM
 10
7921.7957163186193
 20
-233.30300307603281
 30
0.0
 11
7927.3348206973278
 21
-227.76389869732679
 31
0.0
1001
GRADIENTCOLOR1ACI
1070
     5
1001
GRADIENTCOLOR2ACI
1070
     2
1001
ACAD
1010
0.0
1020
0.0
1030
0.0
1001
ACDBBLOCKREPETAG
1070
     1
1071
      431
1005
12658C
  0
LINE
  5
12658D
  8
SLIM
 10
8027.7638996973228
 20
-127.33481969732929
 30
0.0
 11
8033.3030030760328
 21
-121.7957163186195
 31
0.0
1001
GRADIENTCOLOR1ACI
1070
     5
1001
GRADIENTCOLOR2ACI
1070
     2
1001
ACAD
1010
0.0
1020
0.0
1030
0.0
1001
ACDBBLOCKREPETAG
1070
     1
1071
      432
1005
12658D
  0
LINE
  5
12658E
  8
SLIM
 10
7924.6816635313462
 20
-239.39731198437761
 30
0.0
 11
7930.639876864393
 21
-233.4390986513296
 31
0.0
1001
GRADIENTCOLOR1ACI
1070
     5
1001
GRADIENTCOLOR2ACI
1070
     2
1001
ACAD
1010
0.0
1020
0.0
1030
0.0
1001
ACDBBLOCKREPETAG
1070
     1
1071
      433
1005
12658E
  0
LINE
  5
12658F
  8
SLIM
 10
8033.4390986513308
 20
-130.63987686439191
 30
0.0
 11
8039.3973119843777
 21
-124.681663531344
 31
0.0
1001
GRADIENTCOLOR1ACI
1070
     5
1001
GRADIENTCOLOR2ACI
1070
     2
1001
ACAD
1010
0.0
1020
0.0
1030
0.0
1001
ACDBBLOCKREPETAG
1070
     1
1071
      434
1005
12658F
  0
LINE
  5
126590
  8
SLIM
 10
7927.9544611024266
 20
-245.10477053436679
 30
0.0
 11
7933.7750070149932
 21
-239.28422462179759
 31
0.0
1001
GRADIENTCOLOR1ACI
1070
     5
1001
GRADIENTCOLOR2ACI
1070
     2
1001
ACAD
1010
0.0
1020
0.0
1030
0.0
1001
ACDBBLOCKREPETAG
1070
     1
1071
      435
1005
126590
  0
LINE
  5
126591
  8
SLIM
 10
8039.2842246217979
 20
-133.77500701499301
 30
0.0
 11
8045.1047705343717
 21
-127.95446110242381
 31
0.0
1001
GRADIENTCOLOR1ACI
1070
     5
1001
GRADIENTCOLOR2ACI
1070
     2
1001
ACAD
1010
0.0
1020
0.0
1030
0.0
1001
ACDBBLOCKREPETAG
1070
     1
1071
      436
1005
126591
  0
LINE
  5
126592
  8
SLIM
 10
7931.5903319686649
 20
-250.44915578919529
 30
0.0
 11
7937.3182075880577
 21
-244.72128016980349
 31
0.0
1001
GRADIENTCOLOR1ACI
1070
     5
1001
GRADIENTCOLOR2ACI
1070
     2
1001
ACAD
1010
0.0
1020
0.0
1030
0.0
1001
ACDBBLOCKREPETAG
1070
     1
1071
      437
1005
126592
  0
LINE
  5
126593
  8
SLIM
 10
8044.7212801698061
 20
-137.31820758805651
 30
0.0
 11
8050.449155789197
 21
-131.59033196866449
 31
0.0
1001
GRADIENTCOLOR1ACI
1070
     5
1001
GRADIENTCOLOR2ACI
1070
     2
1001
ACAD
1010
0.0
1020
0.0
1030
0.0
1001
ACDBBLOCKREPETAG
1070
     1
1071
      438
1005
126593
  0
LINE
  5
126594
  8
SLIM
 10
7935.573749692524
 20
-255.44599418640331
 30
0.0
 11
7941.24811054159
 21
-249.77163333734029
 31
0.0
1001
GRADIENTCOLOR1ACI
1070
     5
1001
GRADIENTCOLOR2ACI
1070
     2
1001
ACAD
1010
0.0
1020
0.0
1030
0.0
1001
ACDBBLOCKREPETAG
1070
     1
1071
      439
1005
126594
  0
LINE
  5
126595
  8
SLIM
 10
8053.0197438789319
 20
-137.99999999999901
 30
0.0
 11
8055.4459941864034
 21
-135.57374969252561
 31
0.0
1001
GRADIENTCOLOR1ACI
1070
     5
1001
GRADIENTCOLOR2ACI
1070
     2
1001
ACAD
1010
0.0
1020
0.0
1030
0.0
1001
ACDBBLOCKREPETAG
1070
     1
1071
      440
1005
126595
  0
LINE
  5
126596
  8
SLIM
 10
7939.8959235991442
 20
-260.10407640085549
 30
0.0
 11
7945.5527778486357
 21
-254.44722215136329
 31
0.0
1001
GRADIENTCOLOR1ACI
1070
     5
1001
GRADIENTCOLOR2ACI
1070
     2
1001
ACAD
1010
0.0
1020
0.0
1030
0.0
1001
ACDBBLOCKREPETAG
1070
     1
1071
      441
1005
126596
  0
LINE
  5
126597
  8
SLIM
 10
7944.5540058135948
 20
-264.4262503074724
 30
0.0
 11
7950.2283666626599
 21
-258.75188945840949
 31
0.0
1001
GRADIENTCOLOR1ACI
1070
     5
1001
GRADIENTCOLOR2ACI
1070
     2
1001
ACAD
1010
0.0
1020
0.0
1030
0.0
1001
ACDBBLOCKREPETAG
1070
     1
1071
      442
1005
126597
  0
LINE
  5
126598
  8
SLIM
 10
7949.5508442108039
 20
-268.40966803133369
 30
0.0
 11
7955.2787198301958
 21
-262.68179241194167
 31
0.0
1001
GRADIENTCOLOR1ACI
1070
     5
1001
GRADIENTCOLOR2ACI
1070
     2
1001
ACAD
1010
0.0
1020
0.0
1030
0.0
1001
ACDBBLOCKREPETAG
1070
     1
1071
      443
1005
126598
  0
LINE
  5
126599
  8
SLIM
 10
7954.895229465631
 20
-272.04553889757432
 30
0.0
 11
7960.7157753782021
 21
-266.22499298500497
 31
0.0
1001
GRADIENTCOLOR1ACI
1070
     5
1001
GRADIENTCOLOR2ACI
1070
     2
1001
ACAD
1010
0.0
1020
0.0
1030
0.0
1001
ACDBBLOCKREPETAG
1070
     1
1071
      444
1005
126599
  0
LINE
  5
12659A
  8
SLIM
 10
7960.6026880156223
 20
-275.31833646865419
 30
0.0
 11
7966.5609013486683
 21
-269.36012313560622
 31
0.0
1001
GRADIENTCOLOR1ACI
1070
     5
1001
GRADIENTCOLOR2ACI
1070
     2
1001
ACAD
1010
0.0
1020
0.0
1030
0.0
1001
ACDBBLOCKREPETAG
1070
     1
1071
      445
1005
12659A
  0
LINE
  5
12659B
  8
SLIM
 10
7966.6969969239663
 20
-278.20428368137863
 30
0.0
 11
7972.2361008026746
 21
-272.66517980267162
 31
0.0
1001
GRADIENTCOLOR1ACI
1070
     5
1001
GRADIENTCOLOR2ACI
1070
     2
1001
ACAD
1010
0.0
1020
0.0
1030
0.0
1001
ACDBBLOCKREPETAG
1070
     1
1071
      446
1005
12659B
  0
LINE
  5
12659C
  8
SLIM
 10
7973.2127961327187
 20
-280.66874059369371
 30
0.0
 11
7976.7262288632082
 21
-277.15530786320562
 31
0.0
1001
GRADIENTCOLOR1ACI
1070
     5
1001
GRADIENTCOLOR2ACI
1070
     2
1001
ACAD
1010
0.0
1020
0.0
1030
0.0
1001
ACDBBLOCKREPETAG
1070
     1
1071
      447
1005
12659C
  0
LINE
  5
12659D
  8
SLIM
 10
7980.2000585426395
 20
-282.66173430484548
 30
0.0
 11
7982.7061722069739
 21
-280.15562064050812
 31
0.0
1001
GRADIENTCOLOR1ACI
1070
     5
1001
GRADIENTCOLOR2ACI
1070
     2
1001
ACAD
1010
0.0
1020
0.0
1030
0.0
1001
ACDBBLOCKREPETAG
1070
     1
1071
      448
1005
12659D
  0
LINE
  5
12659E
  8
SLIM
 10
7987.732021589426
 20
-284.11002737912702
 30
0.0
 11
7990.4053129112399
 21
-281.43673605731391
 31
0.0
1001
GRADIENTCOLOR1ACI
1070
     5
1001
GRADIENTCOLOR2ACI
1070
     2
1001
ACAD
1010
0.0
1020
0.0
1030
0.0
1001
ACDBBLOCKREPETAG
1070
     1
1071
      449
1005
12659E
  0
LINE
  5
12659F
  8
SLIM
 10
7995.9202686470962
 20
-284.90203644252568
 30
0.0
 11
7998.8306432886693
 21
-281.99166180095108
 31
0.0
1001
GRADIENTCOLOR1ACI
1070
     5
1001
GRADIENTCOLOR2ACI
1070
     2
1001
ACAD
1010
0.0
1020
0.0
1030
0.0
1001
ACDBBLOCKREPETAG
1070
     1
1071
      450
1005
12659F
  0
LINE
  5
1265A0
  8
SLIM
 10
8004.9466187997441
 20
-284.8559424109464
 30
0.0
 11
8008.2151115494216
 21
-281.58744966127108
 31
0.0
1001
GRADIENTCOLOR1ACI
1070
     5
1001
GRADIENTCOLOR2ACI
1070
     2
1001
ACAD
1010
0.0
1020
0.0
1030
0.0
1001
ACDBBLOCKREPETAG
1070
     1
1071
      451
1005
1265A0
  0
LINE
  5
1265A1
  8
SLIM
 10
8015.1424853251401
 20
-283.64033200662112
 30
0.0
 11
8019.0189087687686
 21
-279.76390856299031
 31
0.0
1001
GRADIENTCOLOR1ACI
1070
     5
1001
GRADIENTCOLOR2ACI
1070
     2
1001
ACAD
1010
0.0
1020
0.0
1030
0.0
1001
ACDBBLOCKREPETAG
1070
     1
1071
      452
1005
1265A1
  0
LINE
  5
1265A2
  8
SLIM
 10
8027.2492255236657
 20
-280.51384792916173
 30
0.0
 11
8045.7630734528302
 21
-261.99999999999909
 31
0.0
1001
GRADIENTCOLOR1ACI
1070
     5
1001
GRADIENTCOLOR2ACI
1070
     2
1001
ACAD
1010
0.0
1020
0.0
1030
0.0
1001
ACDBBLOCKREPETAG
1070
     1
1071
      453
1005
1265A2
  0
LINE
  5
1265A3
  8
SLIM
 10
8044.045159630421
 20
-272.6981699434757
 30
0.0
 11
8054.7433295739002
 21
-261.99999999999909
 31
0.0
1001
GRADIENTCOLOR1ACI
1070
     5
1001
GRADIENTCOLOR2ACI
1070
     2
1001
ACAD
1010
0.0
1020
0.0
1030
0.0
1001
ACDBBLOCKREPETAG
1070
     1
1071
      454
1005
1265A3
  0
ARC
  5
1265A4
  8
OBJECT
 10
8000.0
 20
-199.99999999999909
 30
0.0
 40
77.0
 50
202.25886899982271
 51
247.7411309999043
1001
ACDBBLOCKREPETAG
1070
     1
1071
      212
1005
1265A4
  0
ARC
  5
1265A5
  8
OBJECT
 10
8000.0
 20
-199.99999999999909
 30
0.0
 40
77.0
 50
292.25886900009567
 51
337.74113100017729
1001
ACDBBLOCKREPETAG
1070
     1
1071
      215
1005
1265A5
  0
ARC
  5
1265A6
  8
OBJECT
 10
8000.0
 20
-199.99999999999909
 30
0.0
 40
77.0
 50
112.2588690000957
 51
157.74113100017721
1001
ACDBBLOCKREPETAG
1070
     1
1071
      216
1005
1265A6
  0
ARC
  5
1265A7
  8
OBJECT
 10
8000.0
 20
-199.99999999999909
 30
0.0
 40
77.0
 50
22.25886899982272
 51
67.741130999904328
1001
ACDBBLOCKREPETAG
1070
     1
1071
      220
1005
1265A7
  0
CIRCLE
  5
1265A8
  8
OBJECT
 10
8000.0
 20
-199.99999999999909
 30
0.0
 40
70.0
1001
ACDBBLOCKREPETAG
1070
     1
1071
      221
1005
1265A8
  0
LINE
  5
1265A9
  8
OBJECT
 10
8029.1669749999928
 20
-271.26210499999888
 30
0.0
 11
8021.2231624441047
 21
-279.20591755589248
 31
0.0
1001
ACDBBLOCKREPETAG
1070
     1
1071
      222
1005
1265A9
  0
LINE
  5
1265AA
  8
OBJECT
 10
7970.8330260000021
 20
-271.26210499999888
 30
0.0
 11
7978.77683892192
 21
-279.20591792191681
 31
0.0
1001
ACDBBLOCKREPETAG
1070
     1
1071
      223
1005
1265AA
  0
ARC
  5
1265AB
  8
OBJECT
 10
8000.0
 20
-199.99999999999909
 30
0.0
 40
82.000000000000014
 50
255.00000044864029
 51
285.00000053969478
1001
ACDBBLOCKREPETAG
1070
     1
1071
      224
1005
1265AB
  0
LINE
  5
1265AC
  8
OBJECT
 10
7928.7378959999978
 20
-229.1669739999989
 30
0.0
 11
7920.7940817120543
 21
-221.2231597120545
 31
0.0
1001
ACDBBLOCKREPETAG
1070
     1
1071
      225
1005
1265AC
  0
ARC
  5
1265AD
  8
OBJECT
 10
8000.0
 20
-199.99999999999909
 30
0.0
 40
82.000000000000014
 50
165.0000004487641
 51
194.99999856301361
1001
ACDBBLOCKREPETAG
1070
     1
1071
      226
1005
1265AD
  0
LINE
  5
1265AE
  8
OBJECT
 10
7970.8330260000021
 20
-128.7378949999993
 30
0.0
 11
7978.77683892192
 21
-120.7940820780795
 31
0.0
1001
ACDBBLOCKREPETAG
1070
     1
1071
      227
1005
1265AE
  0
ARC
  5
1265AF
  8
OBJECT
 10
8000.0
 20
-199.99999999999909
 30
0.0
 40
82.000000000000014
 50
74.999999460305204
 51
104.99999955135971
1001
ACDBBLOCKREPETAG
1070
     1
1071
      228
1005
1265AF
  0
LINE
  5
1265B0
  8
OBJECT
 10
8029.1669749999928
 20
-128.7378949999993
 30
0.0
 11
8021.2231624441047
 21
-120.79408244410391
 31
0.0
1001
ACDBBLOCKREPETAG
1070
     1
1071
      229
1005
1265B0
  0
LINE
  5
1265B1
  8
OBJECT
 10
7962.402059
 20
-161.93893300000039
 30
0.0
 11
8037.0841102714267
 21
-174.5180316957439
 31
0.0
1001
ACDBBLOCKREPETAG
1070
     1
1071
      230
1005
1265B1
  0
LINE
  5
1265B2
  8
OBJECT
 10
8044.0936569999967
 20
-169.70149399999991
 30
0.0
 11
8037.0841102714267
 21
-174.5180316957439
 31
0.0
1001
ACDBBLOCKREPETAG
1070
     1
1071
      231
1005
1265B2
  0
LINE
  5
1265B3
  8
OBJECT
 10
7928.7378959999978
 20
-170.833024999999
 30
0.0
 11
7920.7940820780777
 21
-178.77683892191911
 31
0.0
1001
ACDBBLOCKREPETAG
1070
     1
1071
      232
1005
1265B3
  0
CIRCLE
  5
1265B4
  8
OBJECT
 10
8000.0
 20
-199.99999999999909
 30
0.0
 40
53.500000000000007
1001
ACDBBLOCKREPETAG
1070
     1
1071
      233
1005
1265B4
  0
ARC
  5
1265B5
  8
OBJECT
 10
8000.0
 20
-199.99999999999909
 30
0.0
 40
50.0
 50
131.7018096435265
 51
168.52376955954711
1001
ACDBBLOCKREPETAG
1070
     1
1071
      234
1005
1265B5
  0
ARC
  5
1265B6
  8
OBJECT
 10
8000.0
 20
-199.99999999999909
 30
0.0
 40
50.0
 50
238.8199429999047
 51
34.494506250115712
1001
ACDBBLOCKREPETAG
1070
     1
1071
      235
1005
1265B6
  0
LINE
  5
1265B7
  8
OBJECT
 10
8071.2621049999934
 20
-170.833024999999
 30
0.0
 11
8079.2059175558898
 21
-178.77683755589439
 31
0.0
1001
ACDBBLOCKREPETAG
1070
     1
1071
      236
1005
1265B7
  0
ARC
  5
1265B8
  8
OBJECT
 10
8000.0
 20
-199.99999999999909
 30
0.0
 40
82.000000000000014
 50
345.00000044876413
 51
15.00000053935913
1001
ACDBBLOCKREPETAG
1070
     1
1071
      237
1005
1265B8
  0
LINE
  5
1265B9
  8
OBJECT
 10
8071.2621049999934
 20
-229.1669739999989
 30
0.0
 11
8079.2059179219232
 21
-221.2231610780791
 31
0.0
1001
ACDBBLOCKREPETAG
1070
     1
1071
      238
1005
1265B9
  0
LINE
  5
1265BA
  8
OBJECT
 10
8045.6618002273271
 20
-137.99999999999909
 30
0.0
 11
8080.0
 21
-137.99999999999909
 31
0.0
1001
ACDBBLOCKREPETAG
1070
     1
1071
      239
1005
1265BA
  0
LINE
  5
1265BB
  8
OBJECT
 10
8045.6618002273271
 20
-261.99999999999909
 30
0.0
 11
8080.0
 21
-261.99999999999909
 31
0.0
1001
ACDBBLOCKREPETAG
1070
     1
1071
      240
1005
1265BB
  0
LINE
  5
1265BC
  8
CENTER
 10
8080.0
 20
-199.99999999999909
 30
0.0
 11
7900.0018972160606
 21
-199.99999999999909
 31
0.0
1001
ACDBBLOCKREPETAG
1070
     1
1071
      249
1005
1265BC
  0
LINE
  5
1265BD
  8
CENTER
 10
8000.0
 20
-299.99999999999892
 30
0.0
 11
8000.0
 21
-99.999999999999091
 31
0.0
1001
ACDBBLOCKREPETAG
1070
     1
1071
      250
1005
1265BD
  0
ARC
  5
1265BE
  8
OBJECT
 10
8000.0
 20
-199.99999999999909
 30
0.0
 40
85.0
 50
46.837102859814031
 51
313.16289714018598
1001
ACDBBLOCKREPETAG
1070
     1
1071
      251
1005
1265BE
  0
LINE
  5
1265BF
  8
OBJECT
 10
7946.692194143754
 20
-195.46638161316051
 30
0.0
 11
7970.4540343856352
 21
-193.79865146436981
 31
0.0
1001
ACDBBLOCKREPETAG
1070
     1
1071
      340
1005
1265BF
  0
LINE
  5
1265C0
  8
OBJECT
 10
7947.3854347270599
 20
-190.305593971766
 30
0.0
 11
7966.9884352628978
 21
-188.92975272660161
 31
0.0
1001
ACDBBLOCKREPETAG
1070
     1
1071
      341
1005
1265C0
  0
LINE
  5
1265C1
  8
OBJECT
 10
7974.1135374752766
 20
-242.77722592637201
 30
0.0
 11
7982.1366988374048
 21
-234.1690987954708
 31
0.0
1001
ACDBBLOCKREPETAG
1070
     1
1071
      342
1005
1265C1
  0
ARC
  5
1265C2
  8
OBJECT
 10
7982.1160071245431
 20
-183.28188966318251
 30
0.0
 40
60.031113246032611
 50
254.07020130412749
 51
262.33936106086588
1001
ACDBBLOCKREPETAG
1070
     1
1071
      343
1005
1265C2
  0
LINE
  5
1265C3
  8
OBJECT
 10
7977.6125997325144
 20
-197.67495277149911
 30
0.0
 11
7982.1366988374048
 21
-234.1690987954708
 31
0.0
1001
ACDBBLOCKREPETAG
1070
     1
1071
      344
1005
1265C3
  0
ARC
  5
1265C4
  8
OBJECT
 10
7967.6885653456429
 20
-198.90521351131881
 30
0.0
 40
10.0
 50
7.0667782929925851
 51
94.014734370532395
1001
ACDBBLOCKREPETAG
1070
     1
1071
      345
1005
1265C4
  0
ARC
  5
1265C5
  8
OBJECT
 10
7970.9441253709738
 20
-200.78147401875589
 30
0.0
 40
7.0
 50
7.0667782929925851
 51
94.014733775014648
1001
ACDBBLOCKREPETAG
1070
     1
1071
      346
1005
1265C5
  0
POINT
  5
1265C6
  8
DOTS
 10
8000.0
 20
-199.99999999999909
 30
0.0
 50
270.0
1001
ACDBBLOCKREPETAG
1070
     1
1071
      349
1005
1265C6
  0
LINE
  5
1265C7
  8
OBJECT
 10
8202.9999999999854
 20
-483.0000000000008
 30
0.0
 11
8209.9999999999836
 21
-483.0000000000008
 31
0.0
1001
ACDBBLOCKREPETAG
1070
     1
1071
       83
1005
1265C7
  0
LINE
  5
1265C8
  8
OBJECT
 10
8209.9999999999836
 20
-483.0000000000008
 30
0.0
 11
8209.9999999999836
 21
-607.0000000000008
 31
0.0
1001
ACDBBLOCKREPETAG
1070
     1
1071
       84
1005
1265C8
  0
LINE
  5
1265C9
  8
OBJECT
 10
8085.9999999999873
 20
-553.3502637757274
 30
0.0
 11
8085.9999999999873
 21
-655.00000000000068
 31
0.0
1001
ACDBBLOCKREPETAG
1070
     1
1071
       85
1005
1265C9
  0
LINE
  5
1265CA
  8
OBJECT
 10
8209.9999999999836
 20
-607.0000000000008
 30
0.0
 11
8202.9999999999854
 21
-607.0000000000008
 31
0.0
1001
ACDBBLOCKREPETAG
1070
     1
1071
       86
1005
1265CA
  0
LINE
  5
1265CB
  8
OBJECT
 10
8202.9999999999854
 20
-607.0000000000008
 30
0.0
 11
8202.9999999999854
 21
-483.0000000000008
 31
0.0
1001
ACDBBLOCKREPETAG
1070
     1
1071
       87
1005
1265CB
  0
LINE
  5
1265CC
  8
CENTER
 10
8134.9999999999873
 20
-545.0000000000008
 30
0.0
 11
8224.9999999999873
 21
-545.0000000000008
 31
0.0
1001
ACDBBLOCKREPETAG
1070
     1
1071
       88
1005
1265CC
  0
LINE
  5
1265CD
  8
OBJECT
 10
8079.9999999999818
 20
-658.0
 30
0.0
 11
8082.9999999999873
 21
-658.0000000000008
 31
0.0
1001
ACDBBLOCKREPETAG
1070
     1
1071
       89
1005
1265CD
  0
ARC
  5
1265CE
  8
OBJECT
 10
8082.9999999999873
 20
-655.00000000000068
 30
0.0
 40
3.0
 50
270.0
 51
0.0
1001
ACDBBLOCKREPETAG
1070
     1
1071
       90
1005
1265CE
  0
LINE
  5
1265CF
  8
OBJECT
 10
8202.9999999999854
 20
-486.0000000000008
 30
0.0
 11
8166.9999999999854
 21
-486.0000000000008
 31
0.0
1001
ACDBBLOCKREPETAG
1070
     1
1071
       91
1005
1265CF
  0
LINE
  5
1265D0
  8
OBJECT
 10
8166.9999999999854
 20
-486.0000000000008
 30
0.0
 11
8166.9999999999854
 21
-604.0000000000008
 31
0.0
1001
ACDBBLOCKREPETAG
1070
     1
1071
       92
1005
1265D0
  0
LINE
  5
1265D1
  8
OBJECT
 10
8162.9999999999873
 20
-490.5000000000008
 30
0.0
 11
8162.9999999999873
 21
-599.5000000000008
 31
0.0
1001
ACDBBLOCKREPETAG
1070
     1
1071
       93
1005
1265D1
  0
LINE
  5
1265D2
  8
OBJECT
 10
8162.9999999999873
 20
-490.5000000000008
 30
0.0
 11
8149.9999999999873
 21
-490.5000000000008
 31
0.0
1001
ACDBBLOCKREPETAG
1070
     1
1071
       94
1005
1265D2
  0
LINE
  5
1265D3
  8
OBJECT
 10
8166.9999999999854
 20
-604.0000000000008
 30
0.0
 11
8202.9999999999854
 21
-604.0000000000008
 31
0.0
1001
ACDBBLOCKREPETAG
1070
     1
1071
       95
1005
1265D3
  0
LINE
  5
1265D4
  8
OBJECT
 10
8166.9999999999854
 20
-486.0000000000008
 30
0.0
 11
8162.9999999999873
 21
-490.5000000000008
 31
0.0
1001
ACDBBLOCKREPETAG
1070
     1
1071
       96
1005
1265D4
  0
LINE
  5
1265D5
  8
OBJECT
 10
8149.9999999999873
 20
-490.5000000000008
 30
0.0
 11
8149.9999999999873
 21
-575.74491827928784
 31
0.0
1001
ACDBBLOCKREPETAG
1070
     1
1071
       97
1005
1265D5
  0
ARC
  5
1265D6
  8
OBJECT
 10
8152.7999999999829
 20
-585.00000000000068
 30
0.0
 40
85.0
 50
91.887731891831123
 51
143.1301023540934
1001
ACDBBLOCKREPETAG
1070
     1
1071
       98
1005
1265D6
  0
LINE
  5
1265D7
  8
HIDDEN
 10
8157.9999999999873
 20
-500.5000000000008
 30
0.0
 11
8157.9999999999873
 21
-589.5000000000008
 31
0.0
1001
ACDBBLOCKREPETAG
1070
     1
1071
      100
1005
1265D7
  0
LINE
  5
1265D8
  8
OBJECT
 10
8085.9999999999873
 20
-651.07945073181781
 30
0.0
 11
8156.6313199210299
 21
-599.5000000000008
 31
0.0
1001
ACDBBLOCKREPETAG
1070
     1
1071
      101
1005
1265D8
  0
LINE
  5
1265D9
  8
OBJECT
 10
8079.9999999999818
 20
-534.0
 30
0.0
 11
8084.7999999999847
 21
-534.0
 31
0.0
1001
ACDBBLOCKREPETAG
1070
     1
1071
      102
1005
1265D9
  0
LINE
  5
1265DA
  8
OBJECT
 10
8085.9999999999873
 20
-553.35026377573001
 30
0.0
 11
8084.7999999999847
 21
-534.0
 31
0.0
1001
ACDBBLOCKREPETAG
1070
     1
1071
      103
1005
1265DA
  0
LINE
  5
1265DB
  8
OBJECT
 10
8162.9999999999873
 20
-599.5000000000008
 30
0.0
 11
8156.6313199210299
 21
-599.5000000000008
 31
0.0
1001
ACDBBLOCKREPETAG
1070
     1
1071
      104
1005
1265DB
  0
LINE
  5
1265DC
  8
OBJECT
 10
8166.9999999999854
 20
-604.0000000000008
 30
0.0
 11
8162.9999999999873
 21
-599.5000000000008
 31
0.0
1001
ACDBBLOCKREPETAG
1070
     1
1071
      105
1005
1265DC
  0
LINE
  5
1265DD
  8
OBJECT
 10
8202.9999999999854
 20
-137.99999999999909
 30
0.0
 11
8209.9999999999836
 21
-137.99999999999909
 31
0.0
1001
ACDBBLOCKREPETAG
1070
     1
1071
       85
1005
1265DD
  0
LINE
  5
1265DE
  8
OBJECT
 10
8209.9999999999836
 20
-137.99999999999909
 30
0.0
 11
8209.9999999999836
 21
-261.99999999999909
 31
0.0
1001
ACDBBLOCKREPETAG
1070
     1
1071
       86
1005
1265DE
  0
LINE
  5
1265DF
  8
OBJECT
 10
8209.9999999999836
 20
-261.99999999999909
 30
0.0
 11
8202.9999999999854
 21
-261.99999999999909
 31
0.0
1001
ACDBBLOCKREPETAG
1070
     1
1071
       87
1005
1265DF
  0
LINE
  5
1265E0
  8
OBJECT
 10
8202.9999999999854
 20
-261.99999999999909
 30
0.0
 11
8202.9999999999854
 21
-137.99999999999909
 31
0.0
1001
ACDBBLOCKREPETAG
1070
     1
1071
       88
1005
1265E0
  0
LINE
  5
1265E1
  8
CENTER
 10
8224.9999999999873
 20
-199.99999999999909
 30
0.0
 11
8080.0
 21
-199.99999999999909
 31
0.0
1001
ACDBBLOCKREPETAG
1070
     1
1071
       89
1005
1265E1
  0
LINE
  5
1265E2
  8
OBJECT
 10
8149.9999749641856
 20
-245.0000000000027
 30
0.0
 11
8086.0
 21
-244.99999999999909
 31
0.0
1001
ACDBBLOCKREPETAG
1070
     1
1071
       90
1005
1265E2
  0
LINE
  5
1265E3
  8
OBJECT
 10
8149.9999749641856
 20
-154.99999999999909
 30
0.0
 11
8086.0
 21
-154.99999999999909
 31
0.0
1001
ACDBBLOCKREPETAG
1070
     1
1071
       91
1005
1265E3
  0
LINE
  5
1265E4
  8
OBJECT
 10
8202.9999999999854
 20
-140.99999999999909
 30
0.0
 11
8166.9999999999854
 21
-140.99999999999909
 31
0.0
1001
ACDBBLOCKREPETAG
1070
     1
1071
       92
1005
1265E4
  0
LINE
  5
1265E5
  8
OBJECT
 10
8166.9999999999854
 20
-140.99999999999909
 30
0.0
 11
8166.9999999999854
 21
-258.99999999999909
 31
0.0
1001
ACDBBLOCKREPETAG
1070
     1
1071
       93
1005
1265E5
  0
LINE
  5
1265E6
  8
OBJECT
 10
8166.9999999999854
 20
-258.99999999999909
 30
0.0
 11
8202.9999999999854
 21
-258.99999999999909
 31
0.0
1001
ACDBBLOCKREPETAG
1070
     1
1071
       94
1005
1265E6
  0
LINE
  5
1265E7
  8
OBJECT
 10
8162.9999999999873
 20
-145.49999999999909
 30
0.0
 11
8149.9999999999873
 21
-145.49999999999909
 31
0.0
1001
ACDBBLOCKREPETAG
1070
     1
1071
       95
1005
1265E7
  0
LINE
  5
1265E8
  8
OBJECT
 10
8149.9999999999873
 20
-254.49999999999909
 30
0.0
 11
8162.9999999999873
 21
-254.49999999999909
 31
0.0
1001
ACDBBLOCKREPETAG
1070
     1
1071
       96
1005
1265E8
  0
LINE
  5
1265E9
  8
OBJECT
 10
8162.9999999999873
 20
-254.49999999999909
 30
0.0
 11
8162.9999999999873
 21
-145.49999999999909
 31
0.0
1001
ACDBBLOCKREPETAG
1070
     1
1071
       97
1005
1265E9
  0
LINE
  5
1265EA
  8
OBJECT
 10
8166.9999999999854
 20
-140.99999999999909
 30
0.0
 11
8162.9999999999873
 21
-145.49999999999909
 31
0.0
1001
ACDBBLOCKREPETAG
1070
     1
1071
       98
1005
1265EA
  0
LINE
  5
1265EB
  8
OBJECT
 10
8166.9999999999854
 20
-258.99999999999909
 30
0.0
 11
8162.9999999999873
 21
-254.49999999999909
 31
0.0
1001
ACDBBLOCKREPETAG
1070
     1
1071
       99
1005
1265EB
  0
LINE
  5
1265EC
  8
OBJECT
 10
8083.0
 20
-137.99999999999909
 30
0.0
 11
8080.0
 21
-137.99999999999909
 31
0.0
1001
ACDBBLOCKREPETAG
1070
     1
1071
      100
1005
1265EC
  0
ARC
  5
1265ED
  8
OBJECT
 10
8083.0
 20
-140.99999999999909
 30
0.0
 40
3.0
 50
0.0
 51
90.0
1001
ACDBBLOCKREPETAG
1070
     1
1071
      101
1005
1265ED
  0
LINE
  5
1265EE
  8
OBJECT
 10
8080.0
 20
-261.99999999999909
 30
0.0
 11
8083.0
 21
-261.99999999999909
 31
0.0
1001
ACDBBLOCKREPETAG
1070
     1
1071
      102
1005
1265EE
  0
ARC
  5
1265EF
  8
OBJECT
 10
8083.0
 20
-258.99999999999909
 30
0.0
 40
3.0
 50
270.0
 51
0.0
1001
ACDBBLOCKREPETAG
1070
     1
1071
      103
1005
1265EF
  0
LINE
  5
1265F0
  8
OBJECT
 10
8086.0
 20
-258.99999999999909
 30
0.0
 11
8086.0
 21
-210.3227903203578
 31
0.0
1001
ACDBBLOCKREPETAG
1070
     1
1071
      104
1005
1265F0
  0
LINE
  5
1265F1
  8
OBJECT
 10
8086.0
 20
-189.6772096796403
 30
0.0
 11
8086.0
 21
-140.99999999999909
 31
0.0
1001
ACDBBLOCKREPETAG
1070
     1
1071
      105
1005
1265F1
  0
LINE
  5
1265F2
  8
HIDDEN
 10
8157.9999999999873
 20
-155.49999999999909
 30
0.0
 11
8157.9999999999873
 21
-244.49999999999909
 31
0.0
1001
ACDBBLOCKREPETAG
1070
     1
1071
      106
1005
1265F2
  0
LINE
  5
1265F3
  8
OBJECT
 10
8149.9999749641856
 20
-254.4999509238105
 30
0.0
 11
8149.9999749641856
 21
-145.4999509238105
 31
0.0
1001
ACDBBLOCKREPETAG
1070
     1
1071
      108
1005
1265F3
  0
ARC
  5
1265F4
  8
OBJECT
 10
8129.800000000022
 20
-199.99999999999909
 30
0.0
 40
45.000000000000547
 50
90.0
 51
270.0
1001
ACDBBLOCKREPETAG
1070
     1
1071
      109
1005
1265F4
  0
LINE
  5
1265F5
  8
OBJECT
 10
5918.0
 20
-470.99999999999932
 30
0.0
 11
5918.0
 21
-449.99999999999932
 31
0.0
1001
ACDBBLOCKREPETAG
1070
     1
1071
        0
1005
1265F5
  0
LINE
  5
1265F6
  8
OBJECT
 10
5918.0
 20
-449.99999999999932
 30
0.0
 11
6082.0000000000036
 21
-449.99999999999932
 31
0.0
1001
ACDBBLOCKREPETAG
1070
     1
1071
        1
1005
1265F6
  0
LINE
  5
1265F7
  8
HIDDEN
 10
5943.0
 20
-519.99999999999955
 30
0.0
 11
6057.0
 21
-519.99999999999955
 31
0.0
1001
ACDBBLOCKREPETAG
1070
     1
1071
        2
1005
1265F7
  0
LINE
  5
1265F8
  8
OBJECT
 10
6082.0000000000036
 20
-470.99999999999932
 30
0.0
 11
5918.0
 21
-470.99999999999932
 31
0.0
1001
ACDBBLOCKREPETAG
1070
     1
1071
        3
1005
1265F8
  0
LINE
  5
1265F9
  8
CENTER
 10
6000.0
 20
-434.99999999999949
 30
0.0
 11
6000.0
 21
-799.99999999999955
 31
0.0
1001
ACDBBLOCKREPETAG
1070
     1
1071
        4
1005
1265F9
  0
LINE
  5
1265FA
  8
OBJECT
 10
5925.0
 20
-533.99999999999955
 30
0.0
 11
5925.0
 21
-787.99999999999955
 31
0.0
1001
ACDBBLOCKREPETAG
1070
     1
1071
        5
1005
1265FA
  0
LINE
  5
1265FB
  8
OBJECT
 10
5928.0
 20
-470.99999999999932
 30
0.0
 11
5928.0
 21
-533.99999999999955
 31
0.0
1001
ACDBBLOCKREPETAG
1070
     1
1071
        6
1005
1265FB
  0
LINE
  5
1265FC
  8
OBJECT
 10
6072.0
 20
-533.99999999999955
 30
0.0
 11
6072.0
 21
-470.99999999999932
 31
0.0
1001
ACDBBLOCKREPETAG
1070
     1
1071
        7
1005
1265FC
  0
LINE
  5
1265FD
  8
OBJECT
 10
5920.0
 20
-787.99999999999955
 30
0.0
 11
6080.0
 21
-787.99999999999955
 31
0.0
1001
ACDBBLOCKREPETAG
1070
     1
1071
        8
1005
1265FD
  0
LINE
  5
1265FE
  8
OBJECT
 10
6080.0
 20
-533.99999999999955
 30
0.0
 11
5925.0
 21
-533.99999999999955
 31
0.0
1001
ACDBBLOCKREPETAG
1070
     1
1071
        9
1005
1265FE
  0
LINE
  5
1265FF
  8
OBJECT
 10
5920.0
 20
-787.99999999999955
 30
0.0
 11
5920.0
 21
-799.99999999999955
 31
0.0
1001
ACDBBLOCKREPETAG
1070
     1
1071
       10
1005
1265FF
  0
LINE
  5
126600
  8
OBJECT
 10
5920.0
 20
-799.99999999999955
 30
0.0
 11
6080.0
 21
-799.99999999999955
 31
0.0
1001
ACDBBLOCKREPETAG
1070
     1
1071
       11
1005
126600
  0
LINE
  5
126601
  8
OBJECT
 10
6080.0
 20
-799.99999999999955
 30
0.0
 11
6080.0
 21
-787.99999999999955
 31
0.0
1001
ACDBBLOCKREPETAG
1070
     1
1071
       12
1005
126601
  0
LINE
  5
126602
  8
OBJECT
 10
6074.9999999998618
 20
-657.99999999985039
 30
0.0
 11
6075.0
 21
-787.99999999999955
 31
0.0
1001
ACDBBLOCKREPETAG
1070
     1
1071
       14
1005
126602
  0
LINE
  5
126603
  8
OBJECT
 10
6074.9999908029858
 20
-657.99998602702135
 30
0.0
 11
6080.0
 21
-657.99998602702135
 31
0.0
1001
ACDBBLOCKREPETAG
1070
     1
1071
       15
1005
126603
  0
LINE
  5
126604
  8
OBJECT
 10
5920.7940817120252
 20
-449.99999999999932
 30
0.0
 11
5920.7940817120252
 21
-470.99999999999932
 31
0.0
1001
ACDBBLOCKREPETAG
1070
     1
1071
       16
1005
126604
  0
LINE
  5
126605
  8
OBJECT
 10
5928.7378959999987
 20
-449.99999999999932
 30
0.0
 11
5928.7378959999987
 21
-470.99999999999932
 31
0.0
1001
ACDBBLOCKREPETAG
1070
     1
1071
       17
1005
126605
  0
LINE
  5
126606
  8
OBJECT
 10
5970.8330260000012
 20
-449.99999999999932
 30
0.0
 11
5970.8330260000012
 21
-470.99999999999932
 31
0.0
1001
ACDBBLOCKREPETAG
1070
     1
1071
       18
1005
126606
  0
LINE
  5
126607
  8
OBJECT
 10
5978.7768389218008
 20
-449.99999999999932
 30
0.0
 11
5978.7768389218008
 21
-470.99999999999932
 31
0.0
1001
ACDBBLOCKREPETAG
1070
     1
1071
       19
1005
126607
  0
LINE
  5
126608
  8
OBJECT
 10
6082.0
 20
-470.99999999999932
 30
0.0
 11
6082.0
 21
-449.99999999999932
 31
0.0
1001
ACDBBLOCKREPETAG
1070
     1
1071
       20
1005
126608
  0
LINE
  5
126609
  8
OBJECT
 10
6079.2059182879748
 20
-449.99999999999932
 30
0.0
 11
6079.2059182879748
 21
-470.99999999999932
 31
0.0
1001
ACDBBLOCKREPETAG
1070
     1
1071
       21
1005
126609
  0
LINE
  5
12660A
  8
OBJECT
 10
6071.2621040000022
 20
-449.99999999999932
 30
0.0
 11
6071.2621040000022
 21
-470.99999999999932
 31
0.0
1001
ACDBBLOCKREPETAG
1070
     1
1071
       22
1005
12660A
  0
LINE
  5
12660B
  8
OBJECT
 10
6029.1669739999979
 20
-449.99999999999932
 30
0.0
 11
6029.1669739999979
 21
-470.99999999999932
 31
0.0
1001
ACDBBLOCKREPETAG
1070
     1
1071
       23
1005
12660B
  0
LINE
  5
12660C
  8
OBJECT
 10
6021.2231610781992
 20
-449.99999999999932
 30
0.0
 11
6021.2231610781992
 21
-470.99999999999932
 31
0.0
1001
ACDBBLOCKREPETAG
1070
     1
1071
       24
1005
12660C
  0
ARC
  5
12660D
  8
OBJECT
 10
6200.6872746716735
 20
-649.40809941010718
 30
0.0
 40
170.6350503965856
 50
137.44134459184301
 51
149.91949581337221
1001
ACDBBLOCKREPETAG
1070
     1
1071
       25
1005
12660D
  0
ARC
  5
12660E
  8
OBJECT
 10
6118.8455987040506
 20
-605.88272669536445
 30
0.0
 40
78.072222021763665
 50
147.4551531038293
 51
164.66365997719919
1001
ACDBBLOCKREPETAG
1070
     1
1071
       26
1005
12660E
  0
ARC
  5
12660F
  8
OBJECT
 10
6085.7554349608727
 20
-595.99999999999955
 30
0.0
 40
43.55353926885617
 50
165.688452300753
 51
194.3115476992468
1001
ACDBBLOCKREPETAG
1070
     1
1071
       27
1005
12660F
  0
ARC
  5
126610
  8
OBJECT
 10
6200.6872746716735
 20
-542.59190058989179
 30
0.0
 40
170.6350503965856
 50
210.08050418662771
 51
222.55865540815699
1001
ACDBBLOCKREPETAG
1070
     1
1071
       28
1005
126610
  0
ARC
  5
126611
  8
OBJECT
 10
6118.8455987040506
 20
-586.11727330463452
 30
0.0
 40
78.072222021763665
 50
195.3363400228005
 51
212.5448468961705
1001
ACDBBLOCKREPETAG
1070
     1
1071
       29
1005
126611
  0
POINT
  5
126612
  8
DOTS
 10
6000.0
 20
-654.99999999999966
 30
0.0
1001
ACDBBLOCKREPETAG
1070
     1
1071
      204
1005
126612
  0
LINE
  5
126613
  8
OBJECT
 10
5946.692194143754
 20
-195.46638161316051
 30
0.0
 11
5970.4540343856352
 21
-193.79865146436981
 31
0.0
1001
ACDBBLOCKREPETAG
1070
     1
1071
      326
1005
126613
  0
LINE
  5
126614
  8
OBJECT
 10
5947.3854347270608
 20
-190.305593971766
 30
0.0
 11
5966.9884352629006
 21
-188.92975272660161
 31
0.0
1001
ACDBBLOCKREPETAG
1070
     1
1071
      327
1005
126614
  0
LINE
  5
126615
  8
OBJECT
 10
5974.1135374752794
 20
-242.77722592637201
 30
0.0
 11
5982.1366988374084
 21
-234.1690987954708
 31
0.0
1001
ACDBBLOCKREPETAG
1070
     1
1071
      328
1005
126615
  0
ARC
  5
126616
  8
OBJECT
 10
5982.1160071245376
 20
-183.28188966318251
 30
0.0
 40
60.031113246032611
 50
254.07020130412749
 51
262.33936106086588
1001
ACDBBLOCKREPETAG
1070
     1
1071
      329
1005
126616
  0
LINE
  5
126617
  8
OBJECT
 10
5977.6125997325144
 20
-197.67495277149911
 30
0.0
 11
5982.1366988374084
 21
-234.1690987954708
 31
0.0
1001
ACDBBLOCKREPETAG
1070
     1
1071
      330
1005
126617
  0
ARC
  5
126618
  8
OBJECT
 10
5967.6885653456411
 20
-198.90521351131881
 30
0.0
 40
10.0
 50
7.0667782929925851
 51
94.014734370532395
1001
ACDBBLOCKREPETAG
1070
     1
1071
      331
1005
126618
  0
ARC
  5
126619
  8
OBJECT
 10
5970.9441253709738
 20
-200.78147401875589
 30
0.0
 40
7.0
 50
7.0667782929925851
 51
94.014733775014648
1001
ACDBBLOCKREPETAG
1070
     1
1071
      332
1005
126619
  0
POINT
  5
12661A
  8
DOTS
 10
6000.0
 20
-199.99999999999909
 30
0.0
 50
270.0
1001
ACDBBLOCKREPETAG
1070
     1
1071
      347
1005
12661A
  0
ARC
  5
12661B
  8
OBJECT
 10
6000.0
 20
-199.99999999999909
 30
0.0
 40
77.0
 50
202.25886899988009
 51
247.74113099990561
1001
ACDBBLOCKREPETAG
1070
     1
1071
        0
1005
12661B
  0
ARC
  5
12661C
  8
OBJECT
 10
6000.0
 20
-199.99999999999909
 30
0.0
 40
80.0
 50
50.804965661401717
 51
72.417343999921059
1001
ACDBBLOCKREPETAG
1070
     1
1071
        1
1005
12661C
  0
ARC
  5
12661D
  8
OBJECT
 10
6000.0
 20
-199.99999999999909
 30
0.0
 40
77.0
 50
292.25886900009442
 51
337.74113100011988
1001
ACDBBLOCKREPETAG
1070
     1
1071
        2
1005
12661D
  0
ARC
  5
12661E
  8
OBJECT
 10
6000.0
 20
-199.99999999999909
 30
0.0
 40
77.0
 50
112.25886900009441
 51
157.74113100011991
1001
ACDBBLOCKREPETAG
1070
     1
1071
        3
1005
12661E
  0
ARC
  5
12661F
  8
OBJECT
 10
6000.0
 20
-199.99999999999909
 30
0.0
 40
80.0
 50
107.5826560000789
 51
162.41734431895071
1001
ACDBBLOCKREPETAG
1070
     1
1071
        4
1005
12661F
  0
ARC
  5
126620
  8
OBJECT
 10
6000.0
 20
-199.99999999999909
 30
0.0
 40
80.0
 50
197.58265458123211
 51
252.4173443189411
1001
ACDBBLOCKREPETAG
1070
     1
1071
        5
1005
126620
  0
ARC
  5
126621
  8
OBJECT
 10
6000.0
 20
-199.99999999999909
 30
0.0
 40
80.0
 50
287.5826567808985
 51
309.19496742611562
1001
ACDBBLOCKREPETAG
1070
     1
1071
        6
1005
126621
  0
ARC
  5
126622
  8
OBJECT
 10
6000.0
 20
-199.99999999999909
 30
0.0
 40
77.0
 50
22.258868999880129
 51
67.741130999905565
1001
ACDBBLOCKREPETAG
1070
     1
1071
        7
1005
126622
  0
CIRCLE
  5
126623
  8
OBJECT
 10
6000.0
 20
-199.99999999999909
 30
0.0
 40
70.0
1001
ACDBBLOCKREPETAG
1070
     1
1071
        8
1005
126623
  0
LINE
  5
126624
  8
OBJECT
 10
6029.1669749999983
 20
-271.26210499999888
 30
0.0
 11
6021.2231624441074
 21
-279.20591755589248
 31
0.0
1001
ACDBBLOCKREPETAG
1070
     1
1071
        9
1005
126624
  0
LINE
  5
126625
  8
OBJECT
 10
5970.8330260000012
 20
-271.26210499999888
 30
0.0
 11
5978.7768389219164
 21
-279.20591792191681
 31
0.0
1001
ACDBBLOCKREPETAG
1070
     1
1071
       10
1005
126625
  0
ARC
  5
126626
  8
OBJECT
 10
6000.0
 20
-199.99999999999909
 30
0.0
 40
82.000000000000014
 50
255.00000044864069
 51
285.00000053947957
1001
ACDBBLOCKREPETAG
1070
     1
1071
       11
1005
126626
  0
LINE
  5
126627
  8
OBJECT
 10
5928.7378959999987
 20
-229.1669739999989
 30
0.0
 11
5920.7940817120543
 21
-221.2231597120545
 31
0.0
1001
ACDBBLOCKREPETAG
1070
     1
1071
       12
1005
126627
  0
ARC
  5
126628
  8
OBJECT
 10
6000.0
 20
-199.99999999999909
 30
0.0
 40
82.000000000000014
 50
165.0000004488474
 51
194.9999985630262
1001
ACDBBLOCKREPETAG
1070
     1
1071
       13
1005
126628
  0
LINE
  5
126629
  8
OBJECT
 10
5970.8330260000012
 20
-128.7378949999993
 30
0.0
 11
5978.7768389219164
 21
-120.7940820780795
 31
0.0
1001
ACDBBLOCKREPETAG
1070
     1
1071
       14
1005
126629
  0
ARC
  5
12662A
  8
OBJECT
 10
6000.0
 20
-199.99999999999909
 30
0.0
 40
82.000000000000014
 50
74.999999460520442
 51
104.99999955135929
1001
ACDBBLOCKREPETAG
1070
     1
1071
       15
1005
12662A
  0
LINE
  5
12662B
  8
OBJECT
 10
6029.1669749999983
 20
-128.7378949999993
 30
0.0
 11
6021.2231624441074
 21
-120.79408244410391
 31
0.0
1001
ACDBBLOCKREPETAG
1070
     1
1071
       16
1005
12662B
  0
LINE
  5
12662C
  8
OBJECT
 10
5962.402059
 20
-161.93893300000039
 30
0.0
 11
6037.0841102714221
 21
-174.5180316957439
 31
0.0
1001
ACDBBLOCKREPETAG
1070
     1
1071
       17
1005
12662C
  0
LINE
  5
12662D
  8
OBJECT
 10
6044.0936569999967
 20
-169.70149399999991
 30
0.0
 11
6037.0841102714221
 21
-174.5180316957439
 31
0.0
1001
ACDBBLOCKREPETAG
1070
     1
1071
       18
1005
12662D
  0
LINE
  5
12662E
  8
OBJECT
 10
5928.7378959999987
 20
-170.833024999999
 30
0.0
 11
5920.7940820780777
 21
-178.77683892191911
 31
0.0
1001
ACDBBLOCKREPETAG
1070
     1
1071
       19
1005
12662E
  0
CIRCLE
  5
12662F
  8
OBJECT
 10
6000.0
 20
-199.99999999999909
 30
0.0
 40
53.500000000000007
1001
ACDBBLOCKREPETAG
1070
     1
1071
       20
1005
12662F
  0
ARC
  5
126630
  8
OBJECT
 10
6000.0
 20
-199.99999999999909
 30
0.0
 40
50.0
 50
131.70180964353301
 51
168.52376955958221
1001
ACDBBLOCKREPETAG
1070
     1
1071
       21
1005
126630
  0
ARC
  5
126631
  8
OBJECT
 10
6000.0
 20
-199.99999999999909
 30
0.0
 40
50.0
 50
238.8199429999047
 51
34.49450625011707
1001
ACDBBLOCKREPETAG
1070
     1
1071
       22
1005
126631
  0
LINE
  5
126632
  8
OBJECT
 10
6071.262104999998
 20
-170.833024999999
 30
0.0
 11
6079.2059175558934
 21
-178.77683755589439
 31
0.0
1001
ACDBBLOCKREPETAG
1070
     1
1071
       23
1005
126632
  0
ARC
  5
126633
  8
OBJECT
 10
6000.0
 20
-199.99999999999909
 30
0.0
 40
82.000000000000014
 50
345.00000044884729
 51
15.00000053937171
1001
ACDBBLOCKREPETAG
1070
     1
1071
       24
1005
126633
  0
LINE
  5
126634
  8
OBJECT
 10
6071.262104999998
 20
-229.1669739999989
 30
0.0
 11
6079.2059179219223
 21
-221.2231610780791
 31
0.0
1001
ACDBBLOCKREPETAG
1070
     1
1071
       25
1005
126634
  0
LINE
  5
126635
  8
OBJECT
 10
6045.6618002273253
 20
-137.99999999999909
 30
0.0
 11
6080.0
 21
-137.99999999999909
 31
0.0
1001
ACDBBLOCKREPETAG
1070
     1
1071
       26
1005
126635
  0
LINE
  5
126636
  8
OBJECT
 10
6045.6618002273253
 20
-261.99999999999909
 30
0.0
 11
6080.0
 21
-261.99999999999909
 31
0.0
1001
ACDBBLOCKREPETAG
1070
     1
1071
       27
1005
126636
  0
LINE
  5
126637
  8
CENTER
 10
6080.0
 20
-199.99999999999909
 30
0.0
 11
5903.0
 21
-199.99999999999909
 31
0.0
1001
ACDBBLOCKREPETAG
1070
     1
1071
       36
1005
126637
  0
LINE
  5
126638
  8
CENTER
 10
6000.0
 20
-296.99999999999892
 30
0.0
 11
6000.0
 21
-104.9999999999991
 31
0.0
1001
ACDBBLOCKREPETAG
1070
     1
1071
       37
1005
126638
  0
LINE
  5
126639
  8
OBJECT
 10
6202.9999999999864
 20
-483.0000000000008
 30
0.0
 11
6209.9999999999864
 21
-483.0000000000008
 31
0.0
1001
ACDBBLOCKREPETAG
1070
     1
1071
       83
1005
126639
  0
LINE
  5
12663A
  8
OBJECT
 10
6209.9999999999864
 20
-483.0000000000008
 30
0.0
 11
6209.9999999999864
 21
-607.0000000000008
 31
0.0
1001
ACDBBLOCKREPETAG
1070
     1
1071
       84
1005
12663A
  0
LINE
  5
12663B
  8
OBJECT
 10
6085.9999999999864
 20
-553.3502637757274
 30
0.0
 11
6085.9999999999864
 21
-655.00000000000068
 31
0.0
1001
ACDBBLOCKREPETAG
1070
     1
1071
       85
1005
12663B
  0
LINE
  5
12663C
  8
OBJECT
 10
6209.9999999999864
 20
-607.0000000000008
 30
0.0
 11
6202.9999999999864
 21
-607.0000000000008
 31
0.0
1001
ACDBBLOCKREPETAG
1070
     1
1071
       86
1005
12663C
  0
LINE
  5
12663D
  8
OBJECT
 10
6202.9999999999864
 20
-607.0000000000008
 30
0.0
 11
6202.9999999999864
 21
-483.0000000000008
 31
0.0
1001
ACDBBLOCKREPETAG
1070
     1
1071
       87
1005
12663D
  0
LINE
  5
12663E
  8
CENTER
 10
6134.9999999999873
 20
-545.0000000000008
 30
0.0
 11
6224.9999999999873
 21
-545.0000000000008
 31
0.0
1001
ACDBBLOCKREPETAG
1070
     1
1071
       88
1005
12663E
  0
LINE
  5
12663F
  8
OBJECT
 10
6079.9999999999818
 20
-658.0
 30
0.0
 11
6082.9999999999864
 21
-658.0000000000008
 31
0.0
1001
ACDBBLOCKREPETAG
1070
     1
1071
       89
1005
12663F
  0
ARC
  5
126640
  8
OBJECT
 10
6082.9999999999864
 20
-655.00000000000068
 30
0.0
 40
3.0
 50
270.0
 51
0.0
1001
ACDBBLOCKREPETAG
1070
     1
1071
       90
1005
126640
  0
LINE
  5
126641
  8
OBJECT
 10
6202.9999999999864
 20
-486.0000000000008
 30
0.0
 11
6166.9999999999873
 21
-486.0000000000008
 31
0.0
1001
ACDBBLOCKREPETAG
1070
     1
1071
       91
1005
126641
  0
LINE
  5
126642
  8
OBJECT
 10
6166.9999999999873
 20
-486.0000000000008
 30
0.0
 11
6166.9999999999873
 21
-604.0000000000008
 31
0.0
1001
ACDBBLOCKREPETAG
1070
     1
1071
       92
1005
126642
  0
LINE
  5
126643
  8
OBJECT
 10
6162.9999999999864
 20
-490.5000000000008
 30
0.0
 11
6162.9999999999864
 21
-599.5000000000008
 31
0.0
1001
ACDBBLOCKREPETAG
1070
     1
1071
       93
1005
126643
  0
LINE
  5
126644
  8
OBJECT
 10
6162.9999999999864
 20
-490.5000000000008
 30
0.0
 11
6149.9999999999873
 21
-490.5000000000008
 31
0.0
1001
ACDBBLOCKREPETAG
1070
     1
1071
       94
1005
126644
  0
LINE
  5
126645
  8
OBJECT
 10
6166.9999999999873
 20
-604.0000000000008
 30
0.0
 11
6202.9999999999864
 21
-604.0000000000008
 31
0.0
1001
ACDBBLOCKREPETAG
1070
     1
1071
       95
1005
126645
  0
LINE
  5
126646
  8
OBJECT
 10
6166.9999999999873
 20
-486.0000000000008
 30
0.0
 11
6162.9999999999864
 21
-490.5000000000008
 31
0.0
1001
ACDBBLOCKREPETAG
1070
     1
1071
       96
1005
126646
  0
LINE
  5
126647
  8
OBJECT
 10
6149.9999999999873
 20
-490.5000000000008
 30
0.0
 11
6149.9999999999873
 21
-575.74491827928784
 31
0.0
1001
ACDBBLOCKREPETAG
1070
     1
1071
       97
1005
126647
  0
ARC
  5
126648
  8
OBJECT
 10
6152.7999999999838
 20
-585.00000000000068
 30
0.0
 40
85.0
 50
91.887731891831123
 51
143.1301023540934
1001
ACDBBLOCKREPETAG
1070
     1
1071
       98
1005
126648
  0
LINE
  5
126649
  8
HIDDEN
 10
6157.9999999999873
 20
-500.5000000000008
 30
0.0
 11
6157.9999999999873
 21
-589.5000000000008
 31
0.0
1001
ACDBBLOCKREPETAG
1070
     1
1071
      100
1005
126649
  0
LINE
  5
12664A
  8
OBJECT
 10
6085.9999999999864
 20
-651.07945073181781
 30
0.0
 11
6156.6313199210299
 21
-599.5000000000008
 31
0.0
1001
ACDBBLOCKREPETAG
1070
     1
1071
      101
1005
12664A
  0
LINE
  5
12664B
  8
OBJECT
 10
6079.9999999999818
 20
-534.0
 30
0.0
 11
6084.7999999999874
 21
-534.0
 31
0.0
1001
ACDBBLOCKREPETAG
1070
     1
1071
      102
1005
12664B
  0
LINE
  5
12664C
  8
OBJECT
 10
6085.9999999999864
 20
-553.35026377573001
 30
0.0
 11
6084.7999999999874
 21
-534.0
 31
0.0
1001
ACDBBLOCKREPETAG
1070
     1
1071
      103
1005
12664C
  0
LINE
  5
12664D
  8
OBJECT
 10
6162.9999999999864
 20
-599.5000000000008
 30
0.0
 11
6156.6313199210299
 21
-599.5000000000008
 31
0.0
1001
ACDBBLOCKREPETAG
1070
     1
1071
      104
1005
12664D
  0
LINE
  5
12664E
  8
OBJECT
 10
6166.9999999999873
 20
-604.0000000000008
 30
0.0
 11
6162.9999999999864
 21
-599.5000000000008
 31
0.0
1001
ACDBBLOCKREPETAG
1070
     1
1071
      105
1005
12664E
  0
LINE
  5
12664F
  8
OBJECT
 10
6202.9999999999864
 20
-137.99999999999909
 30
0.0
 11
6209.9999999999864
 21
-137.99999999999909
 31
0.0
1001
ACDBBLOCKREPETAG
1070
     1
1071
       85
1005
12664F
  0
LINE
  5
126650
  8
OBJECT
 10
6209.9999999999864
 20
-137.99999999999909
 30
0.0
 11
6209.9999999999864
 21
-261.99999999999909
 31
0.0
1001
ACDBBLOCKREPETAG
1070
     1
1071
       86
1005
126650
  0
LINE
  5
126651
  8
OBJECT
 10
6209.9999999999864
 20
-261.99999999999909
 30
0.0
 11
6202.9999999999864
 21
-261.99999999999909
 31
0.0
1001
ACDBBLOCKREPETAG
1070
     1
1071
       87
1005
126651
  0
LINE
  5
126652
  8
OBJECT
 10
6202.9999999999864
 20
-261.99999999999909
 30
0.0
 11
6202.9999999999864
 21
-137.99999999999909
 31
0.0
1001
ACDBBLOCKREPETAG
1070
     1
1071
       88
1005
126652
  0
LINE
  5
126653
  8
CENTER
 10
6224.9999999999873
 20
-199.99999999999909
 30
0.0
 11
6080.0
 21
-199.99999999999909
 31
0.0
1001
ACDBBLOCKREPETAG
1070
     1
1071
       89
1005
126653
  0
LINE
  5
126654
  8
OBJECT
 10
6149.9999749641856
 20
-245.0000000000027
 30
0.0
 11
6086.0
 21
-244.99999999999909
 31
0.0
1001
ACDBBLOCKREPETAG
1070
     1
1071
       90
1005
126654
  0
LINE
  5
126655
  8
OBJECT
 10
6149.9999749641856
 20
-154.99999999999909
 30
0.0
 11
6086.0
 21
-154.99999999999909
 31
0.0
1001
ACDBBLOCKREPETAG
1070
     1
1071
       91
1005
126655
  0
LINE
  5
126656
  8
OBJECT
 10
6202.9999999999864
 20
-140.99999999999909
 30
0.0
 11
6166.9999999999873
 21
-140.99999999999909
 31
0.0
1001
ACDBBLOCKREPETAG
1070
     1
1071
       92
1005
126656
  0
LINE
  5
126657
  8
OBJECT
 10
6166.9999999999873
 20
-140.99999999999909
 30
0.0
 11
6166.9999999999873
 21
-258.99999999999909
 31
0.0
1001
ACDBBLOCKREPETAG
1070
     1
1071
       93
1005
126657
  0
LINE
  5
126658
  8
OBJECT
 10
6166.9999999999873
 20
-258.99999999999909
 30
0.0
 11
6202.9999999999864
 21
-258.99999999999909
 31
0.0
1001
ACDBBLOCKREPETAG
1070
     1
1071
       94
1005
126658
  0
LINE
  5
126659
  8
OBJECT
 10
6162.9999999999864
 20
-145.49999999999909
 30
0.0
 11
6149.9999999999873
 21
-145.49999999999909
 31
0.0
1001
ACDBBLOCKREPETAG
1070
     1
1071
       95
1005
126659
  0
LINE
  5
12665A
  8
OBJECT
 10
6149.9999999999873
 20
-254.49999999999909
 30
0.0
 11
6162.9999999999864
 21
-254.49999999999909
 31
0.0
1001
ACDBBLOCKREPETAG
1070
     1
1071
       96
1005
12665A
  0
LINE
  5
12665B
  8
OBJECT
 10
6162.9999999999864
 20
-254.49999999999909
 30
0.0
 11
6162.9999999999864
 21
-145.49999999999909
 31
0.0
1001
ACDBBLOCKREPETAG
1070
     1
1071
       97
1005
12665B
  0
LINE
  5
12665C
  8
OBJECT
 10
6166.9999999999873
 20
-140.99999999999909
 30
0.0
 11
6162.9999999999864
 21
-145.49999999999909
 31
0.0
1001
ACDBBLOCKREPETAG
1070
     1
1071
       98
1005
12665C
  0
LINE
  5
12665D
  8
OBJECT
 10
6166.9999999999873
 20
-258.99999999999909
 30
0.0
 11
6162.9999999999864
 21
-254.49999999999909
 31
0.0
1001
ACDBBLOCKREPETAG
1070
     1
1071
       99
1005
12665D
  0
LINE
  5
12665E
  8
OBJECT
 10
6083.0
 20
-137.99999999999909
 30
0.0
 11
6080.0
 21
-137.99999999999909
 31
0.0
1001
ACDBBLOCKREPETAG
1070
     1
1071
      100
1005
12665E
  0
ARC
  5
12665F
  8
OBJECT
 10
6083.0
 20
-140.99999999999909
 30
0.0
 40
3.0
 50
0.0
 51
90.0
1001
ACDBBLOCKREPETAG
1070
     1
1071
      101
1005
12665F
  0
LINE
  5
126660
  8
OBJECT
 10
6080.0
 20
-261.99999999999909
 30
0.0
 11
6083.0
 21
-261.99999999999909
 31
0.0
1001
ACDBBLOCKREPETAG
1070
     1
1071
      102
1005
126660
  0
ARC
  5
126661
  8
OBJECT
 10
6083.0
 20
-258.99999999999909
 30
0.0
 40
3.0
 50
270.0
 51
0.0
1001
ACDBBLOCKREPETAG
1070
     1
1071
      103
1005
126661
  0
LINE
  5
126662
  8
OBJECT
 10
6086.0
 20
-258.99999999999909
 30
0.0
 11
6086.0
 21
-210.3227903203578
 31
0.0
1001
ACDBBLOCKREPETAG
1070
     1
1071
      104
1005
126662
  0
LINE
  5
126663
  8
OBJECT
 10
6086.0
 20
-189.6772096796403
 30
0.0
 11
6086.0
 21
-140.99999999999909
 31
0.0
1001
ACDBBLOCKREPETAG
1070
     1
1071
      105
1005
126663
  0
LINE
  5
126664
  8
HIDDEN
 10
6157.9999999999873
 20
-155.49999999999909
 30
0.0
 11
6157.9999999999873
 21
-244.49999999999909
 31
0.0
1001
ACDBBLOCKREPETAG
1070
     1
1071
      106
1005
126664
  0
LINE
  5
126665
  8
OBJECT
 10
6149.9999749641856
 20
-254.4999509238105
 30
0.0
 11
6149.9999749641856
 21
-145.4999509238105
 31
0.0
1001
ACDBBLOCKREPETAG
1070
     1
1071
      108
1005
126665
  0
ARC
  5
126666
  8
OBJECT
 10
6129.8000000000247
 20
-199.99999999999909
 30
0.0
 40
45.000000000000547
 50
90.0
 51
270.0
1001
ACDBBLOCKREPETAG
1070
     1
1071
      109
1005
126666
  0
LINE
  5
126667
  8
OBJECT
 10
3918.0
 20
-470.99999999999932
 30
0.0
 11
3918.0
 21
-449.99999999999932
 31
0.0
1001
ACDBBLOCKREPETAG
1070
     1
1071
        0
1005
126667
  0
LINE
  5
126668
  8
OBJECT
 10
3918.0
 20
-449.99999999999932
 30
0.0
 11
4082.0000000000032
 21
-449.99999999999932
 31
0.0
1001
ACDBBLOCKREPETAG
1070
     1
1071
        1
1005
126668
  0
LINE
  5
126669
  8
HIDDEN
 10
3943.0
 20
-519.99999999999955
 30
0.0
 11
4057.0
 21
-519.99999999999955
 31
0.0
1001
ACDBBLOCKREPETAG
1070
     1
1071
        2
1005
126669
  0
LINE
  5
12666A
  8
OBJECT
 10
4082.0000000000032
 20
-470.99999999999932
 30
0.0
 11
3918.0
 21
-470.99999999999932
 31
0.0
1001
ACDBBLOCKREPETAG
1070
     1
1071
        3
1005
12666A
  0
LINE
  5
12666B
  8
CENTER
 10
4000.0
 20
-434.99999999999949
 30
0.0
 11
4000.0
 21
-799.99999999999955
 31
0.0
1001
ACDBBLOCKREPETAG
1070
     1
1071
        4
1005
12666B
  0
LINE
  5
12666C
  8
OBJECT
 10
3925.0
 20
-533.99999999999955
 30
0.0
 11
3925.0
 21
-787.99999999999955
 31
0.0
1001
ACDBBLOCKREPETAG
1070
     1
1071
        5
1005
12666C
  0
LINE
  5
12666D
  8
OBJECT
 10
3928.0
 20
-470.99999999999932
 30
0.0
 11
3928.0
 21
-533.99999999999955
 31
0.0
1001
ACDBBLOCKREPETAG
1070
     1
1071
        6
1005
12666D
  0
LINE
  5
12666E
  8
OBJECT
 10
4072.0
 20
-533.99999999999955
 30
0.0
 11
4072.0
 21
-470.99999999999932
 31
0.0
1001
ACDBBLOCKREPETAG
1070
     1
1071
        7
1005
12666E
  0
LINE
  5
12666F
  8
OBJECT
 10
3920.0
 20
-787.99999999999955
 30
0.0
 11
4080.0
 21
-787.99999999999955
 31
0.0
1001
ACDBBLOCKREPETAG
1070
     1
1071
        8
1005
12666F
  0
LINE
  5
126670
  8
OBJECT
 10
4080.0
 20
-533.99999999999955
 30
0.0
 11
3925.0
 21
-533.99999999999955
 31
0.0
1001
ACDBBLOCKREPETAG
1070
     1
1071
        9
1005
126670
  0
LINE
  5
126671
  8
OBJECT
 10
3920.0
 20
-787.99999999999955
 30
0.0
 11
3920.0
 21
-799.99999999999955
 31
0.0
1001
ACDBBLOCKREPETAG
1070
     1
1071
       10
1005
126671
  0
LINE
  5
126672
  8
OBJECT
 10
3920.0
 20
-799.99999999999955
 30
0.0
 11
4080.0
 21
-799.99999999999955
 31
0.0
1001
ACDBBLOCKREPETAG
1070
     1
1071
       11
1005
126672
  0
LINE
  5
126673
  8
OBJECT
 10
4080.0
 20
-799.99999999999955
 30
0.0
 11
4080.0
 21
-787.99999999999955
 31
0.0
1001
ACDBBLOCKREPETAG
1070
     1
1071
       12
1005
126673
  0
LINE
  5
126674
  8
OBJECT
 10
4074.9999999998631
 20
-657.99999999985039
 30
0.0
 11
4075.0
 21
-787.99999999999955
 31
0.0
1001
ACDBBLOCKREPETAG
1070
     1
1071
       14
1005
126674
  0
LINE
  5
126675
  8
OBJECT
 10
4074.9999908029849
 20
-657.99998602702135
 30
0.0
 11
4080.0
 21
-657.99998602702135
 31
0.0
1001
ACDBBLOCKREPETAG
1070
     1
1071
       15
1005
126675
  0
LINE
  5
126676
  8
OBJECT
 10
3920.7940817120261
 20
-449.99999999999932
 30
0.0
 11
3920.7940817120261
 21
-470.99999999999932
 31
0.0
1001
ACDBBLOCKREPETAG
1070
     1
1071
       16
1005
126676
  0
LINE
  5
126677
  8
OBJECT
 10
3928.7378959999992
 20
-449.99999999999932
 30
0.0
 11
3928.7378959999992
 21
-470.99999999999932
 31
0.0
1001
ACDBBLOCKREPETAG
1070
     1
1071
       17
1005
126677
  0
LINE
  5
126678
  8
OBJECT
 10
3970.8330260000012
 20
-449.99999999999932
 30
0.0
 11
3970.8330260000012
 21
-470.99999999999932
 31
0.0
1001
ACDBBLOCKREPETAG
1070
     1
1071
       18
1005
126678
  0
LINE
  5
126679
  8
OBJECT
 10
3978.7768389217999
 20
-449.99999999999932
 30
0.0
 11
3978.7768389217999
 21
-470.99999999999932
 31
0.0
1001
ACDBBLOCKREPETAG
1070
     1
1071
       19
1005
126679
  0
LINE
  5
12667A
  8
OBJECT
 10
4082.0
 20
-470.99999999999932
 30
0.0
 11
4082.0
 21
-449.99999999999932
 31
0.0
1001
ACDBBLOCKREPETAG
1070
     1
1071
       20
1005
12667A
  0
LINE
  5
12667B
  8
OBJECT
 10
4079.205918287973
 20
-449.99999999999932
 30
0.0
 11
4079.205918287973
 21
-470.99999999999932
 31
0.0
1001
ACDBBLOCKREPETAG
1070
     1
1071
       21
1005
12667B
  0
LINE
  5
12667C
  8
OBJECT
 10
4071.2621040000008
 20
-449.99999999999932
 30
0.0
 11
4071.2621040000008
 21
-470.99999999999932
 31
0.0
1001
ACDBBLOCKREPETAG
1070
     1
1071
       22
1005
12667C
  0
LINE
  5
12667D
  8
OBJECT
 10
4029.1669739999979
 20
-449.99999999999932
 30
0.0
 11
4029.1669739999979
 21
-470.99999999999932
 31
0.0
1001
ACDBBLOCKREPETAG
1070
     1
1071
       23
1005
12667D
  0
LINE
  5
12667E
  8
OBJECT
 10
4021.2231610781992
 20
-449.99999999999932
 30
0.0
 11
4021.2231610781992
 21
-470.99999999999932
 31
0.0
1001
ACDBBLOCKREPETAG
1070
     1
1071
       24
1005
12667E
  0
ARC
  5
12667F
  8
OBJECT
 10
4200.6872746716726
 20
-649.40809941010718
 30
0.0
 40
170.6350503965856
 50
137.44134459184301
 51
149.91949581337221
1001
ACDBBLOCKREPETAG
1070
     1
1071
       25
1005
12667F
  0
ARC
  5
126680
  8
OBJECT
 10
4118.8455987040506
 20
-605.88272669536445
 30
0.0
 40
78.072222021763665
 50
147.45515310381529
 51
164.66365997719231
1001
ACDBBLOCKREPETAG
1070
     1
1071
       26
1005
126680
  0
ARC
  5
126681
  8
OBJECT
 10
4085.7554349608722
 20
-595.99999999999955
 30
0.0
 40
43.55353926885617
 50
165.6884523007466
 51
194.3115476992534
1001
ACDBBLOCKREPETAG
1070
     1
1071
       27
1005
126681
  0
ARC
  5
126682
  8
OBJECT
 10
4200.6872746716726
 20
-542.59190058989179
 30
0.0
 40
170.6350503965856
 50
210.08050418662771
 51
222.55865540815699
1001
ACDBBLOCKREPETAG
1070
     1
1071
       28
1005
126682
  0
ARC
  5
126683
  8
OBJECT
 10
4118.8455987040506
 20
-586.11727330463452
 30
0.0
 40
78.072222021763665
 50
195.33634002280741
 51
212.54484689618471
1001
ACDBBLOCKREPETAG
1070
     1
1071
       29
1005
126683
  0
POINT
  5
126684
  8
DOTS
 10
4000.0
 20
-654.99999999999966
 30
0.0
1001
ACDBBLOCKREPETAG
1070
     1
1071
      204
1005
126684
  0
LINE
  5
126685
  8
OBJECT
 10
3946.6921941437549
 20
-195.46638161316051
 30
0.0
 11
3970.4540343856352
 21
-193.79865146436981
 31
0.0
1001
ACDBBLOCKREPETAG
1070
     1
1071
      326
1005
126685
  0
LINE
  5
126686
  8
OBJECT
 10
3947.3854347270608
 20
-190.305593971766
 30
0.0
 11
3966.9884352629019
 21
-188.92975272660161
 31
0.0
1001
ACDBBLOCKREPETAG
1070
     1
1071
      327
1005
126686
  0
LINE
  5
126687
  8
OBJECT
 10
3974.113537475278
 20
-242.77722592637201
 30
0.0
 11
3982.1366988374079
 21
-234.1690987954708
 31
0.0
1001
ACDBBLOCKREPETAG
1070
     1
1071
      328
1005
126687
  0
ARC
  5
126688
  8
OBJECT
 10
3982.1160071245399
 20
-183.28188966318251
 30
0.0
 40
60.031113246032611
 50
254.07020130412749
 51
262.33936106086588
1001
ACDBBLOCKREPETAG
1070
     1
1071
      329
1005
126688
  0
LINE
  5
126689
  8
OBJECT
 10
3977.6125997325148
 20
-197.67495277149911
 30
0.0
 11
3982.1366988374079
 21
-234.1690987954708
 31
0.0
1001
ACDBBLOCKREPETAG
1070
     1
1071
      330
1005
126689
  0
ARC
  5
12668A
  8
OBJECT
 10
3967.6885653456411
 20
-198.90521351131881
 30
0.0
 40
10.0
 50
7.0667782929957941
 51
94.014734370532395
1001
ACDBBLOCKREPETAG
1070
     1
1071
      331
1005
12668A
  0
ARC
  5
12668B
  8
OBJECT
 10
3970.9441253709729
 20
-200.78147401875589
 30
0.0
 40
7.0
 50
7.0667782929957941
 51
94.014733775014648
1001
ACDBBLOCKREPETAG
1070
     1
1071
      332
1005
12668B
  0
POINT
  5
12668C
  8
DOTS
 10
4000.0
 20
-199.99999999999909
 30
0.0
 50
270.0
1001
ACDBBLOCKREPETAG
1070
     1
1071
      347
1005
12668C
  0
ARC
  5
12668D
  8
OBJECT
 10
4000.0
 20
-199.99999999999909
 30
0.0
 40
77.0
 50
202.25886899988009
 51
247.74113099990561
1001
ACDBBLOCKREPETAG
1070
     1
1071
        0
1005
12668D
  0
ARC
  5
12668E
  8
OBJECT
 10
4000.0
 20
-199.99999999999909
 30
0.0
 40
80.0
 50
50.804965661401717
 51
72.417343999921059
1001
ACDBBLOCKREPETAG
1070
     1
1071
        1
1005
12668E
  0
ARC
  5
12668F
  8
OBJECT
 10
4000.0
 20
-199.99999999999909
 30
0.0
 40
77.0
 50
292.25886900009442
 51
337.74113100011988
1001
ACDBBLOCKREPETAG
1070
     1
1071
        2
1005
12668F
  0
ARC
  5
126690
  8
OBJECT
 10
4000.0
 20
-199.99999999999909
 30
0.0
 40
77.0
 50
112.25886900009441
 51
157.74113100011991
1001
ACDBBLOCKREPETAG
1070
     1
1071
        3
1005
126690
  0
ARC
  5
126691
  8
OBJECT
 10
4000.0
 20
-199.99999999999909
 30
0.0
 40
80.0
 50
107.5826560000789
 51
162.41734431894281
1001
ACDBBLOCKREPETAG
1070
     1
1071
        4
1005
126691
  0
ARC
  5
126692
  8
OBJECT
 10
4000.0
 20
-199.99999999999909
 30
0.0
 40
80.0
 50
197.58265458122429
 51
252.4173443189411
1001
ACDBBLOCKREPETAG
1070
     1
1071
        5
1005
126692
  0
ARC
  5
126693
  8
OBJECT
 10
4000.0
 20
-199.99999999999909
 30
0.0
 40
80.0
 50
287.5826567808985
 51
309.1949674261358
1001
ACDBBLOCKREPETAG
1070
     1
1071
        6
1005
126693
  0
ARC
  5
126694
  8
OBJECT
 10
4000.0
 20
-199.99999999999909
 30
0.0
 40
77.0
 50
22.258868999880129
 51
67.741130999905565
1001
ACDBBLOCKREPETAG
1070
     1
1071
        7
1005
126694
  0
CIRCLE
  5
126695
  8
OBJECT
 10
4000.0
 20
-199.99999999999909
 30
0.0
 40
70.0
1001
ACDBBLOCKREPETAG
1070
     1
1071
        8
1005
126695
  0
LINE
  5
126696
  8
OBJECT
 10
4029.1669749999969
 20
-271.26210499999888
 30
0.0
 11
4021.2231624441042
 21
-279.20591755589248
 31
0.0
1001
ACDBBLOCKREPETAG
1070
     1
1071
        9
1005
126696
  0
LINE
  5
126697
  8
OBJECT
 10
3970.8330260000012
 20
-271.26210499999888
 30
0.0
 11
3978.7768389219182
 21
-279.20591792191681
 31
0.0
1001
ACDBBLOCKREPETAG
1070
     1
1071
       10
1005
126697
  0
ARC
  5
126698
  8
OBJECT
 10
4000.0
 20
-199.99999999999909
 30
0.0
 40
82.000000000000014
 50
255.00000044864069
 51
285.00000053947957
1001
ACDBBLOCKREPETAG
1070
     1
1071
       11
1005
126698
  0
LINE
  5
126699
  8
OBJECT
 10
3928.7378959999992
 20
-229.1669739999989
 30
0.0
 11
3920.7940817120548
 21
-221.2231597120545
 31
0.0
1001
ACDBBLOCKREPETAG
1070
     1
1071
       12
1005
126699
  0
ARC
  5
12669A
  8
OBJECT
 10
4000.0
 20
-199.99999999999909
 30
0.0
 40
82.000000000000014
 50
165.00000044885411
 51
194.9999985630262
1001
ACDBBLOCKREPETAG
1070
     1
1071
       13
1005
12669A
  0
LINE
  5
12669B
  8
OBJECT
 10
3970.8330260000012
 20
-128.7378949999993
 30
0.0
 11
3978.7768389219182
 21
-120.7940820780795
 31
0.0
1001
ACDBBLOCKREPETAG
1070
     1
1071
       14
1005
12669B
  0
ARC
  5
12669C
  8
OBJECT
 10
4000.0
 20
-199.99999999999909
 30
0.0
 40
82.000000000000014
 50
74.999999460520442
 51
104.99999955135929
1001
ACDBBLOCKREPETAG
1070
     1
1071
       15
1005
12669C
  0
LINE
  5
12669D
  8
OBJECT
 10
4029.1669749999969
 20
-128.7378949999993
 30
0.0
 11
4021.2231624441042
 21
-120.79408244410391
 31
0.0
1001
ACDBBLOCKREPETAG
1070
     1
1071
       16
1005
12669D
  0
LINE
  5
12669E
  8
OBJECT
 10
3962.4020590000018
 20
-161.93893300000039
 30
0.0
 11
4037.0841102714221
 21
-174.5180316957439
 31
0.0
1001
ACDBBLOCKREPETAG
1070
     1
1071
       17
1005
12669E
  0
LINE
  5
12669F
  8
OBJECT
 10
4044.0936569999949
 20
-169.70149399999991
 30
0.0
 11
4037.0841102714221
 21
-174.5180316957439
 31
0.0
1001
ACDBBLOCKREPETAG
1070
     1
1071
       18
1005
12669F
  0
LINE
  5
1266A0
  8
OBJECT
 10
3928.7378959999992
 20
-170.833024999999
 30
0.0
 11
3920.7940820780782
 21
-178.77683892191911
 31
0.0
1001
ACDBBLOCKREPETAG
1070
     1
1071
       19
1005
1266A0
  0
CIRCLE
  5
1266A1
  8
OBJECT
 10
4000.0
 20
-199.99999999999909
 30
0.0
 40
53.500000000000007
1001
ACDBBLOCKREPETAG
1070
     1
1071
       20
1005
1266A1
  0
ARC
  5
1266A2
  8
OBJECT
 10
4000.0
 20
-199.99999999999909
 30
0.0
 40
50.0
 50
131.70180964355251
 51
168.52376955958741
1001
ACDBBLOCKREPETAG
1070
     1
1071
       21
1005
1266A2
  0
ARC
  5
1266A3
  8
OBJECT
 10
4000.0
 20
-199.99999999999909
 30
0.0
 40
50.0
 50
238.8199429999047
 51
34.49450625011707
1001
ACDBBLOCKREPETAG
1070
     1
1071
       22
1005
1266A3
  0
LINE
  5
1266A4
  8
OBJECT
 10
4071.2621049999971
 20
-170.833024999999
 30
0.0
 11
4079.2059175558929
 21
-178.77683755589439
 31
0.0
1001
ACDBBLOCKREPETAG
1070
     1
1071
       23
1005
1266A4
  0
ARC
  5
1266A5
  8
OBJECT
 10
4000.0
 20
-199.99999999999909
 30
0.0
 40
82.000000000000014
 50
345.00000044885422
 51
15.00000053937171
1001
ACDBBLOCKREPETAG
1070
     1
1071
       24
1005
1266A5
  0
LINE
  5
1266A6
  8
OBJECT
 10
4071.2621049999971
 20
-229.1669739999989
 30
0.0
 11
4079.20591792192
 21
-221.2231610780791
 31
0.0
1001
ACDBBLOCKREPETAG
1070
     1
1071
       25
1005
1266A6
  0
LINE
  5
1266A7
  8
OBJECT
 10
4045.661800227324
 20
-137.99999999999909
 30
0.0
 11
4080.0
 21
-137.99999999999909
 31
0.0
1001
ACDBBLOCKREPETAG
1070
     1
1071
       26
1005
1266A7
  0
LINE
  5
1266A8
  8
OBJECT
 10
4045.661800227324
 20
-261.99999999999909
 30
0.0
 11
4080.0
 21
-261.99999999999909
 31
0.0
1001
ACDBBLOCKREPETAG
1070
     1
1071
       27
1005
1266A8
  0
LINE
  5
1266A9
  8
CENTER
 10
4080.0
 20
-199.99999999999909
 30
0.0
 11
3903.0
 21
-199.99999999999909
 31
0.0
1001
ACDBBLOCKREPETAG
1070
     1
1071
       36
1005
1266A9
  0
LINE
  5
1266AA
  8
CENTER
 10
4000.0
 20
-296.99999999999892
 30
0.0
 11
4000.0
 21
-104.9999999999991
 31
0.0
1001
ACDBBLOCKREPETAG
1070
     1
1071
       37
1005
1266AA
  0
LINE
  5
1266AB
  8
OBJECT
 10
4202.9999999999854
 20
-483.0000000000008
 30
0.0
 11
4209.9999999999854
 21
-483.0000000000008
 31
0.0
1001
ACDBBLOCKREPETAG
1070
     1
1071
       83
1005
1266AB
  0
LINE
  5
1266AC
  8
OBJECT
 10
4209.9999999999854
 20
-483.0000000000008
 30
0.0
 11
4209.9999999999854
 21
-607.0000000000008
 31
0.0
1001
ACDBBLOCKREPETAG
1070
     1
1071
       84
1005
1266AC
  0
LINE
  5
1266AD
  8
OBJECT
 10
4085.9999999999859
 20
-553.3502637757274
 30
0.0
 11
4085.9999999999859
 21
-655.00000000000068
 31
0.0
1001
ACDBBLOCKREPETAG
1070
     1
1071
       85
1005
1266AD
  0
LINE
  5
1266AE
  8
OBJECT
 10
4209.9999999999854
 20
-607.0000000000008
 30
0.0
 11
4202.9999999999854
 21
-607.0000000000008
 31
0.0
1001
ACDBBLOCKREPETAG
1070
     1
1071
       86
1005
1266AE
  0
LINE
  5
1266AF
  8
OBJECT
 10
4202.9999999999854
 20
-607.0000000000008
 30
0.0
 11
4202.9999999999854
 21
-483.0000000000008
 31
0.0
1001
ACDBBLOCKREPETAG
1070
     1
1071
       87
1005
1266AF
  0
LINE
  5
1266B0
  8
CENTER
 10
4134.9999999999854
 20
-545.0000000000008
 30
0.0
 11
4224.9999999999864
 21
-545.0000000000008
 31
0.0
1001
ACDBBLOCKREPETAG
1070
     1
1071
       88
1005
1266B0
  0
LINE
  5
1266B1
  8
OBJECT
 10
4079.9999999999818
 20
-658.0
 30
0.0
 11
4082.999999999985
 21
-658.0000000000008
 31
0.0
1001
ACDBBLOCKREPETAG
1070
     1
1071
       89
1005
1266B1
  0
ARC
  5
1266B2
  8
OBJECT
 10
4082.999999999985
 20
-655.00000000000068
 30
0.0
 40
3.0
 50
270.0
 51
0.0
1001
ACDBBLOCKREPETAG
1070
     1
1071
       90
1005
1266B2
  0
LINE
  5
1266B3
  8
OBJECT
 10
4202.9999999999854
 20
-486.0000000000008
 30
0.0
 11
4166.9999999999854
 21
-486.0000000000008
 31
0.0
1001
ACDBBLOCKREPETAG
1070
     1
1071
       91
1005
1266B3
  0
LINE
  5
1266B4
  8
OBJECT
 10
4166.9999999999854
 20
-486.0000000000008
 30
0.0
 11
4166.9999999999854
 21
-604.0000000000008
 31
0.0
1001
ACDBBLOCKREPETAG
1070
     1
1071
       92
1005
1266B4
  0
LINE
  5
1266B5
  8
OBJECT
 10
4162.9999999999854
 20
-490.5000000000008
 30
0.0
 11
4162.9999999999854
 21
-599.5000000000008
 31
0.0
1001
ACDBBLOCKREPETAG
1070
     1
1071
       93
1005
1266B5
  0
LINE
  5
1266B6
  8
OBJECT
 10
4162.9999999999854
 20
-490.5000000000008
 30
0.0
 11
4149.9999999999864
 21
-490.5000000000008
 31
0.0
1001
ACDBBLOCKREPETAG
1070
     1
1071
       94
1005
1266B6
  0
LINE
  5
1266B7
  8
OBJECT
 10
4166.9999999999854
 20
-604.0000000000008
 30
0.0
 11
4202.9999999999854
 21
-604.0000000000008
 31
0.0
1001
ACDBBLOCKREPETAG
1070
     1
1071
       95
1005
1266B7
  0
LINE
  5
1266B8
  8
OBJECT
 10
4166.9999999999854
 20
-486.0000000000008
 30
0.0
 11
4162.9999999999854
 21
-490.5000000000008
 31
0.0
1001
ACDBBLOCKREPETAG
1070
     1
1071
       96
1005
1266B8
  0
LINE
  5
1266B9
  8
OBJECT
 10
4149.9999999999864
 20
-490.5000000000008
 30
0.0
 11
4149.9999999999864
 21
-575.74491827928784
 31
0.0
1001
ACDBBLOCKREPETAG
1070
     1
1071
       97
1005
1266B9
  0
ARC
  5
1266BA
  8
OBJECT
 10
4152.7999999999838
 20
-585.00000000000068
 30
0.0
 40
85.0
 50
91.887731891831123
 51
143.1301023540934
1001
ACDBBLOCKREPETAG
1070
     1
1071
       98
1005
1266BA
  0
LINE
  5
1266BB
  8
HIDDEN
 10
4157.9999999999864
 20
-500.5000000000008
 30
0.0
 11
4157.9999999999864
 21
-589.5000000000008
 31
0.0
1001
ACDBBLOCKREPETAG
1070
     1
1071
      100
1005
1266BB
  0
LINE
  5
1266BC
  8
OBJECT
 10
4085.9999999999859
 20
-651.07945073181781
 30
0.0
 11
4156.6313199210299
 21
-599.5000000000008
 31
0.0
1001
ACDBBLOCKREPETAG
1070
     1
1071
      101
1005
1266BC
  0
LINE
  5
1266BD
  8
OBJECT
 10
4079.9999999999818
 20
-534.0
 30
0.0
 11
4084.7999999999852
 21
-534.0
 31
0.0
1001
ACDBBLOCKREPETAG
1070
     1
1071
      102
1005
1266BD
  0
LINE
  5
1266BE
  8
OBJECT
 10
4085.9999999999859
 20
-553.35026377573001
 30
0.0
 11
4084.7999999999852
 21
-534.0
 31
0.0
1001
ACDBBLOCKREPETAG
1070
     1
1071
      103
1005
1266BE
  0
LINE
  5
1266BF
  8
OBJECT
 10
4162.9999999999854
 20
-599.5000000000008
 30
0.0
 11
4156.6313199210299
 21
-599.5000000000008
 31
0.0
1001
ACDBBLOCKREPETAG
1070
     1
1071
      104
1005
1266BF
  0
LINE
  5
1266C0
  8
OBJECT
 10
4166.9999999999854
 20
-604.0000000000008
 30
0.0
 11
4162.9999999999854
 21
-599.5000000000008
 31
0.0
1001
ACDBBLOCKREPETAG
1070
     1
1071
      105
1005
1266C0
  0
LINE
  5
1266C1
  8
OBJECT
 10
4202.9999999999854
 20
-137.99999999999909
 30
0.0
 11
4209.9999999999854
 21
-137.99999999999909
 31
0.0
1001
ACDBBLOCKREPETAG
1070
     1
1071
       85
1005
1266C1
  0
LINE
  5
1266C2
  8
OBJECT
 10
4209.9999999999854
 20
-137.99999999999909
 30
0.0
 11
4209.9999999999854
 21
-261.99999999999909
 31
0.0
1001
ACDBBLOCKREPETAG
1070
     1
1071
       86
1005
1266C2
  0
LINE
  5
1266C3
  8
OBJECT
 10
4209.9999999999854
 20
-261.99999999999909
 30
0.0
 11
4202.9999999999854
 21
-261.99999999999909
 31
0.0
1001
ACDBBLOCKREPETAG
1070
     1
1071
       87
1005
1266C3
  0
LINE
  5
1266C4
  8
OBJECT
 10
4202.9999999999854
 20
-261.99999999999909
 30
0.0
 11
4202.9999999999854
 21
-137.99999999999909
 31
0.0
1001
ACDBBLOCKREPETAG
1070
     1
1071
       88
1005
1266C4
  0
LINE
  5
1266C5
  8
CENTER
 10
4224.9999999999864
 20
-199.99999999999909
 30
0.0
 11
4080.0
 21
-199.99999999999909
 31
0.0
1001
ACDBBLOCKREPETAG
1070
     1
1071
       89
1005
1266C5
  0
LINE
  5
1266C6
  8
OBJECT
 10
4149.9999749641856
 20
-245.0000000000027
 30
0.0
 11
4086.0
 21
-244.99999999999909
 31
0.0
1001
ACDBBLOCKREPETAG
1070
     1
1071
       90
1005
1266C6
  0
LINE
  5
1266C7
  8
OBJECT
 10
4149.9999749641856
 20
-154.99999999999909
 30
0.0
 11
4086.0
 21
-154.99999999999909
 31
0.0
1001
ACDBBLOCKREPETAG
1070
     1
1071
       91
1005
1266C7
  0
LINE
  5
1266C8
  8
OBJECT
 10
4202.9999999999854
 20
-140.99999999999909
 30
0.0
 11
4166.9999999999854
 21
-140.99999999999909
 31
0.0
1001
ACDBBLOCKREPETAG
1070
     1
1071
       92
1005
1266C8
  0
LINE
  5
1266C9
  8
OBJECT
 10
4166.9999999999854
 20
-140.99999999999909
 30
0.0
 11
4166.9999999999854
 21
-258.99999999999909
 31
0.0
1001
ACDBBLOCKREPETAG
1070
     1
1071
       93
1005
1266C9
  0
LINE
  5
1266CA
  8
OBJECT
 10
4166.9999999999854
 20
-258.99999999999909
 30
0.0
 11
4202.9999999999854
 21
-258.99999999999909
 31
0.0
1001
ACDBBLOCKREPETAG
1070
     1
1071
       94
1005
1266CA
  0
LINE
  5
1266CB
  8
OBJECT
 10
4162.9999999999854
 20
-145.49999999999909
 30
0.0
 11
4149.9999999999864
 21
-145.49999999999909
 31
0.0
1001
ACDBBLOCKREPETAG
1070
     1
1071
       95
1005
1266CB
  0
LINE
  5
1266CC
  8
OBJECT
 10
4149.9999999999864
 20
-254.49999999999909
 30
0.0
 11
4162.9999999999854
 21
-254.49999999999909
 31
0.0
1001
ACDBBLOCKREPETAG
1070
     1
1071
       96
1005
1266CC
  0
LINE
  5
1266CD
  8
OBJECT
 10
4162.9999999999854
 20
-254.49999999999909
 30
0.0
 11
4162.9999999999854
 21
-145.49999999999909
 31
0.0
1001
ACDBBLOCKREPETAG
1070
     1
1071
       97
1005
1266CD
  0
LINE
  5
1266CE
  8
OBJECT
 10
4166.9999999999854
 20
-140.99999999999909
 30
0.0
 11
4162.9999999999854
 21
-145.49999999999909
 31
0.0
1001
ACDBBLOCKREPETAG
1070
     1
1071
       98
1005
1266CE
  0
LINE
  5
1266CF
  8
OBJECT
 10
4166.9999999999854
 20
-258.99999999999909
 30
0.0
 11
4162.9999999999854
 21
-254.49999999999909
 31
0.0
1001
ACDBBLOCKREPETAG
1070
     1
1071
       99
1005
1266CF
  0
LINE
  5
1266D0
  8
OBJECT
 10
4083.0
 20
-137.99999999999909
 30
0.0
 11
4080.0
 21
-137.99999999999909
 31
0.0
1001
ACDBBLOCKREPETAG
1070
     1
1071
      100
1005
1266D0
  0
ARC
  5
1266D1
  8
OBJECT
 10
4083.0
 20
-140.99999999999909
 30
0.0
 40
3.0
 50
0.0
 51
90.0
1001
ACDBBLOCKREPETAG
1070
     1
1071
      101
1005
1266D1
  0
LINE
  5
1266D2
  8
OBJECT
 10
4080.0
 20
-261.99999999999909
 30
0.0
 11
4083.0
 21
-261.99999999999909
 31
0.0
1001
ACDBBLOCKREPETAG
1070
     1
1071
      102
1005
1266D2
  0
ARC
  5
1266D3
  8
OBJECT
 10
4083.0
 20
-258.99999999999909
 30
0.0
 40
3.0
 50
270.0
 51
0.0
1001
ACDBBLOCKREPETAG
1070
     1
1071
      103
1005
1266D3
  0
LINE
  5
1266D4
  8
OBJECT
 10
4086.0
 20
-258.99999999999909
 30
0.0
 11
4086.0
 21
-210.3227903203578
 31
0.0
1001
ACDBBLOCKREPETAG
1070
     1
1071
      104
1005
1266D4
  0
LINE
  5
1266D5
  8
OBJECT
 10
4086.0
 20
-189.6772096796403
 30
0.0
 11
4086.0
 21
-140.99999999999909
 31
0.0
1001
ACDBBLOCKREPETAG
1070
     1
1071
      105
1005
1266D5
  0
LINE
  5
1266D6
  8
HIDDEN
 10
4157.9999999999864
 20
-155.49999999999909
 30
0.0
 11
4157.9999999999864
 21
-244.49999999999909
 31
0.0
1001
ACDBBLOCKREPETAG
1070
     1
1071
      106
1005
1266D6
  0
LINE
  5
1266D7
  8
OBJECT
 10
4149.9999749641856
 20
-254.4999509238105
 30
0.0
 11
4149.9999749641856
 21
-145.4999509238105
 31
0.0
1001
ACDBBLOCKREPETAG
1070
     1
1071
      108
1005
1266D7
  0
ARC
  5
1266D8
  8
OBJECT
 10
4129.8000000000247
 20
-199.99999999999909
 30
0.0
 40
45.000000000000547
 50
90.0
 51
270.0
1001
ACDBBLOCKREPETAG
1070
     1
1071
      109
1005
1266D8
  0
LINE
  5
1266D9
  8
SLIM
 10
11914.999999999991
 20
-669.47385309434685
 30
0.0
 11
11929.47385309434
 21
-654.99999999999966
 31
0.0
1001
GRADIENTCOLOR1ACI
1070
     5
1001
GRADIENTCOLOR2ACI
1070
     2
1001
ACAD
1010
0.0
1020
0.0
1030
0.0
  0
LINE
  5
1266DA
  8
SLIM
 10
11914.999999999991
 20
-687.43436533648469
 30
0.0
 11
11947.434365336479
 21
-654.99999999999966
 31
0.0
1001
GRADIENTCOLOR1ACI
1070
     5
1001
GRADIENTCOLOR2ACI
1070
     2
1001
ACAD
1010
0.0
1020
0.0
1030
0.0
  0
LINE
  5
1266DB
  8
SLIM
 10
11915.0
 20
-705.39487757862241
 30
0.0
 11
11965.394877578619
 21
-654.99999999999966
 31
0.0
1001
GRADIENTCOLOR1ACI
1070
     5
1001
GRADIENTCOLOR2ACI
1070
     2
1001
ACAD
1010
0.0
1020
0.0
1030
0.0
  0
LINE
  5
1266DC
  8
SLIM
 10
11915.0
 20
-723.35538982076014
 30
0.0
 11
11983.355389820759
 21
-654.99999999999966
 31
0.0
1001
GRADIENTCOLOR1ACI
1070
     5
1001
GRADIENTCOLOR2ACI
1070
     2
1001
ACAD
1010
0.0
1020
0.0
1030
0.0
  0
LINE
  5
1266DD
  8
SLIM
 10
11915.0
 20
-741.31590206289775
 30
0.0
 11
12001.31590206289
 21
-654.99999999999966
 31
0.0
1001
GRADIENTCOLOR1ACI
1070
     5
1001
GRADIENTCOLOR2ACI
1070
     2
1001
ACAD
1010
0.0
1020
0.0
1030
0.0
  0
LINE
  5
1266DE
  8
SLIM
 10
11915.0
 20
-759.27641430503559
 30
0.0
 11
12019.27641430503
 21
-654.99999999999966
 31
0.0
1001
GRADIENTCOLOR1ACI
1070
     5
1001
GRADIENTCOLOR2ACI
1070
     2
1001
ACAD
1010
0.0
1020
0.0
1030
0.0
  0
LINE
  5
1266DF
  8
SLIM
 10
11915.0
 20
-777.2369265471732
 30
0.0
 11
12037.23692654717
 21
-654.99999999999966
 31
0.0
1001
GRADIENTCOLOR1ACI
1070
     5
1001
GRADIENTCOLOR2ACI
1070
     2
1001
ACAD
1010
0.0
1020
0.0
1030
0.0
  0
LINE
  5
1266E0
  8
SLIM
 10
11915.0
 20
-795.19743878931092
 30
0.0
 11
12055.19743878931
 21
-654.99999999999966
 31
0.0
1001
GRADIENTCOLOR1ACI
1070
     5
1001
GRADIENTCOLOR2ACI
1070
     2
1001
ACAD
1010
0.0
1020
0.0
1030
0.0
  0
LINE
  5
1266E1
  8
SLIM
 10
11915.0
 20
-813.15795103144865
 30
0.0
 11
12073.15795103145
 21
-654.99999999999966
 31
0.0
1001
GRADIENTCOLOR1ACI
1070
     5
1001
GRADIENTCOLOR2ACI
1070
     2
1001
ACAD
1010
0.0
1020
0.0
1030
0.0
  0
LINE
  5
1266E2
  8
SLIM
 10
11915.0
 20
-831.11846327358603
 30
0.0
 11
12085.000000000009
 21
-661.11846327357694
 31
0.0
1001
GRADIENTCOLOR1ACI
1070
     5
1001
GRADIENTCOLOR2ACI
1070
     2
1001
ACAD
1010
0.0
1020
0.0
1030
0.0
  0
LINE
  5
1266E3
  8
SLIM
 10
11915.0
 20
-849.07897551572387
 30
0.0
 11
12085.000000000009
 21
-679.07897551571614
 31
0.0
1001
GRADIENTCOLOR1ACI
1070
     5
1001
GRADIENTCOLOR2ACI
1070
     2
1001
ACAD
1010
0.0
1020
0.0
1030
0.0
  0
LINE
  5
1266E4
  8
SLIM
 10
11915.0
 20
-867.03948775786171
 30
0.0
 11
12085.000000000009
 21
-697.039487757855
 31
0.0
1001
GRADIENTCOLOR1ACI
1070
     5
1001
GRADIENTCOLOR2ACI
1070
     2
1001
ACAD
1010
0.0
1020
0.0
1030
0.0
  0
LINE
  5
1266E5
  8
SLIM
 10
11915.283600749561
 20
-884.71639925044144
 30
0.0
 11
12085.000000000009
 21
-714.99999999999386
 31
0.0
1001
GRADIENTCOLOR1ACI
1070
     5
1001
GRADIENTCOLOR2ACI
1070
     2
1001
ACAD
1010
0.0
1020
0.0
1030
0.0
  0
LINE
  5
1266E6
  8
SLIM
 10
11917.49791047804
 20
-900.46260176409714
 30
0.0
 11
12085.000000000009
 21
-732.96051224213261
 31
0.0
1001
GRADIENTCOLOR1ACI
1070
     5
1001
GRADIENTCOLOR2ACI
1070
     2
1001
ACAD
1010
0.0
1020
0.0
1030
0.0
  0
LINE
  5
1266E7
  8
SLIM
 10
11919.71222020652
 20
-916.20880427775239
 30
0.0
 11
12085.0
 21
-750.92102448427181
 31
0.0
1001
GRADIENTCOLOR1ACI
1070
     5
1001
GRADIENTCOLOR2ACI
1070
     2
1001
ACAD
1010
0.0
1020
0.0
1030
0.0
  0
LINE
  5
1266E8
  8
SLIM
 10
11921.92652993501
 20
-931.95500679140775
 30
0.0
 11
12085.0
 21
-768.88153672641056
 31
0.0
1001
GRADIENTCOLOR1ACI
1070
     5
1001
GRADIENTCOLOR2ACI
1070
     2
1001
ACAD
1010
0.0
1020
0.0
1030
0.0
  0
LINE
  5
1266E9
  8
SLIM
 10
11924.140839663491
 20
-947.701209305063
 30
0.0
 11
12085.0
 21
-786.84204896854953
 31
0.0
1001
GRADIENTCOLOR1ACI
1070
     5
1001
GRADIENTCOLOR2ACI
1070
     2
1001
ACAD
1010
0.0
1020
0.0
1030
0.0
  0
LINE
  5
1266EA
  8
SLIM
 10
11926.35514939196
 20
-963.44741181871825
 30
0.0
 11
12085.0
 21
-804.80256121068851
 31
0.0
1001
GRADIENTCOLOR1ACI
1070
     5
1001
GRADIENTCOLOR2ACI
1070
     2
1001
ACAD
1010
0.0
1020
0.0
1030
0.0
  0
LINE
  5
1266EB
  8
SLIM
 10
11928.56945912045
 20
-979.19361433237384
 30
0.0
 11
12085.0
 21
-822.76307345282703
 31
0.0
1001
GRADIENTCOLOR1ACI
1070
     5
1001
GRADIENTCOLOR2ACI
1070
     2
1001
ACAD
1010
0.0
1020
0.0
1030
0.0
  0
LINE
  5
1266EC
  8
SLIM
 10
11930.78376884894
 20
-994.93981684602909
 30
0.0
 11
12085.0
 21
-840.72358569496635
 31
0.0
1001
GRADIENTCOLOR1ACI
1070
     5
1001
GRADIENTCOLOR2ACI
1070
     2
1001
ACAD
1010
0.0
1020
0.0
1030
0.0
  0
LINE
  5
1266ED
  8
SLIM
 10
11932.998078577421
 20
-1010.686019359684
 30
0.0
 11
12085.0
 21
-858.68409793710521
 31
0.0
1001
GRADIENTCOLOR1ACI
1070
     5
1001
GRADIENTCOLOR2ACI
1070
     2
1001
ACAD
1010
0.0
1020
0.0
1030
0.0
  0
LINE
  5
1266EE
  8
SLIM
 10
11932.999999999991
 20
-1028.644610179251
 30
0.0
 11
12085.0
 21
-876.64461017924395
 31
0.0
1001
GRADIENTCOLOR1ACI
1070
     5
1001
GRADIENTCOLOR2ACI
1070
     2
1001
ACAD
1010
0.0
1020
0.0
1030
0.0
  0
LINE
  5
1266EF
  8
SLIM
 10
11934.60512242139
 20
-1044.9999999999959
 30
0.0
 11
12083.051837154369
 21
-896.55328526701646
 31
0.0
1001
GRADIENTCOLOR1ACI
1070
     5
1001
GRADIENTCOLOR2ACI
1070
     2
1001
ACAD
1010
0.0
1020
0.0
1030
0.0
  0
LINE
  5
1266F0
  8
SLIM
 10
11952.565634663521
 20
-1044.9999999999959
 30
0.0
 11
12080.112844242019
 21
-917.45279042150355
 31
0.0
1001
GRADIENTCOLOR1ACI
1070
     5
1001
GRADIENTCOLOR2ACI
1070
     2
1001
ACAD
1010
0.0
1020
0.0
1030
0.0
  0
LINE
  5
1266F1
  8
SLIM
 10
11970.52614690566
 20
-1044.999999999997
 30
0.0
 11
12077.17385132967
 21
-938.35229557599132
 31
0.0
1001
GRADIENTCOLOR1ACI
1070
     5
1001
GRADIENTCOLOR2ACI
1070
     2
1001
ACAD
1010
0.0
1020
0.0
1030
0.0
  0
LINE
  5
1266F2
  8
SLIM
 10
11988.4866591478
 20
-1044.999999999997
 30
0.0
 11
12074.23485841732
 21
-959.25180073047841
 31
0.0
1001
GRADIENTCOLOR1ACI
1070
     5
1001
GRADIENTCOLOR2ACI
1070
     2
1001
ACAD
1010
0.0
1020
0.0
1030
0.0
  0
LINE
  5
1266F3
  8
SLIM
 10
12006.44717138994
 20
-1044.999999999998
 30
0.0
 11
12071.29586550497
 21
-980.15130588496572
 31
0.0
1001
GRADIENTCOLOR1ACI
1070
     5
1001
GRADIENTCOLOR2ACI
1070
     2
1001
ACAD
1010
0.0
1020
0.0
1030
0.0
  0
LINE
  5
1266F4
  8
SLIM
 10
12024.40768363208
 20
-1044.999999999998
 30
0.0
 11
12068.35687259262
 21
-1001.050811039453
 31
0.0
1001
GRADIENTCOLOR1ACI
1070
     5
1001
GRADIENTCOLOR2ACI
1070
     2
1001
ACAD
1010
0.0
1020
0.0
1030
0.0
  0
LINE
  5
1266F5
  8
SLIM
 10
12042.368195874211
 20
-1044.9999999999991
 30
0.0
 11
12067.0
 21
-1020.368195874201
 31
0.0
1001
GRADIENTCOLOR1ACI
1070
     5
1001
GRADIENTCOLOR2ACI
1070
     2
1001
ACAD
1010
0.0
1020
0.0
1030
0.0
  0
LINE
  5
1266F6
  8
SLIM
 10
12060.328708116351
 20
-1044.9999999999991
 30
0.0
 11
12067.0
 21
-1038.3287081163401
 31
0.0
1001
GRADIENTCOLOR1ACI
1070
     5
1001
GRADIENTCOLOR2ACI
1070
     2
1001
ACAD
1010
0.0
1020
0.0
1030
0.0
  0
LINE
  5
1266F7
  8
OBJECT
 10
11932.999999999991
 20
-1044.9999999999959
 30
0.0
 11
12067.0
 21
-1044.9999999999991
 31
0.0
1001
ACDBBLOCKREPETAG
1070
     1
1071
        1
1005
1266F7
  0
LINE
  5
1266F8
  8
OBJECT
 10
11914.999999999991
 20
-654.99999999999966
 30
0.0
 11
11915.0
 21
-882.69968280914065
 31
0.0
1001
ACDBBLOCKREPETAG
1070
     1
1071
        2
1005
1266F8
  0
LINE
  5
1266F9
  8
OBJECT
 10
12085.000000000009
 20
-654.99999999999966
 30
0.0
 11
12085.0
 21
-882.69968280917192
 31
0.0
1001
ACDBBLOCKREPETAG
1070
     1
1071
        3
1005
1266F9
  0
LINE
  5
1266FA
  8
OBJECT
 10
11915.0
 20
-882.69968280914065
 30
0.0
 11
11932.999999999991
 21
-1010.699682809081
 31
0.0
1001
ACDBBLOCKREPETAG
1070
     1
1071
        4
1005
1266FA
  0
LINE
  5
1266FB
  8
OBJECT
 10
12067.0
 20
-1010.699682809128
 30
0.0
 11
12085.0
 21
-882.69968280917192
 31
0.0
1001
ACDBBLOCKREPETAG
1070
     1
1071
        5
1005
1266FB
  0
LINE
  5
1266FC
  8
OBJECT
 10
12085.000000000009
 20
-654.99999999999966
 30
0.0
 11
11914.999999999991
 21
-654.99999999999966
 31
0.0
1001
ACDBBLOCKREPETAG
1070
     1
1071
        6
1005
1266FC
  0
LINE
  5
1266FD
  8
OBJECT
 10
11932.999999999991
 20
-1010.699682809081
 30
0.0
 11
11932.999999999991
 21
-1044.9999999999959
 31
0.0
1001
ACDBBLOCKREPETAG
1070
     1
1071
        8
1005
1266FD
  0
LINE
  5
1266FE
  8
OBJECT
 10
12067.0
 20
-1010.699682809128
 30
0.0
 11
12067.0
 21
-1044.9999999999991
 31
0.0
1001
ACDBBLOCKREPETAG
1070
     1
1071
        9
1005
1266FE
  0
LINE
  5
1266FF
  8
SLIM
 10
9914.9999999999927
 20
-669.47385309434685
 30
0.0
 11
9929.4738530943396
 21
-654.99999999999966
 31
0.0
1001
GRADIENTCOLOR1ACI
1070
     5
1001
GRADIENTCOLOR2ACI
1070
     2
1001
ACAD
1010
0.0
1020
0.0
1030
0.0
  0
LINE
  5
126700
  8
SLIM
 10
9914.9999999999927
 20
-687.43436533648469
 30
0.0
 11
9947.4343653364795
 21
-654.99999999999966
 31
0.0
1001
GRADIENTCOLOR1ACI
1070
     5
1001
GRADIENTCOLOR2ACI
1070
     2
1001
ACAD
1010
0.0
1020
0.0
1030
0.0
  0
LINE
  5
126701
  8
SLIM
 10
9914.9999999999945
 20
-705.39487757862241
 30
0.0
 11
9965.3948775786175
 21
-654.99999999999966
 31
0.0
1001
GRADIENTCOLOR1ACI
1070
     5
1001
GRADIENTCOLOR2ACI
1070
     2
1001
ACAD
1010
0.0
1020
0.0
1030
0.0
  0
LINE
  5
126702
  8
SLIM
 10
9914.9999999999945
 20
-723.35538982076014
 30
0.0
 11
9983.3553898207556
 21
-654.99999999999966
 31
0.0
1001
GRADIENTCOLOR1ACI
1070
     5
1001
GRADIENTCOLOR2ACI
1070
     2
1001
ACAD
1010
0.0
1020
0.0
1030
0.0
  0
LINE
  5
126703
  8
SLIM
 10
9914.9999999999945
 20
-741.31590206289775
 30
0.0
 11
10001.31590206289
 21
-654.99999999999966
 31
0.0
1001
GRADIENTCOLOR1ACI
1070
     5
1001
GRADIENTCOLOR2ACI
1070
     2
1001
ACAD
1010
0.0
1020
0.0
1030
0.0
  0
LINE
  5
126704
  8
SLIM
 10
9914.9999999999964
 20
-759.27641430503559
 30
0.0
 11
10019.27641430503
 21
-654.99999999999966
 31
0.0
1001
GRADIENTCOLOR1ACI
1070
     5
1001
GRADIENTCOLOR2ACI
1070
     2
1001
ACAD
1010
0.0
1020
0.0
1030
0.0
  0
LINE
  5
126705
  8
SLIM
 10
9914.9999999999964
 20
-777.2369265471732
 30
0.0
 11
10037.23692654717
 21
-654.99999999999966
 31
0.0
1001
GRADIENTCOLOR1ACI
1070
     5
1001
GRADIENTCOLOR2ACI
1070
     2
1001
ACAD
1010
0.0
1020
0.0
1030
0.0
  0
LINE
  5
126706
  8
SLIM
 10
9914.9999999999964
 20
-795.19743878931092
 30
0.0
 11
10055.197438789301
 21
-654.99999999999966
 31
0.0
1001
GRADIENTCOLOR1ACI
1070
     5
1001
GRADIENTCOLOR2ACI
1070
     2
1001
ACAD
1010
0.0
1020
0.0
1030
0.0
  0
LINE
  5
126707
  8
SLIM
 10
9914.9999999999982
 20
-813.15795103144865
 30
0.0
 11
10073.15795103144
 21
-654.99999999999966
 31
0.0
1001
GRADIENTCOLOR1ACI
1070
     5
1001
GRADIENTCOLOR2ACI
1070
     2
1001
ACAD
1010
0.0
1020
0.0
1030
0.0
  0
LINE
  5
126708
  8
SLIM
 10
9914.9999999999982
 20
-831.11846327358603
 30
0.0
 11
10085.000000000009
 21
-661.11846327357694
 31
0.0
1001
GRADIENTCOLOR1ACI
1070
     5
1001
GRADIENTCOLOR2ACI
1070
     2
1001
ACAD
1010
0.0
1020
0.0
1030
0.0
  0
LINE
  5
126709
  8
SLIM
 10
9914.9999999999982
 20
-849.07897551572387
 30
0.0
 11
10085.000000000009
 21
-679.07897551571614
 31
0.0
1001
GRADIENTCOLOR1ACI
1070
     5
1001
GRADIENTCOLOR2ACI
1070
     2
1001
ACAD
1010
0.0
1020
0.0
1030
0.0
  0
LINE
  5
12670A
  8
SLIM
 10
9915.0
 20
-867.03948775786171
 30
0.0
 11
10085.0
 21
-697.039487757855
 31
0.0
1001
GRADIENTCOLOR1ACI
1070
     5
1001
GRADIENTCOLOR2ACI
1070
     2
1001
ACAD
1010
0.0
1020
0.0
1030
0.0
  0
LINE
  5
12670B
  8
SLIM
 10
9915.2836007495607
 20
-884.71639925044144
 30
0.0
 11
10085.0
 21
-714.99999999999386
 31
0.0
1001
GRADIENTCOLOR1ACI
1070
     5
1001
GRADIENTCOLOR2ACI
1070
     2
1001
ACAD
1010
0.0
1020
0.0
1030
0.0
  0
LINE
  5
12670C
  8
SLIM
 10
9917.4979104780396
 20
-900.46260176409714
 30
0.0
 11
10085.0
 21
-732.96051224213261
 31
0.0
1001
GRADIENTCOLOR1ACI
1070
     5
1001
GRADIENTCOLOR2ACI
1070
     2
1001
ACAD
1010
0.0
1020
0.0
1030
0.0
  0
LINE
  5
12670D
  8
SLIM
 10
9919.7122202065257
 20
-916.20880427775239
 30
0.0
 11
10085.0
 21
-750.92102448427181
 31
0.0
1001
GRADIENTCOLOR1ACI
1070
     5
1001
GRADIENTCOLOR2ACI
1070
     2
1001
ACAD
1010
0.0
1020
0.0
1030
0.0
  0
LINE
  5
12670E
  8
SLIM
 10
9921.9265299350063
 20
-931.95500679140775
 30
0.0
 11
10085.0
 21
-768.88153672641056
 31
0.0
1001
GRADIENTCOLOR1ACI
1070
     5
1001
GRADIENTCOLOR2ACI
1070
     2
1001
ACAD
1010
0.0
1020
0.0
1030
0.0
  0
LINE
  5
12670F
  8
SLIM
 10
9924.1408396634924
 20
-947.701209305063
 30
0.0
 11
10085.0
 21
-786.84204896854953
 31
0.0
1001
GRADIENTCOLOR1ACI
1070
     5
1001
GRADIENTCOLOR2ACI
1070
     2
1001
ACAD
1010
0.0
1020
0.0
1030
0.0
  0
LINE
  5
126710
  8
SLIM
 10
9926.3551493919731
 20
-963.44741181871825
 30
0.0
 11
10085.0
 21
-804.80256121068851
 31
0.0
1001
GRADIENTCOLOR1ACI
1070
     5
1001
GRADIENTCOLOR2ACI
1070
     2
1001
ACAD
1010
0.0
1020
0.0
1030
0.0
  0
LINE
  5
126711
  8
SLIM
 10
9928.5694591204574
 20
-979.19361433237384
 30
0.0
 11
10085.0
 21
-822.76307345282703
 31
0.0
1001
GRADIENTCOLOR1ACI
1070
     5
1001
GRADIENTCOLOR2ACI
1070
     2
1001
ACAD
1010
0.0
1020
0.0
1030
0.0
  0
LINE
  5
126712
  8
SLIM
 10
9930.7837688489399
 20
-994.93981684602909
 30
0.0
 11
10085.0
 21
-840.72358569496635
 31
0.0
1001
GRADIENTCOLOR1ACI
1070
     5
1001
GRADIENTCOLOR2ACI
1070
     2
1001
ACAD
1010
0.0
1020
0.0
1030
0.0
  0
LINE
  5
126713
  8
SLIM
 10
9932.9980785774187
 20
-1010.686019359684
 30
0.0
 11
10085.0
 21
-858.68409793710521
 31
0.0
1001
GRADIENTCOLOR1ACI
1070
     5
1001
GRADIENTCOLOR2ACI
1070
     2
1001
ACAD
1010
0.0
1020
0.0
1030
0.0
  0
LINE
  5
126714
  8
SLIM
 10
9932.9999999999927
 20
-1028.644610179251
 30
0.0
 11
10085.0
 21
-876.64461017924395
 31
0.0
1001
GRADIENTCOLOR1ACI
1070
     5
1001
GRADIENTCOLOR2ACI
1070
     2
1001
ACAD
1010
0.0
1020
0.0
1030
0.0
  0
LINE
  5
126715
  8
SLIM
 10
9934.6051224213879
 20
-1044.9999999999959
 30
0.0
 11
10083.05183715436
 21
-896.55328526701646
 31
0.0
1001
GRADIENTCOLOR1ACI
1070
     5
1001
GRADIENTCOLOR2ACI
1070
     2
1001
ACAD
1010
0.0
1020
0.0
1030
0.0
  0
LINE
  5
126716
  8
SLIM
 10
9952.5656346635242
 20
-1044.9999999999959
 30
0.0
 11
10080.11284424201
 21
-917.45279042150355
 31
0.0
1001
GRADIENTCOLOR1ACI
1070
     5
1001
GRADIENTCOLOR2ACI
1070
     2
1001
ACAD
1010
0.0
1020
0.0
1030
0.0
  0
LINE
  5
126717
  8
SLIM
 10
9970.5261469056622
 20
-1044.999999999997
 30
0.0
 11
10077.17385132967
 21
-938.35229557599132
 31
0.0
1001
GRADIENTCOLOR1ACI
1070
     5
1001
GRADIENTCOLOR2ACI
1070
     2
1001
ACAD
1010
0.0
1020
0.0
1030
0.0
  0
LINE
  5
126718
  8
SLIM
 10
9988.4866591478003
 20
-1044.999999999997
 30
0.0
 11
10074.23485841732
 21
-959.25180073047841
 31
0.0
1001
GRADIENTCOLOR1ACI
1070
     5
1001
GRADIENTCOLOR2ACI
1070
     2
1001
ACAD
1010
0.0
1020
0.0
1030
0.0
  0
LINE
  5
126719
  8
SLIM
 10
10006.44717138994
 20
-1044.999999999998
 30
0.0
 11
10071.29586550497
 21
-980.15130588496572
 31
0.0
1001
GRADIENTCOLOR1ACI
1070
     5
1001
GRADIENTCOLOR2ACI
1070
     2
1001
ACAD
1010
0.0
1020
0.0
1030
0.0
  0
LINE
  5
12671A
  8
SLIM
 10
10024.407683632069
 20
-1044.999999999998
 30
0.0
 11
10068.35687259262
 21
-1001.050811039453
 31
0.0
1001
GRADIENTCOLOR1ACI
1070
     5
1001
GRADIENTCOLOR2ACI
1070
     2
1001
ACAD
1010
0.0
1020
0.0
1030
0.0
  0
LINE
  5
12671B
  8
SLIM
 10
10042.368195874211
 20
-1044.9999999999991
 30
0.0
 11
10067.000000000009
 21
-1020.368195874201
 31
0.0
1001
GRADIENTCOLOR1ACI
1070
     5
1001
GRADIENTCOLOR2ACI
1070
     2
1001
ACAD
1010
0.0
1020
0.0
1030
0.0
  0
LINE
  5
12671C
  8
SLIM
 10
10060.328708116351
 20
-1044.9999999999991
 30
0.0
 11
10067.000000000009
 21
-1038.3287081163401
 31
0.0
1001
GRADIENTCOLOR1ACI
1070
     5
1001
GRADIENTCOLOR2ACI
1070
     2
1001
ACAD
1010
0.0
1020
0.0
1030
0.0
  0
LINE
  5
12671D
  8
OBJECT
 10
9932.9999999999927
 20
-1044.9999999999959
 30
0.0
 11
10067.000000000009
 21
-1044.9999999999991
 31
0.0
1001
ACDBBLOCKREPETAG
1070
     1
1071
        1
1005
12671D
  0
LINE
  5
12671E
  8
OBJECT
 10
9914.9999999999927
 20
-654.99999999999966
 30
0.0
 11
9915.0
 21
-882.69968280914065
 31
0.0
1001
ACDBBLOCKREPETAG
1070
     1
1071
        2
1005
12671E
  0
LINE
  5
12671F
  8
OBJECT
 10
10085.000000000009
 20
-654.99999999999966
 30
0.0
 11
10085.0
 21
-882.69968280917192
 31
0.0
1001
ACDBBLOCKREPETAG
1070
     1
1071
        3
1005
12671F
  0
LINE
  5
126720
  8
OBJECT
 10
9915.0
 20
-882.69968280914065
 30
0.0
 11
9932.9999999999927
 21
-1010.699682809081
 31
0.0
1001
ACDBBLOCKREPETAG
1070
     1
1071
        4
1005
126720
  0
LINE
  5
126721
  8
OBJECT
 10
10067.000000000009
 20
-1010.699682809128
 30
0.0
 11
10085.0
 21
-882.69968280917192
 31
0.0
1001
ACDBBLOCKREPETAG
1070
     1
1071
        5
1005
126721
  0
LINE
  5
126722
  8
OBJECT
 10
10085.000000000009
 20
-654.99999999999966
 30
0.0
 11
9914.9999999999927
 21
-654.99999999999966
 31
0.0
1001
ACDBBLOCKREPETAG
1070
     1
1071
        6
1005
126722
  0
LINE
  5
126723
  8
OBJECT
 10
9932.9999999999927
 20
-1010.699682809081
 30
0.0
 11
9932.9999999999927
 21
-1044.9999999999959
 31
0.0
1001
ACDBBLOCKREPETAG
1070
     1
1071
        8
1005
126723
  0
LINE
  5
126724
  8
OBJECT
 10
10067.000000000009
 20
-1010.699682809128
 30
0.0
 11
10067.000000000009
 21
-1044.9999999999991
 31
0.0
1001
ACDBBLOCKREPETAG
1070
     1
1071
        9
1005
126724
  0
LINE
  5
126725
  8
SLIM
 10
7914.9999999999909
 20
-669.47385309434685
 30
0.0
 11
7929.4738530943387
 21
-654.99999999999966
 31
0.0
1001
GRADIENTCOLOR1ACI
1070
     5
1001
GRADIENTCOLOR2ACI
1070
     2
1001
ACAD
1010
0.0
1020
0.0
1030
0.0
  0
LINE
  5
126726
  8
SLIM
 10
7914.9999999999909
 20
-687.43436533648469
 30
0.0
 11
7947.4343653364758
 21
-654.99999999999966
 31
0.0
1001
GRADIENTCOLOR1ACI
1070
     5
1001
GRADIENTCOLOR2ACI
1070
     2
1001
ACAD
1010
0.0
1020
0.0
1030
0.0
  0
LINE
  5
126727
  8
SLIM
 10
7914.9999999999909
 20
-705.39487757862241
 30
0.0
 11
7965.3948775786139
 21
-654.99999999999966
 31
0.0
1001
GRADIENTCOLOR1ACI
1070
     5
1001
GRADIENTCOLOR2ACI
1070
     2
1001
ACAD
1010
0.0
1020
0.0
1030
0.0
  0
LINE
  5
126728
  8
SLIM
 10
7914.9999999999982
 20
-723.35538982076014
 30
0.0
 11
7983.3553898207547
 21
-654.99999999999966
 31
0.0
1001
GRADIENTCOLOR1ACI
1070
     5
1001
GRADIENTCOLOR2ACI
1070
     2
1001
ACAD
1010
0.0
1020
0.0
1030
0.0
  0
LINE
  5
126729
  8
SLIM
 10
7914.9999999999982
 20
-741.31590206289775
 30
0.0
 11
8001.3159020628927
 21
-654.99999999999966
 31
0.0
1001
GRADIENTCOLOR1ACI
1070
     5
1001
GRADIENTCOLOR2ACI
1070
     2
1001
ACAD
1010
0.0
1020
0.0
1030
0.0
  0
LINE
  5
12672A
  8
SLIM
 10
7914.9999999999982
 20
-759.27641430503525
 30
0.0
 11
8019.2764143050299
 21
-654.99999999999966
 31
0.0
1001
GRADIENTCOLOR1ACI
1070
     5
1001
GRADIENTCOLOR2ACI
1070
     2
1001
ACAD
1010
0.0
1020
0.0
1030
0.0
  0
LINE
  5
12672B
  8
SLIM
 10
7914.9999999999982
 20
-777.2369265471732
 30
0.0
 11
8037.2369265471707
 21
-654.99999999999966
 31
0.0
1001
GRADIENTCOLOR1ACI
1070
     5
1001
GRADIENTCOLOR2ACI
1070
     2
1001
ACAD
1010
0.0
1020
0.0
1030
0.0
  0
LINE
  5
12672C
  8
SLIM
 10
7914.9999999999982
 20
-795.19743878931092
 30
0.0
 11
8055.1974387893079
 21
-654.99999999999966
 31
0.0
1001
GRADIENTCOLOR1ACI
1070
     5
1001
GRADIENTCOLOR2ACI
1070
     2
1001
ACAD
1010
0.0
1020
0.0
1030
0.0
  0
LINE
  5
12672D
  8
SLIM
 10
7914.9999999999982
 20
-813.15795103144865
 30
0.0
 11
8073.1579510314468
 21
-654.99999999999966
 31
0.0
1001
GRADIENTCOLOR1ACI
1070
     5
1001
GRADIENTCOLOR2ACI
1070
     2
1001
ACAD
1010
0.0
1020
0.0
1030
0.0
  0
LINE
  5
12672E
  8
SLIM
 10
7914.9999999999982
 20
-831.11846327358569
 30
0.0
 11
8085.0000000000064
 21
-661.11846327357694
 31
0.0
1001
GRADIENTCOLOR1ACI
1070
     5
1001
GRADIENTCOLOR2ACI
1070
     2
1001
ACAD
1010
0.0
1020
0.0
1030
0.0
  0
LINE
  5
12672F
  8
SLIM
 10
7914.9999999999982
 20
-849.07897551572387
 30
0.0
 11
8085.0000000000064
 21
-679.07897551571614
 31
0.0
1001
GRADIENTCOLOR1ACI
1070
     5
1001
GRADIENTCOLOR2ACI
1070
     2
1001
ACAD
1010
0.0
1020
0.0
1030
0.0
  0
LINE
  5
126730
  8
SLIM
 10
7914.9999999999982
 20
-867.03948775786171
 30
0.0
 11
8085.0000000000064
 21
-697.039487757855
 31
0.0
1001
GRADIENTCOLOR1ACI
1070
     5
1001
GRADIENTCOLOR2ACI
1070
     2
1001
ACAD
1010
0.0
1020
0.0
1030
0.0
  0
LINE
  5
126731
  8
SLIM
 10
7915.283600749558
 20
-884.71639925044144
 30
0.0
 11
8085.0000000000064
 21
-714.99999999999386
 31
0.0
1001
GRADIENTCOLOR1ACI
1070
     5
1001
GRADIENTCOLOR2ACI
1070
     2
1001
ACAD
1010
0.0
1020
0.0
1030
0.0
  0
LINE
  5
126732
  8
SLIM
 10
7917.4979104780423
 20
-900.46260176409714
 30
0.0
 11
8085.0000000000064
 21
-732.96051224213261
 31
0.0
1001
GRADIENTCOLOR1ACI
1070
     5
1001
GRADIENTCOLOR2ACI
1070
     2
1001
ACAD
1010
0.0
1020
0.0
1030
0.0
  0
LINE
  5
126733
  8
SLIM
 10
7919.7122202065239
 20
-916.20880427775205
 30
0.0
 11
8085.0000000000064
 21
-750.92102448427181
 31
0.0
1001
GRADIENTCOLOR1ACI
1070
     5
1001
GRADIENTCOLOR2ACI
1070
     2
1001
ACAD
1010
0.0
1020
0.0
1030
0.0
  0
LINE
  5
126734
  8
SLIM
 10
7921.9265299350072
 20
-931.9550067914073
 30
0.0
 11
8085.0000000000018
 21
-768.88153672641056
 31
0.0
1001
GRADIENTCOLOR1ACI
1070
     5
1001
GRADIENTCOLOR2ACI
1070
     2
1001
ACAD
1010
0.0
1020
0.0
1030
0.0
  0
LINE
  5
126735
  8
SLIM
 10
7924.1408396634897
 20
-947.70120930506255
 30
0.0
 11
8085.0000000000018
 21
-786.84204896854953
 31
0.0
1001
GRADIENTCOLOR1ACI
1070
     5
1001
GRADIENTCOLOR2ACI
1070
     2
1001
ACAD
1010
0.0
1020
0.0
1030
0.0
  0
LINE
  5
126736
  8
SLIM
 10
7926.3551493919731
 20
-963.44741181871814
 30
0.0
 11
8085.0000000000018
 21
-804.80256121068851
 31
0.0
1001
GRADIENTCOLOR1ACI
1070
     5
1001
GRADIENTCOLOR2ACI
1070
     2
1001
ACAD
1010
0.0
1020
0.0
1030
0.0
  0
LINE
  5
126737
  8
SLIM
 10
7928.5694591204538
 20
-979.19361433237304
 30
0.0
 11
8085.0000000000018
 21
-822.76307345282703
 31
0.0
1001
GRADIENTCOLOR1ACI
1070
     5
1001
GRADIENTCOLOR2ACI
1070
     2
1001
ACAD
1010
0.0
1020
0.0
1030
0.0
  0
LINE
  5
126738
  8
SLIM
 10
7930.783768848939
 20
-994.93981684602863
 30
0.0
 11
8085.0000000000018
 21
-840.72358569496635
 31
0.0
1001
GRADIENTCOLOR1ACI
1070
     5
1001
GRADIENTCOLOR2ACI
1070
     2
1001
ACAD
1010
0.0
1020
0.0
1030
0.0
  0
LINE
  5
126739
  8
SLIM
 10
7938.6840979371091
 20
-1004.999999999998
 30
0.0
 11
8085.0
 21
-858.68409793710521
 31
0.0
1001
GRADIENTCOLOR1ACI
1070
     5
1001
GRADIENTCOLOR2ACI
1070
     2
1001
ACAD
1010
0.0
1020
0.0
1030
0.0
  0
LINE
  5
12673A
  8
SLIM
 10
7943.0
 20
-1018.644610179244
 30
0.0
 11
7956.6446101792453
 21
-1004.999999999998
 31
0.0
1001
GRADIENTCOLOR1ACI
1070
     5
1001
GRADIENTCOLOR2ACI
1070
     2
1001
ACAD
1010
0.0
1020
0.0
1030
0.0
  0
LINE
  5
12673B
  8
SLIM
 10
7956.6446101792453
 20
-1004.999999999998
 30
0.0
 11
8085.0
 21
-876.64461017924395
 31
0.0
1001
GRADIENTCOLOR1ACI
1070
     5
1001
GRADIENTCOLOR2ACI
1070
     2
1001
ACAD
1010
0.0
1020
0.0
1030
0.0
  0
LINE
  5
12673C
  8
SLIM
 10
7944.6051224213861
 20
-1034.999999999998
 30
0.0
 11
7974.6051224213861
 21
-1004.999999999998
 31
0.0
1001
GRADIENTCOLOR1ACI
1070
     5
1001
GRADIENTCOLOR2ACI
1070
     2
1001
ACAD
1010
0.0
1020
0.0
1030
0.0
  0
LINE
  5
12673D
  8
SLIM
 10
7974.6051224213861
 20
-1004.999999999998
 30
0.0
 11
8083.051837154364
 21
-896.55328526701703
 31
0.0
1001
GRADIENTCOLOR1ACI
1070
     5
1001
GRADIENTCOLOR2ACI
1070
     2
1001
ACAD
1010
0.0
1020
0.0
1030
0.0
  0
LINE
  5
12673E
  8
SLIM
 10
7962.5656346635242
 20
-1034.999999999998
 30
0.0
 11
7992.5656346635242
 21
-1004.999999999998
 31
0.0
1001
GRADIENTCOLOR1ACI
1070
     5
1001
GRADIENTCOLOR2ACI
1070
     2
1001
ACAD
1010
0.0
1020
0.0
1030
0.0
  0
LINE
  5
12673F
  8
SLIM
 10
7992.5656346635242
 20
-1004.999999999998
 30
0.0
 11
8080.1128442420159
 21
-917.45279042150526
 31
0.0
1001
GRADIENTCOLOR1ACI
1070
     5
1001
GRADIENTCOLOR2ACI
1070
     2
1001
ACAD
1010
0.0
1020
0.0
1030
0.0
  0
LINE
  5
126740
  8
SLIM
 10
7980.5261469056622
 20
-1034.999999999998
 30
0.0
 11
8010.5261469056568
 21
-1004.999999999998
 31
0.0
1001
GRADIENTCOLOR1ACI
1070
     5
1001
GRADIENTCOLOR2ACI
1070
     2
1001
ACAD
1010
0.0
1020
0.0
1030
0.0
  0
LINE
  5
126741
  8
SLIM
 10
8010.5261469056568
 20
-1004.999999999998
 30
0.0
 11
8077.1738513296659
 21
-938.35229557599303
 31
0.0
1001
GRADIENTCOLOR1ACI
1070
     5
1001
GRADIENTCOLOR2ACI
1070
     2
1001
ACAD
1010
0.0
1020
0.0
1030
0.0
  0
LINE
  5
126742
  8
SLIM
 10
7998.4866591478003
 20
-1034.999999999998
 30
0.0
 11
8028.4866591478003
 21
-1004.999999999998
 31
0.0
1001
GRADIENTCOLOR1ACI
1070
     5
1001
GRADIENTCOLOR2ACI
1070
     2
1001
ACAD
1010
0.0
1020
0.0
1030
0.0
  0
LINE
  5
126743
  8
SLIM
 10
8028.4866591478003
 20
-1004.999999999998
 30
0.0
 11
8074.234858417316
 21
-959.25180073048125
 31
0.0
1001
GRADIENTCOLOR1ACI
1070
     5
1001
GRADIENTCOLOR2ACI
1070
     2
1001
ACAD
1010
0.0
1020
0.0
1030
0.0
  0
LINE
  5
126744
  8
SLIM
 10
8016.4471713899393
 20
-1034.999999999998
 30
0.0
 11
8046.4471713899411
 21
-1004.999999999998
 31
0.0
1001
GRADIENTCOLOR1ACI
1070
     5
1001
GRADIENTCOLOR2ACI
1070
     2
1001
ACAD
1010
0.0
1020
0.0
1030
0.0
  0
LINE
  5
126745
  8
SLIM
 10
8046.4471713899411
 20
-1004.999999999998
 30
0.0
 11
8071.2958655049679
 21
-980.15130588496913
 31
0.0
1001
GRADIENTCOLOR1ACI
1070
     5
1001
GRADIENTCOLOR2ACI
1070
     2
1001
ACAD
1010
0.0
1020
0.0
1030
0.0
  0
LINE
  5
126746
  8
SLIM
 10
8034.4076836320774
 20
-1034.999999999998
 30
0.0
 11
8057.0
 21
-1012.4076836320741
 31
0.0
1001
GRADIENTCOLOR1ACI
1070
     5
1001
GRADIENTCOLOR2ACI
1070
     2
1001
ACAD
1010
0.0
1020
0.0
1030
0.0
  0
LINE
  5
126747
  8
SLIM
 10
8064.4076836320764
 20
-1004.999999999998
 30
0.0
 11
8068.3568725926207
 21
-1001.050811039457
 31
0.0
1001
GRADIENTCOLOR1ACI
1070
     5
1001
GRADIENTCOLOR2ACI
1070
     2
1001
ACAD
1010
0.0
1020
0.0
1030
0.0
  0
LINE
  5
126748
  8
SLIM
 10
8052.3681958742136
 20
-1034.999999999998
 30
0.0
 11
8057.0
 21
-1030.368195874212
 31
0.0
1001
GRADIENTCOLOR1ACI
1070
     5
1001
GRADIENTCOLOR2ACI
1070
     2
1001
ACAD
1010
0.0
1020
0.0
1030
0.0
  0
LINE
  5
126749
  8
OBJECT
 10
7943.0
 20
-1034.999999999998
 30
0.0
 11
8057.0
 21
-1034.999999999998
 31
0.0
1001
ACDBBLOCKREPETAG
1070
     1
1071
        1
1005
126749
  0
LINE
  5
12674A
  8
OBJECT
 10
7932.1984821049637
 20
-1004.999999999998
 30
0.0
 11
8067.8015178950409
 21
-1004.999999999998
 31
0.0
1001
ACDBBLOCKREPETAG
1070
     1
1071
        2
1005
12674A
  0
LINE
  5
12674B
  8
OBJECT
 10
7943.0
 20
-1034.999999999998
 30
0.0
 11
7943.0
 21
-1009.999999999998
 31
0.0
1001
ACDBBLOCKREPETAG
1070
     1
1071
        3
1005
12674B
  0
LINE
  5
12674C
  8
OBJECT
 10
7914.9999999999909
 20
-654.99999999999966
 30
0.0
 11
7915.0
 21
-882.69968280914065
 31
0.0
1001
ACDBBLOCKREPETAG
1070
     1
1071
        4
1005
12674C
  0
LINE
  5
12674D
  8
OBJECT
 10
8085.0000000000064
 20
-654.99999999999966
 30
0.0
 11
8085.0
 21
-882.69968280917192
 31
0.0
1001
ACDBBLOCKREPETAG
1070
     1
1071
        5
1005
12674D
  0
LINE
  5
12674E
  8
OBJECT
 10
7915.0
 20
-882.69968280914065
 30
0.0
 11
7932.1984821049637
 21
-1004.999999999998
 31
0.0
1001
ACDBBLOCKREPETAG
1070
     1
1071
        6
1005
12674E
  0
LINE
  5
12674F
  8
OBJECT
 10
8067.8015178950409
 20
-1004.999999999998
 30
0.0
 11
8085.0
 21
-882.69968280917192
 31
0.0
1001
ACDBBLOCKREPETAG
1070
     1
1071
        7
1005
12674F
  0
LINE
  5
126750
  8
OBJECT
 10
8085.0000000000064
 20
-654.99999999999966
 30
0.0
 11
7914.9999999999909
 21
-654.99999999999966
 31
0.0
1001
ACDBBLOCKREPETAG
1070
     1
1071
        8
1005
126750
  0
LINE
  5
126751
  8
OBJECT
 10
7943.0
 20
-1009.999999999998
 30
0.0
 11
7942.296875
 21
-1004.999999999998
 31
0.0
1001
ACDBBLOCKREPETAG
1070
     1
1071
       10
1005
126751
  0
LINE
  5
126752
  8
OBJECT
 10
8057.0
 20
-1034.999999999998
 30
0.0
 11
8057.0
 21
-1009.999999999998
 31
0.0
1001
ACDBBLOCKREPETAG
1070
     1
1071
       11
1005
126752
  0
LINE
  5
126753
  8
OBJECT
 10
8057.0
 20
-1009.999999999998
 30
0.0
 11
8057.7031250000027
 21
-1004.999999999998
 31
0.0
1001
ACDBBLOCKREPETAG
1070
     1
1071
       12
1005
126753
  0
LINE
  5
126754
  8
OBJECT
 10
1918.0
 20
-470.99999999999932
 30
0.0
 11
1918.0
 21
-449.99999999999932
 31
0.0
1001
ACDBBLOCKREPETAG
1070
     1
1071
        0
1005
126754
  0
LINE
  5
126755
  8
OBJECT
 10
1918.0
 20
-449.99999999999932
 30
0.0
 11
2082.0000000000041
 21
-449.99999999999932
 31
0.0
1001
ACDBBLOCKREPETAG
1070
     1
1071
        1
1005
126755
  0
LINE
  5
126756
  8
HIDDEN
 10
1943.0
 20
-519.99999999999955
 30
0.0
 11
2057.0
 21
-519.99999999999955
 31
0.0
1001
ACDBBLOCKREPETAG
1070
     1
1071
        2
1005
126756
  0
LINE
  5
126757
  8
OBJECT
 10
2082.0000000000041
 20
-470.99999999999932
 30
0.0
 11
1918.0
 21
-470.99999999999932
 31
0.0
1001
ACDBBLOCKREPETAG
1070
     1
1071
        3
1005
126757
  0
LINE
  5
126758
  8
CENTER
 10
2000.0
 20
-434.99999999999949
 30
0.0
 11
2000.0
 21
-799.99999999999955
 31
0.0
1001
ACDBBLOCKREPETAG
1070
     1
1071
        4
1005
126758
  0
LINE
  5
126759
  8
OBJECT
 10
1925.0
 20
-533.99999999999955
 30
0.0
 11
1925.0
 21
-787.99999999999955
 31
0.0
1001
ACDBBLOCKREPETAG
1070
     1
1071
        5
1005
126759
  0
LINE
  5
12675A
  8
OBJECT
 10
1928.0
 20
-470.99999999999932
 30
0.0
 11
1928.0
 21
-533.99999999999955
 31
0.0
1001
ACDBBLOCKREPETAG
1070
     1
1071
        6
1005
12675A
  0
LINE
  5
12675B
  8
OBJECT
 10
2072.0
 20
-533.99999999999955
 30
0.0
 11
2072.0
 21
-470.99999999999932
 31
0.0
1001
ACDBBLOCKREPETAG
1070
     1
1071
        7
1005
12675B
  0
LINE
  5
12675C
  8
OBJECT
 10
1920.0
 20
-787.99999999999955
 30
0.0
 11
2080.0
 21
-787.99999999999955
 31
0.0
1001
ACDBBLOCKREPETAG
1070
     1
1071
        8
1005
12675C
  0
LINE
  5
12675D
  8
OBJECT
 10
2080.0
 20
-533.99999999999955
 30
0.0
 11
1925.0
 21
-533.99999999999955
 31
0.0
1001
ACDBBLOCKREPETAG
1070
     1
1071
        9
1005
12675D
  0
LINE
  5
12675E
  8
OBJECT
 10
1920.0
 20
-787.99999999999955
 30
0.0
 11
1920.0
 21
-799.99999999999955
 31
0.0
1001
ACDBBLOCKREPETAG
1070
     1
1071
       10
1005
12675E
  0
LINE
  5
12675F
  8
OBJECT
 10
1920.0
 20
-799.99999999999955
 30
0.0
 11
2080.0
 21
-799.99999999999955
 31
0.0
1001
ACDBBLOCKREPETAG
1070
     1
1071
       11
1005
12675F
  0
LINE
  5
126760
  8
OBJECT
 10
2080.0
 20
-799.99999999999955
 30
0.0
 11
2080.0
 21
-787.99999999999955
 31
0.0
1001
ACDBBLOCKREPETAG
1070
     1
1071
       12
1005
126760
  0
LINE
  5
126761
  8
OBJECT
 10
2074.9999999998622
 20
-657.99999999985039
 30
0.0
 11
2075.0
 21
-787.99999999999955
 31
0.0
1001
ACDBBLOCKREPETAG
1070
     1
1071
       14
1005
126761
  0
LINE
  5
126762
  8
OBJECT
 10
2074.9999908029849
 20
-657.99998602702135
 30
0.0
 11
2080.0
 21
-657.99998602702135
 31
0.0
1001
ACDBBLOCKREPETAG
1070
     1
1071
       15
1005
126762
  0
LINE
  5
126763
  8
OBJECT
 10
1920.794081712025
 20
-449.99999999999932
 30
0.0
 11
1920.794081712025
 21
-470.99999999999932
 31
0.0
1001
ACDBBLOCKREPETAG
1070
     1
1071
       16
1005
126763
  0
LINE
  5
126764
  8
OBJECT
 10
1928.737895999999
 20
-449.99999999999932
 30
0.0
 11
1928.737895999999
 21
-470.99999999999932
 31
0.0
1001
ACDBBLOCKREPETAG
1070
     1
1071
       17
1005
126764
  0
LINE
  5
126765
  8
OBJECT
 10
1970.833026
 20
-449.99999999999932
 30
0.0
 11
1970.833026
 21
-470.99999999999932
 31
0.0
1001
ACDBBLOCKREPETAG
1070
     1
1071
       18
1005
126765
  0
LINE
  5
126766
  8
OBJECT
 10
1978.7768389217999
 20
-449.99999999999932
 30
0.0
 11
1978.7768389217999
 21
-470.99999999999932
 31
0.0
1001
ACDBBLOCKREPETAG
1070
     1
1071
       19
1005
126766
  0
LINE
  5
126767
  8
OBJECT
 10
2082.0
 20
-470.99999999999932
 30
0.0
 11
2082.0
 21
-449.99999999999932
 31
0.0
1001
ACDBBLOCKREPETAG
1070
     1
1071
       20
1005
126767
  0
LINE
  5
126768
  8
OBJECT
 10
2079.2059182879748
 20
-449.99999999999932
 30
0.0
 11
2079.2059182879748
 21
-470.99999999999932
 31
0.0
1001
ACDBBLOCKREPETAG
1070
     1
1071
       21
1005
126768
  0
LINE
  5
126769
  8
OBJECT
 10
2071.2621040000008
 20
-449.99999999999932
 30
0.0
 11
2071.2621040000008
 21
-470.99999999999932
 31
0.0
1001
ACDBBLOCKREPETAG
1070
     1
1071
       22
1005
126769
  0
LINE
  5
12676A
  8
OBJECT
 10
2029.166974
 20
-449.99999999999932
 30
0.0
 11
2029.166974
 21
-470.99999999999932
 31
0.0
1001
ACDBBLOCKREPETAG
1070
     1
1071
       23
1005
12676A
  0
LINE
  5
12676B
  8
OBJECT
 10
2021.2231610782001
 20
-449.99999999999932
 30
0.0
 11
2021.2231610782001
 21
-470.99999999999932
 31
0.0
1001
ACDBBLOCKREPETAG
1070
     1
1071
       24
1005
12676B
  0
ARC
  5
12676C
  8
OBJECT
 10
2200.6872746716731
 20
-649.40809941010718
 30
0.0
 40
170.6350503965856
 50
137.44134459184301
 51
149.91949581336559
1001
ACDBBLOCKREPETAG
1070
     1
1071
       25
1005
12676C
  0
ARC
  5
12676D
  8
OBJECT
 10
2118.8455987040511
 20
-605.88272669536445
 30
0.0
 40
78.072222021763665
 50
147.45515310381529
 51
164.66365997719581
1001
ACDBBLOCKREPETAG
1070
     1
1071
       26
1005
12676D
  0
ARC
  5
12676E
  8
OBJECT
 10
2085.7554349608731
 20
-595.99999999999955
 30
0.0
 40
43.55353926885617
 50
165.6884523007466
 51
194.3115476992534
1001
ACDBBLOCKREPETAG
1070
     1
1071
       27
1005
12676E
  0
ARC
  5
12676F
  8
OBJECT
 10
2200.6872746716731
 20
-542.59190058989179
 30
0.0
 40
170.6350503965856
 50
210.0805041866343
 51
222.55865540815699
1001
ACDBBLOCKREPETAG
1070
     1
1071
       28
1005
12676F
  0
ARC
  5
126770
  8
OBJECT
 10
2118.8455987040511
 20
-586.11727330463452
 30
0.0
 40
78.072222021763665
 50
195.33634002280411
 51
212.54484689618471
1001
ACDBBLOCKREPETAG
1070
     1
1071
       29
1005
126770
  0
POINT
  5
126771
  8
DOTS
 10
2000.0
 20
-654.99999999999966
 30
0.0
1001
ACDBBLOCKREPETAG
1070
     1
1071
      204
1005
126771
  0
LINE
  5
126772
  8
OBJECT
 10
1946.692194143754
 20
-195.46638161316051
 30
0.0
 11
1970.4540343856349
 21
-193.79865146436981
 31
0.0
1001
ACDBBLOCKREPETAG
1070
     1
1071
      326
1005
126772
  0
LINE
  5
126773
  8
OBJECT
 10
1947.385434727061
 20
-190.305593971766
 30
0.0
 11
1966.988435262901
 21
-188.92975272660161
 31
0.0
1001
ACDBBLOCKREPETAG
1070
     1
1071
      327
1005
126773
  0
LINE
  5
126774
  8
OBJECT
 10
1974.1135374752771
 20
-242.77722592637201
 30
0.0
 11
1982.136698837405
 21
-234.1690987954708
 31
0.0
1001
ACDBBLOCKREPETAG
1070
     1
1071
      328
1005
126774
  0
ARC
  5
126775
  8
OBJECT
 10
1982.1160071245381
 20
-183.28188966318251
 30
0.0
 40
60.031113246032611
 50
254.07020130412749
 51
262.33936106086588
1001
ACDBBLOCKREPETAG
1070
     1
1071
      329
1005
126775
  0
LINE
  5
126776
  8
OBJECT
 10
1977.612599732513
 20
-197.67495277149911
 30
0.0
 11
1982.136698837405
 21
-234.1690987954708
 31
0.0
1001
ACDBBLOCKREPETAG
1070
     1
1071
      330
1005
126776
  0
ARC
  5
126777
  8
OBJECT
 10
1967.6885653456411
 20
-198.90521351131881
 30
0.0
 40
10.0
 50
7.0667782929957941
 51
94.014734370532395
1001
ACDBBLOCKREPETAG
1070
     1
1071
      331
1005
126777
  0
ARC
  5
126778
  8
OBJECT
 10
1970.944125370974
 20
-200.78147401875589
 30
0.0
 40
7.0
 50
7.0667782929957941
 51
94.014733775014648
1001
ACDBBLOCKREPETAG
1070
     1
1071
      332
1005
126778
  0
POINT
  5
126779
  8
DOTS
 10
2000.0
 20
-199.99999999999909
 30
0.0
 50
270.0
1001
ACDBBLOCKREPETAG
1070
     1
1071
      347
1005
126779
  0
ARC
  5
12677A
  8
OBJECT
 10
2000.0
 20
-199.99999999999909
 30
0.0
 40
77.0
 50
202.25886899987509
 51
247.7411309999176
1001
ACDBBLOCKREPETAG
1070
     1
1071
        0
1005
12677A
  0
ARC
  5
12677B
  8
OBJECT
 10
2000.0
 20
-199.99999999999909
 30
0.0
 40
80.0
 50
50.804965661401717
 51
72.417343999921059
1001
ACDBBLOCKREPETAG
1070
     1
1071
        1
1005
12677B
  0
ARC
  5
12677C
  8
OBJECT
 10
2000.0
 20
-199.99999999999909
 30
0.0
 40
77.0
 50
292.25886900008243
 51
337.74113100012482
1001
ACDBBLOCKREPETAG
1070
     1
1071
        2
1005
12677C
  0
ARC
  5
12677D
  8
OBJECT
 10
2000.0
 20
-199.99999999999909
 30
0.0
 40
77.0
 50
112.2588690000823
 51
157.7411310001248
1001
ACDBBLOCKREPETAG
1070
     1
1071
        3
1005
12677D
  0
ARC
  5
12677E
  8
OBJECT
 10
2000.0
 20
-199.99999999999909
 30
0.0
 40
80.0
 50
107.5826560000789
 51
162.4173443189467
1001
ACDBBLOCKREPETAG
1070
     1
1071
        4
1005
12677E
  0
ARC
  5
12677F
  8
OBJECT
 10
2000.0
 20
-199.99999999999909
 30
0.0
 40
80.0
 50
197.5826545812283
 51
252.4173443189411
1001
ACDBBLOCKREPETAG
1070
     1
1071
        5
1005
12677F
  0
ARC
  5
126780
  8
OBJECT
 10
2000.0
 20
-199.99999999999909
 30
0.0
 40
80.0
 50
287.5826567808985
 51
309.1949674261358
1001
ACDBBLOCKREPETAG
1070
     1
1071
        6
1005
126780
  0
ARC
  5
126781
  8
OBJECT
 10
2000.0
 20
-199.99999999999909
 30
0.0
 40
77.0
 50
22.258868999875201
 51
67.74113099991763
1001
ACDBBLOCKREPETAG
1070
     1
1071
        7
1005
126781
  0
CIRCLE
  5
126782
  8
OBJECT
 10
2000.0
 20
-199.99999999999909
 30
0.0
 40
70.0
1001
ACDBBLOCKREPETAG
1070
     1
1071
        8
1005
126782
  0
LINE
  5
126783
  8
OBJECT
 10
2029.1669749999969
 20
-271.26210499999888
 30
0.0
 11
2021.2231624441049
 21
-279.20591755589248
 31
0.0
1001
ACDBBLOCKREPETAG
1070
     1
1071
        9
1005
126783
  0
LINE
  5
126784
  8
OBJECT
 10
1970.833026
 20
-271.26210499999888
 30
0.0
 11
1978.7768389219159
 21
-279.20591792191681
 31
0.0
1001
ACDBBLOCKREPETAG
1070
     1
1071
       10
1005
126784
  0
ARC
  5
126785
  8
OBJECT
 10
2000.0
 20
-199.99999999999909
 30
0.0
 40
82.000000000000014
 50
255.00000044864069
 51
285.00000053949208
1001
ACDBBLOCKREPETAG
1070
     1
1071
       11
1005
126785
  0
LINE
  5
126786
  8
OBJECT
 10
1928.737895999999
 20
-229.1669739999989
 30
0.0
 11
1920.7940817120541
 21
-221.2231597120545
 31
0.0
1001
ACDBBLOCKREPETAG
1070
     1
1071
       12
1005
126786
  0
ARC
  5
126787
  8
OBJECT
 10
2000.0
 20
-199.99999999999909
 30
0.0
 40
82.000000000000014
 50
165.00000044885081
 51
194.9999985630262
1001
ACDBBLOCKREPETAG
1070
     1
1071
       13
1005
126787
  0
LINE
  5
126788
  8
OBJECT
 10
1970.833026
 20
-128.7378949999993
 30
0.0
 11
1978.7768389219159
 21
-120.7940820780795
 31
0.0
1001
ACDBBLOCKREPETAG
1070
     1
1071
       14
1005
126788
  0
ARC
  5
126789
  8
OBJECT
 10
2000.0
 20
-199.99999999999909
 30
0.0
 40
82.000000000000014
 50
74.999999460507865
 51
104.99999955135929
1001
ACDBBLOCKREPETAG
1070
     1
1071
       15
1005
126789
  0
LINE
  5
12678A
  8
OBJECT
 10
2029.1669749999969
 20
-128.7378949999993
 30
0.0
 11
2021.2231624441049
 21
-120.79408244410391
 31
0.0
1001
ACDBBLOCKREPETAG
1070
     1
1071
       16
1005
12678A
  0
LINE
  5
12678B
  8
OBJECT
 10
1962.402059
 20
-161.93893300000039
 30
0.0
 11
2037.0841102714221
 21
-174.5180316957439
 31
0.0
1001
ACDBBLOCKREPETAG
1070
     1
1071
       17
1005
12678B
  0
LINE
  5
12678C
  8
OBJECT
 10
2044.0936569999981
 20
-169.70149399999991
 30
0.0
 11
2037.0841102714221
 21
-174.5180316957439
 31
0.0
1001
ACDBBLOCKREPETAG
1070
     1
1071
       18
1005
12678C
  0
LINE
  5
12678D
  8
OBJECT
 10
1928.737895999999
 20
-170.833024999999
 30
0.0
 11
1920.7940820780791
 21
-178.77683892191911
 31
0.0
1001
ACDBBLOCKREPETAG
1070
     1
1071
       19
1005
12678D
  0
CIRCLE
  5
12678E
  8
OBJECT
 10
2000.0
 20
-199.99999999999909
 30
0.0
 40
53.500000000000007
1001
ACDBBLOCKREPETAG
1070
     1
1071
       20
1005
12678E
  0
ARC
  5
12678F
  8
OBJECT
 10
2000.0
 20
-199.99999999999909
 30
0.0
 40
50.0
 50
131.70180964355251
 51
168.52376955958479
1001
ACDBBLOCKREPETAG
1070
     1
1071
       21
1005
12678F
  0
ARC
  5
126790
  8
OBJECT
 10
2000.0
 20
-199.99999999999909
 30
0.0
 40
50.0
 50
238.8199429999047
 51
34.49450625011707
1001
ACDBBLOCKREPETAG
1070
     1
1071
       22
1005
126790
  0
LINE
  5
126791
  8
OBJECT
 10
2071.262104999998
 20
-170.833024999999
 30
0.0
 11
2079.2059175558929
 21
-178.77683755589439
 31
0.0
1001
ACDBBLOCKREPETAG
1070
     1
1071
       23
1005
126791
  0
ARC
  5
126792
  8
OBJECT
 10
2000.0
 20
-199.99999999999909
 30
0.0
 40
82.000000000000014
 50
345.00000044885081
 51
15.00000053937171
1001
ACDBBLOCKREPETAG
1070
     1
1071
       24
1005
126792
  0
LINE
  5
126793
  8
OBJECT
 10
2071.262104999998
 20
-229.1669739999989
 30
0.0
 11
2079.2059179219209
 21
-221.2231610780791
 31
0.0
1001
ACDBBLOCKREPETAG
1070
     1
1071
       25
1005
126793
  0
LINE
  5
126794
  8
OBJECT
 10
2045.6618002273251
 20
-137.99999999999909
 30
0.0
 11
2080.0
 21
-137.99999999999909
 31
0.0
1001
ACDBBLOCKREPETAG
1070
     1
1071
       26
1005
126794
  0
LINE
  5
126795
  8
OBJECT
 10
2045.6618002273251
 20
-261.99999999999909
 30
0.0
 11
2080.0
 21
-261.99999999999909
 31
0.0
1001
ACDBBLOCKREPETAG
1070
     1
1071
       27
1005
126795
  0
LINE
  5
126796
  8
CENTER
 10
2080.0
 20
-199.99999999999909
 30
0.0
 11
1903.0
 21
-199.99999999999909
 31
0.0
1001
ACDBBLOCKREPETAG
1070
     1
1071
       36
1005
126796
  0
LINE
  5
126797
  8
CENTER
 10
2000.0
 20
-296.99999999999892
 30
0.0
 11
2000.0
 21
-104.9999999999991
 31
0.0
1001
ACDBBLOCKREPETAG
1070
     1
1071
       37
1005
126797
  0
LINE
  5
126798
  8
OBJECT
 10
11914.0
 20
-1133.9999999999991
 30
0.0
 11
11914.0
 21
-1143.9999999999991
 31
0.0
1001
ACDBBLOCKREPETAG
1070
     1
1071
      121
1005
126798
  0
LINE
  5
126799
  8
OBJECT
 10
11930.0
 20
-1133.9999999999991
 30
0.0
 11
11930.0
 21
-1143.9999999999991
 31
0.0
1001
ACDBBLOCKREPETAG
1070
     1
1071
      122
1005
126799
  0
LINE
  5
12679A
  8
OBJECT
 10
11914.0
 20
-1143.9999999999991
 30
0.0
 11
11930.0
 21
-1143.9999999999991
 31
0.0
1001
ACDBBLOCKREPETAG
1070
     1
1071
      123
1005
12679A
  0
LINE
  5
12679B
  8
OBJECT
 10
11910.0
 20
-1094.9999999999959
 30
0.0
 11
12076.0
 21
-1094.9999999999959
 31
0.0
1001
ACDBBLOCKREPETAG
1070
     1
1071
      124
1005
12679B
  0
LINE
  5
12679C
  8
OBJECT
 10
11910.0
 20
-1109.9999999999991
 30
0.0
 11
11910.0
 21
-1094.9999999999959
 31
0.0
1001
ACDBBLOCKREPETAG
1070
     1
1071
      125
1005
12679C
  0
LINE
  5
12679D
  8
OBJECT
 10
12076.0
 20
-1109.9999999999991
 30
0.0
 11
11910.0
 21
-1109.9999999999991
 31
0.0
1001
ACDBBLOCKREPETAG
1070
     1
1071
      126
1005
12679D
  0
LINE
  5
12679E
  8
OBJECT
 10
11932.500000000009
 20
-1109.9999999999991
 30
0.0
 11
11932.500000000009
 21
-1119.9999999999991
 31
0.0
1001
ACDBBLOCKREPETAG
1070
     1
1071
      127
1005
12679E
  0
LINE
  5
12679F
  8
OBJECT
 10
11927.0
 20
-1119.9999999999991
 30
0.0
 11
11927.0
 21
-1109.9999999999991
 31
0.0
1001
ACDBBLOCKREPETAG
1070
     1
1071
      128
1005
12679F
  0
LINE
  5
1267A0
  8
OBJECT
 10
11917.000000000009
 20
-1119.9999999999991
 30
0.0
 11
11917.000000000009
 21
-1109.9999999999991
 31
0.0
1001
ACDBBLOCKREPETAG
1070
     1
1071
      129
1005
1267A0
  0
LINE
  5
1267A1
  8
OBJECT
 10
12076.0
 20
-1119.9999999999991
 30
0.0
 11
12076.0
 21
-1133.9999999999959
 31
0.0
1001
ACDBBLOCKREPETAG
1070
     1
1071
      130
1005
1267A1
  0
LINE
  5
1267A2
  8
OBJECT
 10
11910.0
 20
-1119.9999999999991
 30
0.0
 11
11910.0
 21
-1133.9999999999959
 31
0.0
1001
ACDBBLOCKREPETAG
1070
     1
1071
      131
1005
1267A2
  0
LINE
  5
1267A3
  8
OBJECT
 10
12076.0
 20
-1133.9999999999959
 30
0.0
 11
11910.0
 21
-1133.9999999999959
 31
0.0
1001
ACDBBLOCKREPETAG
1070
     1
1071
      132
1005
1267A3
  0
LINE
  5
1267A4
  8
OBJECT
 10
12076.0
 20
-1119.9999999999991
 30
0.0
 11
11910.0
 21
-1119.9999999999991
 31
0.0
1001
ACDBBLOCKREPETAG
1070
     1
1071
      133
1005
1267A4
  0
LINE
  5
1267A5
  8
OBJECT
 10
12067.500000000009
 20
-1109.9999999999991
 30
0.0
 11
12067.500000000009
 21
-1119.9999999999991
 31
0.0
1001
ACDBBLOCKREPETAG
1070
     1
1071
      134
1005
1267A5
  0
LINE
  5
1267A6
  8
OBJECT
 10
12066.0
 20
-1058.9999999999959
 30
0.0
 11
11934.0
 21
-1058.9999999999959
 31
0.0
1001
ACDBBLOCKREPETAG
1070
     1
1071
      135
1005
1267A6
  0
LINE
  5
1267A7
  8
OBJECT
 10
12076.0
 20
-1109.9999999999991
 30
0.0
 11
12076.0
 21
-1094.9999999999959
 31
0.0
1001
ACDBBLOCKREPETAG
1070
     1
1071
      136
1005
1267A7
  0
LINE
  5
1267A8
  8
HIDDEN
 10
12057.0
 20
-1069.9999999999991
 30
0.0
 11
11943.0
 21
-1069.9999999999991
 31
0.0
1001
ACDBBLOCKREPETAG
1070
     1
1071
      137
1005
1267A8
  0
LINE
  5
1267A9
  8
OBJECT
 10
11913.0
 20
-1093.2
 30
0.0
 11
11913.0
 21
-1094.9999999999991
 31
0.0
1001
ACDBBLOCKREPETAG
1070
     1
1071
      138
1005
1267A9
  0
LINE
  5
1267AA
  8
OBJECT
 10
11931.0
 20
-1093.2
 30
0.0
 11
11931.0
 21
-1094.9999999999991
 31
0.0
1001
ACDBBLOCKREPETAG
1070
     1
1071
      139
1005
1267AA
  0
LINE
  5
1267AB
  8
OBJECT
 10
11927.750000000009
 20
-1083.4999999999991
 30
0.0
 11
11916.250000000009
 21
-1083.4999999999991
 31
0.0
1001
ACDBBLOCKREPETAG
1070
     1
1071
      140
1005
1267AB
  0
LINE
  5
1267AC
  8
OBJECT
 10
11927.750000000009
 20
-1083.4999999999991
 30
0.0
 11
11927.750000000009
 21
-1093.2
 31
0.0
1001
ACDBBLOCKREPETAG
1070
     1
1071
      141
1005
1267AC
  0
LINE
  5
1267AD
  8
OBJECT
 10
11916.250000000009
 20
-1083.4999999999991
 30
0.0
 11
11916.250000000009
 21
-1093.2
 31
0.0
1001
ACDBBLOCKREPETAG
1070
     1
1071
      142
1005
1267AD
  0
LINE
  5
1267AE
  8
OBJECT
 10
12068.0
 20
-1174.9999999999991
 30
0.0
 11
11932.0
 21
-1174.9999999999991
 31
0.0
1001
ACDBBLOCKREPETAG
1070
     1
1071
      143
1005
1267AE
  0
LINE
  5
1267AF
  8
OBJECT
 10
12068.0
 20
-1174.9999999999991
 30
0.0
 11
12068.0
 21
-1133.9999999999991
 31
0.0
1001
ACDBBLOCKREPETAG
1070
     1
1071
      144
1005
1267AF
  0
LINE
  5
1267B0
  8
OBJECT
 10
11932.0
 20
-1174.9999999999991
 30
0.0
 11
11932.0
 21
-1133.9999999999991
 31
0.0
1001
ACDBBLOCKREPETAG
1070
     1
1071
      145
1005
1267B0
  0
LINE
  5
1267B1
  8
OBJECT
 10
11913.0
 20
-1093.2
 30
0.0
 11
11931.0
 21
-1093.2
 31
0.0
1001
ACDBBLOCKREPETAG
1070
     1
1071
      146
1005
1267B1
  0
LINE
  5
1267B2
  8
CENTER
 10
12000.0
 20
-799.99999999999955
 30
0.0
 11
12000.0
 21
-1189.9999999999991
 31
0.0
1001
ACDBBLOCKREPETAG
1070
     1
1071
      147
1005
1267B2
  0
LINE
  5
1267B3
  8
OBJECT
 10
12075.0
 20
-799.99999999999955
 30
0.0
 11
12075.0
 21
-881.99999999999591
 31
0.0
1001
ACDBBLOCKREPETAG
1070
     1
1071
      148
1005
1267B3
  0
LINE
  5
1267B4
  8
OBJECT
 10
11925.0
 20
-799.99999999999955
 30
0.0
 11
11925.0
 21
-881.99999999999204
 31
0.0
1001
ACDBBLOCKREPETAG
1070
     1
1071
      149
1005
1267B4
  0
LINE
  5
1267B5
  8
OBJECT
 10
12075.0
 20
-881.99999999999591
 30
0.0
 11
11925.0
 21
-881.99999999999204
 31
0.0
1001
ACDBBLOCKREPETAG
1070
     1
1071
      150
1005
1267B5
  0
LINE
  5
1267B6
  8
OBJECT
 10
12057.0
 20
-1058.9999999999959
 30
0.0
 11
12057.0
 21
-1009.999999999992
 31
0.0
1001
ACDBBLOCKREPETAG
1070
     1
1071
      151
1005
1267B6
  0
LINE
  5
1267B7
  8
OBJECT
 10
11943.0
 20
-1009.999999999992
 30
0.0
 11
12057.0
 21
-1009.999999999992
 31
0.0
1001
ACDBBLOCKREPETAG
1070
     1
1071
      152
1005
1267B7
  0
LINE
  5
1267B8
  8
OBJECT
 10
11943.0
 20
-1009.999999999992
 30
0.0
 11
11943.0
 21
-1058.9999999999959
 31
0.0
1001
ACDBBLOCKREPETAG
1070
     1
1071
      153
1005
1267B8
  0
LINE
  5
1267B9
  8
OBJECT
 10
12075.0
 20
-881.99999999999591
 30
0.0
 11
12057.0
 21
-1009.999999999992
 31
0.0
1001
ACDBBLOCKREPETAG
1070
     1
1071
      154
1005
1267B9
  0
LINE
  5
1267BA
  8
OBJECT
 10
11943.0
 20
-1009.999999999992
 30
0.0
 11
11925.0
 21
-881.99999999999204
 31
0.0
1001
ACDBBLOCKREPETAG
1070
     1
1071
      155
1005
1267BA
  0
LINE
  5
1267BB
  8
OBJECT
 10
12066.0
 20
-1094.9999999999959
 30
0.0
 11
12066.0
 21
-1058.9999999999959
 31
0.0
1001
ACDBBLOCKREPETAG
1070
     1
1071
      156
1005
1267BB
  0
LINE
  5
1267BC
  8
OBJECT
 10
11934.0
 20
-1094.9999999999959
 30
0.0
 11
11934.0
 21
-1058.9999999999959
 31
0.0
1001
ACDBBLOCKREPETAG
1070
     1
1071
      157
1005
1267BC
  0
LINE
  5
1267BD
  8
OBJECT
 10
12045.25
 20
-1084.699999999993
 30
0.0
 11
12032.75
 21
-1084.699999999993
 31
0.0
1001
ACDBBLOCKREPETAG
1070
     1
1071
      158
1005
1267BD
  0
LINE
  5
1267BE
  8
OBJECT
 10
12054.0
 20
-1094.9999999999959
 30
0.0
 11
12054.0
 21
-1092.699999999996
 31
0.0
1001
ACDBBLOCKREPETAG
1070
     1
1071
      159
1005
1267BE
  0
LINE
  5
1267BF
  8
OBJECT
 10
12024.0
 20
-1094.9999999999959
 30
0.0
 11
12024.0
 21
-1092.699999999996
 31
0.0
1001
ACDBBLOCKREPETAG
1070
     1
1071
      160
1005
1267BF
  0
LINE
  5
1267C0
  8
OBJECT
 10
12045.25
 20
-1084.699999999993
 30
0.0
 11
12045.25
 21
-1092.699999999996
 31
0.0
1001
ACDBBLOCKREPETAG
1070
     1
1071
      161
1005
1267C0
  0
LINE
  5
1267C1
  8
OBJECT
 10
12032.75
 20
-1084.699999999993
 30
0.0
 11
12032.75
 21
-1092.699999999996
 31
0.0
1001
ACDBBLOCKREPETAG
1070
     1
1071
      162
1005
1267C1
  0
LINE
  5
1267C2
  8
OBJECT
 10
12054.0
 20
-1092.699999999996
 30
0.0
 11
12024.0
 21
-1092.699999999996
 31
0.0
1001
ACDBBLOCKREPETAG
1070
     1
1071
      163
1005
1267C2
  0
LINE
  5
1267C3
  8
OBJECT
 10
12047.0
 20
-1133.9999999999959
 30
0.0
 11
12047.0
 21
-1143.9999999999959
 31
0.0
1001
ACDBBLOCKREPETAG
1070
     1
1071
      164
1005
1267C3
  0
LINE
  5
1267C4
  8
OBJECT
 10
12031.0
 20
-1133.9999999999959
 30
0.0
 11
12031.0
 21
-1143.9999999999959
 31
0.0
1001
ACDBBLOCKREPETAG
1070
     1
1071
      165
1005
1267C4
  0
LINE
  5
1267C5
  8
OBJECT
 10
12047.0
 20
-1143.9999999999959
 30
0.0
 11
12031.0
 21
-1143.9999999999959
 31
0.0
1001
ACDBBLOCKREPETAG
1070
     1
1071
      166
1005
1267C5
  0
LINE
  5
1267C6
  8
OBJECT
 10
12034.0
 20
-1119.9999999999959
 30
0.0
 11
12034.0
 21
-1109.9999999999959
 31
0.0
1001
ACDBBLOCKREPETAG
1070
     1
1071
      167
1005
1267C6
  0
LINE
  5
1267C7
  8
OBJECT
 10
12044.0
 20
-1119.9999999999959
 30
0.0
 11
12044.0
 21
-1109.9999999999959
 31
0.0
1001
ACDBBLOCKREPETAG
1070
     1
1071
      168
1005
1267C7
  0
LINE
  5
1267C8
  8
OBJECT
 10
9910.0
 20
-1094.9999999999959
 30
0.0
 11
10076.0
 21
-1094.9999999999959
 31
0.0
1001
ACDBBLOCKREPETAG
1070
     1
1071
       12
1005
1267C8
  0
LINE
  5
1267C9
  8
OBJECT
 10
9934.0
 20
-1058.9999999999959
 30
0.0
 11
10066.0
 21
-1058.9999999999959
 31
0.0
1001
ACDBBLOCKREPETAG
1070
     1
1071
       13
1005
1267C9
  0
LINE
  5
1267CA
  8
OBJECT
 10
9910.0
 20
-1109.9999999999991
 30
0.0
 11
9910.0
 21
-1094.9999999999959
 31
0.0
1001
ACDBBLOCKREPETAG
1070
     1
1071
       14
1005
1267CA
  0
LINE
  5
1267CB
  8
OBJECT
 10
10076.0
 20
-1109.9999999999991
 30
0.0
 11
9910.0
 21
-1109.9999999999991
 31
0.0
1001
ACDBBLOCKREPETAG
1070
     1
1071
       15
1005
1267CB
  0
LINE
  5
1267CC
  8
OBJECT
 10
9932.5000000000127
 20
-1109.9999999999991
 30
0.0
 11
9932.5000000000127
 21
-1119.9999999999991
 31
0.0
1001
ACDBBLOCKREPETAG
1070
     1
1071
       16
1005
1267CC
  0
LINE
  5
1267CD
  8
OBJECT
 10
10076.0
 20
-1119.9999999999991
 30
0.0
 11
10076.0
 21
-1133.9999999999959
 31
0.0
1001
ACDBBLOCKREPETAG
1070
     1
1071
       17
1005
1267CD
  0
LINE
  5
1267CE
  8
OBJECT
 10
9910.0
 20
-1119.9999999999991
 30
0.0
 11
9910.0
 21
-1133.9999999999959
 31
0.0
1001
ACDBBLOCKREPETAG
1070
     1
1071
       18
1005
1267CE
  0
LINE
  5
1267CF
  8
OBJECT
 10
10076.0
 20
-1133.9999999999959
 30
0.0
 11
9910.0
 21
-1133.9999999999959
 31
0.0
1001
ACDBBLOCKREPETAG
1070
     1
1071
       19
1005
1267CF
  0
LINE
  5
1267D0
  8
OBJECT
 10
10076.0
 20
-1119.9999999999991
 30
0.0
 11
9910.0
 21
-1119.9999999999991
 31
0.0
1001
ACDBBLOCKREPETAG
1070
     1
1071
       20
1005
1267D0
  0
LINE
  5
1267D1
  8
OBJECT
 10
10067.500000000009
 20
-1109.9999999999991
 30
0.0
 11
10067.500000000009
 21
-1119.9999999999991
 31
0.0
1001
ACDBBLOCKREPETAG
1070
     1
1071
       21
1005
1267D1
  0
LINE
  5
1267D2
  8
OBJECT
 10
10076.0
 20
-1109.9999999999991
 30
0.0
 11
10076.0
 21
-1094.9999999999959
 31
0.0
1001
ACDBBLOCKREPETAG
1070
     1
1071
       22
1005
1267D2
  0
LINE
  5
1267D3
  8
HIDDEN
 10
10057.0
 20
-1069.9999999999991
 30
0.0
 11
9943.0
 21
-1069.9999999999991
 31
0.0
1001
ACDBBLOCKREPETAG
1070
     1
1071
       23
1005
1267D3
  0
LINE
  5
1267D4
  8
CENTER
 10
10000.0
 20
-799.99999999999955
 30
0.0
 11
10000.0
 21
-1148.9999999999959
 31
0.0
1001
ACDBBLOCKREPETAG
1070
     1
1071
       24
1005
1267D4
  0
LINE
  5
1267D5
  8
OBJECT
 10
10075.0
 20
-799.99999999999955
 30
0.0
 11
10075.0
 21
-881.99999999999591
 31
0.0
1001
ACDBBLOCKREPETAG
1070
     1
1071
       25
1005
1267D5
  0
LINE
  5
1267D6
  8
OBJECT
 10
9925.0
 20
-799.99999999999955
 30
0.0
 11
9925.0
 21
-881.99999999999204
 31
0.0
1001
ACDBBLOCKREPETAG
1070
     1
1071
       26
1005
1267D6
  0
LINE
  5
1267D7
  8
OBJECT
 10
10075.0
 20
-881.99999999999591
 30
0.0
 11
9925.0
 21
-881.99999999999204
 31
0.0
1001
ACDBBLOCKREPETAG
1070
     1
1071
       27
1005
1267D7
  0
LINE
  5
1267D8
  8
OBJECT
 10
9943.0
 20
-1058.9999999999959
 30
0.0
 11
9943.0
 21
-1009.999999999992
 31
0.0
1001
ACDBBLOCKREPETAG
1070
     1
1071
       28
1005
1267D8
  0
LINE
  5
1267D9
  8
OBJECT
 10
10057.0
 20
-1058.9999999999959
 30
0.0
 11
10057.0
 21
-1009.999999999992
 31
0.0
1001
ACDBBLOCKREPETAG
1070
     1
1071
       29
1005
1267D9
  0
LINE
  5
1267DA
  8
OBJECT
 10
9943.0
 20
-1009.999999999992
 30
0.0
 11
10057.0
 21
-1009.999999999992
 31
0.0
1001
ACDBBLOCKREPETAG
1070
     1
1071
       30
1005
1267DA
  0
LINE
  5
1267DB
  8
OBJECT
 10
10075.0
 20
-881.99999999999591
 30
0.0
 11
10057.0
 21
-1009.999999999992
 31
0.0
1001
ACDBBLOCKREPETAG
1070
     1
1071
       31
1005
1267DB
  0
LINE
  5
1267DC
  8
OBJECT
 10
9943.0
 20
-1009.999999999992
 30
0.0
 11
9925.0
 21
-881.99999999999204
 31
0.0
1001
ACDBBLOCKREPETAG
1070
     1
1071
       32
1005
1267DC
  0
LINE
  5
1267DD
  8
OBJECT
 10
10066.0
 20
-1058.9999999999959
 30
0.0
 11
10066.0
 21
-1094.9999999999959
 31
0.0
1001
ACDBBLOCKREPETAG
1070
     1
1071
       33
1005
1267DD
  0
LINE
  5
1267DE
  8
OBJECT
 10
9934.0
 20
-1058.9999999999959
 30
0.0
 11
9934.0
 21
-1094.9999999999959
 31
0.0
1001
ACDBBLOCKREPETAG
1070
     1
1071
       34
1005
1267DE
  0
LINE
  5
1267DF
  8
OBJECT
 10
9917.0000000000073
 20
-1119.9999999999959
 30
0.0
 11
9917.0000000000073
 21
-1109.9999999999959
 31
0.0
1001
ACDBBLOCKREPETAG
1070
     1
1071
       35
1005
1267DF
  0
LINE
  5
1267E0
  8
OBJECT
 10
9927.0000000000091
 20
-1119.9999999999959
 30
0.0
 11
9927.0000000000091
 21
-1109.9999999999959
 31
0.0
1001
ACDBBLOCKREPETAG
1070
     1
1071
       36
1005
1267E0
  0
LINE
  5
1267E1
  8
OBJECT
 10
9931.0000000000127
 20
-1089.9999999999959
 30
0.0
 11
9931.0000000000127
 21
-1094.9999999999959
 31
0.0
1001
ACDBBLOCKREPETAG
1070
     1
1071
       37
1005
1267E1
  0
LINE
  5
1267E2
  8
OBJECT
 10
9913.0
 20
-1089.9999999999959
 30
0.0
 11
9913.0
 21
-1094.9999999999959
 31
0.0
1001
ACDBBLOCKREPETAG
1070
     1
1071
       38
1005
1267E2
  0
LINE
  5
1267E3
  8
OBJECT
 10
9913.0
 20
-1089.9999999999959
 30
0.0
 11
9931.0000000000127
 21
-1089.9999999999959
 31
0.0
1001
ACDBBLOCKREPETAG
1070
     1
1071
       39
1005
1267E3
  0
LINE
  5
1267E4
  8
OBJECT
 10
9927.0
 20
-1141.9999999999959
 30
0.0
 11
9927.0
 21
-1144.9999999999959
 31
0.0
1001
ACDBBLOCKREPETAG
1070
     1
1071
       40
1005
1267E4
  0
LINE
  5
1267E5
  8
OBJECT
 10
9927.0
 20
-1144.9999999999959
 30
0.0
 11
9917.0
 21
-1144.9999999999959
 31
0.0
1001
ACDBBLOCKREPETAG
1070
     1
1071
       41
1005
1267E5
  0
LINE
  5
1267E6
  8
OBJECT
 10
9931.814954576228
 20
-1141.9999999999959
 30
0.0
 11
9912.1850454237847
 21
-1141.9999999999959
 31
0.0
1001
ACDBBLOCKREPETAG
1070
     1
1071
       42
1005
1267E6
  0
LINE
  5
1267E7
  8
OBJECT
 10
9917.0
 20
-1144.9999999999959
 30
0.0
 11
9917.0
 21
-1141.9999999999959
 31
0.0
1001
ACDBBLOCKREPETAG
1070
     1
1071
       43
1005
1267E7
  0
LINE
  5
1267E8
  8
OBJECT
 10
9931.8149640087086
 20
-1133.9999868402549
 30
0.0
 11
9931.8149640087086
 21
-1141.9999868402549
 31
0.0
1001
ACDBBLOCKREPETAG
1070
     1
1071
       44
1005
1267E8
  0
LINE
  5
1267E9
  8
OBJECT
 10
9926.9074986408014
 20
-1133.9999868402549
 30
0.0
 11
9926.9074986408014
 21
-1141.9999868402549
 31
0.0
1001
ACDBBLOCKREPETAG
1070
     1
1071
       45
1005
1267E9
  0
LINE
  5
1267EA
  8
OBJECT
 10
9917.092567904976
 20
-1133.9999868402549
 30
0.0
 11
9917.092567904976
 21
-1141.9999868402549
 31
0.0
1001
ACDBBLOCKREPETAG
1070
     1
1071
       46
1005
1267EA
  0
LINE
  5
1267EB
  8
OBJECT
 10
9912.1850084472026
 20
-1133.9999868402549
 30
0.0
 11
9912.1850084472026
 21
-1141.9999868402549
 31
0.0
1001
ACDBBLOCKREPETAG
1070
     1
1071
       47
1005
1267EB
  0
LINE
  5
1267EC
  8
OBJECT
 10
10031.5
 20
-1089.9999999999959
 30
0.0
 11
10048.000000000009
 21
-1089.9999999999959
 31
0.0
1001
ACDBBLOCKREPETAG
1070
     1
1071
       48
1005
1267EC
  0
LINE
  5
1267ED
  8
OBJECT
 10
10024.0
 20
-1094.9999999999959
 30
0.0
 11
10024.0
 21
-1092.9999999999959
 31
0.0
1001
ACDBBLOCKREPETAG
1070
     1
1071
       49
1005
1267ED
  0
LINE
  5
1267EE
  8
OBJECT
 10
10034.0
 20
-1119.9999999999959
 30
0.0
 11
10034.0
 21
-1109.9999999999959
 31
0.0
1001
ACDBBLOCKREPETAG
1070
     1
1071
       50
1005
1267EE
  0
LINE
  5
1267EF
  8
OBJECT
 10
10044.0
 20
-1119.9999999999959
 30
0.0
 11
10044.0
 21
-1109.9999999999959
 31
0.0
1001
ACDBBLOCKREPETAG
1070
     1
1071
       51
1005
1267EF
  0
LINE
  5
1267F0
  8
OBJECT
 10
10048.000000000009
 20
-1089.9999999999959
 30
0.0
 11
10048.000000000009
 21
-1094.9999999999959
 31
0.0
1001
ACDBBLOCKREPETAG
1070
     1
1071
       52
1005
1267F0
  0
LINE
  5
1267F1
  8
OBJECT
 10
10044.0
 20
-1141.9999999999959
 30
0.0
 11
10044.0
 21
-1144.9999999999959
 31
0.0
1001
ACDBBLOCKREPETAG
1070
     1
1071
       53
1005
1267F1
  0
LINE
  5
1267F2
  8
OBJECT
 10
10044.0
 20
-1144.9999999999959
 30
0.0
 11
10034.0
 21
-1144.9999999999959
 31
0.0
1001
ACDBBLOCKREPETAG
1070
     1
1071
       54
1005
1267F2
  0
LINE
  5
1267F3
  8
OBJECT
 10
10048.81495457623
 20
-1141.9999999999959
 30
0.0
 11
10029.185045423779
 21
-1141.9999999999959
 31
0.0
1001
ACDBBLOCKREPETAG
1070
     1
1071
       55
1005
1267F3
  0
LINE
  5
1267F4
  8
OBJECT
 10
10034.0
 20
-1144.9999999999959
 30
0.0
 11
10034.0
 21
-1141.9999999999959
 31
0.0
1001
ACDBBLOCKREPETAG
1070
     1
1071
       56
1005
1267F4
  0
LINE
  5
1267F5
  8
OBJECT
 10
10024.0
 20
-1092.9999999999959
 30
0.0
 11
10031.5
 21
-1089.9999999999959
 31
0.0
1001
ACDBBLOCKREPETAG
1070
     1
1071
       57
1005
1267F5
  0
LINE
  5
1267F6
  8
OBJECT
 10
10048.814964008699
 20
-1133.9999868402549
 30
0.0
 11
10048.814964008699
 21
-1141.9999868402549
 31
0.0
1001
ACDBBLOCKREPETAG
1070
     1
1071
       58
1005
1267F6
  0
LINE
  5
1267F7
  8
OBJECT
 10
10043.9074986408
 20
-1133.9999868402549
 30
0.0
 11
10043.9074986408
 21
-1141.9999868402549
 31
0.0
1001
ACDBBLOCKREPETAG
1070
     1
1071
       59
1005
1267F7
  0
LINE
  5
1267F8
  8
OBJECT
 10
10034.092567904971
 20
-1133.9999868402549
 30
0.0
 11
10034.092567904971
 21
-1141.9999868402549
 31
0.0
1001
ACDBBLOCKREPETAG
1070
     1
1071
       60
1005
1267F8
  0
LINE
  5
1267F9
  8
OBJECT
 10
10029.185008447201
 20
-1133.9999868402549
 30
0.0
 11
10029.185008447201
 21
-1141.9999868402549
 31
0.0
1001
ACDBBLOCKREPETAG
1070
     1
1071
       61
1005
1267F9
  0
LINE
  5
1267FA
  8
OBJECT
 10
7943.0
 20
-1109.9999999999959
 30
0.0
 11
8057.0
 21
-1109.9999999999959
 31
0.0
1001
ACDBBLOCKREPETAG
1070
     1
1071
        0
1005
1267FA
  0
LINE
  5
1267FB
  8
OBJECT
 10
7943.0
 20
-1109.9999999999959
 30
0.0
 11
7943.0
 21
-1009.999999999996
 31
0.0
1001
ACDBBLOCKREPETAG
1070
     1
1071
        1
1005
1267FB
  0
LINE
  5
1267FC
  8
OBJECT
 10
8057.0
 20
-1109.9999999999959
 30
0.0
 11
8057.0
 21
-1009.999999999996
 31
0.0
1001
ACDBBLOCKREPETAG
1070
     1
1071
        2
1005
1267FC
  0
LINE
  5
1267FD
  8
OBJECT
 10
7943.0
 20
-1009.999999999996
 30
0.0
 11
8057.0
 21
-1009.999999999996
 31
0.0
1001
ACDBBLOCKREPETAG
1070
     1
1071
        3
1005
1267FD
  0
LINE
  5
1267FE
  8
HIDDEN
 10
7950.0
 20
-1009.999999999996
 30
0.0
 11
7950.0
 21
-1109.9999999999959
 31
0.0
1001
ACDBBLOCKREPETAG
1070
     1
1071
        4
1005
1267FE
  0
LINE
  5
1267FF
  8
HIDDEN
 10
8050.0
 20
-1009.999999999996
 30
0.0
 11
8050.0
 21
-1109.9999999999959
 31
0.0
1001
ACDBBLOCKREPETAG
1070
     1
1071
        5
1005
1267FF
  0
LINE
  5
126800
  8
CENTER
 10
8000.0
 20
-799.99999999999955
 30
0.0
 11
8000.0
 21
-1124.9999999999959
 31
0.0
1001
ACDBBLOCKREPETAG
1070
     1
1071
        6
1005
126800
  0
LINE
  5
126801
  8
OBJECT
 10
7925.0
 20
-799.99999999999955
 30
0.0
 11
7925.0
 21
-881.99999999999591
 31
0.0
1001
ACDBBLOCKREPETAG
1070
     1
1071
        7
1005
126801
  0
LINE
  5
126802
  8
OBJECT
 10
8075.0
 20
-799.99999999999955
 30
0.0
 11
8075.0
 21
-881.99999999999591
 31
0.0
1001
ACDBBLOCKREPETAG
1070
     1
1071
        8
1005
126802
  0
LINE
  5
126803
  8
OBJECT
 10
7925.0
 20
-881.99999999999591
 30
0.0
 11
8075.0
 21
-881.99999999999591
 31
0.0
1001
ACDBBLOCKREPETAG
1070
     1
1071
        9
1005
126803
  0
LINE
  5
126804
  8
OBJECT
 10
7925.0
 20
-881.99999999999591
 30
0.0
 11
7943.0
 21
-1009.999999999996
 31
0.0
1001
ACDBBLOCKREPETAG
1070
     1
1071
       10
1005
126804
  0
LINE
  5
126805
  8
OBJECT
 10
8057.0
 20
-1009.999999999996
 30
0.0
 11
8075.0
 21
-881.99999999999591
 31
0.0
1001
ACDBBLOCKREPETAG
1070
     1
1071
       11
1005
126805
  0
LINE
  5
126806
  8
OBJECT
 10
5914.0000000000073
 20
-1133.9999999999991
 30
0.0
 11
5914.0000000000073
 21
-1143.9999999999991
 31
0.0
1001
ACDBBLOCKREPETAG
1070
     1
1071
      121
1005
126806
  0
LINE
  5
126807
  8
OBJECT
 10
5930.0000000000073
 20
-1133.9999999999991
 30
0.0
 11
5930.0000000000073
 21
-1143.9999999999991
 31
0.0
1001
ACDBBLOCKREPETAG
1070
     1
1071
      122
1005
126807
  0
LINE
  5
126808
  8
OBJECT
 10
5914.0000000000073
 20
-1143.9999999999991
 30
0.0
 11
5930.0000000000073
 21
-1143.9999999999991
 31
0.0
1001
ACDBBLOCKREPETAG
1070
     1
1071
      123
1005
126808
  0
LINE
  5
126809
  8
OBJECT
 10
5910.0
 20
-1094.9999999999959
 30
0.0
 11
6076.0
 21
-1094.9999999999959
 31
0.0
1001
ACDBBLOCKREPETAG
1070
     1
1071
      124
1005
126809
  0
LINE
  5
12680A
  8
OBJECT
 10
5910.0
 20
-1109.9999999999991
 30
0.0
 11
5910.0
 21
-1094.9999999999959
 31
0.0
1001
ACDBBLOCKREPETAG
1070
     1
1071
      125
1005
12680A
  0
LINE
  5
12680B
  8
OBJECT
 10
6076.0
 20
-1109.9999999999991
 30
0.0
 11
5910.0
 21
-1109.9999999999991
 31
0.0
1001
ACDBBLOCKREPETAG
1070
     1
1071
      126
1005
12680B
  0
LINE
  5
12680C
  8
OBJECT
 10
5932.5000000000146
 20
-1109.9999999999991
 30
0.0
 11
5932.5000000000146
 21
-1119.9999999999991
 31
0.0
1001
ACDBBLOCKREPETAG
1070
     1
1071
      127
1005
12680C
  0
LINE
  5
12680D
  8
OBJECT
 10
5927.0000000000073
 20
-1119.9999999999991
 30
0.0
 11
5927.0000000000073
 21
-1109.9999999999991
 31
0.0
1001
ACDBBLOCKREPETAG
1070
     1
1071
      128
1005
12680D
  0
LINE
  5
12680E
  8
OBJECT
 10
5917.0000000000073
 20
-1119.9999999999991
 30
0.0
 11
5917.0000000000073
 21
-1109.9999999999991
 31
0.0
1001
ACDBBLOCKREPETAG
1070
     1
1071
      129
1005
12680E
  0
LINE
  5
12680F
  8
OBJECT
 10
6076.0
 20
-1119.9999999999991
 30
0.0
 11
6076.0
 21
-1133.9999999999959
 31
0.0
1001
ACDBBLOCKREPETAG
1070
     1
1071
      130
1005
12680F
  0
LINE
  5
126810
  8
OBJECT
 10
5910.0
 20
-1119.9999999999991
 30
0.0
 11
5910.0
 21
-1133.9999999999959
 31
0.0
1001
ACDBBLOCKREPETAG
1070
     1
1071
      131
1005
126810
  0
LINE
  5
126811
  8
OBJECT
 10
6076.0
 20
-1133.9999999999959
 30
0.0
 11
5910.0
 21
-1133.9999999999959
 31
0.0
1001
ACDBBLOCKREPETAG
1070
     1
1071
      132
1005
126811
  0
LINE
  5
126812
  8
OBJECT
 10
6076.0
 20
-1119.9999999999991
 30
0.0
 11
5910.0
 21
-1119.9999999999991
 31
0.0
1001
ACDBBLOCKREPETAG
1070
     1
1071
      133
1005
126812
  0
LINE
  5
126813
  8
OBJECT
 10
6067.5000000000136
 20
-1109.9999999999991
 30
0.0
 11
6067.5000000000136
 21
-1119.9999999999991
 31
0.0
1001
ACDBBLOCKREPETAG
1070
     1
1071
      134
1005
126813
  0
LINE
  5
126814
  8
OBJECT
 10
6066.0
 20
-1058.9999999999959
 30
0.0
 11
5934.0000000000082
 21
-1058.9999999999959
 31
0.0
1001
ACDBBLOCKREPETAG
1070
     1
1071
      135
1005
126814
  0
LINE
  5
126815
  8
OBJECT
 10
6076.0
 20
-1109.9999999999991
 30
0.0
 11
6076.0
 21
-1094.9999999999959
 31
0.0
1001
ACDBBLOCKREPETAG
1070
     1
1071
      136
1005
126815
  0
LINE
  5
126816
  8
HIDDEN
 10
6057.0
 20
-1069.9999999999991
 30
0.0
 11
5943.0
 21
-1069.9999999999991
 31
0.0
1001
ACDBBLOCKREPETAG
1070
     1
1071
      137
1005
126816
  0
LINE
  5
126817
  8
OBJECT
 10
5913.0000000000073
 20
-1093.2
 30
0.0
 11
5913.0000000000073
 21
-1094.9999999999991
 31
0.0
1001
ACDBBLOCKREPETAG
1070
     1
1071
      138
1005
126817
  0
LINE
  5
126818
  8
OBJECT
 10
5931.0000000000082
 20
-1093.2
 30
0.0
 11
5931.0000000000082
 21
-1094.9999999999991
 31
0.0
1001
ACDBBLOCKREPETAG
1070
     1
1071
      139
1005
126818
  0
LINE
  5
126819
  8
OBJECT
 10
5927.7500000000073
 20
-1083.4999999999991
 30
0.0
 11
5916.2500000000073
 21
-1083.4999999999991
 31
0.0
1001
ACDBBLOCKREPETAG
1070
     1
1071
      140
1005
126819
  0
LINE
  5
12681A
  8
OBJECT
 10
5927.7500000000073
 20
-1083.4999999999991
 30
0.0
 11
5927.7500000000073
 21
-1093.2
 31
0.0
1001
ACDBBLOCKREPETAG
1070
     1
1071
      141
1005
12681A
  0
LINE
  5
12681B
  8
OBJECT
 10
5916.2500000000073
 20
-1083.4999999999991
 30
0.0
 11
5916.2500000000073
 21
-1093.2
 31
0.0
1001
ACDBBLOCKREPETAG
1070
     1
1071
      142
1005
12681B
  0
LINE
  5
12681C
  8
OBJECT
 10
6068.0000000000146
 20
-1174.9999999999991
 30
0.0
 11
5932.0000000000146
 21
-1174.9999999999991
 31
0.0
1001
ACDBBLOCKREPETAG
1070
     1
1071
      143
1005
12681C
  0
LINE
  5
12681D
  8
OBJECT
 10
6068.0000000000146
 20
-1174.9999999999991
 30
0.0
 11
6068.0000000000146
 21
-1133.9999999999991
 31
0.0
1001
ACDBBLOCKREPETAG
1070
     1
1071
      144
1005
12681D
  0
LINE
  5
12681E
  8
OBJECT
 10
5932.0000000000146
 20
-1174.9999999999991
 30
0.0
 11
5932.0000000000146
 21
-1133.9999999999991
 31
0.0
1001
ACDBBLOCKREPETAG
1070
     1
1071
      145
1005
12681E
  0
LINE
  5
12681F
  8
OBJECT
 10
5913.0000000000073
 20
-1093.2
 30
0.0
 11
5931.0000000000082
 21
-1093.2
 31
0.0
1001
ACDBBLOCKREPETAG
1070
     1
1071
      146
1005
12681F
  0
LINE
  5
126820
  8
CENTER
 10
6000.0
 20
-799.99999999999955
 30
0.0
 11
6000.0
 21
-1189.9999999999991
 31
0.0
1001
ACDBBLOCKREPETAG
1070
     1
1071
      147
1005
126820
  0
LINE
  5
126821
  8
OBJECT
 10
6075.0
 20
-799.99999999999955
 30
0.0
 11
6075.0
 21
-881.99999999999591
 31
0.0
1001
ACDBBLOCKREPETAG
1070
     1
1071
      148
1005
126821
  0
LINE
  5
126822
  8
OBJECT
 10
5925.0
 20
-799.99999999999955
 30
0.0
 11
5925.0
 21
-881.99999999999204
 31
0.0
1001
ACDBBLOCKREPETAG
1070
     1
1071
      149
1005
126822
  0
LINE
  5
126823
  8
OBJECT
 10
6075.0
 20
-881.99999999999591
 30
0.0
 11
5925.0
 21
-881.99999999999204
 31
0.0
1001
ACDBBLOCKREPETAG
1070
     1
1071
      150
1005
126823
  0
LINE
  5
126824
  8
OBJECT
 10
6057.0
 20
-1058.9999999999959
 30
0.0
 11
6057.0
 21
-1009.999999999992
 31
0.0
1001
ACDBBLOCKREPETAG
1070
     1
1071
      151
1005
126824
  0
LINE
  5
126825
  8
OBJECT
 10
5943.0
 20
-1009.999999999992
 30
0.0
 11
6057.0
 21
-1009.999999999992
 31
0.0
1001
ACDBBLOCKREPETAG
1070
     1
1071
      152
1005
126825
  0
LINE
  5
126826
  8
OBJECT
 10
5943.0
 20
-1009.999999999992
 30
0.0
 11
5943.0
 21
-1058.9999999999959
 31
0.0
1001
ACDBBLOCKREPETAG
1070
     1
1071
      153
1005
126826
  0
LINE
  5
126827
  8
OBJECT
 10
6075.0
 20
-881.99999999999591
 30
0.0
 11
6057.0
 21
-1009.999999999992
 31
0.0
1001
ACDBBLOCKREPETAG
1070
     1
1071
      154
1005
126827
  0
LINE
  5
126828
  8
OBJECT
 10
5943.0
 20
-1009.999999999992
 30
0.0
 11
5925.0
 21
-881.99999999999204
 31
0.0
1001
ACDBBLOCKREPETAG
1070
     1
1071
      155
1005
126828
  0
LINE
  5
126829
  8
OBJECT
 10
6066.0
 20
-1094.9999999999959
 30
0.0
 11
6066.0
 21
-1058.9999999999959
 31
0.0
1001
ACDBBLOCKREPETAG
1070
     1
1071
      156
1005
126829
  0
LINE
  5
12682A
  8
OBJECT
 10
5934.0
 20
-1094.9999999999959
 30
0.0
 11
5934.0000000000082
 21
-1058.9999999999959
 31
0.0
1001
ACDBBLOCKREPETAG
1070
     1
1071
      157
1005
12682A
  0
LINE
  5
12682B
  8
OBJECT
 10
6045.25
 20
-1084.699999999993
 30
0.0
 11
6032.75
 21
-1084.699999999993
 31
0.0
1001
ACDBBLOCKREPETAG
1070
     1
1071
      158
1005
12682B
  0
LINE
  5
12682C
  8
OBJECT
 10
6054.0
 20
-1094.9999999999959
 30
0.0
 11
6054.0
 21
-1092.699999999996
 31
0.0
1001
ACDBBLOCKREPETAG
1070
     1
1071
      159
1005
12682C
  0
LINE
  5
12682D
  8
OBJECT
 10
6024.0
 20
-1094.9999999999959
 30
0.0
 11
6024.0
 21
-1092.699999999996
 31
0.0
1001
ACDBBLOCKREPETAG
1070
     1
1071
      160
1005
12682D
  0
LINE
  5
12682E
  8
OBJECT
 10
6045.25
 20
-1084.699999999993
 30
0.0
 11
6045.25
 21
-1092.699999999996
 31
0.0
1001
ACDBBLOCKREPETAG
1070
     1
1071
      161
1005
12682E
  0
LINE
  5
12682F
  8
OBJECT
 10
6032.75
 20
-1084.699999999993
 30
0.0
 11
6032.75
 21
-1092.699999999996
 31
0.0
1001
ACDBBLOCKREPETAG
1070
     1
1071
      162
1005
12682F
  0
LINE
  5
126830
  8
OBJECT
 10
6054.0
 20
-1092.699999999996
 30
0.0
 11
6024.0
 21
-1092.699999999996
 31
0.0
1001
ACDBBLOCKREPETAG
1070
     1
1071
      163
1005
126830
  0
LINE
  5
126831
  8
OBJECT
 10
6047.0
 20
-1133.9999999999959
 30
0.0
 11
6047.0
 21
-1143.9999999999959
 31
0.0
1001
ACDBBLOCKREPETAG
1070
     1
1071
      164
1005
126831
  0
LINE
  5
126832
  8
OBJECT
 10
6031.0
 20
-1133.9999999999959
 30
0.0
 11
6031.0
 21
-1143.9999999999959
 31
0.0
1001
ACDBBLOCKREPETAG
1070
     1
1071
      165
1005
126832
  0
LINE
  5
126833
  8
OBJECT
 10
6047.0
 20
-1143.9999999999959
 30
0.0
 11
6031.0
 21
-1143.9999999999959
 31
0.0
1001
ACDBBLOCKREPETAG
1070
     1
1071
      166
1005
126833
  0
LINE
  5
126834
  8
OBJECT
 10
6034.0
 20
-1119.9999999999959
 30
0.0
 11
6034.0
 21
-1109.9999999999959
 31
0.0
1001
ACDBBLOCKREPETAG
1070
     1
1071
      167
1005
126834
  0
LINE
  5
126835
  8
OBJECT
 10
6044.0
 20
-1119.9999999999959
 30
0.0
 11
6044.0
 21
-1109.9999999999959
 31
0.0
1001
ACDBBLOCKREPETAG
1070
     1
1071
      168
1005
126835
  0
LINE
  5
126836
  8
OBJECT
 10
3910.0
 20
-1094.9999999999959
 30
0.0
 11
4076.0
 21
-1094.9999999999959
 31
0.0
1001
ACDBBLOCKREPETAG
1070
     1
1071
       12
1005
126836
  0
LINE
  5
126837
  8
OBJECT
 10
3934.0
 20
-1058.9999999999959
 30
0.0
 11
4066.0
 21
-1058.9999999999959
 31
0.0
1001
ACDBBLOCKREPETAG
1070
     1
1071
       13
1005
126837
  0
LINE
  5
126838
  8
OBJECT
 10
3910.0
 20
-1109.9999999999991
 30
0.0
 11
3910.0
 21
-1094.9999999999959
 31
0.0
1001
ACDBBLOCKREPETAG
1070
     1
1071
       14
1005
126838
  0
LINE
  5
126839
  8
OBJECT
 10
4076.0
 20
-1109.9999999999991
 30
0.0
 11
3910.0
 21
-1109.9999999999991
 31
0.0
1001
ACDBBLOCKREPETAG
1070
     1
1071
       15
1005
126839
  0
LINE
  5
12683A
  8
OBJECT
 10
3932.500000000015
 20
-1109.9999999999991
 30
0.0
 11
3932.500000000015
 21
-1119.9999999999991
 31
0.0
1001
ACDBBLOCKREPETAG
1070
     1
1071
       16
1005
12683A
  0
LINE
  5
12683B
  8
OBJECT
 10
4076.0
 20
-1119.9999999999991
 30
0.0
 11
4076.0
 21
-1133.9999999999959
 31
0.0
1001
ACDBBLOCKREPETAG
1070
     1
1071
       17
1005
12683B
  0
LINE
  5
12683C
  8
OBJECT
 10
3910.0
 20
-1119.9999999999991
 30
0.0
 11
3910.0
 21
-1133.9999999999959
 31
0.0
1001
ACDBBLOCKREPETAG
1070
     1
1071
       18
1005
12683C
  0
LINE
  5
12683D
  8
OBJECT
 10
4076.0
 20
-1133.9999999999959
 30
0.0
 11
3910.0
 21
-1133.9999999999959
 31
0.0
1001
ACDBBLOCKREPETAG
1070
     1
1071
       19
1005
12683D
  0
LINE
  5
12683E
  8
OBJECT
 10
4076.0
 20
-1119.9999999999991
 30
0.0
 11
3910.0
 21
-1119.9999999999991
 31
0.0
1001
ACDBBLOCKREPETAG
1070
     1
1071
       20
1005
12683E
  0
LINE
  5
12683F
  8
OBJECT
 10
4067.5000000000141
 20
-1109.9999999999991
 30
0.0
 11
4067.5000000000141
 21
-1119.9999999999991
 31
0.0
1001
ACDBBLOCKREPETAG
1070
     1
1071
       21
1005
12683F
  0
LINE
  5
126840
  8
OBJECT
 10
4076.0
 20
-1109.9999999999991
 30
0.0
 11
4076.0
 21
-1094.9999999999959
 31
0.0
1001
ACDBBLOCKREPETAG
1070
     1
1071
       22
1005
126840
  0
LINE
  5
126841
  8
HIDDEN
 10
4057.0
 20
-1069.9999999999991
 30
0.0
 11
3943.0
 21
-1069.9999999999991
 31
0.0
1001
ACDBBLOCKREPETAG
1070
     1
1071
       23
1005
126841
  0
LINE
  5
126842
  8
CENTER
 10
4000.0
 20
-799.99999999999955
 30
0.0
 11
4000.0
 21
-1148.9999999999959
 31
0.0
1001
ACDBBLOCKREPETAG
1070
     1
1071
       24
1005
126842
  0
LINE
  5
126843
  8
OBJECT
 10
4075.0
 20
-799.99999999999955
 30
0.0
 11
4075.0
 21
-881.99999999999591
 31
0.0
1001
ACDBBLOCKREPETAG
1070
     1
1071
       25
1005
126843
  0
LINE
  5
126844
  8
OBJECT
 10
3925.0
 20
-799.99999999999955
 30
0.0
 11
3925.0
 21
-881.99999999999204
 31
0.0
1001
ACDBBLOCKREPETAG
1070
     1
1071
       26
1005
126844
  0
LINE
  5
126845
  8
OBJECT
 10
4075.0
 20
-881.99999999999591
 30
0.0
 11
3925.0
 21
-881.99999999999204
 31
0.0
1001
ACDBBLOCKREPETAG
1070
     1
1071
       27
1005
126845
  0
LINE
  5
126846
  8
OBJECT
 10
3943.0
 20
-1058.9999999999959
 30
0.0
 11
3943.0
 21
-1009.999999999992
 31
0.0
1001
ACDBBLOCKREPETAG
1070
     1
1071
       28
1005
126846
  0
LINE
  5
126847
  8
OBJECT
 10
4057.0
 20
-1058.9999999999959
 30
0.0
 11
4057.0
 21
-1009.999999999992
 31
0.0
1001
ACDBBLOCKREPETAG
1070
     1
1071
       29
1005
126847
  0
LINE
  5
126848
  8
OBJECT
 10
3943.0
 20
-1009.999999999992
 30
0.0
 11
4057.0
 21
-1009.999999999992
 31
0.0
1001
ACDBBLOCKREPETAG
1070
     1
1071
       30
1005
126848
  0
LINE
  5
126849
  8
OBJECT
 10
4075.0
 20
-881.99999999999591
 30
0.0
 11
4057.0
 21
-1009.999999999992
 31
0.0
1001
ACDBBLOCKREPETAG
1070
     1
1071
       31
1005
126849
  0
LINE
  5
12684A
  8
OBJECT
 10
3943.0
 20
-1009.999999999992
 30
0.0
 11
3925.0
 21
-881.99999999999204
 31
0.0
1001
ACDBBLOCKREPETAG
1070
     1
1071
       32
1005
12684A
  0
LINE
  5
12684B
  8
OBJECT
 10
4066.0
 20
-1058.9999999999959
 30
0.0
 11
4066.0
 21
-1094.9999999999959
 31
0.0
1001
ACDBBLOCKREPETAG
1070
     1
1071
       33
1005
12684B
  0
LINE
  5
12684C
  8
OBJECT
 10
3934.0
 20
-1058.9999999999959
 30
0.0
 11
3934.0
 21
-1094.9999999999959
 31
0.0
1001
ACDBBLOCKREPETAG
1070
     1
1071
       34
1005
12684C
  0
LINE
  5
12684D
  8
OBJECT
 10
3917.0000000000068
 20
-1119.9999999999959
 30
0.0
 11
3917.0000000000068
 21
-1109.9999999999959
 31
0.0
1001
ACDBBLOCKREPETAG
1070
     1
1071
       35
1005
12684D
  0
LINE
  5
12684E
  8
OBJECT
 10
3927.0000000000082
 20
-1119.9999999999959
 30
0.0
 11
3927.0000000000082
 21
-1109.9999999999959
 31
0.0
1001
ACDBBLOCKREPETAG
1070
     1
1071
       36
1005
12684E
  0
LINE
  5
12684F
  8
OBJECT
 10
3931.0000000000159
 20
-1089.9999999999959
 30
0.0
 11
3931.0000000000159
 21
-1094.9999999999959
 31
0.0
1001
ACDBBLOCKREPETAG
1070
     1
1071
       37
1005
12684F
  0
LINE
  5
126850
  8
OBJECT
 10
3913.0
 20
-1089.9999999999959
 30
0.0
 11
3913.0
 21
-1094.9999999999959
 31
0.0
1001
ACDBBLOCKREPETAG
1070
     1
1071
       38
1005
126850
  0
LINE
  5
126851
  8
OBJECT
 10
3913.0
 20
-1089.9999999999959
 30
0.0
 11
3931.0000000000159
 21
-1089.9999999999959
 31
0.0
1001
ACDBBLOCKREPETAG
1070
     1
1071
       39
1005
126851
  0
LINE
  5
126852
  8
OBJECT
 10
3927.0
 20
-1141.9999999999959
 30
0.0
 11
3927.0
 21
-1144.9999999999959
 31
0.0
1001
ACDBBLOCKREPETAG
1070
     1
1071
       40
1005
126852
  0
LINE
  5
126853
  8
OBJECT
 10
3927.0
 20
-1144.9999999999959
 30
0.0
 11
3917.0
 21
-1144.9999999999959
 31
0.0
1001
ACDBBLOCKREPETAG
1070
     1
1071
       41
1005
126853
  0
LINE
  5
126854
  8
OBJECT
 10
3931.814954576228
 20
-1141.9999999999959
 30
0.0
 11
3912.1850454237788
 21
-1141.9999999999959
 31
0.0
1001
ACDBBLOCKREPETAG
1070
     1
1071
       42
1005
126854
  0
LINE
  5
126855
  8
OBJECT
 10
3917.0
 20
-1144.9999999999959
 30
0.0
 11
3917.0
 21
-1141.9999999999959
 31
0.0
1001
ACDBBLOCKREPETAG
1070
     1
1071
       43
1005
126855
  0
LINE
  5
126856
  8
OBJECT
 10
3931.8149640087072
 20
-1133.9999868402549
 30
0.0
 11
3931.8149640087072
 21
-1141.9999868402549
 31
0.0
1001
ACDBBLOCKREPETAG
1070
     1
1071
       44
1005
126856
  0
LINE
  5
126857
  8
OBJECT
 10
3926.9074986408009
 20
-1133.9999868402549
 30
0.0
 11
3926.9074986408009
 21
-1141.9999868402549
 31
0.0
1001
ACDBBLOCKREPETAG
1070
     1
1071
       45
1005
126857
  0
LINE
  5
126858
  8
OBJECT
 10
3917.092567904976
 20
-1133.9999868402549
 30
0.0
 11
3917.092567904976
 21
-1141.9999868402549
 31
0.0
1001
ACDBBLOCKREPETAG
1070
     1
1071
       46
1005
126858
  0
LINE
  5
126859
  8
OBJECT
 10
3912.185008447203
 20
-1133.9999868402549
 30
0.0
 11
3912.185008447203
 21
-1141.9999868402549
 31
0.0
1001
ACDBBLOCKREPETAG
1070
     1
1071
       47
1005
126859
  0
LINE
  5
12685A
  8
OBJECT
 10
4031.5
 20
-1089.9999999999959
 30
0.0
 11
4048.0000000000082
 21
-1089.9999999999959
 31
0.0
1001
ACDBBLOCKREPETAG
1070
     1
1071
       48
1005
12685A
  0
LINE
  5
12685B
  8
OBJECT
 10
4024.0
 20
-1094.9999999999959
 30
0.0
 11
4024.0
 21
-1092.9999999999959
 31
0.0
1001
ACDBBLOCKREPETAG
1070
     1
1071
       49
1005
12685B
  0
LINE
  5
12685C
  8
OBJECT
 10
4034.0
 20
-1119.9999999999959
 30
0.0
 11
4034.0
 21
-1109.9999999999959
 31
0.0
1001
ACDBBLOCKREPETAG
1070
     1
1071
       50
1005
12685C
  0
LINE
  5
12685D
  8
OBJECT
 10
4044.0
 20
-1119.9999999999959
 30
0.0
 11
4044.0
 21
-1109.9999999999959
 31
0.0
1001
ACDBBLOCKREPETAG
1070
     1
1071
       51
1005
12685D
  0
LINE
  5
12685E
  8
OBJECT
 10
4048.0000000000082
 20
-1089.9999999999959
 30
0.0
 11
4048.0000000000082
 21
-1094.9999999999959
 31
0.0
1001
ACDBBLOCKREPETAG
1070
     1
1071
       52
1005
12685E
  0
LINE
  5
12685F
  8
OBJECT
 10
4044.0
 20
-1141.9999999999959
 30
0.0
 11
4044.0
 21
-1144.9999999999959
 31
0.0
1001
ACDBBLOCKREPETAG
1070
     1
1071
       53
1005
12685F
  0
LINE
  5
126860
  8
OBJECT
 10
4044.0
 20
-1144.9999999999959
 30
0.0
 11
4034.0
 21
-1144.9999999999959
 31
0.0
1001
ACDBBLOCKREPETAG
1070
     1
1071
       54
1005
126860
  0
LINE
  5
126861
  8
OBJECT
 10
4048.814954576228
 20
-1141.9999999999959
 30
0.0
 11
4029.1850454237788
 21
-1141.9999999999959
 31
0.0
1001
ACDBBLOCKREPETAG
1070
     1
1071
       55
1005
126861
  0
LINE
  5
126862
  8
OBJECT
 10
4034.0
 20
-1144.9999999999959
 30
0.0
 11
4034.0
 21
-1141.9999999999959
 31
0.0
1001
ACDBBLOCKREPETAG
1070
     1
1071
       56
1005
126862
  0
LINE
  5
126863
  8
OBJECT
 10
4024.0
 20
-1092.9999999999959
 30
0.0
 11
4031.5
 21
-1089.9999999999959
 31
0.0
1001
ACDBBLOCKREPETAG
1070
     1
1071
       57
1005
126863
  0
LINE
  5
126864
  8
OBJECT
 10
4048.814964008704
 20
-1133.9999868402549
 30
0.0
 11
4048.814964008704
 21
-1141.9999868402549
 31
0.0
1001
ACDBBLOCKREPETAG
1070
     1
1071
       58
1005
126864
  0
LINE
  5
126865
  8
OBJECT
 10
4043.9074986408009
 20
-1133.9999868402549
 30
0.0
 11
4043.9074986408009
 21
-1141.9999868402549
 31
0.0
1001
ACDBBLOCKREPETAG
1070
     1
1071
       59
1005
126865
  0
LINE
  5
126866
  8
OBJECT
 10
4034.092567904976
 20
-1133.9999868402549
 30
0.0
 11
4034.092567904976
 21
-1141.9999868402549
 31
0.0
1001
ACDBBLOCKREPETAG
1070
     1
1071
       60
1005
126866
  0
LINE
  5
126867
  8
OBJECT
 10
4029.1850084472021
 20
-1133.9999868402549
 30
0.0
 11
4029.1850084472021
 21
-1141.9999868402549
 31
0.0
1001
ACDBBLOCKREPETAG
1070
     1
1071
       61
1005
126867
  0
LINE
  5
126868
  8
OBJECT
 10
1943.0
 20
-1109.9999999999959
 30
0.0
 11
2057.0
 21
-1109.9999999999959
 31
0.0
1001
ACDBBLOCKREPETAG
1070
     1
1071
        0
1005
126868
  0
LINE
  5
126869
  8
OBJECT
 10
1943.0
 20
-1109.9999999999959
 30
0.0
 11
1943.0
 21
-1009.999999999996
 31
0.0
1001
ACDBBLOCKREPETAG
1070
     1
1071
        1
1005
126869
  0
LINE
  5
12686A
  8
OBJECT
 10
2057.0
 20
-1109.9999999999959
 30
0.0
 11
2057.0
 21
-1009.999999999996
 31
0.0
1001
ACDBBLOCKREPETAG
1070
     1
1071
        2
1005
12686A
  0
LINE
  5
12686B
  8
OBJECT
 10
1943.0
 20
-1009.999999999996
 30
0.0
 11
2057.0
 21
-1009.999999999996
 31
0.0
1001
ACDBBLOCKREPETAG
1070
     1
1071
        3
1005
12686B
  0
LINE
  5
12686C
  8
HIDDEN
 10
1950.0
 20
-1009.999999999996
 30
0.0
 11
1950.0
 21
-1109.9999999999959
 31
0.0
1001
ACDBBLOCKREPETAG
1070
     1
1071
        4
1005
12686C
  0
LINE
  5
12686D
  8
HIDDEN
 10
2050.0
 20
-1009.999999999996
 30
0.0
 11
2050.0
 21
-1109.9999999999959
 31
0.0
1001
ACDBBLOCKREPETAG
1070
     1
1071
        5
1005
12686D
  0
LINE
  5
12686E
  8
CENTER
 10
2000.0
 20
-799.99999999999955
 30
0.0
 11
2000.0
 21
-1124.9999999999959
 31
0.0
1001
ACDBBLOCKREPETAG
1070
     1
1071
        6
1005
12686E
  0
LINE
  5
12686F
  8
OBJECT
 10
1925.0
 20
-799.99999999999955
 30
0.0
 11
1925.0
 21
-881.99999999999591
 31
0.0
1001
ACDBBLOCKREPETAG
1070
     1
1071
        7
1005
12686F
  0
LINE
  5
126870
  8
OBJECT
 10
2075.0
 20
-799.99999999999955
 30
0.0
 11
2075.0
 21
-881.99999999999591
 31
0.0
1001
ACDBBLOCKREPETAG
1070
     1
1071
        8
1005
126870
  0
LINE
  5
126871
  8
OBJECT
 10
1925.0
 20
-881.99999999999591
 30
0.0
 11
2075.0
 21
-881.99999999999591
 31
0.0
1001
ACDBBLOCKREPETAG
1070
     1
1071
        9
1005
126871
  0
LINE
  5
126872
  8
OBJECT
 10
1925.0
 20
-881.99999999999591
 30
0.0
 11
1943.0
 21
-1009.999999999996
 31
0.0
1001
ACDBBLOCKREPETAG
1070
     1
1071
       10
1005
126872
  0
LINE
  5
126873
  8
OBJECT
 10
2057.0
 20
-1009.999999999996
 30
0.0
 11
2075.0
 21
-881.99999999999591
 31
0.0
1001
ACDBBLOCKREPETAG
1070
     1
1071
       11
1005
126873
  0
LINE
  5
126874
  8
OBJECT
 10
2202.9999999999859
 20
-483.0000000000008
 30
0.0
 11
2209.9999999999859
 21
-483.0000000000008
 31
0.0
1001
ACDBBLOCKREPETAG
1070
     1
1071
       83
1005
126874
  0
LINE
  5
126875
  8
OBJECT
 10
2209.9999999999859
 20
-483.0000000000008
 30
0.0
 11
2209.9999999999859
 21
-607.0000000000008
 31
0.0
1001
ACDBBLOCKREPETAG
1070
     1
1071
       84
1005
126875
  0
LINE
  5
126876
  8
OBJECT
 10
2085.9999999999859
 20
-553.3502637757274
 30
0.0
 11
2085.9999999999859
 21
-655.00000000000068
 31
0.0
1001
ACDBBLOCKREPETAG
1070
     1
1071
       85
1005
126876
  0
LINE
  5
126877
  8
OBJECT
 10
2209.9999999999859
 20
-607.0000000000008
 30
0.0
 11
2202.9999999999859
 21
-607.0000000000008
 31
0.0
1001
ACDBBLOCKREPETAG
1070
     1
1071
       86
1005
126877
  0
LINE
  5
126878
  8
OBJECT
 10
2202.9999999999859
 20
-607.0000000000008
 30
0.0
 11
2202.9999999999859
 21
-483.0000000000008
 31
0.0
1001
ACDBBLOCKREPETAG
1070
     1
1071
       87
1005
126878
  0
LINE
  5
126879
  8
CENTER
 10
2134.9999999999859
 20
-545.0000000000008
 30
0.0
 11
2224.999999999985
 21
-545.0000000000008
 31
0.0
1001
ACDBBLOCKREPETAG
1070
     1
1071
       88
1005
126879
  0
LINE
  5
12687A
  8
OBJECT
 10
2079.9999999999809
 20
-658.0
 30
0.0
 11
2082.999999999985
 21
-658.0000000000008
 31
0.0
1001
ACDBBLOCKREPETAG
1070
     1
1071
       89
1005
12687A
  0
ARC
  5
12687B
  8
OBJECT
 10
2082.999999999985
 20
-655.00000000000068
 30
0.0
 40
3.0
 50
270.0
 51
0.0
1001
ACDBBLOCKREPETAG
1070
     1
1071
       90
1005
12687B
  0
LINE
  5
12687C
  8
OBJECT
 10
2202.9999999999859
 20
-486.0000000000008
 30
0.0
 11
2166.9999999999859
 21
-486.0000000000008
 31
0.0
1001
ACDBBLOCKREPETAG
1070
     1
1071
       91
1005
12687C
  0
LINE
  5
12687D
  8
OBJECT
 10
2166.9999999999859
 20
-486.0000000000008
 30
0.0
 11
2166.9999999999859
 21
-604.0000000000008
 31
0.0
1001
ACDBBLOCKREPETAG
1070
     1
1071
       92
1005
12687D
  0
LINE
  5
12687E
  8
OBJECT
 10
2162.9999999999859
 20
-490.5000000000008
 30
0.0
 11
2162.9999999999859
 21
-599.5000000000008
 31
0.0
1001
ACDBBLOCKREPETAG
1070
     1
1071
       93
1005
12687E
  0
LINE
  5
12687F
  8
OBJECT
 10
2162.9999999999859
 20
-490.5000000000008
 30
0.0
 11
2149.9999999999859
 21
-490.5000000000008
 31
0.0
1001
ACDBBLOCKREPETAG
1070
     1
1071
       94
1005
12687F
  0
LINE
  5
126880
  8
OBJECT
 10
2166.9999999999859
 20
-604.0000000000008
 30
0.0
 11
2202.9999999999859
 21
-604.0000000000008
 31
0.0
1001
ACDBBLOCKREPETAG
1070
     1
1071
       95
1005
126880
  0
LINE
  5
126881
  8
OBJECT
 10
2166.9999999999859
 20
-486.0000000000008
 30
0.0
 11
2162.9999999999859
 21
-490.5000000000008
 31
0.0
1001
ACDBBLOCKREPETAG
1070
     1
1071
       96
1005
126881
  0
LINE
  5
126882
  8
OBJECT
 10
2149.9999999999859
 20
-490.5000000000008
 30
0.0
 11
2149.9999999999859
 21
-575.74491827928784
 31
0.0
1001
ACDBBLOCKREPETAG
1070
     1
1071
       97
1005
126882
  0
ARC
  5
126883
  8
OBJECT
 10
2152.7999999999838
 20
-585.00000000000068
 30
0.0
 40
85.0
 50
91.887731891831123
 51
143.1301023540934
1001
ACDBBLOCKREPETAG
1070
     1
1071
       98
1005
126883
  0
LINE
  5
126884
  8
HIDDEN
 10
2157.9999999999859
 20
-500.5000000000008
 30
0.0
 11
2157.9999999999859
 21
-589.5000000000008
 31
0.0
1001
ACDBBLOCKREPETAG
1070
     1
1071
      100
1005
126884
  0
LINE
  5
126885
  8
OBJECT
 10
2085.9999999999859
 20
-651.07945073181781
 30
0.0
 11
2156.6313199210308
 21
-599.5000000000008
 31
0.0
1001
ACDBBLOCKREPETAG
1070
     1
1071
      101
1005
126885
  0
LINE
  5
126886
  8
OBJECT
 10
2079.9999999999809
 20
-534.0
 30
0.0
 11
2084.7999999999852
 21
-534.0
 31
0.0
1001
ACDBBLOCKREPETAG
1070
     1
1071
      102
1005
126886
  0
LINE
  5
126887
  8
OBJECT
 10
2085.9999999999859
 20
-553.35026377573001
 30
0.0
 11
2084.7999999999852
 21
-534.0
 31
0.0
1001
ACDBBLOCKREPETAG
1070
     1
1071
      103
1005
126887
  0
LINE
  5
126888
  8
OBJECT
 10
2162.9999999999859
 20
-599.5000000000008
 30
0.0
 11
2156.6313199210308
 21
-599.5000000000008
 31
0.0
1001
ACDBBLOCKREPETAG
1070
     1
1071
      104
1005
126888
  0
LINE
  5
126889
  8
OBJECT
 10
2166.9999999999859
 20
-604.0000000000008
 30
0.0
 11
2162.9999999999859
 21
-599.5000000000008
 31
0.0
1001
ACDBBLOCKREPETAG
1070
     1
1071
      105
1005
126889
  0
LINE
  5
12688A
  8
OBJECT
 10
2202.9999999999859
 20
-137.99999999999909
 30
0.0
 11
2209.9999999999859
 21
-137.99999999999909
 31
0.0
1001
ACDBBLOCKREPETAG
1070
     1
1071
       85
1005
12688A
  0
LINE
  5
12688B
  8
OBJECT
 10
2209.9999999999859
 20
-137.99999999999909
 30
0.0
 11
2209.9999999999859
 21
-261.99999999999909
 31
0.0
1001
ACDBBLOCKREPETAG
1070
     1
1071
       86
1005
12688B
  0
LINE
  5
12688C
  8
OBJECT
 10
2209.9999999999859
 20
-261.99999999999909
 30
0.0
 11
2202.9999999999859
 21
-261.99999999999909
 31
0.0
1001
ACDBBLOCKREPETAG
1070
     1
1071
       87
1005
12688C
  0
LINE
  5
12688D
  8
OBJECT
 10
2202.9999999999859
 20
-261.99999999999909
 30
0.0
 11
2202.9999999999859
 21
-137.99999999999909
 31
0.0
1001
ACDBBLOCKREPETAG
1070
     1
1071
       88
1005
12688D
  0
LINE
  5
12688E
  8
CENTER
 10
2224.999999999985
 20
-199.99999999999909
 30
0.0
 11
2080.0
 21
-199.99999999999909
 31
0.0
1001
ACDBBLOCKREPETAG
1070
     1
1071
       89
1005
12688E
  0
LINE
  5
12688F
  8
OBJECT
 10
2149.9999749641861
 20
-245.0000000000027
 30
0.0
 11
2086.0
 21
-244.99999999999909
 31
0.0
1001
ACDBBLOCKREPETAG
1070
     1
1071
       90
1005
12688F
  0
LINE
  5
126890
  8
OBJECT
 10
2149.9999749641861
 20
-154.99999999999909
 30
0.0
 11
2086.0
 21
-154.99999999999909
 31
0.0
1001
ACDBBLOCKREPETAG
1070
     1
1071
       91
1005
126890
  0
LINE
  5
126891
  8
OBJECT
 10
2202.9999999999859
 20
-140.99999999999909
 30
0.0
 11
2166.9999999999859
 21
-140.99999999999909
 31
0.0
1001
ACDBBLOCKREPETAG
1070
     1
1071
       92
1005
126891
  0
LINE
  5
126892
  8
OBJECT
 10
2166.9999999999859
 20
-140.99999999999909
 30
0.0
 11
2166.9999999999859
 21
-258.99999999999909
 31
0.0
1001
ACDBBLOCKREPETAG
1070
     1
1071
       93
1005
126892
  0
LINE
  5
126893
  8
OBJECT
 10
2166.9999999999859
 20
-258.99999999999909
 30
0.0
 11
2202.9999999999859
 21
-258.99999999999909
 31
0.0
1001
ACDBBLOCKREPETAG
1070
     1
1071
       94
1005
126893
  0
LINE
  5
126894
  8
OBJECT
 10
2162.9999999999859
 20
-145.49999999999909
 30
0.0
 11
2149.9999999999859
 21
-145.49999999999909
 31
0.0
1001
ACDBBLOCKREPETAG
1070
     1
1071
       95
1005
126894
  0
LINE
  5
126895
  8
OBJECT
 10
2149.9999999999859
 20
-254.49999999999909
 30
0.0
 11
2162.9999999999859
 21
-254.49999999999909
 31
0.0
1001
ACDBBLOCKREPETAG
1070
     1
1071
       96
1005
126895
  0
LINE
  5
126896
  8
OBJECT
 10
2162.9999999999859
 20
-254.49999999999909
 30
0.0
 11
2162.9999999999859
 21
-145.49999999999909
 31
0.0
1001
ACDBBLOCKREPETAG
1070
     1
1071
       97
1005
126896
  0
LINE
  5
126897
  8
OBJECT
 10
2166.9999999999859
 20
-140.99999999999909
 30
0.0
 11
2162.9999999999859
 21
-145.49999999999909
 31
0.0
1001
ACDBBLOCKREPETAG
1070
     1
1071
       98
1005
126897
  0
LINE
  5
126898
  8
OBJECT
 10
2166.9999999999859
 20
-258.99999999999909
 30
0.0
 11
2162.9999999999859
 21
-254.49999999999909
 31
0.0
1001
ACDBBLOCKREPETAG
1070
     1
1071
       99
1005
126898
  0
LINE
  5
126899
  8
OBJECT
 10
2083.0
 20
-137.99999999999909
 30
0.0
 11
2080.0
 21
-137.99999999999909
 31
0.0
1001
ACDBBLOCKREPETAG
1070
     1
1071
      100
1005
126899
  0
ARC
  5
12689A
  8
OBJECT
 10
2083.0
 20
-140.99999999999909
 30
0.0
 40
3.0
 50
0.0
 51
90.0
1001
ACDBBLOCKREPETAG
1070
     1
1071
      101
1005
12689A
  0
LINE
  5
12689B
  8
OBJECT
 10
2080.0
 20
-261.99999999999909
 30
0.0
 11
2083.0
 21
-261.99999999999909
 31
0.0
1001
ACDBBLOCKREPETAG
1070
     1
1071
      102
1005
12689B
  0
ARC
  5
12689C
  8
OBJECT
 10
2083.0
 20
-258.99999999999909
 30
0.0
 40
3.0
 50
270.0
 51
0.0
1001
ACDBBLOCKREPETAG
1070
     1
1071
      103
1005
12689C
  0
LINE
  5
12689D
  8
OBJECT
 10
2086.0
 20
-258.99999999999909
 30
0.0
 11
2086.0
 21
-210.3227903203578
 31
0.0
1001
ACDBBLOCKREPETAG
1070
     1
1071
      104
1005
12689D
  0
LINE
  5
12689E
  8
OBJECT
 10
2086.0
 20
-189.6772096796403
 30
0.0
 11
2086.0
 21
-140.99999999999909
 31
0.0
1001
ACDBBLOCKREPETAG
1070
     1
1071
      105
1005
12689E
  0
LINE
  5
12689F
  8
HIDDEN
 10
2157.9999999999859
 20
-155.49999999999909
 30
0.0
 11
2157.9999999999859
 21
-244.49999999999909
 31
0.0
1001
ACDBBLOCKREPETAG
1070
     1
1071
      106
1005
12689F
  0
LINE
  5
1268A0
  8
OBJECT
 10
2149.9999749641861
 20
-254.4999509238105
 30
0.0
 11
2149.9999749641861
 21
-145.4999509238105
 31
0.0
1001
ACDBBLOCKREPETAG
1070
     1
1071
      108
1005
1268A0
  0
ARC
  5
1268A1
  8
OBJECT
 10
2129.8000000000252
 20
-199.99999999999909
 30
0.0
 40
45.000000000000547
 50
90.0
 51
270.0
1001
ACDBBLOCKREPETAG
1070
     1
1071
      109
1005
1268A1
  0
TEXT
  5
1268A2
  8
SLIM
 10
0.0
 20
670.0
 30
0.0
 40
100.0
  1
4HF-Z6-P110-S
 41
0.75
  0
TEXT
  5
1268A3
  8
SLIM
 10
0.0
 20
520.0
 30
0.0
 40
100.0
  1
4HF-Z6-P110-W
 41
0.75
  0
LINE
  5
1268A4
  8
CENTER
 10
12091.0
 20
-1383.9999999999959
 30
0.0
 11
11895.0
 21
-1383.9999999999959
 31
0.0
1001
ACDBBLOCKREPETAG
1070
     1
1071
       10
1005
1268A4
  0
LINE
  5
1268A5
  8
CENTER
 10
12000.0
 20
-1475.274664429212
 30
0.0
 11
12000.0
 21
-1292.725335570779
 31
0.0
1001
ACDBBLOCKREPETAG
1070
     1
1071
       11
1005
1268A5
  0
CIRCLE
  5
1268A6
  8
OBJECT
 10
12000.0
 20
-1383.9999999999959
 30
0.0
 40
50.0
1001
ACDBBLOCKREPETAG
1070
     1
1071
       12
1005
1268A6
  0
CIRCLE
  5
1268A7
  8
OBJECT
 10
12000.0
 20
-1383.9999999999959
 30
0.0
 40
60.0
1001
ACDBBLOCKREPETAG
1070
     1
1071
       13
1005
1268A7
  0
CIRCLE
  5
1268A8
  8
OBJECT
 10
12000.0
 20
-1383.9999999999959
 30
0.0
 40
68.0
1001
ACDBBLOCKREPETAG
1070
     1
1071
       14
1005
1268A8
  0
ARC
  5
1268A9
  8
OBJECT
 10
11922.5
 20
-1383.9999999999959
 30
0.0
 40
12.0
 50
92.105426272216135
 51
267.89457372778372
1001
ACDBBLOCKREPETAG
1070
     1
1071
       15
1005
1268A9
  0
ARC
  5
1268AA
  8
OBJECT
 10
11921.508064516131
 20
-1410.981772810467
 30
0.0
 40
15.0
 50
18.97051877965265
 51
87.894573727783893
1001
ACDBBLOCKREPETAG
1070
     1
1071
       16
1005
1268AA
  0
ARC
  5
1268AB
  8
OBJECT
 10
11921.508064516131
 20
-1357.018227189528
 30
0.0
 40
15.0
 50
272.10542627221611
 51
341.02948122034741
1001
ACDBBLOCKREPETAG
1070
     1
1071
       17
1005
1268AB
  0
CIRCLE
  5
1268AC
  8
SLIM
 10
11922.0
 20
-1383.9999999999959
 30
0.0
 40
8.0
1001
ACDBBLOCKREPETAG
1070
     1
1071
       18
1005
1268AC
  0
POLYLINE
  5
1268AD
  8
SLIM
 66
     1
 10
0.0
 20
0.0
 30
0.0
 70
     1
1001
ACDBBLOCKREPETAG
1070
     1
1071
       19
1005
1268AD
  0
VERTEX
  5
126C7D
  8
SLIM
 10
11924.30940107676
 20
-1387.9999999999959
 30
0.0
  0
VERTEX
  5
126C7E
  8
SLIM
 10
11926.61880215352
 20
-1383.9999999999959
 30
0.0
  0
VERTEX
  5
126C7F
  8
SLIM
 10
11924.30940107676
 20
-1379.9999999999959
 30
0.0
  0
VERTEX
  5
126C80
  8
SLIM
 10
11919.69059892324
 20
-1379.9999999999959
 30
0.0
  0
VERTEX
  5
126C81
  8
SLIM
 10
11917.381197846489
 20
-1383.9999999999959
 30
0.0
  0
VERTEX
  5
126C82
  8
SLIM
 10
11919.69059892324
 20
-1387.9999999999959
 30
0.0
  0
SEQEND
  5
126C83
  8
SLIM
  0
ARC
  5
1268AE
  8
OBJECT
 10
12038.75
 20
-1451.116968793292
 30
0.0
 40
12.0
 50
212.10542627213019
 51
27.89457372768311
1001
ACDBBLOCKREPETAG
1070
     1
1071
       20
1005
1268AE
  0
ARC
  5
1268AF
  8
OBJECT
 10
12062.612868434941
 20
-1438.485123716003
 30
0.0
 40
15.0
 50
138.97051877944759
 51
207.89457372768319
1001
ACDBBLOCKREPETAG
1070
     1
1071
       21
1005
1268AF
  0
ARC
  5
1268B0
  8
OBJECT
 10
12015.879067048931
 20
-1465.466896526475
 30
0.0
 40
15.0
 50
32.105426272130188
 51
101.0294812204407
1001
ACDBBLOCKREPETAG
1070
     1
1071
       22
1005
1268B0
  0
CIRCLE
  5
1268B1
  8
SLIM
 10
12039.0
 20
-1451.5499814951829
 30
0.0
 40
7.9999999999999982
1001
ACDBBLOCKREPETAG
1070
     1
1071
       23
1005
1268B1
  0
POLYLINE
  5
1268B2
  8
SLIM
 66
     1
 10
0.0
 20
0.0
 30
0.0
 70
     1
1001
ACDBBLOCKREPETAG
1070
     1
1071
       24
1005
1268B2
  0
VERTEX
  5
126C84
  8
SLIM
 10
12041.30940107676
 20
-1447.5499814951829
 30
0.0
  0
VERTEX
  5
126C85
  8
SLIM
 10
12036.69059892324
 20
-1447.5499814951829
 30
0.0
  0
VERTEX
  5
126C86
  8
SLIM
 10
12034.381197846489
 20
-1451.5499814951829
 30
0.0
  0
VERTEX
  5
126C87
  8
SLIM
 10
12036.69059892324
 20
-1455.5499814951829
 30
0.0
  0
VERTEX
  5
126C88
  8
SLIM
 10
12041.30940107676
 20
-1455.5499814951829
 30
0.0
  0
VERTEX
  5
126C89
  8
SLIM
 10
12043.61880215352
 20
-1451.5499814951829
 30
0.0
  0
SEQEND
  5
126C8A
  8
SLIM
  0
ARC
  5
1268B3
  8
OBJECT
 10
12038.75
 20
-1316.883031206703
 30
0.0
 40
12.0
 50
332.10542627231678
 51
147.89457372786981
1001
ACDBBLOCKREPETAG
1070
     1
1071
       25
1005
1268B3
  0
ARC
  5
1268B4
  8
OBJECT
 10
12015.879067048931
 20
-1302.53310347352
 30
0.0
 40
15.0
 50
258.97051877955931
 51
327.89457372786978
1001
ACDBBLOCKREPETAG
1070
     1
1071
       26
1005
1268B4
  0
ARC
  5
1268B5
  8
OBJECT
 10
12062.612868434941
 20
-1329.514876283989
 30
0.0
 40
15.0
 50
152.10542627231681
 51
221.02948122055241
1001
ACDBBLOCKREPETAG
1070
     1
1071
       27
1005
1268B5
  0
CIRCLE
  5
1268B6
  8
SLIM
 10
12039.0
 20
-1316.4500185048089
 30
0.0
 40
8.0
1001
ACDBBLOCKREPETAG
1070
     1
1071
       28
1005
1268B6
  0
POLYLINE
  5
1268B7
  8
SLIM
 66
     1
 10
0.0
 20
0.0
 30
0.0
 70
     1
1001
ACDBBLOCKREPETAG
1070
     1
1071
       29
1005
1268B7
  0
VERTEX
  5
126C8B
  8
SLIM
 10
12034.381197846489
 20
-1316.4500185048121
 30
0.0
  0
VERTEX
  5
126C8C
  8
SLIM
 10
12036.69059892324
 20
-1320.450018504808
 30
0.0
  0
VERTEX
  5
126C8D
  8
SLIM
 10
12041.30940107676
 20
-1320.4500185048121
 30
0.0
  0
VERTEX
  5
126C8E
  8
SLIM
 10
12043.61880215352
 20
-1316.4500185048089
 30
0.0
  0
VERTEX
  5
126C8F
  8
SLIM
 10
12041.30940107676
 20
-1312.4500185048121
 30
0.0
  0
VERTEX
  5
126C90
  8
SLIM
 10
12036.69059892324
 20
-1312.450018504808
 30
0.0
  0
SEQEND
  5
126C91
  8
SLIM
  0
ARC
  5
1268B8
  8
OBJECT
 10
12000.0
 20
-1383.9999999999959
 30
0.0
 40
76.0
 50
214.8638379541718
 51
265.13616204573287
1001
ACDBBLOCKREPETAG
1070
     1
1071
       42
1005
1268B8
  0
ARC
  5
1268B9
  8
OBJECT
 10
12000.0
 20
-1383.9999999999959
 30
0.0
 40
76.0
 50
334.86383795430942
 51
25.136162045690561
1001
ACDBBLOCKREPETAG
1070
     1
1071
       43
1005
1268B9
  0
ARC
  5
1268BA
  8
OBJECT
 10
12000.0
 20
-1383.9999999999959
 30
0.0
 40
76.0
 50
94.863837954267041
 51
145.13616204582809
1001
ACDBBLOCKREPETAG
1070
     1
1071
       44
1005
1268BA
  0
ARC
  5
1268BB
  8
OBJECT
 10
11922.0
 20
-1383.9999999999959
 30
0.0
 40
12.0
 50
145.13616204582809
 51
214.8638379541718
1001
ACDBBLOCKREPETAG
1070
     1
1071
       45
1005
1268BB
  0
LINE
  5
1268BC
  8
OBJECT
 10
11912.153846153829
 20
-1390.8595374798581
 30
0.0
 11
11937.641025640951
 21
-1427.443737372457
 31
0.0
1001
ACDBBLOCKREPETAG
1070
     1
1071
       46
1005
1268BC
  0
LINE
  5
1268BD
  8
OBJECT
 10
11912.153846153829
 20
-1377.1404625201351
 30
0.0
 11
11937.641025640951
 21
-1340.556262627533
 31
0.0
1001
ACDBBLOCKREPETAG
1070
     1
1071
       47
1005
1268BD
  0
ARC
  5
1268BE
  8
OBJECT
 10
12039.0
 20
-1451.5499814951811
 30
0.0
 40
12.0
 50
265.13616204594291
 51
334.86383795410012
1001
ACDBBLOCKREPETAG
1070
     1
1071
       48
1005
1268BE
  0
LINE
  5
1268BF
  8
OBJECT
 10
12049.863610638849
 20
-1456.6472321156009
 30
0.0
 11
12068.802867379411
 21
-1416.282587262644
 31
0.0
1001
ACDBBLOCKREPETAG
1070
     1
1071
       49
1005
1268BF
  0
LINE
  5
1268C0
  8
OBJECT
 10
12037.98254320731
 20
-1463.5067695954631
 30
0.0
 11
11993.556106979629
 21
-1459.726324635106
 31
0.0
1001
ACDBBLOCKREPETAG
1070
     1
1071
       50
1005
1268C0
  0
ARC
  5
1268C1
  8
OBJECT
 10
12039.0
 20
-1316.45001850481
 30
0.0
 40
12.0
 50
25.136162045899951
 51
94.863837954057146
1001
ACDBBLOCKREPETAG
1070
     1
1071
       51
1005
1268C1
  0
LINE
  5
1268C2
  8
OBJECT
 10
12037.98254320731
 20
-1304.493230404528
 30
0.0
 11
11993.556106979629
 21
-1308.2736753648851
 31
0.0
1001
ACDBBLOCKREPETAG
1070
     1
1071
       52
1005
1268C2
  0
LINE
  5
1268C3
  8
OBJECT
 10
12049.863610638849
 20
-1311.352767884387
 30
0.0
 11
12068.80286737942
 21
-1351.7174127373489
 31
0.0
1001
ACDBBLOCKREPETAG
1070
     1
1071
       53
1005
1268C3
  0
LINE
  5
1268C4
  8
CENTER
 10
9909.0
 20
-1383.9999999999959
 30
0.0
 11
10105.0
 21
-1383.9999999999959
 31
0.0
1001
ACDBBLOCKREPETAG
1070
     1
1071
        0
1005
1268C4
  0
LINE
  5
1268C5
  8
CENTER
 10
10000.0
 20
-1475.274664429212
 30
0.0
 11
10000.0
 21
-1292.725335570779
 31
0.0
1001
ACDBBLOCKREPETAG
1070
     1
1071
        1
1005
1268C5
  0
CIRCLE
  5
1268C6
  8
OBJECT
 10
10000.0
 20
-1383.9999999999959
 30
0.0
 40
50.0
1001
ACDBBLOCKREPETAG
1070
     1
1071
        2
1005
1268C6
  0
CIRCLE
  5
1268C7
  8
OBJECT
 10
10000.0
 20
-1383.9999999999959
 30
0.0
 40
62.0
1001
ACDBBLOCKREPETAG
1070
     1
1071
        3
1005
1268C7
  0
CIRCLE
  5
1268C8
  8
SLIM
 10
9922.0
 20
-1383.9999999999959
 30
0.0
 40
5.0
1001
ACDBBLOCKREPETAG
1070
     1
1071
        4
1005
1268C8
  0
POLYLINE
  5
1268C9
  8
SLIM
 66
     1
 10
0.0
 20
0.0
 30
0.0
 70
     1
1001
ACDBBLOCKREPETAG
1070
     1
1071
        5
1005
1268C9
  0
VERTEX
  5
126C92
  8
SLIM
 10
9926.907477288114
 20
-1392.4999999999959
 30
0.0
  0
VERTEX
  5
126C93
  8
SLIM
 10
9931.814954576228
 20
-1383.9999999999959
 30
0.0
  0
VERTEX
  5
126C94
  8
SLIM
 10
9926.907477288114
 20
-1375.4999999999959
 30
0.0
  0
VERTEX
  5
126C95
  8
SLIM
 10
9917.0925227118914
 20
-1375.4999999999959
 30
0.0
  0
VERTEX
  5
126C96
  8
SLIM
 10
9912.1850454237847
 20
-1383.9999999999959
 30
0.0
  0
VERTEX
  5
126C97
  8
SLIM
 10
9917.0925227118914
 20
-1392.4999999999959
 30
0.0
  0
SEQEND
  5
126C98
  8
SLIM
  0
CIRCLE
  5
1268CA
  8
SLIM
 10
10039.0
 20
-1451.5499814951829
 30
0.0
 40
4.9999999999999991
1001
ACDBBLOCKREPETAG
1070
     1
1071
        6
1005
1268CA
  0
POLYLINE
  5
1268CB
  8
SLIM
 66
     1
 10
0.0
 20
0.0
 30
0.0
 70
     1
1001
ACDBBLOCKREPETAG
1070
     1
1071
        7
1005
1268CB
  0
VERTEX
  5
126C99
  8
SLIM
 10
10043.90747728811
 20
-1443.0499814951829
 30
0.0
  0
VERTEX
  5
126C9A
  8
SLIM
 10
10034.092522711881
 20
-1443.0499814951829
 30
0.0
  0
VERTEX
  5
126C9B
  8
SLIM
 10
10029.185045423779
 20
-1451.5499814951829
 30
0.0
  0
VERTEX
  5
126C9C
  8
SLIM
 10
10034.092522711881
 20
-1460.0499814951829
 30
0.0
  0
VERTEX
  5
126C9D
  8
SLIM
 10
10043.90747728811
 20
-1460.0499814951829
 30
0.0
  0
VERTEX
  5
126C9E
  8
SLIM
 10
10048.81495457623
 20
-1451.5499814951829
 30
0.0
  0
SEQEND
  5
126C9F
  8
SLIM
  0
CIRCLE
  5
1268CC
  8
SLIM
 10
10039.0
 20
-1316.4500185048089
 30
0.0
 40
5.0
1001
ACDBBLOCKREPETAG
1070
     1
1071
        8
1005
1268CC
  0
POLYLINE
  5
1268CD
  8
SLIM
 66
     1
 10
0.0
 20
0.0
 30
0.0
 70
     1
1001
ACDBBLOCKREPETAG
1070
     1
1071
        9
1005
1268CD
  0
VERTEX
  5
126CA0
  8
SLIM
 10
10029.185045423779
 20
-1316.4500185048089
 30
0.0
  0
VERTEX
  5
126CA1
  8
SLIM
 10
10034.09252271189
 20
-1324.9500185048121
 30
0.0
  0
VERTEX
  5
126CA2
  8
SLIM
 10
10043.90747728811
 20
-1324.950018504808
 30
0.0
  0
VERTEX
  5
126CA3
  8
SLIM
 10
10048.81495457623
 20
-1316.4500185048121
 30
0.0
  0
VERTEX
  5
126CA4
  8
SLIM
 10
10043.90747728811
 20
-1307.950018504808
 30
0.0
  0
VERTEX
  5
126CA5
  8
SLIM
 10
10034.092522711881
 20
-1307.9500185048121
 30
0.0
  0
SEQEND
  5
126CA6
  8
SLIM
  0
ARC
  5
1268CE
  8
OBJECT
 10
10000.0
 20
-1383.9999999999959
 30
0.0
 40
76.0
 50
214.8638379541718
 51
265.13616204573287
1001
ACDBBLOCKREPETAG
1070
     1
1071
       30
1005
1268CE
  0
ARC
  5
1268CF
  8
OBJECT
 10
10000.0
 20
-1383.9999999999959
 30
0.0
 40
76.0
 50
334.86383795430942
 51
25.136162045690561
1001
ACDBBLOCKREPETAG
1070
     1
1071
       31
1005
1268CF
  0
ARC
  5
1268D0
  8
OBJECT
 10
10000.0
 20
-1383.9999999999959
 30
0.0
 40
76.0
 50
94.863837954267041
 51
145.13616204582809
1001
ACDBBLOCKREPETAG
1070
     1
1071
       32
1005
1268D0
  0
ARC
  5
1268D1
  8
OBJECT
 10
9922.0
 20
-1383.9999999999959
 30
0.0
 40
12.0
 50
145.13616204582809
 51
214.8638379541718
1001
ACDBBLOCKREPETAG
1070
     1
1071
       33
1005
1268D1
  0
LINE
  5
1268D2
  8
OBJECT
 10
9912.1538461538348
 20
-1390.8595374798581
 30
0.0
 11
9937.641025640949
 21
-1427.443737372457
 31
0.0
1001
ACDBBLOCKREPETAG
1070
     1
1071
       34
1005
1268D2
  0
LINE
  5
1268D3
  8
OBJECT
 10
9912.1538461538275
 20
-1377.1404625201351
 30
0.0
 11
9937.641025640949
 21
-1340.556262627533
 31
0.0
1001
ACDBBLOCKREPETAG
1070
     1
1071
       35
1005
1268D3
  0
ARC
  5
1268D4
  8
OBJECT
 10
10039.0
 20
-1451.5499814951811
 30
0.0
 40
12.0
 50
265.13616204594291
 51
334.86383795410012
1001
ACDBBLOCKREPETAG
1070
     1
1071
       36
1005
1268D4
  0
LINE
  5
1268D5
  8
OBJECT
 10
10049.86361063884
 20
-1456.6472321156009
 30
0.0
 11
10068.802867379411
 21
-1416.282587262644
 31
0.0
1001
ACDBBLOCKREPETAG
1070
     1
1071
       37
1005
1268D5
  0
LINE
  5
1268D6
  8
OBJECT
 10
10037.98254320731
 20
-1463.5067695954631
 30
0.0
 11
9993.5561069796331
 21
-1459.726324635106
 31
0.0
1001
ACDBBLOCKREPETAG
1070
     1
1071
       38
1005
1268D6
  0
ARC
  5
1268D7
  8
OBJECT
 10
10039.0
 20
-1316.45001850481
 30
0.0
 40
12.0
 50
25.136162045899951
 51
94.863837954057146
1001
ACDBBLOCKREPETAG
1070
     1
1071
       39
1005
1268D7
  0
LINE
  5
1268D8
  8
OBJECT
 10
10037.98254320731
 20
-1304.493230404528
 30
0.0
 11
9993.5561069796368
 21
-1308.2736753648851
 31
0.0
1001
ACDBBLOCKREPETAG
1070
     1
1071
       40
1005
1268D8
  0
LINE
  5
1268D9
  8
OBJECT
 10
10049.86361063884
 20
-1311.352767884387
 30
0.0
 11
10068.80286737942
 21
-1351.7174127373489
 31
0.0
1001
ACDBBLOCKREPETAG
1070
     1
1071
       41
1005
1268D9
  0
LINE
  5
1268DA
  8
CENTER
 10
6091.0
 20
-1424.9999999999991
 30
0.0
 11
5895.0
 21
-1424.9999999999991
 31
0.0
1001
ACDBBLOCKREPETAG
1070
     1
1071
       10
1005
1268DA
  0
LINE
  5
1268DB
  8
CENTER
 10
6000.0
 20
-1516.2746644292149
 30
0.0
 11
6000.0
 21
-1333.7253355707819
 31
0.0
1001
ACDBBLOCKREPETAG
1070
     1
1071
       11
1005
1268DB
  0
CIRCLE
  5
1268DC
  8
OBJECT
 10
6000.0
 20
-1424.9999999999991
 30
0.0
 40
50.0
1001
ACDBBLOCKREPETAG
1070
     1
1071
       12
1005
1268DC
  0
CIRCLE
  5
1268DD
  8
OBJECT
 10
6000.0
 20
-1424.9999999999991
 30
0.0
 40
60.0
1001
ACDBBLOCKREPETAG
1070
     1
1071
       13
1005
1268DD
  0
CIRCLE
  5
1268DE
  8
OBJECT
 10
6000.0
 20
-1424.9999999999991
 30
0.0
 40
68.0
1001
ACDBBLOCKREPETAG
1070
     1
1071
       14
1005
1268DE
  0
ARC
  5
1268DF
  8
OBJECT
 10
5922.5
 20
-1424.9999999999991
 30
0.0
 40
12.0
 50
92.105426272216135
 51
267.89457372778372
1001
ACDBBLOCKREPETAG
1070
     1
1071
       15
1005
1268DF
  0
ARC
  5
1268E0
  8
OBJECT
 10
5921.5080645161361
 20
-1451.9817728104711
 30
0.0
 40
15.0
 50
18.970518779635711
 51
87.894573727783893
1001
ACDBBLOCKREPETAG
1070
     1
1071
       16
1005
1268E0
  0
ARC
  5
1268E1
  8
OBJECT
 10
5921.5080645161361
 20
-1398.018227189531
 30
0.0
 40
15.0
 50
272.10542627221611
 51
341.02948122036429
1001
ACDBBLOCKREPETAG
1070
     1
1071
       17
1005
1268E1
  0
CIRCLE
  5
1268E2
  8
SLIM
 10
5922.0
 20
-1424.9999999999991
 30
0.0
 40
8.0
1001
ACDBBLOCKREPETAG
1070
     1
1071
       18
1005
1268E2
  0
POLYLINE
  5
1268E3
  8
SLIM
 66
     1
 10
0.0
 20
0.0
 30
0.0
 70
     1
1001
ACDBBLOCKREPETAG
1070
     1
1071
       19
1005
1268E3
  0
VERTEX
  5
126CA7
  8
SLIM
 10
5924.3094010767672
 20
-1428.9999999999991
 30
0.0
  0
VERTEX
  5
126CA8
  8
SLIM
 10
5926.618802153519
 20
-1424.9999999999991
 30
0.0
  0
VERTEX
  5
126CA9
  8
SLIM
 10
5924.3094010767672
 20
-1420.9999999999991
 30
0.0
  0
VERTEX
  5
126CAA
  8
SLIM
 10
5919.6905989232482
 20
-1420.9999999999991
 30
0.0
  0
VERTEX
  5
126CAB
  8
SLIM
 10
5917.3811978464882
 20
-1424.9999999999991
 30
0.0
  0
VERTEX
  5
126CAC
  8
SLIM
 10
5919.6905989232482
 20
-1428.9999999999991
 30
0.0
  0
SEQEND
  5
126CAD
  8
SLIM
  0
ARC
  5
1268E4
  8
OBJECT
 10
6038.75
 20
-1492.116968793295
 30
0.0
 40
12.0
 50
212.1054262721579
 51
27.894573727707481
1001
ACDBBLOCKREPETAG
1070
     1
1071
       20
1005
1268E4
  0
ARC
  5
1268E5
  8
OBJECT
 10
6062.612868434946
 20
-1479.485123716006
 30
0.0
 40
15.0
 50
138.97051877944759
 51
207.89457372770741
1001
ACDBBLOCKREPETAG
1070
     1
1071
       21
1005
1268E5
  0
ARC
  5
1268E6
  8
OBJECT
 10
6015.8790670489288
 20
-1506.466896526478
 30
0.0
 40
15.0
 50
32.105426272157878
 51
101.0294812204407
1001
ACDBBLOCKREPETAG
1070
     1
1071
       22
1005
1268E6
  0
CIRCLE
  5
1268E7
  8
SLIM
 10
6039.0
 20
-1492.5499814951861
 30
0.0
 40
7.9999999999999982
1001
ACDBBLOCKREPETAG
1070
     1
1071
       23
1005
1268E7
  0
POLYLINE
  5
1268E8
  8
SLIM
 66
     1
 10
0.0
 20
0.0
 30
0.0
 70
     1
1001
ACDBBLOCKREPETAG
1070
     1
1071
       24
1005
1268E8
  0
VERTEX
  5
126CAE
  8
SLIM
 10
6041.30940107676
 20
-1488.5499814951861
 30
0.0
  0
VERTEX
  5
126CAF
  8
SLIM
 10
6036.6905989232473
 20
-1488.5499814951861
 30
0.0
  0
VERTEX
  5
126CB0
  8
SLIM
 10
6034.3811978464892
 20
-1492.5499814951861
 30
0.0
  0
VERTEX
  5
126CB1
  8
SLIM
 10
6036.6905989232473
 20
-1496.5499814951861
 30
0.0
  0
VERTEX
  5
126CB2
  8
SLIM
 10
6041.30940107676
 20
-1496.5499814951861
 30
0.0
  0
VERTEX
  5
126CB3
  8
SLIM
 10
6043.6188021535199
 20
-1492.5499814951861
 30
0.0
  0
SEQEND
  5
126CB4
  8
SLIM
  0
ARC
  5
1268E9
  8
OBJECT
 10
6038.75
 20
-1357.8830312067059
 30
0.0
 40
12.0
 50
332.1054262722925
 51
147.8945737278421
1001
ACDBBLOCKREPETAG
1070
     1
1071
       25
1005
1268E9
  0
ARC
  5
1268EA
  8
OBJECT
 10
6015.8790670489288
 20
-1343.5331034735241
 30
0.0
 40
15.0
 50
258.97051877955931
 51
327.89457372784221
1001
ACDBBLOCKREPETAG
1070
     1
1071
       26
1005
1268EA
  0
ARC
  5
1268EB
  8
OBJECT
 10
6062.612868434946
 20
-1370.514876283992
 30
0.0
 40
15.0
 50
152.1054262722925
 51
221.02948122055241
1001
ACDBBLOCKREPETAG
1070
     1
1071
       27
1005
1268EB
  0
CIRCLE
  5
1268EC
  8
SLIM
 10
6039.0
 20
-1357.4500185048121
 30
0.0
 40
8.0
1001
ACDBBLOCKREPETAG
1070
     1
1071
       28
1005
1268EC
  0
POLYLINE
  5
1268ED
  8
SLIM
 66
     1
 10
0.0
 20
0.0
 30
0.0
 70
     1
1001
ACDBBLOCKREPETAG
1070
     1
1071
       29
1005
1268ED
  0
VERTEX
  5
126CB5
  8
SLIM
 10
6034.3811978464892
 20
-1357.450018504815
 30
0.0
  0
VERTEX
  5
126CB6
  8
SLIM
 10
6036.6905989232473
 20
-1361.4500185048121
 30
0.0
  0
VERTEX
  5
126CB7
  8
SLIM
 10
6041.30940107676
 20
-1361.450018504815
 30
0.0
  0
VERTEX
  5
126CB8
  8
SLIM
 10
6043.6188021535199
 20
-1357.4500185048121
 30
0.0
  0
VERTEX
  5
126CB9
  8
SLIM
 10
6041.3094010767672
 20
-1353.450018504815
 30
0.0
  0
VERTEX
  5
126CBA
  8
SLIM
 10
6036.6905989232473
 20
-1353.4500185048121
 30
0.0
  0
SEQEND
  5
126CBB
  8
SLIM
  0
ARC
  5
1268EE
  8
OBJECT
 10
6000.0
 20
-1424.9999999999991
 30
0.0
 40
76.0
 50
214.8638379541421
 51
265.13616204573287
1001
ACDBBLOCKREPETAG
1070
     1
1071
       42
1005
1268EE
  0
ARC
  5
1268EF
  8
OBJECT
 10
6000.0
 20
-1424.9999999999991
 30
0.0
 40
76.0
 50
334.86383795430942
 51
25.136162045690561
1001
ACDBBLOCKREPETAG
1070
     1
1071
       43
1005
1268EF
  0
ARC
  5
1268F0
  8
OBJECT
 10
6000.0
 20
-1424.9999999999991
 30
0.0
 40
76.0
 50
94.863837954267041
 51
145.1361620458579
1001
ACDBBLOCKREPETAG
1070
     1
1071
       44
1005
1268F0
  0
ARC
  5
1268F1
  8
OBJECT
 10
5922.0
 20
-1424.9999999999991
 30
0.0
 40
12.0
 50
145.1361620458579
 51
214.8638379541421
1001
ACDBBLOCKREPETAG
1070
     1
1071
       45
1005
1268F1
  0
LINE
  5
1268F2
  8
OBJECT
 10
5912.153846153833
 20
-1431.859537479861
 30
0.0
 11
5937.641025640949
 21
-1468.44373737246
 31
0.0
1001
ACDBBLOCKREPETAG
1070
     1
1071
       46
1005
1268F2
  0
LINE
  5
1268F3
  8
OBJECT
 10
5912.1538461538294
 20
-1418.140462520138
 30
0.0
 11
5937.641025640949
 21
-1381.5562626275359
 31
0.0
1001
ACDBBLOCKREPETAG
1070
     1
1071
       47
1005
1268F3
  0
ARC
  5
1268F4
  8
OBJECT
 10
6039.0
 20
-1492.5499814951841
 30
0.0
 40
12.0
 50
265.13616204594291
 51
334.86383795410012
1001
ACDBBLOCKREPETAG
1070
     1
1071
       48
1005
1268F4
  0
LINE
  5
1268F5
  8
OBJECT
 10
6049.8636106388549
 20
-1497.6472321156029
 30
0.0
 11
6068.8028673794142
 21
-1457.2825872626479
 31
0.0
1001
ACDBBLOCKREPETAG
1070
     1
1071
       49
1005
1268F5
  0
LINE
  5
1268F6
  8
OBJECT
 10
6037.9825432073158
 20
-1504.5067695954681
 30
0.0
 11
5993.5561069796322
 21
-1500.726324635109
 31
0.0
1001
ACDBBLOCKREPETAG
1070
     1
1071
       50
1005
1268F6
  0
ARC
  5
1268F7
  8
OBJECT
 10
6039.0
 20
-1357.450018504813
 30
0.0
 40
12.0
 50
25.136162045899951
 51
94.863837954057146
1001
ACDBBLOCKREPETAG
1070
     1
1071
       51
1005
1268F7
  0
LINE
  5
1268F8
  8
OBJECT
 10
6037.9825432073121
 20
-1345.493230404531
 30
0.0
 11
5993.556106979634
 21
-1349.273675364889
 31
0.0
1001
ACDBBLOCKREPETAG
1070
     1
1071
       52
1005
1268F8
  0
LINE
  5
1268F9
  8
OBJECT
 10
6049.8636106388549
 20
-1352.35276788439
 30
0.0
 11
6068.8028673794161
 21
-1392.7174127373521
 31
0.0
1001
ACDBBLOCKREPETAG
1070
     1
1071
       53
1005
1268F9
  0
LINE
  5
1268FA
  8
CENTER
 10
3909.0
 20
-1383.9999999999959
 30
0.0
 11
4105.0
 21
-1383.9999999999959
 31
0.0
1001
ACDBBLOCKREPETAG
1070
     1
1071
        0
1005
1268FA
  0
LINE
  5
1268FB
  8
CENTER
 10
4000.0
 20
-1475.274664429212
 30
0.0
 11
4000.0
 21
-1292.725335570779
 31
0.0
1001
ACDBBLOCKREPETAG
1070
     1
1071
        1
1005
1268FB
  0
CIRCLE
  5
1268FC
  8
OBJECT
 10
4000.0
 20
-1383.9999999999959
 30
0.0
 40
50.0
1001
ACDBBLOCKREPETAG
1070
     1
1071
        2
1005
1268FC
  0
CIRCLE
  5
1268FD
  8
OBJECT
 10
4000.0
 20
-1383.9999999999959
 30
0.0
 40
62.0
1001
ACDBBLOCKREPETAG
1070
     1
1071
        3
1005
1268FD
  0
CIRCLE
  5
1268FE
  8
SLIM
 10
3922.0
 20
-1383.9999999999959
 30
0.0
 40
5.0
1001
ACDBBLOCKREPETAG
1070
     1
1071
        4
1005
1268FE
  0
POLYLINE
  5
1268FF
  8
SLIM
 66
     1
 10
0.0
 20
0.0
 30
0.0
 70
     1
1001
ACDBBLOCKREPETAG
1070
     1
1071
        5
1005
1268FF
  0
VERTEX
  5
126CBC
  8
SLIM
 10
3926.907477288114
 20
-1392.4999999999959
 30
0.0
  0
VERTEX
  5
126CBD
  8
SLIM
 10
3931.814954576228
 20
-1383.9999999999959
 30
0.0
  0
VERTEX
  5
126CBE
  8
SLIM
 10
3926.907477288114
 20
-1375.4999999999959
 30
0.0
  0
VERTEX
  5
126CBF
  8
SLIM
 10
3917.0925227118928
 20
-1375.4999999999959
 30
0.0
  0
VERTEX
  5
126CC0
  8
SLIM
 10
3912.1850454237788
 20
-1383.9999999999959
 30
0.0
  0
VERTEX
  5
126CC1
  8
SLIM
 10
3917.0925227118928
 20
-1392.4999999999959
 30
0.0
  0
SEQEND
  5
126CC2
  8
SLIM
  0
CIRCLE
  5
126900
  8
SLIM
 10
4039.0
 20
-1451.5499814951829
 30
0.0
 40
4.9999999999999991
1001
ACDBBLOCKREPETAG
1070
     1
1071
        6
1005
126900
  0
POLYLINE
  5
126901
  8
SLIM
 66
     1
 10
0.0
 20
0.0
 30
0.0
 70
     1
1001
ACDBBLOCKREPETAG
1070
     1
1071
        7
1005
126901
  0
VERTEX
  5
126CC3
  8
SLIM
 10
4043.907477288114
 20
-1443.0499814951829
 30
0.0
  0
VERTEX
  5
126CC4
  8
SLIM
 10
4034.092522711886
 20
-1443.0499814951829
 30
0.0
  0
VERTEX
  5
126CC5
  8
SLIM
 10
4029.1850454237788
 20
-1451.5499814951829
 30
0.0
  0
VERTEX
  5
126CC6
  8
SLIM
 10
4034.092522711886
 20
-1460.0499814951829
 30
0.0
  0
VERTEX
  5
126CC7
  8
SLIM
 10
4043.907477288114
 20
-1460.0499814951829
 30
0.0
  0
VERTEX
  5
126CC8
  8
SLIM
 10
4048.814954576228
 20
-1451.5499814951829
 30
0.0
  0
SEQEND
  5
126CC9
  8
SLIM
  0
CIRCLE
  5
126902
  8
SLIM
 10
4039.0
 20
-1316.4500185048089
 30
0.0
 40
5.0
1001
ACDBBLOCKREPETAG
1070
     1
1071
        8
1005
126902
  0
POLYLINE
  5
126903
  8
SLIM
 66
     1
 10
0.0
 20
0.0
 30
0.0
 70
     1
1001
ACDBBLOCKREPETAG
1070
     1
1071
        9
1005
126903
  0
VERTEX
  5
126CCA
  8
SLIM
 10
4029.1850454237788
 20
-1316.4500185048089
 30
0.0
  0
VERTEX
  5
126CCB
  8
SLIM
 10
4034.0925227118928
 20
-1324.9500185048121
 30
0.0
  0
VERTEX
  5
126CCC
  8
SLIM
 10
4043.907477288114
 20
-1324.950018504808
 30
0.0
  0
VERTEX
  5
126CCD
  8
SLIM
 10
4048.814954576228
 20
-1316.4500185048121
 30
0.0
  0
VERTEX
  5
126CCE
  8
SLIM
 10
4043.907477288114
 20
-1307.950018504808
 30
0.0
  0
VERTEX
  5
126CCF
  8
SLIM
 10
4034.092522711886
 20
-1307.9500185048121
 30
0.0
  0
SEQEND
  5
126CD0
  8
SLIM
  0
ARC
  5
126904
  8
OBJECT
 10
4000.0
 20
-1383.9999999999959
 30
0.0
 40
76.0
 50
214.8638379541421
 51
265.13616204573287
1001
ACDBBLOCKREPETAG
1070
     1
1071
       30
1005
126904
  0
ARC
  5
126905
  8
OBJECT
 10
4000.0
 20
-1383.9999999999959
 30
0.0
 40
76.0
 50
334.86383795430942
 51
25.136162045690561
1001
ACDBBLOCKREPETAG
1070
     1
1071
       31
1005
126905
  0
ARC
  5
126906
  8
OBJECT
 10
4000.0
 20
-1383.9999999999959
 30
0.0
 40
76.0
 50
94.863837954267041
 51
145.1361620458579
1001
ACDBBLOCKREPETAG
1070
     1
1071
       32
1005
126906
  0
ARC
  5
126907
  8
OBJECT
 10
3922.0
 20
-1383.9999999999959
 30
0.0
 40
12.0
 50
145.1361620458579
 51
214.8638379541421
1001
ACDBBLOCKREPETAG
1070
     1
1071
       33
1005
126907
  0
LINE
  5
126908
  8
OBJECT
 10
3912.153846153833
 20
-1390.8595374798581
 30
0.0
 11
3937.6410256409508
 21
-1427.443737372457
 31
0.0
1001
ACDBBLOCKREPETAG
1070
     1
1071
       34
1005
126908
  0
LINE
  5
126909
  8
OBJECT
 10
3912.1538461538298
 20
-1377.1404625201351
 30
0.0
 11
3937.6410256409508
 21
-1340.556262627533
 31
0.0
1001
ACDBBLOCKREPETAG
1070
     1
1071
       35
1005
126909
  0
ARC
  5
12690A
  8
OBJECT
 10
4039.0
 20
-1451.5499814951811
 30
0.0
 40
12.0
 50
265.13616204594291
 51
334.86383795411092
1001
ACDBBLOCKREPETAG
1070
     1
1071
       36
1005
12690A
  0
LINE
  5
12690B
  8
OBJECT
 10
4049.8636106388549
 20
-1456.6472321156009
 30
0.0
 11
4068.8028673794129
 21
-1416.282587262644
 31
0.0
1001
ACDBBLOCKREPETAG
1070
     1
1071
       37
1005
12690B
  0
LINE
  5
12690C
  8
OBJECT
 10
4037.9825432073148
 20
-1463.5067695954631
 30
0.0
 11
3993.5561069796322
 21
-1459.726324635106
 31
0.0
1001
ACDBBLOCKREPETAG
1070
     1
1071
       38
1005
12690C
  0
ARC
  5
12690D
  8
OBJECT
 10
4039.0
 20
-1316.45001850481
 30
0.0
 40
12.0
 50
25.13616204588887
 51
94.863837954057146
1001
ACDBBLOCKREPETAG
1070
     1
1071
       39
1005
12690D
  0
LINE
  5
12690E
  8
OBJECT
 10
4037.9825432073121
 20
-1304.493230404528
 30
0.0
 11
3993.556106979634
 21
-1308.2736753648851
 31
0.0
1001
ACDBBLOCKREPETAG
1070
     1
1071
       40
1005
12690E
  0
LINE
  5
12690F
  8
OBJECT
 10
4049.8636106388549
 20
-1311.352767884387
 30
0.0
 11
4068.8028673794161
 21
-1351.7174127373489
 31
0.0
1001
ACDBBLOCKREPETAG
1070
     1
1071
       41
1005
12690F
  0
TEXT
  5
126910
  8
SLIM
 10
3853.75
 20
-1651.4999999999959
 30
0.0
 40
35.0
  1
両受けスタイル（W）
 41
0.75
  0
TEXT
  5
126911
  8
SLIM
 10
5811.8000000000002
 20
-1748.9999999999991
 30
0.0
 40
28.0
  1
※ 対応スラブ厚　150mm以上
 41
0.75
  0
TEXT
  5
126912
  8
SLIM
 10
5611.5
 20
-1842.3333333333319
 30
0.0
 40
28.0
  1
国土交通大臣認定・（財）日本消防設備安全センター性能評定取得品
 41
0.75
  0
TEXT
  5
126913
  8
SLIM
 10
5631.1000000000004
 20
-1888.9999999999991
 30
0.0
 40
28.0
  1
注）ご採用にあたり、認定書及び評定書の内容をご確認ください。
 41
0.75
  0
TEXT
  5
126914
  8
SLIM
 10
11824.6
 20
-1707.9999999999959
 30
0.0
 40
28.0
  1
※ 対応スラブ厚　150～380
 41
0.75
  0
TEXT
  5
126915
  8
SLIM
 10
11611.5
 20
-1801.3333333333289
 30
0.0
 40
28.0
  1
国土交通大臣認定・（財）日本消防設備安全センター性能評定取得品
 41
0.75
  0
TEXT
  5
126916
  8
SLIM
 10
11631.1
 20
-1847.9999999999959
 30
0.0
 40
28.0
  1
注）ご採用にあたり、認定書及び評定書の内容をご確認ください。
 41
0.75
  0
TEXT
  5
126917
  8
SLIM
 10
9824.6000000000004
 20
-1707.9999999999959
 30
0.0
 40
28.0
  1
※ 対応スラブ厚　180～380
 41
0.75
  0
TEXT
  5
126918
  8
SLIM
 10
9611.5000000000018
 20
-1801.3333333333289
 30
0.0
 40
28.0
  1
国土交通大臣認定・（財）日本消防設備安全センター性能評定取得品
 41
0.75
  0
TEXT
  5
126919
  8
SLIM
 10
9631.1000000000004
 20
-1847.9999999999959
 30
0.0
 40
28.0
  1
注）ご採用にあたり、認定書及び評定書の内容をご確認ください。
 41
0.75
  0
TEXT
  5
12691A
  8
SLIM
 10
7771.3999999999978
 20
-1440.666666666664
 30
0.0
 40
28.0
  1
※ 対応スラブ厚　180｛150｝～340
 41
0.75
  0
TEXT
  5
12691B
  8
SLIM
 10
7733.2999999999975
 20
-1487.333333333331
 30
0.0
 40
28.0
  1
｛｝内はカンペイ立て管との組み合わせの場合
 41
0.75
  0
TEXT
  5
12691C
  8
SLIM
 10
7611.4999999999982
 20
-1580.6666666666649
 30
0.0
 40
28.0
  1
国土交通大臣認定・（財）日本消防設備安全センター性能評定取得品
 41
0.75
  0
TEXT
  5
12691D
  8
SLIM
 10
7631.1000000000004
 20
-1627.333333333331
 30
0.0
 40
28.0
  1
注）ご採用にあたり、認定書及び評定書の内容をご確認ください。
 41
0.75
  0
TEXT
  5
12691E
  8
SLIM
 10
9739.1250000000018
 20
-1651.4999999999959
 30
0.0
 40
35.0
  1
両受けスタイル（W）＋シンドカット
 41
0.75
  0
TEXT
  5
12691F
  8
SLIM
 10
11743.5
 20
-1651.4999999999959
 30
0.0
 40
35.0
  1
カンペイ君（WKP）＋シンドカット
 41
0.75
  0
TEXT
  5
126920
  8
SLIM
 10
7741.625
 20
-1377.499999999997
 30
0.0
 40
35.0
  1
片受けスタイル（S）＋シンドカット
 41
0.75
  0
TEXT
  5
126921
  8
SLIM
 10
5858.1250000000009
 20
-1692.4999999999991
 30
0.0
 40
35.0
  1
カンペイ君（WKP）
 41
0.75
  0
TEXT
  5
126922
  8
SLIM
 10
1856.25
 20
-1377.499999999997
 30
0.0
 40
35.0
  1
片受けスタイル（S）
 41
0.75
  0
TEXT
  5
126923
  8
SLIM
 10
0.0
 20
369.99999999999989
 30
0.0
 40
100.0
  1
4HF-Z6-P110-WKP
 41
0.75
  0
VIEWPORT
  5
F6BA7
 67
     1
  8
0
 10
185.50346062511861
 20
101.8328354358673
 30
0.0
 40
414.3487481428715
 41
222.19657968139651
 68
     1
 69
     1
1001
ACAD
1000
MVIEW
1002
{
1070
    16
1010
0.0
1020
0.0
1030
0.0
1010
0.0
1020
0.0
1030
1.0
1040
0.0
1040
222.19657968139651
1040
185.50346062511861
1040
101.8328354358673
1040
50.0
1040
0.0
1040
0.0
1070
     0
1070
     0
1070
     1
1070
     1
1070
     0
1070
     0
1070
     0
1070
     0
1040
0.0
1040
0.0
1040
0.0
1040
10.0
1040
10.0
1040
10.0
1040
10.0
1070
     0
1002
{
1002
}
1002
}
  0
VIEWPORT
  5
F6BA9
 67
     1
  8
OBJECT
 10
145.3303314447403
 20
101.8328338861465
 30
0.0
 40
232.5285303115844
 41
162.93253421783439
 68
     2
 69
     2
1001
ACAD
1000
MVIEW
1002
{
1070
    16
1010
0.0
1020
0.0
1030
0.0
1010
0.0
1020
0.0
1030
1.0
1040
0.0
1040
25942.55904403147
1040
2377.604457077377
1040
-7591.5176687056619
1040
50.0
1040
0.0
1040
0.0
1070
     0
1070
   600
1070
     1
1070
     1
1070
     0
1070
     0
1070
     0
1070
     0
1040
0.0
1040
0.0
1040
0.0
1040
1.0
1040
1.0
1040
0.0
1040
0.0
1070
     0
1002
{
1002
}
1002
}
  0
ENDSEC
  0
EOF
