  0
SECTION
  2
HEADER
  9
$ACADVER
  1
AC1009
  9
$INSBASE
 10
0.0
 20
0.0
 30
0.0
  9
$EXTMIN
 10
0.0
 20
-1989.0
 30
0.0
  9
$EXTMAX
 10
12387.100000000009
 20
770.0
 30
0.0
  9
$LIMMIN
 10
0.0
 20
0.0
  9
$LIMMAX
 10
210.0
 20
297.0
  9
$ORTHOMODE
 70
     0
  9
$REGENMODE
 70
     1
  9
$FILLMODE
 70
     1
  9
$QTEXTMODE
 70
     0
  9
$MIRRTEXT
 70
     0
  9
$DRAGMODE
 70
     2
  9
$LTSCALE
 40
1.0
  9
$OSMODE
 70
   109
  9
$ATTMODE
 70
     1
  9
$TEXTSIZE
 40
4.0
  9
$TRACEWID
 40
0.05
  9
$TEXTSTYLE
  7
STANDARD
  9
$CLAYER
  8
OBJECT
  9
$CELTYPE
  6
BYLAYER
  9
$CECOLOR
 62
   256
  9
$DIMSCALE
 40
10.0
  9
$DIMASZ
 40
2.0
  9
$DIMEXO
 40
1.0
  9
$DIMDLI
 40
10.0
  9
$DIMRND
 40
0.0
  9
$DIMDLE
 40
0.0
  9
$DIMEXE
 40
1.0
  9
$DIMTP
 40
0.0
  9
$DIMTM
 40
0.0
  9
$DIMTXT
 40
3.2000000000000002
  9
$DIMCEN
 40
0.0
  9
$DIMTSZ
 40
0.0
  9
$DIMTOL
 70
     0
  9
$DIMLIM
 70
     0
  9
$DIMTIH
 70
     0
  9
$DIMTOH
 70
     0
  9
$DIMSE1
 70
     0
  9
$DIMSE2
 70
     0
  9
$DIMTAD
 70
     1
  9
$DIMZIN
 70
     8
  9
$DIMBLK
  1
OPEN30
  9
$DIMASO
 70
     1
  9
$DIMSHO
 70
     1
  9
$DIMPOST
  1

  9
$DIMAPOST
  1

  9
$DIMALT
 70
     0
  9
$DIMALTD
 70
     2
  9
$DIMALTF
 40
25.399999999999999
  9
$DIMLFAC
 40
1.0
  9
$DIMTOFL
 70
     1
  9
$DIMTVP
 40
0.0
  9
$DIMTIX
 70
     0
  9
$DIMSOXD
 70
     0
  9
$DIMSAH
 70
     0
  9
$DIMBLK1
  1

  9
$DIMBLK2
  1

  9
$DIMSTYLE
  2
S10
  9
$DIMCLRD
 70
   256
  9
$DIMCLRE
 70
   256
  9
$DIMCLRT
 70
   256
  9
$DIMTFAC
 40
1.0
  9
$DIMGAP
 40
0.9
  9
$LUNITS
 70
     2
  9
$LUPREC
 70
     2
  9
$SKETCHINC
 40
0.1
  9
$FILLETRAD
 40
0.0
  9
$AUNITS
 70
     0
  9
$AUPREC
 70
     2
  9
$MENU
  1
ACAD
  9
$ELEVATION
 40
0.0
  9
$PELEVATION
 40
0.0
  9
$THICKNESS
 40
0.0
  9
$LIMCHECK
 70
     0
  9
$BLIPMODE
 70
     0
  9
$CHAMFERA
 40
2.0
  9
$CHAMFERB
 40
2.0
  9
$SKPOLY
 70
     0
  9
$TDCREATE
 40
2453095.4929404748
  9
$TDUPDATE
 40
2456735.6919552782
  9
$TDINDWG
 40
18.515204687499999
  9
$TDUSRTIMER
 40
18.5152041435
  9
$USRTIMER
 70
     1
  9
$ANGBASE
 50
0.0
  9
$ANGDIR
 70
     0
  9
$PDMODE
 70
    35
  9
$PDSIZE
 40
2.0
  9
$PLINEWID
 40
0.0
  9
$COORDS
 70
     1
  9
$SPLFRAME
 70
     0
  9
$SPLINETYPE
 70
     6
  9
$SPLINESEGS
 70
     8
  9
$ATTDIA
 70
     0
  9
$ATTREQ
 70
     1
  9
$HANDLING
 70
     1
  9
$HANDSEED
  5
13A532
  9
$SURFTAB1
 70
     6
  9
$SURFTAB2
 70
     6
  9
$SURFTYPE
 70
     6
  9
$SURFU
 70
     6
  9
$SURFV
 70
     6
  9
$UCSNAME
  2

  9
$UCSORG
 10
0.0
 20
0.0
 30
0.0
  9
$UCSXDIR
 10
1.0
 20
0.0
 30
0.0
  9
$UCSYDIR
 10
0.0
 20
1.0
 30
0.0
  9
$PUCSNAME
  2

  9
$PUCSORG
 10
0.0
 20
0.0
 30
0.0
  9
$PUCSXDIR
 10
1.0
 20
0.0
 30
0.0
  9
$PUCSYDIR
 10
0.0
 20
1.0
 30
0.0
  9
$USERI1
 70
     0
  9
$USERI2
 70
     0
  9
$USERI3
 70
     0
  9
$USERI4
 70
     0
  9
$USERI5
 70
     0
  9
$USERR1
 40
0.0
  9
$USERR2
 40
0.0
  9
$USERR3
 40
0.0
  9
$USERR4
 40
0.0
  9
$USERR5
 40
0.0
  9
$WORLDVIEW
 70
     1
  9
$SHADEDGE
 70
     3
  9
$SHADEDIF
 70
    70
  9
$TILEMODE
 70
     1
  9
$MAXACTVP
 70
    64
  9
$PLIMCHECK
 70
     0
  9
$PEXTMIN
 10
29.066066288948051
 20
20.366566777229309
 30
0.0
  9
$PEXTMAX
 10
261.5945966005325
 20
183.29910099506381
 30
0.0
  9
$PLIMMIN
 10
-3.17498779296875
 20
-3.1749999523162842
  9
$PLIMMAX
 10
293.83566284179687
 20
206.8406708240509
  9
$UNITMODE
 70
     0
  9
$VISRETAIN
 70
     1
  9
$PLINEGEN
 70
     0
  9
$PSLTSCALE
 70
     1
  0
ENDSEC
  0
SECTION
  2
TABLES
  0
TABLE
  2
VPORT
 70
     1
  0
VPORT
  2
*ACTIVE
 70
     0
 10
0.0
 20
0.0
 11
1.0
 21
1.0
 12
6199.5072769214812
 22
76.602721622398334
 13
0.0
 23
0.0
 14
1.0
 24
1.0
 15
0.0
 25
0.0
 16
0.0
 26
0.0
 36
1.0
 17
0.0
 27
0.0
 37
0.0
 40
8632.3830607293894
 41
1.6778074866310151
 42
50.0
 43
0.0
 44
0.0
 50
0.0
 51
0.0
 71
     0
 72
   600
 73
     1
 74
     1
 75
     0
 76
     0
 77
     0
 78
     0
  0
ENDTAB
  0
TABLE
  2
LTYPE
 70
     4
  0
LTYPE
  2
CONTINUOUS
 70
     0
  3
Solid line
 72
    65
 73
     0
 40
0.0
  0
LTYPE
  2
PHANTOM2
 70
     0
  3
___ _ _ ___ _ _ ___ _ _ ___ _ _
 72
    65
 73
     6
 40
1.25
 49
0.625
 49
-0.125
 49
0.125
 49
-0.125
 49
0.125
 49
-0.125
  0
LTYPE
  2
ACAD_ISO08W100
 70
     0
  3
ISO long-dash short-dash ____ __ ____ __ ____ _
 72
    65
 73
     4
 40
36.0
 49
24.0
 49
-3.0
 49
6.0
 49
-3.0
  0
LTYPE
  2
ACAD_ISO02W100
 70
     0
  3
ISO dash __ __ __ __ __ __ __ __ __ __ __ __ __
 72
    65
 73
     2
 40
15.0
 49
12.0
 49
-3.0
  0
ENDTAB
  0
TABLE
  2
LAYER
 70
     7
  0
LAYER
  2
0
 70
     0
 62
     7
  6
CONTINUOUS
  0
LAYER
  2
OBJECT
 70
     0
 62
     4
  6
CONTINUOUS
  0
LAYER
  2
DEFPOINTS
 70
     0
 62
     7
  6
CONTINUOUS
  0
LAYER
  2
HIDDEN
 70
     0
 62
     2
  6
ACAD_ISO02W100
  0
LAYER
  2
CENTER
 70
     0
 62
     2
  6
ACAD_ISO08W100
  0
LAYER
  2
DOTS
 70
     0
 62
     1
  6
CONTINUOUS
  0
LAYER
  2
SLIM
 70
     0
 62
     2
  6
CONTINUOUS
  0
ENDTAB
  0
TABLE
  2
STYLE
 70
     2
  0
STYLE
  2
STANDARD
 70
     0
 40
0.0
 41
0.75
 50
0.0
 71
     0
 42
4.0
  3
simplex.shx
  4
bigfont.shx
  0
ENDTAB
  0
TABLE
  2
VIEW
 70
     0
  0
ENDTAB
  0
TABLE
  2
UCS
 70
     0
  0
ENDTAB
  0
TABLE
  2
APPID
 70
    19
  0
APPID
  2
ACAD
 70
     0
  0
APPID
  2
ACADANNOTATIVE
 70
     0
  0
APPID
  2
ACAD_PSEXT
 70
     0
  0
APPID
  2
ACAD_EXEMPT_FROM_CAD_STANDARDS
 70
     0
  0
APPID
  2
ACAECLAYERSTANDARD
 70
     0
  0
APPID
  2
ACAUTHENVIRON
 70
     0
  0
APPID
  2
ACDBDYNAMICBLOCKTRUENAME
 70
     0
  0
APPID
  2
ACDBDYNAMICBLOCKGUID
 70
     0
  0
APPID
  2
ACDBBLOCKREPETAG
 70
     0
  0
APPID
  2
ACDBBLOCKREPBTAG
 70
     0
  0
APPID
  2
ACAD_NAV_VCDISPLAY
 70
     0
  0
APPID
  2
ACAD_DSTYLE_DIMRADIAL_EXTENSION
 70
     0
  0
APPID
  2
ACAD_DSTYLE_DIMJAG
 70
     0
  0
APPID
  2
ACAD_DSTYLE_DIMTALN
 70
     0
  0
APPID
  2
ACADANNOPO
 70
     0
  0
APPID
  2
GRADIENTCOLOR1ACI
 70
     0
  0
APPID
  2
GRADIENTCOLOR2ACI
 70
     0
  0
APPID
  2
CONTENTBLOCKICON
 70
     0
  0
APPID
  2
ACAD_MLEADERVER
 70
     0
  0
ENDTAB
  0
TABLE
  2
DIMSTYLE
 70
     3
  0
DIMSTYLE
  2
STANDARD
 70
     0
  3

  4

  5

  6

  7

 40
1.0
 41
0.18
 42
0.0625
 43
0.38
 44
0.18
 45
0.0
 46
0.0
 47
0.0
 48
0.0
140
0.18
141
0.09
142
0.0
143
25.399999999999999
144
1.0
145
0.0
146
1.0
147
0.09
 71
     0
 72
     0
 73
     1
 74
     1
 75
     0
 76
     0
 77
     0
 78
     0
170
     0
171
     2
172
     0
173
     0
174
     0
175
     0
176
     0
177
     0
178
     0
  0
DIMSTYLE
  2
S10
 70
     0
  3

  4

  5

  6

  7

 40
10.0
 41
2.0
 42
1.0
 43
10.0
 44
1.0
 45
0.0
 46
0.0
 47
0.0
 48
0.0
140
3.2000000000000002
141
0.0
142
0.0
143
25.399999999999999
144
1.0
145
0.0
146
1.0
147
0.9
 71
     0
 72
     0
 73
     0
 74
     0
 75
     0
 76
     0
 77
     1
 78
     8
170
     0
171
     2
172
     1
173
     0
174
     0
175
     0
176
   256
177
   256
178
   256
  0
ENDTAB
  0
ENDSEC
  0
SECTION
  2
BLOCKS
  0
BLOCK
  8
0
  2
$MODEL_SPACE
 70
     0
 10
0.0
 20
0.0
 30
0.0
  3
$MODEL_SPACE
  1

  0
ENDBLK
  5
13A2C8
  8
0
  0
BLOCK
 67
     1
  8
0
  2
$PAPER_SPACE
 70
     0
 10
0.0
 20
0.0
 30
0.0
  3
$PAPER_SPACE
  1

  0
ENDBLK
  5
13A2C4
 67
     1
  8
0
  0
BLOCK
  8
0
  2
_OPEN30
 70
     0
 10
0.0
 20
0.0
 30
0.0
  3
_OPEN30
  1

  0
LINE
  5
202
  8
0
  6
BYBLOCK
 62
     0
 10
-1.0
 20
0.26794919
 30
0.0
 11
0.0
 21
0.0
 31
0.0
  0
LINE
  5
203
  8
0
  6
BYBLOCK
 62
     0
 10
0.0
 20
0.0
 30
0.0
 11
-1.0
 21
-0.26794919
 31
0.0
  0
LINE
  5
204
  8
0
  6
BYBLOCK
 62
     0
 10
0.0
 20
0.0
 30
0.0
 11
-1.0
 21
0.0
 31
0.0
  0
ENDBLK
  5
206
  8
0
  0
ENDSEC
  0
SECTION
  2
ENTITIES
  0
LINE
  5
1397B1
  8
OBJECT
 10
11787.0
 20
-553.0
 30
0.0
 11
11780.000000000009
 21
-553.0
 31
0.0
1001
ACDBBLOCKREPETAG
1070
     1
1071
      106
1005
1397B1
  0
LINE
  5
1397B2
  8
OBJECT
 10
11780.000000000009
 20
-553.0
 30
0.0
 11
11780.000000000009
 21
-677.0
 31
0.0
1001
ACDBBLOCKREPETAG
1070
     1
1071
      107
1005
1397B2
  0
LINE
  5
1397B3
  8
OBJECT
 10
11914.0
 20
-653.3502637757274
 30
0.0
 11
11914.0
 21
-755.00000000000102
 31
0.0
1001
ACDBBLOCKREPETAG
1070
     1
1071
      108
1005
1397B3
  0
LINE
  5
1397B4
  8
OBJECT
 10
11780.000000000009
 20
-677.0
 30
0.0
 11
11787.0
 21
-677.0
 31
0.0
1001
ACDBBLOCKREPETAG
1070
     1
1071
      109
1005
1397B4
  0
LINE
  5
1397B5
  8
OBJECT
 10
11787.0
 20
-677.0
 30
0.0
 11
11787.0
 21
-553.0
 31
0.0
1001
ACDBBLOCKREPETAG
1070
     1
1071
      110
1005
1397B5
  0
LINE
  5
1397B6
  8
CENTER
 10
11855.000000000009
 20
-615.0000000000008
 30
0.0
 11
11765.0
 21
-615.0
 31
0.0
1001
ACDBBLOCKREPETAG
1070
     1
1071
      111
1005
1397B6
  0
LINE
  5
1397B7
  8
OBJECT
 10
11920.00000000002
 20
-758.0
 30
0.0
 11
11917.000000000009
 21
-758.0000000000008
 31
0.0
1001
ACDBBLOCKREPETAG
1070
     1
1071
      112
1005
1397B7
  0
ARC
  5
1397B8
  8
OBJECT
 10
11917.000000000009
 20
-755.00000000000102
 30
0.0
 40
3.0
 50
180.0
 51
270.0
1001
ACDBBLOCKREPETAG
1070
     1
1071
      113
1005
1397B8
  0
LINE
  5
1397B9
  8
OBJECT
 10
11787.0
 20
-556.0
 30
0.0
 11
11823.000000000009
 21
-556.0000000000008
 31
0.0
1001
ACDBBLOCKREPETAG
1070
     1
1071
      114
1005
1397B9
  0
LINE
  5
1397BA
  8
OBJECT
 10
11823.000000000009
 20
-556.0000000000008
 30
0.0
 11
11823.000000000009
 21
-653.15756805667843
 31
0.0
1001
ACDBBLOCKREPETAG
1070
     1
1071
      115
1005
1397BA
  0
LINE
  5
1397BB
  8
OBJECT
 10
11827.0
 20
-560.5000000000008
 30
0.0
 11
11827.00000000002
 21
-645.74491827928705
 31
0.0
1001
ACDBBLOCKREPETAG
1070
     1
1071
      116
1005
1397BB
  0
LINE
  5
1397BC
  8
OBJECT
 10
11827.0
 20
-560.5000000000008
 30
0.0
 11
11840.000000000009
 21
-560.5000000000008
 31
0.0
1001
ACDBBLOCKREPETAG
1070
     1
1071
      117
1005
1397BC
  0
LINE
  5
1397BD
  8
OBJECT
 10
11831.343683174529
 20
-674.0000000000008
 30
0.0
 11
11787.0
 21
-674.0
 31
0.0
1001
ACDBBLOCKREPETAG
1070
     1
1071
      118
1005
1397BD
  0
LINE
  5
1397BE
  8
OBJECT
 10
11823.000000000009
 20
-556.0000000000008
 30
0.0
 11
11827.0
 21
-560.5000000000008
 31
0.0
1001
ACDBBLOCKREPETAG
1070
     1
1071
      119
1005
1397BE
  0
LINE
  5
1397BF
  8
OBJECT
 10
11840.000000000009
 20
-560.5000000000008
 30
0.0
 11
11840.000000000009
 21
-645.74491827928784
 31
0.0
1001
ACDBBLOCKREPETAG
1070
     1
1071
      120
1005
1397BF
  0
ARC
  5
1397C0
  8
OBJECT
 10
11908.0
 20
-637.27386365609345
 30
0.0
 40
85.0
 50
205.5991387218653
 51
231.40900676279119
1001
ACDBBLOCKREPETAG
1070
     1
1071
      121
1005
1397C0
  0
ARC
  5
1397C1
  8
OBJECT
 10
11837.20000000001
 20
-655.00000000000068
 30
0.0
 40
85.0
 50
19.925932125430649
 51
88.112268108168848
1001
ACDBBLOCKREPETAG
1070
     1
1071
      122
1005
1397C1
  0
LINE
  5
1397C2
  8
OBJECT
 10
11914.0
 20
-750.81075719270905
 30
0.0
 11
11854.9806774564
 21
-703.71143914629454
 31
0.0
1001
ACDBBLOCKREPETAG
1070
     1
1071
      123
1005
1397C2
  0
LINE
  5
1397C3
  8
OBJECT
 10
11827.00000000002
 20
-645.74491827928705
 30
0.0
 11
11840.000000000009
 21
-645.74491827928784
 31
0.0
1001
ACDBBLOCKREPETAG
1070
     1
1071
      124
1005
1397C3
  0
LINE
  5
1397C4
  8
OBJECT
 10
11823.000000000009
 20
-653.15756805667843
 30
0.0
 11
11827.00000000002
 21
-645.74491827928705
 31
0.0
1001
ACDBBLOCKREPETAG
1070
     1
1071
      125
1005
1397C4
  0
LINE
  5
1397C5
  8
OBJECT
 10
11919.99999999998
 20
-634.0
 30
0.0
 11
11917.111387840379
 21
-626.03156729425325
 31
0.0
1001
ACDBBLOCKREPETAG
1070
     1
1071
      126
1005
1397C5
  0
LINE
  5
1397C6
  8
OBJECT
 10
11919.99999999998
 20
-634.0
 30
0.0
 11
11914.0
 21
-653.3502637757274
 31
0.0
1001
ACDBBLOCKREPETAG
1070
     1
1071
      127
1005
1397C6
  0
LINE
  5
1397C7
  8
HIDDEN
 10
11832.0
 20
-570.5000000000008
 30
0.0
 11
11832.0
 21
-659.50000000000068
 31
0.0
1001
ACDBBLOCKREPETAG
1070
     1
1071
      129
1005
1397C7
  0
CIRCLE
  5
1397C8
  8
OBJECT
 10
12000.0
 20
-696.0
 30
0.0
 40
62.0
1001
ACDBBLOCKREPETAG
1070
     1
1071
        0
1005
1397C8
  0
LINE
  5
1397C9
  8
OBJECT
 10
11787.00000000002
 20
-137.99999999999909
 30
0.0
 11
11780.00000000002
 21
-137.99999999999909
 31
0.0
1001
ACDBBLOCKREPETAG
1070
     1
1071
      110
1005
1397C9
  0
LINE
  5
1397CA
  8
OBJECT
 10
11780.00000000002
 20
-137.99999999999909
 30
0.0
 11
11780.00000000002
 21
-261.99999999999909
 31
0.0
1001
ACDBBLOCKREPETAG
1070
     1
1071
      111
1005
1397CA
  0
LINE
  5
1397CB
  8
OBJECT
 10
11780.00000000002
 20
-261.99999999999909
 30
0.0
 11
11787.00000000002
 21
-261.99999999999909
 31
0.0
1001
ACDBBLOCKREPETAG
1070
     1
1071
      112
1005
1397CB
  0
LINE
  5
1397CC
  8
OBJECT
 10
11787.00000000002
 20
-261.99999999999909
 30
0.0
 11
11787.00000000002
 21
-137.99999999999909
 31
0.0
1001
ACDBBLOCKREPETAG
1070
     1
1071
      113
1005
1397CC
  0
LINE
  5
1397CD
  8
CENTER
 10
11765.00000000002
 20
-199.99999999999909
 30
0.0
 11
11920.0
 21
-199.99999999999909
 31
0.0
1001
ACDBBLOCKREPETAG
1070
     1
1071
      114
1005
1397CD
  0
LINE
  5
1397CE
  8
OBJECT
 10
11840.00002503581
 20
-245.0000000000027
 30
0.0
 11
11914.0
 21
-244.99999999999909
 31
0.0
1001
ACDBBLOCKREPETAG
1070
     1
1071
      115
1005
1397CE
  0
LINE
  5
1397CF
  8
OBJECT
 10
11840.00002503581
 20
-154.99999999999909
 30
0.0
 11
11914.0
 21
-154.99999999999909
 31
0.0
1001
ACDBBLOCKREPETAG
1070
     1
1071
      116
1005
1397CF
  0
LINE
  5
1397D0
  8
OBJECT
 10
11787.00000000002
 20
-140.99999999999909
 30
0.0
 11
11823.00000000002
 21
-140.99999999999909
 31
0.0
1001
ACDBBLOCKREPETAG
1070
     1
1071
      117
1005
1397D0
  0
LINE
  5
1397D1
  8
OBJECT
 10
11823.00000000002
 20
-140.99999999999909
 30
0.0
 11
11823.00000000002
 21
-258.99999999999909
 31
0.0
1001
ACDBBLOCKREPETAG
1070
     1
1071
      118
1005
1397D1
  0
LINE
  5
1397D2
  8
OBJECT
 10
11823.00000000002
 20
-258.99999999999909
 30
0.0
 11
11787.00000000002
 21
-258.99999999999909
 31
0.0
1001
ACDBBLOCKREPETAG
1070
     1
1071
      119
1005
1397D2
  0
LINE
  5
1397D3
  8
OBJECT
 10
11827.00000000002
 20
-145.49999999999909
 30
0.0
 11
11840.00000000002
 21
-145.49999999999909
 31
0.0
1001
ACDBBLOCKREPETAG
1070
     1
1071
      120
1005
1397D3
  0
LINE
  5
1397D4
  8
OBJECT
 10
11840.00000000002
 20
-254.49999999999909
 30
0.0
 11
11827.00000000002
 21
-254.49999999999909
 31
0.0
1001
ACDBBLOCKREPETAG
1070
     1
1071
      121
1005
1397D4
  0
LINE
  5
1397D5
  8
OBJECT
 10
11827.00000000002
 20
-254.49999999999909
 30
0.0
 11
11827.00000000002
 21
-145.49999999999909
 31
0.0
1001
ACDBBLOCKREPETAG
1070
     1
1071
      122
1005
1397D5
  0
LINE
  5
1397D6
  8
OBJECT
 10
11823.00000000002
 20
-140.99999999999909
 30
0.0
 11
11827.00000000002
 21
-145.49999999999909
 31
0.0
1001
ACDBBLOCKREPETAG
1070
     1
1071
      123
1005
1397D6
  0
LINE
  5
1397D7
  8
OBJECT
 10
11823.00000000002
 20
-258.99999999999909
 30
0.0
 11
11827.00000000002
 21
-254.49999999999909
 31
0.0
1001
ACDBBLOCKREPETAG
1070
     1
1071
      124
1005
1397D7
  0
LINE
  5
1397D8
  8
OBJECT
 10
11917.0
 20
-137.99999999999909
 30
0.0
 11
11920.0
 21
-137.99999999999909
 31
0.0
1001
ACDBBLOCKREPETAG
1070
     1
1071
      125
1005
1397D8
  0
ARC
  5
1397D9
  8
OBJECT
 10
11917.0
 20
-140.99999999999909
 30
0.0
 40
3.0
 50
90.0
 51
180.0
1001
ACDBBLOCKREPETAG
1070
     1
1071
      126
1005
1397D9
  0
LINE
  5
1397DA
  8
OBJECT
 10
11920.0
 20
-261.99999999999909
 30
0.0
 11
11917.0
 21
-261.99999999999909
 31
0.0
1001
ACDBBLOCKREPETAG
1070
     1
1071
      127
1005
1397DA
  0
ARC
  5
1397DB
  8
OBJECT
 10
11917.0
 20
-258.99999999999909
 30
0.0
 40
3.0
 50
180.0
 51
270.0
1001
ACDBBLOCKREPETAG
1070
     1
1071
      128
1005
1397DB
  0
LINE
  5
1397DC
  8
OBJECT
 10
11914.0
 20
-258.99999999999909
 30
0.0
 11
11914.0
 21
-222.44994432063581
 31
0.0
1001
ACDBBLOCKREPETAG
1070
     1
1071
      129
1005
1397DC
  0
LINE
  5
1397DD
  8
OBJECT
 10
11914.0
 20
-177.55005567935859
 30
0.0
 11
11914.0
 21
-140.99999999999909
 31
0.0
1001
ACDBBLOCKREPETAG
1070
     1
1071
      130
1005
1397DD
  0
LINE
  5
1397DE
  8
HIDDEN
 10
11832.00000000002
 20
-155.49999999999909
 30
0.0
 11
11832.00000000002
 21
-244.49999999999909
 31
0.0
1001
ACDBBLOCKREPETAG
1070
     1
1071
      131
1005
1397DE
  0
LINE
  5
1397DF
  8
OBJECT
 10
11840.00002503581
 20
-254.4999509238105
 30
0.0
 11
11840.00002503581
 21
-145.4999509238105
 31
0.0
1001
ACDBBLOCKREPETAG
1070
     1
1071
      133
1005
1397DF
  0
ARC
  5
1397E0
  8
OBJECT
 10
11875.0
 20
-199.99999999999909
 30
0.0
 40
45.000000000000547
 50
270.0
 51
346.21579484130518
1001
ACDBBLOCKREPETAG
1070
     1
1071
      134
1005
1397E0
  0
ARC
  5
1397E1
  8
OBJECT
 10
11875.0
 20
-199.99999999999909
 30
0.0
 40
45.000000000000547
 50
13.78420515869484
 51
90.0
1001
ACDBBLOCKREPETAG
1070
     1
1071
      402
1005
1397E1
  0
LINE
  5
1397E2
  8
CENTER
 10
12000.0
 20
-300.99999999999898
 30
0.0
 11
12000.0
 21
-279.99999999999909
 31
0.0
1001
ACDBBLOCKREPETAG
1070
     1
1071
        0
1005
1397E2
  0
LINE
  5
1397E3
  8
OBJECT
 10
12062.0
 20
-283.0
 30
0.0
 11
12062.0
 21
-279.99999999999909
 31
0.0
1001
ACDBBLOCKREPETAG
1070
     1
1071
        1
1005
1397E3
  0
ARC
  5
1397E4
  8
OBJECT
 10
12059.0
 20
-283.0
 30
0.0
 40
3.0
 50
270.0
 51
0.0
1001
ACDBBLOCKREPETAG
1070
     1
1071
        2
1005
1397E4
  0
LINE
  5
1397E5
  8
OBJECT
 10
11938.0
 20
-279.99999999999909
 30
0.0
 11
11938.0
 21
-282.99999999999818
 31
0.0
1001
ACDBBLOCKREPETAG
1070
     1
1071
        3
1005
1397E5
  0
ARC
  5
1397E6
  8
OBJECT
 10
11941.0
 20
-282.99999999999818
 30
0.0
 40
3.0
 50
180.0
 51
270.0
1001
ACDBBLOCKREPETAG
1070
     1
1071
        4
1005
1397E6
  0
LINE
  5
1397E7
  8
OBJECT
 10
11941.0
 20
-285.99999999999818
 30
0.0
 11
12059.0
 21
-286.0
 31
0.0
1001
ACDBBLOCKREPETAG
1070
     1
1071
        5
1005
1397E7
  0
LINE
  5
1397E8
  8
HIDDEN
 10
11943.0
 20
-619.99999999999955
 30
0.0
 11
12057.0
 21
-619.99999999999955
 31
0.0
1001
ACDBBLOCKREPETAG
1070
     1
1071
       57
1005
1397E8
  0
LINE
  5
1397E9
  8
CENTER
 10
12000.0
 20
-534.99999999999955
 30
0.0
 11
12000.0
 21
-899.99999999999955
 31
0.0
1001
ACDBBLOCKREPETAG
1070
     1
1071
       58
1005
1397E9
  0
LINE
  5
1397EA
  8
OBJECT
 10
11928.0
 20
-570.99999999999955
 30
0.0
 11
11928.0
 21
-633.99999999999955
 31
0.0
1001
ACDBBLOCKREPETAG
1070
     1
1071
       59
1005
1397EA
  0
LINE
  5
1397EB
  8
OBJECT
 10
12072.0
 20
-633.99999999999955
 30
0.0
 11
12072.0
 21
-570.99999999999955
 31
0.0
1001
ACDBBLOCKREPETAG
1070
     1
1071
       60
1005
1397EB
  0
LINE
  5
1397EC
  8
OBJECT
 10
11920.0
 20
-887.99999999999955
 30
0.0
 11
12080.0
 21
-887.99999999999955
 31
0.0
1001
ACDBBLOCKREPETAG
1070
     1
1071
       61
1005
1397EC
  0
LINE
  5
1397ED
  8
OBJECT
 10
12080.0
 20
-633.99999999999955
 30
0.0
 11
11920.0
 21
-633.99999999999955
 31
0.0
1001
ACDBBLOCKREPETAG
1070
     1
1071
       62
1005
1397ED
  0
LINE
  5
1397EE
  8
OBJECT
 10
11920.0
 20
-887.99999999999955
 30
0.0
 11
11920.0
 21
-899.99999999999955
 31
0.0
1001
ACDBBLOCKREPETAG
1070
     1
1071
       63
1005
1397EE
  0
LINE
  5
1397EF
  8
OBJECT
 10
11920.0
 20
-899.99999999999955
 30
0.0
 11
12080.0
 21
-899.99999999999955
 31
0.0
1001
ACDBBLOCKREPETAG
1070
     1
1071
       64
1005
1397EF
  0
LINE
  5
1397F0
  8
OBJECT
 10
12080.0
 20
-899.99999999999955
 30
0.0
 11
12080.0
 21
-887.99999999999955
 31
0.0
1001
ACDBBLOCKREPETAG
1070
     1
1071
       65
1005
1397F0
  0
LINE
  5
1397F1
  8
OBJECT
 10
12074.99999999986
 20
-757.99999999985016
 30
0.0
 11
12075.0
 21
-887.99999999999955
 31
0.0
1001
ACDBBLOCKREPETAG
1070
     1
1071
       69
1005
1397F1
  0
LINE
  5
1397F2
  8
OBJECT
 10
12074.99999080298
 20
-757.99998602702112
 30
0.0
 11
12080.0
 21
-757.99998602702112
 31
0.0
1001
ACDBBLOCKREPETAG
1070
     1
1071
       70
1005
1397F2
  0
LINE
  5
1397F3
  8
OBJECT
 10
11925.00000000014
 20
-757.99999999985016
 30
0.0
 11
11925.0
 21
-887.99999999999955
 31
0.0
1001
ACDBBLOCKREPETAG
1070
     1
1071
       71
1005
1397F3
  0
LINE
  5
1397F4
  8
OBJECT
 10
11925.000009197011
 20
-757.99998602702112
 30
0.0
 11
11920.0
 21
-757.99998602702112
 31
0.0
1001
ACDBBLOCKREPETAG
1070
     1
1071
       72
1005
1397F4
  0
LINE
  5
1397F5
  8
OBJECT
 10
11918.0
 20
-570.99999999999955
 30
0.0
 11
11918.0
 21
-549.99999999999955
 31
0.0
1001
ACDBBLOCKREPETAG
1070
     1
1071
       73
1005
1397F5
  0
LINE
  5
1397F6
  8
OBJECT
 10
11918.0
 20
-549.99999999999955
 30
0.0
 11
12082.0
 21
-549.99999999999955
 31
0.0
1001
ACDBBLOCKREPETAG
1070
     1
1071
       74
1005
1397F6
  0
LINE
  5
1397F7
  8
OBJECT
 10
12082.0
 20
-570.99999999999955
 30
0.0
 11
11918.0
 21
-570.99999999999955
 31
0.0
1001
ACDBBLOCKREPETAG
1070
     1
1071
       75
1005
1397F7
  0
LINE
  5
1397F8
  8
OBJECT
 10
11920.79408171202
 20
-549.99999999999955
 30
0.0
 11
11920.79408171202
 21
-570.99999999999955
 31
0.0
1001
ACDBBLOCKREPETAG
1070
     1
1071
       76
1005
1397F8
  0
LINE
  5
1397F9
  8
OBJECT
 10
11928.737896000001
 20
-549.99999999999955
 30
0.0
 11
11928.737896000001
 21
-570.99999999999955
 31
0.0
1001
ACDBBLOCKREPETAG
1070
     1
1071
       77
1005
1397F9
  0
LINE
  5
1397FA
  8
OBJECT
 10
11970.833026
 20
-549.99999999999955
 30
0.0
 11
11970.833026
 21
-570.99999999999955
 31
0.0
1001
ACDBBLOCKREPETAG
1070
     1
1071
       78
1005
1397FA
  0
LINE
  5
1397FB
  8
OBJECT
 10
11978.7768389218
 20
-549.99999999999955
 30
0.0
 11
11978.7768389218
 21
-570.99999999999955
 31
0.0
1001
ACDBBLOCKREPETAG
1070
     1
1071
       79
1005
1397FB
  0
LINE
  5
1397FC
  8
OBJECT
 10
12082.0
 20
-570.99999999999955
 30
0.0
 11
12082.0
 21
-549.99999999999955
 31
0.0
1001
ACDBBLOCKREPETAG
1070
     1
1071
       80
1005
1397FC
  0
LINE
  5
1397FD
  8
OBJECT
 10
12079.205918287969
 20
-549.99999999999955
 30
0.0
 11
12079.205918287969
 21
-570.99999999999955
 31
0.0
1001
ACDBBLOCKREPETAG
1070
     1
1071
       81
1005
1397FD
  0
LINE
  5
1397FE
  8
OBJECT
 10
12071.262103999999
 20
-549.99999999999955
 30
0.0
 11
12071.262103999999
 21
-570.99999999999955
 31
0.0
1001
ACDBBLOCKREPETAG
1070
     1
1071
       82
1005
1397FE
  0
LINE
  5
1397FF
  8
OBJECT
 10
12029.166974
 20
-549.99999999999955
 30
0.0
 11
12029.166974
 21
-570.99999999999955
 31
0.0
1001
ACDBBLOCKREPETAG
1070
     1
1071
       83
1005
1397FF
  0
LINE
  5
139800
  8
OBJECT
 10
12021.2231610782
 20
-549.99999999999955
 30
0.0
 11
12021.2231610782
 21
-570.99999999999955
 31
0.0
1001
ACDBBLOCKREPETAG
1070
     1
1071
       84
1005
139800
  0
ARC
  5
139801
  8
OBJECT
 10
12200.687274671671
 20
-749.40809941010718
 30
0.0
 40
170.6350503965856
 50
137.44134459184301
 51
149.91949581337221
1001
ACDBBLOCKREPETAG
1070
     1
1071
       85
1005
139801
  0
ARC
  5
139802
  8
OBJECT
 10
12200.687274671671
 20
-642.59190058989179
 30
0.0
 40
170.6350503965856
 50
210.08050418662771
 51
222.55865540815699
1001
ACDBBLOCKREPETAG
1070
     1
1071
       86
1005
139802
  0
ARC
  5
139803
  8
OBJECT
 10
11799.312725328329
 20
-749.40809941010718
 30
0.0
 40
170.6350503965856
 50
30.08050418668418
 51
42.558655408347391
1001
ACDBBLOCKREPETAG
1070
     1
1071
       87
1005
139803
  0
ARC
  5
139804
  8
OBJECT
 10
11799.312725328329
 20
-642.59190058989179
 30
0.0
 40
170.6350503965856
 50
317.44134459165258
 51
329.91949581331568
1001
ACDBBLOCKREPETAG
1070
     1
1071
       88
1005
139804
  0
POINT
  5
139805
  8
DOTS
 10
12000.0
 20
-754.99999999999955
 30
0.0
1001
ACDBBLOCKREPETAG
1070
     1
1071
      202
1005
139805
  0
ARC
  5
139806
  8
OBJECT
 10
12000.0
 20
-199.99999999999909
 30
0.0
 40
77.0
 50
292.25886900009442
 51
337.74113100019838
1001
ACDBBLOCKREPETAG
1070
     1
1071
      169
1005
139806
  0
LINE
  5
139807
  8
SLIM
 10
11945.256670426101
 20
-137.99999999999909
 30
0.0
 11
11955.954840369581
 21
-127.30183005652231
 31
0.0
1001
GRADIENTCOLOR1ACI
1070
     5
1001
GRADIENTCOLOR2ACI
1070
     2
1001
ACAD
1010
0.0
1020
0.0
1030
0.0
1001
ACDBBLOCKREPETAG
1070
     1
1071
      403
1005
139807
  0
LINE
  5
139808
  8
SLIM
 10
11954.23692654717
 20
-137.99999999999909
 30
0.0
 11
11972.75077447633
 21
-119.4861520708364
 31
0.0
1001
GRADIENTCOLOR1ACI
1070
     5
1001
GRADIENTCOLOR2ACI
1070
     2
1001
ACAD
1010
0.0
1020
0.0
1030
0.0
1001
ACDBBLOCKREPETAG
1070
     1
1071
      404
1005
139808
  0
LINE
  5
139809
  8
SLIM
 10
11980.98109123123
 20
-120.2360914370078
 30
0.0
 11
11984.857514674861
 21
-116.359667993377
 31
0.0
1001
GRADIENTCOLOR1ACI
1070
     5
1001
GRADIENTCOLOR2ACI
1070
     2
1001
ACAD
1010
0.0
1020
0.0
1030
0.0
1001
ACDBBLOCKREPETAG
1070
     1
1071
      405
1005
139809
  0
LINE
  5
13980A
  8
SLIM
 10
11991.78488845058
 20
-118.412550338727
 30
0.0
 11
11995.05338120025
 21
-115.1440575890517
 31
0.0
1001
GRADIENTCOLOR1ACI
1070
     5
1001
GRADIENTCOLOR2ACI
1070
     2
1001
ACAD
1010
0.0
1020
0.0
1030
0.0
1001
ACDBBLOCKREPETAG
1070
     1
1071
      406
1005
13980A
  0
LINE
  5
13980B
  8
SLIM
 10
12001.169356711331
 20
-118.0083381990472
 30
0.0
 11
12004.0797313529
 21
-115.0979635574724
 31
0.0
1001
GRADIENTCOLOR1ACI
1070
     5
1001
GRADIENTCOLOR2ACI
1070
     2
1001
ACAD
1010
0.0
1020
0.0
1030
0.0
1001
ACDBBLOCKREPETAG
1070
     1
1071
      407
1005
13980B
  0
LINE
  5
13980C
  8
SLIM
 10
12009.59468708876
 20
-118.5632639426843
 30
0.0
 11
12012.267978410569
 21
-115.88997262087101
 31
0.0
1001
GRADIENTCOLOR1ACI
1070
     5
1001
GRADIENTCOLOR2ACI
1070
     2
1001
ACAD
1010
0.0
1020
0.0
1030
0.0
1001
ACDBBLOCKREPETAG
1070
     1
1071
      408
1005
13980C
  0
LINE
  5
13980D
  8
SLIM
 10
12017.293827793021
 20
-119.84437935949001
 30
0.0
 11
12019.799941457361
 21
-117.3382656951527
 31
0.0
1001
GRADIENTCOLOR1ACI
1070
     5
1001
GRADIENTCOLOR2ACI
1070
     2
1001
ACAD
1010
0.0
1020
0.0
1030
0.0
1001
ACDBBLOCKREPETAG
1070
     1
1071
      409
1005
13980D
  0
LINE
  5
13980E
  8
SLIM
 10
12023.27377163679
 20
-122.8446916367926
 30
0.0
 11
12026.787203867279
 21
-119.3312594063044
 31
0.0
1001
GRADIENTCOLOR1ACI
1070
     5
1001
GRADIENTCOLOR2ACI
1070
     2
1001
ACAD
1010
0.0
1020
0.0
1030
0.0
1001
ACDBBLOCKREPETAG
1070
     1
1071
      410
1005
13980E
  0
LINE
  5
13980F
  8
SLIM
 10
12027.76389969732
 20
-127.33481969732929
 30
0.0
 11
12033.303003076029
 21
-121.7957163186195
 31
0.0
1001
GRADIENTCOLOR1ACI
1070
     5
1001
GRADIENTCOLOR2ACI
1070
     2
1001
ACAD
1010
0.0
1020
0.0
1030
0.0
1001
ACDBBLOCKREPETAG
1070
     1
1071
      411
1005
13980F
  0
LINE
  5
139810
  8
SLIM
 10
12033.43909865133
 20
-130.63987686439191
 30
0.0
 11
12039.397311984379
 21
-124.681663531344
 31
0.0
1001
GRADIENTCOLOR1ACI
1070
     5
1001
GRADIENTCOLOR2ACI
1070
     2
1001
ACAD
1010
0.0
1020
0.0
1030
0.0
1001
ACDBBLOCKREPETAG
1070
     1
1071
      412
1005
139810
  0
LINE
  5
139811
  8
SLIM
 10
12039.284224621801
 20
-133.77500701499321
 30
0.0
 11
12045.10477053437
 21
-127.95446110242381
 31
0.0
1001
GRADIENTCOLOR1ACI
1070
     5
1001
GRADIENTCOLOR2ACI
1070
     2
1001
ACAD
1010
0.0
1020
0.0
1030
0.0
1001
ACDBBLOCKREPETAG
1070
     1
1071
      413
1005
139811
  0
LINE
  5
139812
  8
SLIM
 10
12044.721280169801
 20
-137.31820758805651
 30
0.0
 11
12050.449155789191
 21
-131.59033196866449
 31
0.0
1001
GRADIENTCOLOR1ACI
1070
     5
1001
GRADIENTCOLOR2ACI
1070
     2
1001
ACAD
1010
0.0
1020
0.0
1030
0.0
1001
ACDBBLOCKREPETAG
1070
     1
1071
      414
1005
139812
  0
LINE
  5
139813
  8
SLIM
 10
12053.01974387892
 20
-137.99999999999909
 30
0.0
 11
12055.445994186401
 21
-135.57374969252561
 31
0.0
1001
GRADIENTCOLOR1ACI
1070
     5
1001
GRADIENTCOLOR2ACI
1070
     2
1001
ACAD
1010
0.0
1020
0.0
1030
0.0
1001
ACDBBLOCKREPETAG
1070
     1
1071
      415
1005
139813
  0
ARC
  5
139814
  8
OBJECT
 10
12000.0
 20
-199.99999999999909
 30
0.0
 40
77.0
 50
112.25886900009441
 51
157.74113100019829
1001
ACDBBLOCKREPETAG
1070
     1
1071
      170
1005
139814
  0
ARC
  5
139815
  8
OBJECT
 10
12000.0
 20
-199.99999999999909
 30
0.0
 40
77.0
 50
22.258868999801621
 51
67.741130999905565
1001
ACDBBLOCKREPETAG
1070
     1
1071
      172
1005
139815
  0
CIRCLE
  5
139816
  8
OBJECT
 10
12000.0
 20
-199.99999999999909
 30
0.0
 40
70.0
1001
ACDBBLOCKREPETAG
1070
     1
1071
      173
1005
139816
  0
LINE
  5
139817
  8
OBJECT
 10
12029.16697499998
 20
-271.26210499999888
 30
0.0
 11
12021.223162444099
 21
-279.20591755589248
 31
0.0
1001
ACDBBLOCKREPETAG
1070
     1
1071
      174
1005
139817
  0
LINE
  5
139818
  8
OBJECT
 10
11970.833026
 20
-271.26210499999888
 30
0.0
 11
11978.77683892192
 21
-279.20591792191681
 31
0.0
1001
ACDBBLOCKREPETAG
1070
     1
1071
      175
1005
139818
  0
ARC
  5
139819
  8
OBJECT
 10
12000.0
 20
-199.99999999999909
 30
0.0
 40
82.000000000000014
 50
255.00000044864069
 51
285.00000053969438
1001
ACDBBLOCKREPETAG
1070
     1
1071
      176
1005
139819
  0
LINE
  5
13981A
  8
OBJECT
 10
11928.737896000001
 20
-229.1669739999989
 30
0.0
 11
11920.794081712051
 21
-221.2231597120545
 31
0.0
1001
ACDBBLOCKREPETAG
1070
     1
1071
      177
1005
13981A
  0
ARC
  5
13981B
  8
OBJECT
 10
12000.0
 20
-199.99999999999909
 30
0.0
 40
82.000000000000014
 50
165.00000044874901
 51
194.9999985630001
1001
ACDBBLOCKREPETAG
1070
     1
1071
      178
1005
13981B
  0
LINE
  5
13981C
  8
OBJECT
 10
11970.833026
 20
-128.7378949999993
 30
0.0
 11
11978.77683892192
 21
-120.7940820780795
 31
0.0
1001
ACDBBLOCKREPETAG
1070
     1
1071
      179
1005
13981C
  0
ARC
  5
13981D
  8
OBJECT
 10
12000.0
 20
-199.99999999999909
 30
0.0
 40
82.000000000000014
 50
74.999999460305631
 51
104.99999955135929
1001
ACDBBLOCKREPETAG
1070
     1
1071
      180
1005
13981D
  0
LINE
  5
13981E
  8
OBJECT
 10
12029.16697499998
 20
-128.7378949999993
 30
0.0
 11
12021.223162444099
 21
-120.79408244410391
 31
0.0
1001
ACDBBLOCKREPETAG
1070
     1
1071
      181
1005
13981E
  0
LINE
  5
13981F
  8
OBJECT
 10
11962.402059
 20
-161.93893300000039
 30
0.0
 11
12037.08411027142
 21
-174.5180316957439
 31
0.0
1001
ACDBBLOCKREPETAG
1070
     1
1071
      182
1005
13981F
  0
LINE
  5
139820
  8
OBJECT
 10
12044.093656999999
 20
-169.70149399999991
 30
0.0
 11
12037.08411027142
 21
-174.5180316957439
 31
0.0
1001
ACDBBLOCKREPETAG
1070
     1
1071
      183
1005
139820
  0
LINE
  5
139821
  8
OBJECT
 10
11928.737896000001
 20
-170.833024999999
 30
0.0
 11
11920.79408207808
 21
-178.77683892191911
 31
0.0
1001
ACDBBLOCKREPETAG
1070
     1
1071
      184
1005
139821
  0
CIRCLE
  5
139822
  8
OBJECT
 10
12000.0
 20
-199.99999999999909
 30
0.0
 40
53.500000000000007
1001
ACDBBLOCKREPETAG
1070
     1
1071
      185
1005
139822
  0
ARC
  5
139823
  8
OBJECT
 10
12000.0
 20
-199.99999999999909
 30
0.0
 40
50.0
 50
131.70180964351781
 51
168.52376955953341
1001
ACDBBLOCKREPETAG
1070
     1
1071
      186
1005
139823
  0
ARC
  5
139824
  8
OBJECT
 10
12000.0
 20
-199.99999999999909
 30
0.0
 40
50.0
 50
238.8199429999047
 51
34.49450625011707
1001
ACDBBLOCKREPETAG
1070
     1
1071
      187
1005
139824
  0
LINE
  5
139825
  8
OBJECT
 10
12071.262104999991
 20
-170.833024999999
 30
0.0
 11
12079.20591755589
 21
-178.77683755589439
 31
0.0
1001
ACDBBLOCKREPETAG
1070
     1
1071
      188
1005
139825
  0
ARC
  5
139826
  8
OBJECT
 10
12000.0
 20
-199.99999999999909
 30
0.0
 40
82.000000000000014
 50
345.00000044874901
 51
15.000000539345651
1001
ACDBBLOCKREPETAG
1070
     1
1071
      189
1005
139826
  0
LINE
  5
139827
  8
OBJECT
 10
12071.262104999991
 20
-229.1669739999989
 30
0.0
 11
12079.20591792192
 21
-221.2231610780791
 31
0.0
1001
ACDBBLOCKREPETAG
1070
     1
1071
      190
1005
139827
  0
LINE
  5
139828
  8
OBJECT
 10
12045.661800227321
 20
-137.99999999999909
 30
0.0
 11
12080.0
 21
-137.99999999999909
 31
0.0
1001
ACDBBLOCKREPETAG
1070
     1
1071
      191
1005
139828
  0
LINE
  5
139829
  8
OBJECT
 10
12062.0
 20
-261.99999999999909
 30
0.0
 11
12080.0
 21
-261.99999999999909
 31
0.0
1001
ACDBBLOCKREPETAG
1070
     1
1071
      192
1005
139829
  0
LINE
  5
13982A
  8
OBJECT
 10
12062.0
 20
-261.99999999999909
 30
0.0
 11
12062.0
 21
-279.99999999999909
 31
0.0
1001
ACDBBLOCKREPETAG
1070
     1
1071
      194
1005
13982A
  0
LINE
  5
13982B
  8
OBJECT
 10
11938.0
 20
-261.99999999999909
 30
0.0
 11
11938.0
 21
-279.99999999999909
 31
0.0
1001
ACDBBLOCKREPETAG
1070
     1
1071
      195
1005
13982B
  0
LINE
  5
13982C
  8
OBJECT
 10
11938.0
 20
-261.99999999999909
 30
0.0
 11
11920.0
 21
-261.99999999999909
 31
0.0
1001
ACDBBLOCKREPETAG
1070
     1
1071
      197
1005
13982C
  0
LINE
  5
13982D
  8
OBJECT
 10
11954.33819977267
 20
-137.99999999999909
 30
0.0
 11
11920.0
 21
-137.99999999999909
 31
0.0
1001
ACDBBLOCKREPETAG
1070
     1
1071
      198
1005
13982D
  0
LINE
  5
13982E
  8
CENTER
 10
12080.0
 20
-199.99999999999909
 30
0.0
 11
11920.0
 21
-199.99999999999909
 31
0.0
1001
ACDBBLOCKREPETAG
1070
     1
1071
      207
1005
13982E
  0
LINE
  5
13982F
  8
CENTER
 10
12000.0
 20
-279.99999999999909
 30
0.0
 11
12000.0
 21
-99.999999999999091
 31
0.0
1001
ACDBBLOCKREPETAG
1070
     1
1071
      208
1005
13982F
  0
LINE
  5
139830
  8
OBJECT
 10
11945.55277784863
 20
-254.44722215136329
 30
0.0
 11
11938.0
 21
-261.99999999999909
 31
0.0
1001
ACDBBLOCKREPETAG
1070
     1
1071
      209
1005
139830
  0
LINE
  5
139831
  8
OBJECT
 10
12054.447222151361
 20
-254.44722215136329
 30
0.0
 11
12062.0
 21
-261.99999999999909
 31
0.0
1001
ACDBBLOCKREPETAG
1070
     1
1071
      210
1005
139831
  0
ARC
  5
139832
  8
OBJECT
 10
12000.0
 20
-199.99999999999909
 30
0.0
 40
85.0
 50
46.837102859844251
 51
133.16289714015571
1001
ACDBBLOCKREPETAG
1070
     1
1071
      211
1005
139832
  0
LINE
  5
139833
  8
OBJECT
 10
11946.69219414375
 20
-195.46638161316051
 30
0.0
 11
11970.45403438563
 21
-193.79865146436981
 31
0.0
1001
ACDBBLOCKREPETAG
1070
     1
1071
      333
1005
139833
  0
LINE
  5
139834
  8
OBJECT
 10
11947.385434727061
 20
-190.305593971766
 30
0.0
 11
11966.9884352629
 21
-188.92975272660161
 31
0.0
1001
ACDBBLOCKREPETAG
1070
     1
1071
      334
1005
139834
  0
LINE
  5
139835
  8
OBJECT
 10
11974.11353747527
 20
-242.77722592637201
 30
0.0
 11
11982.136698837399
 21
-234.1690987954708
 31
0.0
1001
ACDBBLOCKREPETAG
1070
     1
1071
      335
1005
139835
  0
ARC
  5
139836
  8
OBJECT
 10
11982.116007124539
 20
-183.28188966318251
 30
0.0
 40
60.031113246032611
 50
254.07020130412749
 51
262.33936106086588
1001
ACDBBLOCKREPETAG
1070
     1
1071
      336
1005
139836
  0
LINE
  5
139837
  8
OBJECT
 10
11977.612599732511
 20
-197.67495277149911
 30
0.0
 11
11982.136698837399
 21
-234.1690987954708
 31
0.0
1001
ACDBBLOCKREPETAG
1070
     1
1071
      337
1005
139837
  0
ARC
  5
139838
  8
OBJECT
 10
11967.688565345639
 20
-198.90521351131881
 30
0.0
 40
10.0
 50
7.0667782929989968
 51
94.014734370532395
1001
ACDBBLOCKREPETAG
1070
     1
1071
      338
1005
139838
  0
ARC
  5
139839
  8
OBJECT
 10
11970.94412537097
 20
-200.78147401875589
 30
0.0
 40
7.0
 50
7.0667782929989968
 51
94.014733775014648
1001
ACDBBLOCKREPETAG
1070
     1
1071
      339
1005
139839
  0
POINT
  5
13983A
  8
DOTS
 10
12000.0
 20
-199.99999999999909
 30
0.0
 50
270.0
1001
ACDBBLOCKREPETAG
1070
     1
1071
      348
1005
13983A
  0
ARC
  5
13983B
  8
OBJECT
 10
12000.0
 20
-199.99999999999909
 30
0.0
 40
77.0
 50
202.25886899980159
 51
247.74113099990561
1001
ACDBBLOCKREPETAG
1070
     1
1071
      166
1005
13983B
  0
LINE
  5
13983C
  8
OBJECT
 10
12212.99999999998
 20
-553.0000000000008
 30
0.0
 11
12219.99999999998
 21
-553.0000000000008
 31
0.0
1001
ACDBBLOCKREPETAG
1070
     1
1071
      106
1005
13983C
  0
LINE
  5
13983D
  8
OBJECT
 10
12219.99999999998
 20
-553.0000000000008
 30
0.0
 11
12219.99999999998
 21
-677.0000000000008
 31
0.0
1001
ACDBBLOCKREPETAG
1070
     1
1071
      107
1005
13983D
  0
LINE
  5
13983E
  8
OBJECT
 10
12085.99999999998
 20
-653.3502637757274
 30
0.0
 11
12085.99999999998
 21
-755.00000000000102
 31
0.0
1001
ACDBBLOCKREPETAG
1070
     1
1071
      108
1005
13983E
  0
LINE
  5
13983F
  8
OBJECT
 10
12219.99999999998
 20
-677.0000000000008
 30
0.0
 11
12212.99999999998
 21
-677.0000000000008
 31
0.0
1001
ACDBBLOCKREPETAG
1070
     1
1071
      109
1005
13983F
  0
LINE
  5
139840
  8
OBJECT
 10
12212.99999999998
 20
-677.0000000000008
 30
0.0
 11
12212.99999999998
 21
-553.0000000000008
 31
0.0
1001
ACDBBLOCKREPETAG
1070
     1
1071
      110
1005
139840
  0
LINE
  5
139841
  8
CENTER
 10
12144.99999999998
 20
-615.0000000000008
 30
0.0
 11
12234.99999999998
 21
-615.0000000000008
 31
0.0
1001
ACDBBLOCKREPETAG
1070
     1
1071
      111
1005
139841
  0
LINE
  5
139842
  8
OBJECT
 10
12079.99999999998
 20
-758.0
 30
0.0
 11
12082.99999999998
 21
-758.0000000000008
 31
0.0
1001
ACDBBLOCKREPETAG
1070
     1
1071
      112
1005
139842
  0
ARC
  5
139843
  8
OBJECT
 10
12082.99999999998
 20
-755.00000000000102
 30
0.0
 40
3.0
 50
270.0
 51
0.0
1001
ACDBBLOCKREPETAG
1070
     1
1071
      113
1005
139843
  0
LINE
  5
139844
  8
OBJECT
 10
12212.99999999998
 20
-556.0000000000008
 30
0.0
 11
12176.99999999998
 21
-556.0000000000008
 31
0.0
1001
ACDBBLOCKREPETAG
1070
     1
1071
      114
1005
139844
  0
LINE
  5
139845
  8
OBJECT
 10
12176.99999999998
 20
-556.0000000000008
 30
0.0
 11
12176.99999999998
 21
-653.15756805667843
 31
0.0
1001
ACDBBLOCKREPETAG
1070
     1
1071
      115
1005
139845
  0
LINE
  5
139846
  8
OBJECT
 10
12172.99999999998
 20
-560.5000000000008
 30
0.0
 11
12172.99999999998
 21
-645.74491827928705
 31
0.0
1001
ACDBBLOCKREPETAG
1070
     1
1071
      116
1005
139846
  0
LINE
  5
139847
  8
OBJECT
 10
12172.99999999998
 20
-560.5000000000008
 30
0.0
 11
12159.99999999998
 21
-560.5000000000008
 31
0.0
1001
ACDBBLOCKREPETAG
1070
     1
1071
      117
1005
139847
  0
LINE
  5
139848
  8
OBJECT
 10
12168.656316825471
 20
-674.0000000000008
 30
0.0
 11
12212.99999999998
 21
-674.0000000000008
 31
0.0
1001
ACDBBLOCKREPETAG
1070
     1
1071
      118
1005
139848
  0
LINE
  5
139849
  8
OBJECT
 10
12176.99999999998
 20
-556.0000000000008
 30
0.0
 11
12172.99999999998
 21
-560.5000000000008
 31
0.0
1001
ACDBBLOCKREPETAG
1070
     1
1071
      119
1005
139849
  0
LINE
  5
13984A
  8
OBJECT
 10
12159.99999999998
 20
-560.5000000000008
 30
0.0
 11
12159.99999999998
 21
-645.74491827928784
 31
0.0
1001
ACDBBLOCKREPETAG
1070
     1
1071
      120
1005
13984A
  0
ARC
  5
13984B
  8
OBJECT
 10
12091.99999999998
 20
-637.27386365609345
 30
0.0
 40
85.0
 50
308.59099323720869
 51
334.4008612781347
1001
ACDBBLOCKREPETAG
1070
     1
1071
      121
1005
13984B
  0
ARC
  5
13984C
  8
OBJECT
 10
12162.799999999979
 20
-655.00000000000068
 30
0.0
 40
85.0
 50
91.887731891831123
 51
160.07406787456929
1001
ACDBBLOCKREPETAG
1070
     1
1071
      122
1005
13984C
  0
LINE
  5
13984D
  8
OBJECT
 10
12085.99999999998
 20
-750.81075719270905
 30
0.0
 11
12145.0193225436
 21
-703.71143914629454
 31
0.0
1001
ACDBBLOCKREPETAG
1070
     1
1071
      123
1005
13984D
  0
LINE
  5
13984E
  8
OBJECT
 10
12172.99999999998
 20
-645.74491827928705
 30
0.0
 11
12159.99999999998
 21
-645.74491827928784
 31
0.0
1001
ACDBBLOCKREPETAG
1070
     1
1071
      124
1005
13984E
  0
LINE
  5
13984F
  8
OBJECT
 10
12176.99999999998
 20
-653.15756805667843
 30
0.0
 11
12172.99999999998
 21
-645.74491827928705
 31
0.0
1001
ACDBBLOCKREPETAG
1070
     1
1071
      125
1005
13984F
  0
LINE
  5
139850
  8
OBJECT
 10
12080.00000000002
 20
-634.0
 30
0.0
 11
12082.888612159621
 21
-626.03156729425325
 31
0.0
1001
ACDBBLOCKREPETAG
1070
     1
1071
      126
1005
139850
  0
LINE
  5
139851
  8
OBJECT
 10
12080.00000000002
 20
-634.0
 30
0.0
 11
12085.99999999998
 21
-653.3502637757274
 31
0.0
1001
ACDBBLOCKREPETAG
1070
     1
1071
      127
1005
139851
  0
LINE
  5
139852
  8
HIDDEN
 10
12167.99999999998
 20
-570.5000000000008
 30
0.0
 11
12167.99999999998
 21
-659.50000000000068
 31
0.0
1001
ACDBBLOCKREPETAG
1070
     1
1071
      129
1005
139852
  0
LINE
  5
139853
  8
OBJECT
 10
12212.99999999998
 20
-137.99999999999909
 30
0.0
 11
12219.99999999998
 21
-137.99999999999909
 31
0.0
1001
ACDBBLOCKREPETAG
1070
     1
1071
      110
1005
139853
  0
LINE
  5
139854
  8
OBJECT
 10
12219.99999999998
 20
-137.99999999999909
 30
0.0
 11
12219.99999999998
 21
-261.99999999999909
 31
0.0
1001
ACDBBLOCKREPETAG
1070
     1
1071
      111
1005
139854
  0
LINE
  5
139855
  8
OBJECT
 10
12219.99999999998
 20
-261.99999999999909
 30
0.0
 11
12212.99999999998
 21
-261.99999999999909
 31
0.0
1001
ACDBBLOCKREPETAG
1070
     1
1071
      112
1005
139855
  0
LINE
  5
139856
  8
OBJECT
 10
12212.99999999998
 20
-261.99999999999909
 30
0.0
 11
12212.99999999998
 21
-137.99999999999909
 31
0.0
1001
ACDBBLOCKREPETAG
1070
     1
1071
      113
1005
139856
  0
LINE
  5
139857
  8
CENTER
 10
12234.99999999998
 20
-199.99999999999909
 30
0.0
 11
12080.0
 21
-199.99999999999909
 31
0.0
1001
ACDBBLOCKREPETAG
1070
     1
1071
      114
1005
139857
  0
LINE
  5
139858
  8
OBJECT
 10
12159.999974964179
 20
-245.0000000000027
 30
0.0
 11
12086.0
 21
-244.99999999999909
 31
0.0
1001
ACDBBLOCKREPETAG
1070
     1
1071
      115
1005
139858
  0
LINE
  5
139859
  8
OBJECT
 10
12159.999974964179
 20
-154.99999999999909
 30
0.0
 11
12086.0
 21
-154.99999999999909
 31
0.0
1001
ACDBBLOCKREPETAG
1070
     1
1071
      116
1005
139859
  0
LINE
  5
13985A
  8
OBJECT
 10
12212.99999999998
 20
-140.99999999999909
 30
0.0
 11
12176.99999999998
 21
-140.99999999999909
 31
0.0
1001
ACDBBLOCKREPETAG
1070
     1
1071
      117
1005
13985A
  0
LINE
  5
13985B
  8
OBJECT
 10
12176.99999999998
 20
-140.99999999999909
 30
0.0
 11
12176.99999999998
 21
-258.99999999999909
 31
0.0
1001
ACDBBLOCKREPETAG
1070
     1
1071
      118
1005
13985B
  0
LINE
  5
13985C
  8
OBJECT
 10
12176.99999999998
 20
-258.99999999999909
 30
0.0
 11
12212.99999999998
 21
-258.99999999999909
 31
0.0
1001
ACDBBLOCKREPETAG
1070
     1
1071
      119
1005
13985C
  0
LINE
  5
13985D
  8
OBJECT
 10
12172.99999999998
 20
-145.49999999999909
 30
0.0
 11
12159.99999999998
 21
-145.49999999999909
 31
0.0
1001
ACDBBLOCKREPETAG
1070
     1
1071
      120
1005
13985D
  0
LINE
  5
13985E
  8
OBJECT
 10
12159.99999999998
 20
-254.49999999999909
 30
0.0
 11
12172.99999999998
 21
-254.49999999999909
 31
0.0
1001
ACDBBLOCKREPETAG
1070
     1
1071
      121
1005
13985E
  0
LINE
  5
13985F
  8
OBJECT
 10
12172.99999999998
 20
-254.49999999999909
 30
0.0
 11
12172.99999999998
 21
-145.49999999999909
 31
0.0
1001
ACDBBLOCKREPETAG
1070
     1
1071
      122
1005
13985F
  0
LINE
  5
139860
  8
OBJECT
 10
12176.99999999998
 20
-140.99999999999909
 30
0.0
 11
12172.99999999998
 21
-145.49999999999909
 31
0.0
1001
ACDBBLOCKREPETAG
1070
     1
1071
      123
1005
139860
  0
LINE
  5
139861
  8
OBJECT
 10
12176.99999999998
 20
-258.99999999999909
 30
0.0
 11
12172.99999999998
 21
-254.49999999999909
 31
0.0
1001
ACDBBLOCKREPETAG
1070
     1
1071
      124
1005
139861
  0
LINE
  5
139862
  8
OBJECT
 10
12083.0
 20
-137.99999999999909
 30
0.0
 11
12080.0
 21
-137.99999999999909
 31
0.0
1001
ACDBBLOCKREPETAG
1070
     1
1071
      125
1005
139862
  0
ARC
  5
139863
  8
OBJECT
 10
12083.0
 20
-140.99999999999909
 30
0.0
 40
3.0
 50
0.0
 51
90.0
1001
ACDBBLOCKREPETAG
1070
     1
1071
      126
1005
139863
  0
LINE
  5
139864
  8
OBJECT
 10
12080.0
 20
-261.99999999999909
 30
0.0
 11
12083.0
 21
-261.99999999999909
 31
0.0
1001
ACDBBLOCKREPETAG
1070
     1
1071
      127
1005
139864
  0
ARC
  5
139865
  8
OBJECT
 10
12083.0
 20
-258.99999999999909
 30
0.0
 40
3.0
 50
270.0
 51
0.0
1001
ACDBBLOCKREPETAG
1070
     1
1071
      128
1005
139865
  0
LINE
  5
139866
  8
OBJECT
 10
12086.0
 20
-258.99999999999909
 30
0.0
 11
12086.0
 21
-222.44994432063581
 31
0.0
1001
ACDBBLOCKREPETAG
1070
     1
1071
      129
1005
139866
  0
LINE
  5
139867
  8
OBJECT
 10
12086.0
 20
-177.55005567935859
 30
0.0
 11
12086.0
 21
-140.99999999999909
 31
0.0
1001
ACDBBLOCKREPETAG
1070
     1
1071
      130
1005
139867
  0
LINE
  5
139868
  8
HIDDEN
 10
12167.99999999998
 20
-155.49999999999909
 30
0.0
 11
12167.99999999998
 21
-244.49999999999909
 31
0.0
1001
ACDBBLOCKREPETAG
1070
     1
1071
      131
1005
139868
  0
LINE
  5
139869
  8
OBJECT
 10
12159.999974964179
 20
-254.4999509238105
 30
0.0
 11
12159.999974964179
 21
-145.4999509238105
 31
0.0
1001
ACDBBLOCKREPETAG
1070
     1
1071
      133
1005
139869
  0
ARC
  5
13986A
  8
OBJECT
 10
12125.0
 20
-199.99999999999909
 30
0.0
 40
45.000000000000547
 50
90.0
 51
166.2158024759261
1001
ACDBBLOCKREPETAG
1070
     1
1071
      134
1005
13986A
  0
ARC
  5
13986B
  8
OBJECT
 10
12125.0
 20
-199.99999999999909
 30
0.0
 40
45.000000000000547
 50
193.78421279332531
 51
270.0
1001
ACDBBLOCKREPETAG
1070
     1
1071
      402
1005
13986B
  0
LINE
  5
13986C
  8
OBJECT
 10
9787.0000000000127
 20
-553.0
 30
0.0
 11
9780.0000000000127
 21
-553.0
 31
0.0
1001
ACDBBLOCKREPETAG
1070
     1
1071
      106
1005
13986C
  0
LINE
  5
13986D
  8
OBJECT
 10
9780.0000000000127
 20
-553.0
 30
0.0
 11
9780.0000000000127
 21
-677.0
 31
0.0
1001
ACDBBLOCKREPETAG
1070
     1
1071
      107
1005
13986D
  0
LINE
  5
13986E
  8
OBJECT
 10
9914.0000000000127
 20
-653.3502637757274
 30
0.0
 11
9914.0000000000127
 21
-755.00000000000102
 31
0.0
1001
ACDBBLOCKREPETAG
1070
     1
1071
      108
1005
13986E
  0
LINE
  5
13986F
  8
OBJECT
 10
9780.0000000000127
 20
-677.0
 30
0.0
 11
9787.0000000000127
 21
-677.0
 31
0.0
1001
ACDBBLOCKREPETAG
1070
     1
1071
      109
1005
13986F
  0
LINE
  5
139870
  8
OBJECT
 10
9787.0000000000127
 20
-677.0
 30
0.0
 11
9787.0000000000127
 21
-553.0
 31
0.0
1001
ACDBBLOCKREPETAG
1070
     1
1071
      110
1005
139870
  0
LINE
  5
139871
  8
CENTER
 10
9855.0000000000182
 20
-615.0000000000008
 30
0.0
 11
9765.0000000000146
 21
-615.0
 31
0.0
1001
ACDBBLOCKREPETAG
1070
     1
1071
      111
1005
139871
  0
LINE
  5
139872
  8
OBJECT
 10
9920.0000000000182
 20
-758.0
 30
0.0
 11
9917.0000000000146
 21
-758.0000000000008
 31
0.0
1001
ACDBBLOCKREPETAG
1070
     1
1071
      112
1005
139872
  0
ARC
  5
139873
  8
OBJECT
 10
9917.0000000000146
 20
-755.00000000000102
 30
0.0
 40
3.0
 50
180.0
 51
270.0
1001
ACDBBLOCKREPETAG
1070
     1
1071
      113
1005
139873
  0
LINE
  5
139874
  8
OBJECT
 10
9787.0000000000127
 20
-556.0
 30
0.0
 11
9823.0000000000146
 21
-556.0000000000008
 31
0.0
1001
ACDBBLOCKREPETAG
1070
     1
1071
      114
1005
139874
  0
LINE
  5
139875
  8
OBJECT
 10
9823.0000000000146
 20
-556.0000000000008
 30
0.0
 11
9823.0000000000146
 21
-653.15756805667843
 31
0.0
1001
ACDBBLOCKREPETAG
1070
     1
1071
      115
1005
139875
  0
LINE
  5
139876
  8
OBJECT
 10
9827.0000000000127
 20
-560.5000000000008
 30
0.0
 11
9827.0000000000182
 21
-645.74491827928705
 31
0.0
1001
ACDBBLOCKREPETAG
1070
     1
1071
      116
1005
139876
  0
LINE
  5
139877
  8
OBJECT
 10
9827.0000000000127
 20
-560.5000000000008
 30
0.0
 11
9840.0000000000146
 21
-560.5000000000008
 31
0.0
1001
ACDBBLOCKREPETAG
1070
     1
1071
      117
1005
139877
  0
LINE
  5
139878
  8
OBJECT
 10
9831.3436831745348
 20
-674.0000000000008
 30
0.0
 11
9787.0000000000127
 21
-674.0
 31
0.0
1001
ACDBBLOCKREPETAG
1070
     1
1071
      118
1005
139878
  0
LINE
  5
139879
  8
OBJECT
 10
9823.0000000000146
 20
-556.0000000000008
 30
0.0
 11
9827.0000000000127
 21
-560.5000000000008
 31
0.0
1001
ACDBBLOCKREPETAG
1070
     1
1071
      119
1005
139879
  0
LINE
  5
13987A
  8
OBJECT
 10
9840.0000000000146
 20
-560.5000000000008
 30
0.0
 11
9840.0000000000146
 21
-645.74491827928784
 31
0.0
1001
ACDBBLOCKREPETAG
1070
     1
1071
      120
1005
13987A
  0
ARC
  5
13987B
  8
OBJECT
 10
9908.0000000000127
 20
-637.27386365609345
 30
0.0
 40
85.0
 50
205.5991387218653
 51
231.40900676279119
1001
ACDBBLOCKREPETAG
1070
     1
1071
      121
1005
13987B
  0
ARC
  5
13987C
  8
OBJECT
 10
9837.2000000000171
 20
-655.00000000000068
 30
0.0
 40
85.0
 50
19.925932125430649
 51
88.112268108168848
1001
ACDBBLOCKREPETAG
1070
     1
1071
      122
1005
13987C
  0
LINE
  5
13987D
  8
OBJECT
 10
9914.0000000000127
 20
-750.81075719270905
 30
0.0
 11
9854.9806774563986
 21
-703.71143914629454
 31
0.0
1001
ACDBBLOCKREPETAG
1070
     1
1071
      123
1005
13987D
  0
LINE
  5
13987E
  8
OBJECT
 10
9827.0000000000182
 20
-645.74491827928705
 30
0.0
 11
9840.0000000000146
 21
-645.74491827928784
 31
0.0
1001
ACDBBLOCKREPETAG
1070
     1
1071
      124
1005
13987E
  0
LINE
  5
13987F
  8
OBJECT
 10
9823.0000000000146
 20
-653.15756805667843
 30
0.0
 11
9827.0000000000182
 21
-645.74491827928705
 31
0.0
1001
ACDBBLOCKREPETAG
1070
     1
1071
      125
1005
13987F
  0
LINE
  5
139880
  8
OBJECT
 10
9919.99999999998
 20
-634.0
 30
0.0
 11
9917.1113878403758
 21
-626.03156729425325
 31
0.0
1001
ACDBBLOCKREPETAG
1070
     1
1071
      126
1005
139880
  0
LINE
  5
139881
  8
OBJECT
 10
9919.99999999998
 20
-634.0
 30
0.0
 11
9914.0000000000127
 21
-653.3502637757274
 31
0.0
1001
ACDBBLOCKREPETAG
1070
     1
1071
      127
1005
139881
  0
LINE
  5
139882
  8
HIDDEN
 10
9832.0000000000146
 20
-570.5000000000008
 30
0.0
 11
9832.0000000000146
 21
-659.50000000000068
 31
0.0
1001
ACDBBLOCKREPETAG
1070
     1
1071
      129
1005
139882
  0
CIRCLE
  5
139883
  8
OBJECT
 10
10000.0
 20
-696.0
 30
0.0
 40
62.0
1001
ACDBBLOCKREPETAG
1070
     1
1071
        0
1005
139883
  0
LINE
  5
139884
  8
OBJECT
 10
9787.00000000002
 20
-137.99999999999909
 30
0.0
 11
9780.0000000000182
 21
-137.99999999999909
 31
0.0
1001
ACDBBLOCKREPETAG
1070
     1
1071
      110
1005
139884
  0
LINE
  5
139885
  8
OBJECT
 10
9780.0000000000182
 20
-137.99999999999909
 30
0.0
 11
9780.0000000000182
 21
-261.99999999999909
 31
0.0
1001
ACDBBLOCKREPETAG
1070
     1
1071
      111
1005
139885
  0
LINE
  5
139886
  8
OBJECT
 10
9780.0000000000182
 20
-261.99999999999909
 30
0.0
 11
9787.00000000002
 21
-261.99999999999909
 31
0.0
1001
ACDBBLOCKREPETAG
1070
     1
1071
      112
1005
139886
  0
LINE
  5
139887
  8
OBJECT
 10
9787.00000000002
 20
-261.99999999999909
 30
0.0
 11
9787.00000000002
 21
-137.99999999999909
 31
0.0
1001
ACDBBLOCKREPETAG
1070
     1
1071
      113
1005
139887
  0
LINE
  5
139888
  8
CENTER
 10
9765.0000000000218
 20
-199.99999999999909
 30
0.0
 11
9920.0
 21
-199.99999999999909
 31
0.0
1001
ACDBBLOCKREPETAG
1070
     1
1071
      114
1005
139888
  0
LINE
  5
139889
  8
OBJECT
 10
9840.0000250358207
 20
-245.0000000000027
 30
0.0
 11
9914.0000000000055
 21
-244.99999999999909
 31
0.0
1001
ACDBBLOCKREPETAG
1070
     1
1071
      115
1005
139889
  0
LINE
  5
13988A
  8
OBJECT
 10
9840.0000250358207
 20
-154.99999999999909
 30
0.0
 11
9914.0000000000055
 21
-154.99999999999909
 31
0.0
1001
ACDBBLOCKREPETAG
1070
     1
1071
      116
1005
13988A
  0
LINE
  5
13988B
  8
OBJECT
 10
9787.00000000002
 20
-140.99999999999909
 30
0.0
 11
9823.0000000000182
 21
-140.99999999999909
 31
0.0
1001
ACDBBLOCKREPETAG
1070
     1
1071
      117
1005
13988B
  0
LINE
  5
13988C
  8
OBJECT
 10
9823.0000000000182
 20
-140.99999999999909
 30
0.0
 11
9823.0000000000182
 21
-258.99999999999909
 31
0.0
1001
ACDBBLOCKREPETAG
1070
     1
1071
      118
1005
13988C
  0
LINE
  5
13988D
  8
OBJECT
 10
9823.0000000000182
 20
-258.99999999999909
 30
0.0
 11
9787.00000000002
 21
-258.99999999999909
 31
0.0
1001
ACDBBLOCKREPETAG
1070
     1
1071
      119
1005
13988D
  0
LINE
  5
13988E
  8
OBJECT
 10
9827.0000000000182
 20
-145.49999999999909
 30
0.0
 11
9840.0000000000182
 21
-145.49999999999909
 31
0.0
1001
ACDBBLOCKREPETAG
1070
     1
1071
      120
1005
13988E
  0
LINE
  5
13988F
  8
OBJECT
 10
9840.0000000000182
 20
-254.49999999999909
 30
0.0
 11
9827.0000000000182
 21
-254.49999999999909
 31
0.0
1001
ACDBBLOCKREPETAG
1070
     1
1071
      121
1005
13988F
  0
LINE
  5
139890
  8
OBJECT
 10
9827.0000000000182
 20
-254.49999999999909
 30
0.0
 11
9827.0000000000182
 21
-145.49999999999909
 31
0.0
1001
ACDBBLOCKREPETAG
1070
     1
1071
      122
1005
139890
  0
LINE
  5
139891
  8
OBJECT
 10
9823.0000000000182
 20
-140.99999999999909
 30
0.0
 11
9827.0000000000182
 21
-145.49999999999909
 31
0.0
1001
ACDBBLOCKREPETAG
1070
     1
1071
      123
1005
139891
  0
LINE
  5
139892
  8
OBJECT
 10
9823.0000000000182
 20
-258.99999999999909
 30
0.0
 11
9827.0000000000182
 21
-254.49999999999909
 31
0.0
1001
ACDBBLOCKREPETAG
1070
     1
1071
      124
1005
139892
  0
LINE
  5
139893
  8
OBJECT
 10
9917.0000000000055
 20
-137.99999999999909
 30
0.0
 11
9920.0000000000055
 21
-137.99999999999909
 31
0.0
1001
ACDBBLOCKREPETAG
1070
     1
1071
      125
1005
139893
  0
ARC
  5
139894
  8
OBJECT
 10
9917.0000000000055
 20
-140.99999999999909
 30
0.0
 40
3.0
 50
90.0
 51
180.0
1001
ACDBBLOCKREPETAG
1070
     1
1071
      126
1005
139894
  0
LINE
  5
139895
  8
OBJECT
 10
9920.0000000000055
 20
-261.99999999999909
 30
0.0
 11
9917.0000000000055
 21
-261.99999999999909
 31
0.0
1001
ACDBBLOCKREPETAG
1070
     1
1071
      127
1005
139895
  0
ARC
  5
139896
  8
OBJECT
 10
9917.0000000000055
 20
-258.99999999999909
 30
0.0
 40
3.0
 50
180.0
 51
270.0
1001
ACDBBLOCKREPETAG
1070
     1
1071
      128
1005
139896
  0
LINE
  5
139897
  8
OBJECT
 10
9914.0000000000055
 20
-258.99999999999909
 30
0.0
 11
9914.0000000000055
 21
-222.44994432063581
 31
0.0
1001
ACDBBLOCKREPETAG
1070
     1
1071
      129
1005
139897
  0
LINE
  5
139898
  8
OBJECT
 10
9914.0000000000055
 20
-177.55005567935859
 30
0.0
 11
9914.0000000000055
 21
-140.99999999999909
 31
0.0
1001
ACDBBLOCKREPETAG
1070
     1
1071
      130
1005
139898
  0
LINE
  5
139899
  8
HIDDEN
 10
9832.0000000000182
 20
-155.49999999999909
 30
0.0
 11
9832.0000000000182
 21
-244.49999999999909
 31
0.0
1001
ACDBBLOCKREPETAG
1070
     1
1071
      131
1005
139899
  0
LINE
  5
13989A
  8
OBJECT
 10
9840.0000250358207
 20
-254.4999509238105
 30
0.0
 11
9840.0000250358207
 21
-145.4999509238105
 31
0.0
1001
ACDBBLOCKREPETAG
1070
     1
1071
      133
1005
13989A
  0
ARC
  5
13989B
  8
OBJECT
 10
9875.0
 20
-199.99999999999909
 30
0.0
 40
45.000000000000547
 50
270.0
 51
346.21579484130518
1001
ACDBBLOCKREPETAG
1070
     1
1071
      134
1005
13989B
  0
ARC
  5
13989C
  8
OBJECT
 10
9875.0
 20
-199.99999999999909
 30
0.0
 40
45.000000000000547
 50
13.78420515869484
 51
90.0
1001
ACDBBLOCKREPETAG
1070
     1
1071
      402
1005
13989C
  0
LINE
  5
13989D
  8
CENTER
 10
10000.0
 20
-300.99999999999898
 30
0.0
 11
10000.0
 21
-279.99999999999909
 31
0.0
1001
ACDBBLOCKREPETAG
1070
     1
1071
        0
1005
13989D
  0
LINE
  5
13989E
  8
OBJECT
 10
10062.0
 20
-283.0
 30
0.0
 11
10062.0
 21
-279.99999999999909
 31
0.0
1001
ACDBBLOCKREPETAG
1070
     1
1071
        1
1005
13989E
  0
ARC
  5
13989F
  8
OBJECT
 10
10059.0
 20
-283.0
 30
0.0
 40
3.0
 50
270.0
 51
0.0
1001
ACDBBLOCKREPETAG
1070
     1
1071
        2
1005
13989F
  0
LINE
  5
1398A0
  8
OBJECT
 10
9938.0
 20
-279.99999999999909
 30
0.0
 11
9938.0
 21
-282.99999999999818
 31
0.0
1001
ACDBBLOCKREPETAG
1070
     1
1071
        3
1005
1398A0
  0
ARC
  5
1398A1
  8
OBJECT
 10
9941.0
 20
-282.99999999999818
 30
0.0
 40
3.0
 50
180.0
 51
270.0
1001
ACDBBLOCKREPETAG
1070
     1
1071
        4
1005
1398A1
  0
LINE
  5
1398A2
  8
OBJECT
 10
9941.0
 20
-285.99999999999818
 30
0.0
 11
10059.0
 21
-286.0
 31
0.0
1001
ACDBBLOCKREPETAG
1070
     1
1071
        5
1005
1398A2
  0
LINE
  5
1398A3
  8
HIDDEN
 10
9943.0
 20
-619.99999999999955
 30
0.0
 11
10057.0
 21
-619.99999999999955
 31
0.0
1001
ACDBBLOCKREPETAG
1070
     1
1071
       57
1005
1398A3
  0
LINE
  5
1398A4
  8
CENTER
 10
10000.0
 20
-534.99999999999955
 30
0.0
 11
10000.0
 21
-899.99999999999955
 31
0.0
1001
ACDBBLOCKREPETAG
1070
     1
1071
       58
1005
1398A4
  0
LINE
  5
1398A5
  8
OBJECT
 10
9928.0
 20
-570.99999999999955
 30
0.0
 11
9928.0
 21
-633.99999999999955
 31
0.0
1001
ACDBBLOCKREPETAG
1070
     1
1071
       59
1005
1398A5
  0
LINE
  5
1398A6
  8
OBJECT
 10
10072.0
 20
-633.99999999999955
 30
0.0
 11
10072.0
 21
-570.99999999999955
 31
0.0
1001
ACDBBLOCKREPETAG
1070
     1
1071
       60
1005
1398A6
  0
LINE
  5
1398A7
  8
OBJECT
 10
9920.0
 20
-887.99999999999955
 30
0.0
 11
10080.0
 21
-887.99999999999955
 31
0.0
1001
ACDBBLOCKREPETAG
1070
     1
1071
       61
1005
1398A7
  0
LINE
  5
1398A8
  8
OBJECT
 10
10080.0
 20
-633.99999999999955
 30
0.0
 11
9920.0
 21
-633.99999999999955
 31
0.0
1001
ACDBBLOCKREPETAG
1070
     1
1071
       62
1005
1398A8
  0
LINE
  5
1398A9
  8
OBJECT
 10
9920.0
 20
-887.99999999999955
 30
0.0
 11
9920.0
 21
-899.99999999999955
 31
0.0
1001
ACDBBLOCKREPETAG
1070
     1
1071
       63
1005
1398A9
  0
LINE
  5
1398AA
  8
OBJECT
 10
9920.0
 20
-899.99999999999955
 30
0.0
 11
10080.0
 21
-899.99999999999955
 31
0.0
1001
ACDBBLOCKREPETAG
1070
     1
1071
       64
1005
1398AA
  0
LINE
  5
1398AB
  8
OBJECT
 10
10080.0
 20
-899.99999999999955
 30
0.0
 11
10080.0
 21
-887.99999999999955
 31
0.0
1001
ACDBBLOCKREPETAG
1070
     1
1071
       65
1005
1398AB
  0
LINE
  5
1398AC
  8
OBJECT
 10
10074.99999999986
 20
-757.99999999985016
 30
0.0
 11
10075.0
 21
-887.99999999999955
 31
0.0
1001
ACDBBLOCKREPETAG
1070
     1
1071
       69
1005
1398AC
  0
LINE
  5
1398AD
  8
OBJECT
 10
10074.99999080298
 20
-757.99998602702112
 30
0.0
 11
10080.0
 21
-757.99998602702112
 31
0.0
1001
ACDBBLOCKREPETAG
1070
     1
1071
       70
1005
1398AD
  0
LINE
  5
1398AE
  8
OBJECT
 10
9925.0000000001382
 20
-757.99999999985016
 30
0.0
 11
9925.0
 21
-887.99999999999955
 31
0.0
1001
ACDBBLOCKREPETAG
1070
     1
1071
       71
1005
1398AE
  0
LINE
  5
1398AF
  8
OBJECT
 10
9925.0000091970142
 20
-757.99998602702112
 30
0.0
 11
9920.0
 21
-757.99998602702112
 31
0.0
1001
ACDBBLOCKREPETAG
1070
     1
1071
       72
1005
1398AF
  0
LINE
  5
1398B0
  8
OBJECT
 10
9918.0
 20
-570.99999999999955
 30
0.0
 11
9918.0
 21
-549.99999999999955
 31
0.0
1001
ACDBBLOCKREPETAG
1070
     1
1071
       73
1005
1398B0
  0
LINE
  5
1398B1
  8
OBJECT
 10
9918.0
 20
-549.99999999999955
 30
0.0
 11
10082.0
 21
-549.99999999999955
 31
0.0
1001
ACDBBLOCKREPETAG
1070
     1
1071
       74
1005
1398B1
  0
LINE
  5
1398B2
  8
OBJECT
 10
10082.0
 20
-570.99999999999955
 30
0.0
 11
9918.0
 21
-570.99999999999955
 31
0.0
1001
ACDBBLOCKREPETAG
1070
     1
1071
       75
1005
1398B2
  0
LINE
  5
1398B3
  8
OBJECT
 10
9920.7940817120234
 20
-549.99999999999955
 30
0.0
 11
9920.7940817120234
 21
-570.99999999999955
 31
0.0
1001
ACDBBLOCKREPETAG
1070
     1
1071
       76
1005
1398B3
  0
LINE
  5
1398B4
  8
OBJECT
 10
9928.7378959999969
 20
-549.99999999999955
 30
0.0
 11
9928.7378959999969
 21
-570.99999999999955
 31
0.0
1001
ACDBBLOCKREPETAG
1070
     1
1071
       77
1005
1398B4
  0
LINE
  5
1398B5
  8
OBJECT
 10
9970.8330260000002
 20
-549.99999999999955
 30
0.0
 11
9970.8330260000002
 21
-570.99999999999955
 31
0.0
1001
ACDBBLOCKREPETAG
1070
     1
1071
       78
1005
1398B5
  0
LINE
  5
1398B6
  8
OBJECT
 10
9978.7768389218036
 20
-549.99999999999955
 30
0.0
 11
9978.7768389218036
 21
-570.99999999999955
 31
0.0
1001
ACDBBLOCKREPETAG
1070
     1
1071
       79
1005
1398B6
  0
LINE
  5
1398B7
  8
OBJECT
 10
10082.0
 20
-570.99999999999955
 30
0.0
 11
10082.0
 21
-549.99999999999955
 31
0.0
1001
ACDBBLOCKREPETAG
1070
     1
1071
       80
1005
1398B7
  0
LINE
  5
1398B8
  8
OBJECT
 10
10079.205918287969
 20
-549.99999999999955
 30
0.0
 11
10079.205918287969
 21
-570.99999999999955
 31
0.0
1001
ACDBBLOCKREPETAG
1070
     1
1071
       81
1005
1398B8
  0
LINE
  5
1398B9
  8
OBJECT
 10
10071.262103999999
 20
-549.99999999999955
 30
0.0
 11
10071.262103999999
 21
-570.99999999999955
 31
0.0
1001
ACDBBLOCKREPETAG
1070
     1
1071
       82
1005
1398B9
  0
LINE
  5
1398BA
  8
OBJECT
 10
10029.166974
 20
-549.99999999999955
 30
0.0
 11
10029.166974
 21
-570.99999999999955
 31
0.0
1001
ACDBBLOCKREPETAG
1070
     1
1071
       83
1005
1398BA
  0
LINE
  5
1398BB
  8
OBJECT
 10
10021.2231610782
 20
-549.99999999999955
 30
0.0
 11
10021.2231610782
 21
-570.99999999999955
 31
0.0
1001
ACDBBLOCKREPETAG
1070
     1
1071
       84
1005
1398BB
  0
ARC
  5
1398BC
  8
OBJECT
 10
10200.687274671671
 20
-749.40809941010718
 30
0.0
 40
170.6350503965856
 50
137.44134459184301
 51
149.91949581337221
1001
ACDBBLOCKREPETAG
1070
     1
1071
       85
1005
1398BC
  0
ARC
  5
1398BD
  8
OBJECT
 10
10200.687274671671
 20
-642.59190058989179
 30
0.0
 40
170.6350503965856
 50
210.08050418662771
 51
222.55865540815699
1001
ACDBBLOCKREPETAG
1070
     1
1071
       86
1005
1398BD
  0
ARC
  5
1398BE
  8
OBJECT
 10
9799.3127253283274
 20
-749.40809941010718
 30
0.0
 40
170.6350503965856
 50
30.08050418668418
 51
42.558655408347391
1001
ACDBBLOCKREPETAG
1070
     1
1071
       87
1005
1398BE
  0
ARC
  5
1398BF
  8
OBJECT
 10
9799.3127253283274
 20
-642.59190058989179
 30
0.0
 40
170.6350503965856
 50
317.44134459165258
 51
329.91949581331568
1001
ACDBBLOCKREPETAG
1070
     1
1071
       88
1005
1398BF
  0
POINT
  5
1398C0
  8
DOTS
 10
10000.0
 20
-754.99999999999955
 30
0.0
1001
ACDBBLOCKREPETAG
1070
     1
1071
      202
1005
1398C0
  0
ARC
  5
1398C1
  8
OBJECT
 10
10000.0
 20
-199.99999999999909
 30
0.0
 40
77.0
 50
292.25886900009442
 51
337.74113100019838
1001
ACDBBLOCKREPETAG
1070
     1
1071
      169
1005
1398C1
  0
LINE
  5
1398C2
  8
SLIM
 10
9945.2566704261044
 20
-137.99999999999909
 30
0.0
 11
9955.9548403695771
 21
-127.30183005652231
 31
0.0
1001
GRADIENTCOLOR1ACI
1070
     5
1001
GRADIENTCOLOR2ACI
1070
     2
1001
ACAD
1010
0.0
1020
0.0
1030
0.0
1001
ACDBBLOCKREPETAG
1070
     1
1071
      403
1005
1398C2
  0
LINE
  5
1398C3
  8
SLIM
 10
9954.2369265471734
 20
-137.99999999999909
 30
0.0
 11
9972.7507744763316
 21
-119.4861520708364
 31
0.0
1001
GRADIENTCOLOR1ACI
1070
     5
1001
GRADIENTCOLOR2ACI
1070
     2
1001
ACAD
1010
0.0
1020
0.0
1030
0.0
1001
ACDBBLOCKREPETAG
1070
     1
1071
      404
1005
1398C3
  0
LINE
  5
1398C4
  8
SLIM
 10
9980.9810912312314
 20
-120.2360914370078
 30
0.0
 11
9984.8575146748644
 21
-116.359667993377
 31
0.0
1001
GRADIENTCOLOR1ACI
1070
     5
1001
GRADIENTCOLOR2ACI
1070
     2
1001
ACAD
1010
0.0
1020
0.0
1030
0.0
1001
ACDBBLOCKREPETAG
1070
     1
1071
      405
1005
1398C4
  0
LINE
  5
1398C5
  8
SLIM
 10
9991.7848884505802
 20
-118.412550338727
 30
0.0
 11
9995.0533812002577
 21
-115.1440575890517
 31
0.0
1001
GRADIENTCOLOR1ACI
1070
     5
1001
GRADIENTCOLOR2ACI
1070
     2
1001
ACAD
1010
0.0
1020
0.0
1030
0.0
1001
ACDBBLOCKREPETAG
1070
     1
1071
      406
1005
1398C5
  0
LINE
  5
1398C6
  8
SLIM
 10
10001.169356711331
 20
-118.0083381990472
 30
0.0
 11
10004.0797313529
 21
-115.0979635574724
 31
0.0
1001
GRADIENTCOLOR1ACI
1070
     5
1001
GRADIENTCOLOR2ACI
1070
     2
1001
ACAD
1010
0.0
1020
0.0
1030
0.0
1001
ACDBBLOCKREPETAG
1070
     1
1071
      407
1005
1398C6
  0
LINE
  5
1398C7
  8
SLIM
 10
10009.59468708876
 20
-118.5632639426843
 30
0.0
 11
10012.26797841056
 21
-115.88997262087101
 31
0.0
1001
GRADIENTCOLOR1ACI
1070
     5
1001
GRADIENTCOLOR2ACI
1070
     2
1001
ACAD
1010
0.0
1020
0.0
1030
0.0
1001
ACDBBLOCKREPETAG
1070
     1
1071
      408
1005
1398C7
  0
LINE
  5
1398C8
  8
SLIM
 10
10017.293827793021
 20
-119.84437935949001
 30
0.0
 11
10019.799941457361
 21
-117.3382656951527
 31
0.0
1001
GRADIENTCOLOR1ACI
1070
     5
1001
GRADIENTCOLOR2ACI
1070
     2
1001
ACAD
1010
0.0
1020
0.0
1030
0.0
1001
ACDBBLOCKREPETAG
1070
     1
1071
      409
1005
1398C8
  0
LINE
  5
1398C9
  8
SLIM
 10
10023.27377163679
 20
-122.8446916367926
 30
0.0
 11
10026.787203867279
 21
-119.3312594063044
 31
0.0
1001
GRADIENTCOLOR1ACI
1070
     5
1001
GRADIENTCOLOR2ACI
1070
     2
1001
ACAD
1010
0.0
1020
0.0
1030
0.0
1001
ACDBBLOCKREPETAG
1070
     1
1071
      410
1005
1398C9
  0
LINE
  5
1398CA
  8
SLIM
 10
10027.76389969732
 20
-127.33481969732929
 30
0.0
 11
10033.303003076029
 21
-121.7957163186195
 31
0.0
1001
GRADIENTCOLOR1ACI
1070
     5
1001
GRADIENTCOLOR2ACI
1070
     2
1001
ACAD
1010
0.0
1020
0.0
1030
0.0
1001
ACDBBLOCKREPETAG
1070
     1
1071
      411
1005
1398CA
  0
LINE
  5
1398CB
  8
SLIM
 10
10033.43909865133
 20
-130.63987686439191
 30
0.0
 11
10039.39731198437
 21
-124.681663531344
 31
0.0
1001
GRADIENTCOLOR1ACI
1070
     5
1001
GRADIENTCOLOR2ACI
1070
     2
1001
ACAD
1010
0.0
1020
0.0
1030
0.0
1001
ACDBBLOCKREPETAG
1070
     1
1071
      412
1005
1398CB
  0
LINE
  5
1398CC
  8
SLIM
 10
10039.284224621801
 20
-133.77500701499321
 30
0.0
 11
10045.104770534361
 21
-127.95446110242381
 31
0.0
1001
GRADIENTCOLOR1ACI
1070
     5
1001
GRADIENTCOLOR2ACI
1070
     2
1001
ACAD
1010
0.0
1020
0.0
1030
0.0
1001
ACDBBLOCKREPETAG
1070
     1
1071
      413
1005
1398CC
  0
LINE
  5
1398CD
  8
SLIM
 10
10044.721280169801
 20
-137.31820758805651
 30
0.0
 11
10050.449155789191
 21
-131.59033196866449
 31
0.0
1001
GRADIENTCOLOR1ACI
1070
     5
1001
GRADIENTCOLOR2ACI
1070
     2
1001
ACAD
1010
0.0
1020
0.0
1030
0.0
1001
ACDBBLOCKREPETAG
1070
     1
1071
      414
1005
1398CD
  0
LINE
  5
1398CE
  8
SLIM
 10
10053.019743878929
 20
-137.99999999999909
 30
0.0
 11
10055.445994186401
 21
-135.57374969252561
 31
0.0
1001
GRADIENTCOLOR1ACI
1070
     5
1001
GRADIENTCOLOR2ACI
1070
     2
1001
ACAD
1010
0.0
1020
0.0
1030
0.0
1001
ACDBBLOCKREPETAG
1070
     1
1071
      415
1005
1398CE
  0
ARC
  5
1398CF
  8
OBJECT
 10
10000.0
 20
-199.99999999999909
 30
0.0
 40
77.0
 50
112.25886900009441
 51
157.74113100019829
1001
ACDBBLOCKREPETAG
1070
     1
1071
      170
1005
1398CF
  0
ARC
  5
1398D0
  8
OBJECT
 10
10000.0
 20
-199.99999999999909
 30
0.0
 40
77.0
 50
22.258868999801621
 51
67.741130999905565
1001
ACDBBLOCKREPETAG
1070
     1
1071
      172
1005
1398D0
  0
CIRCLE
  5
1398D1
  8
OBJECT
 10
10000.0
 20
-199.99999999999909
 30
0.0
 40
70.0
1001
ACDBBLOCKREPETAG
1070
     1
1071
      173
1005
1398D1
  0
LINE
  5
1398D2
  8
OBJECT
 10
10029.166974999989
 20
-271.26210499999888
 30
0.0
 11
10021.223162444099
 21
-279.20591755589248
 31
0.0
1001
ACDBBLOCKREPETAG
1070
     1
1071
      174
1005
1398D2
  0
LINE
  5
1398D3
  8
OBJECT
 10
9970.8330260000002
 20
-271.26210499999888
 30
0.0
 11
9978.77683892192
 21
-279.20591792191681
 31
0.0
1001
ACDBBLOCKREPETAG
1070
     1
1071
      175
1005
1398D3
  0
ARC
  5
1398D4
  8
OBJECT
 10
10000.0
 20
-199.99999999999909
 30
0.0
 40
82.000000000000014
 50
255.00000044864069
 51
285.00000053969438
1001
ACDBBLOCKREPETAG
1070
     1
1071
      176
1005
1398D4
  0
LINE
  5
1398D5
  8
OBJECT
 10
9928.7378959999969
 20
-229.1669739999989
 30
0.0
 11
9920.7940817120543
 21
-221.2231597120545
 31
0.0
1001
ACDBBLOCKREPETAG
1070
     1
1071
      177
1005
1398D5
  0
ARC
  5
1398D6
  8
OBJECT
 10
10000.0
 20
-199.99999999999909
 30
0.0
 40
82.000000000000014
 50
165.00000044874901
 51
194.9999985630001
1001
ACDBBLOCKREPETAG
1070
     1
1071
      178
1005
1398D6
  0
LINE
  5
1398D7
  8
OBJECT
 10
9970.8330260000002
 20
-128.7378949999993
 30
0.0
 11
9978.77683892192
 21
-120.7940820780795
 31
0.0
1001
ACDBBLOCKREPETAG
1070
     1
1071
      179
1005
1398D7
  0
ARC
  5
1398D8
  8
OBJECT
 10
10000.0
 20
-199.99999999999909
 30
0.0
 40
82.000000000000014
 50
74.999999460305631
 51
104.99999955135929
1001
ACDBBLOCKREPETAG
1070
     1
1071
      180
1005
1398D8
  0
LINE
  5
1398D9
  8
OBJECT
 10
10029.166974999989
 20
-128.7378949999993
 30
0.0
 11
10021.223162444099
 21
-120.79408244410391
 31
0.0
1001
ACDBBLOCKREPETAG
1070
     1
1071
      181
1005
1398D9
  0
LINE
  5
1398DA
  8
OBJECT
 10
9962.402059
 20
-161.93893300000039
 30
0.0
 11
10037.08411027142
 21
-174.5180316957439
 31
0.0
1001
ACDBBLOCKREPETAG
1070
     1
1071
      182
1005
1398DA
  0
LINE
  5
1398DB
  8
OBJECT
 10
10044.09365699999
 20
-169.70149399999991
 30
0.0
 11
10037.08411027142
 21
-174.5180316957439
 31
0.0
1001
ACDBBLOCKREPETAG
1070
     1
1071
      183
1005
1398DB
  0
LINE
  5
1398DC
  8
OBJECT
 10
9928.7378959999969
 20
-170.833024999999
 30
0.0
 11
9920.7940820780805
 21
-178.77683892191911
 31
0.0
1001
ACDBBLOCKREPETAG
1070
     1
1071
      184
1005
1398DC
  0
CIRCLE
  5
1398DD
  8
OBJECT
 10
10000.0
 20
-199.99999999999909
 30
0.0
 40
53.500000000000007
1001
ACDBBLOCKREPETAG
1070
     1
1071
      185
1005
1398DD
  0
ARC
  5
1398DE
  8
OBJECT
 10
10000.0
 20
-199.99999999999909
 30
0.0
 40
50.0
 50
131.70180964351781
 51
168.52376955953341
1001
ACDBBLOCKREPETAG
1070
     1
1071
      186
1005
1398DE
  0
ARC
  5
1398DF
  8
OBJECT
 10
10000.0
 20
-199.99999999999909
 30
0.0
 40
50.0
 50
238.8199429999047
 51
34.49450625011707
1001
ACDBBLOCKREPETAG
1070
     1
1071
      187
1005
1398DF
  0
LINE
  5
1398E0
  8
OBJECT
 10
10071.262104999991
 20
-170.833024999999
 30
0.0
 11
10079.20591755589
 21
-178.77683755589439
 31
0.0
1001
ACDBBLOCKREPETAG
1070
     1
1071
      188
1005
1398E0
  0
ARC
  5
1398E1
  8
OBJECT
 10
10000.0
 20
-199.99999999999909
 30
0.0
 40
82.000000000000014
 50
345.00000044874901
 51
15.000000539345651
1001
ACDBBLOCKREPETAG
1070
     1
1071
      189
1005
1398E1
  0
LINE
  5
1398E2
  8
OBJECT
 10
10071.262104999991
 20
-229.1669739999989
 30
0.0
 11
10079.20591792192
 21
-221.2231610780791
 31
0.0
1001
ACDBBLOCKREPETAG
1070
     1
1071
      190
1005
1398E2
  0
LINE
  5
1398E3
  8
OBJECT
 10
10045.661800227321
 20
-137.99999999999909
 30
0.0
 11
10080.0
 21
-137.99999999999909
 31
0.0
1001
ACDBBLOCKREPETAG
1070
     1
1071
      191
1005
1398E3
  0
LINE
  5
1398E4
  8
OBJECT
 10
10062.0
 20
-261.99999999999909
 30
0.0
 11
10080.0
 21
-261.99999999999909
 31
0.0
1001
ACDBBLOCKREPETAG
1070
     1
1071
      192
1005
1398E4
  0
LINE
  5
1398E5
  8
OBJECT
 10
10062.0
 20
-261.99999999999909
 30
0.0
 11
10062.0
 21
-279.99999999999909
 31
0.0
1001
ACDBBLOCKREPETAG
1070
     1
1071
      194
1005
1398E5
  0
LINE
  5
1398E6
  8
OBJECT
 10
9938.0
 20
-261.99999999999909
 30
0.0
 11
9938.0
 21
-279.99999999999909
 31
0.0
1001
ACDBBLOCKREPETAG
1070
     1
1071
      195
1005
1398E6
  0
LINE
  5
1398E7
  8
OBJECT
 10
9938.0
 20
-261.99999999999909
 30
0.0
 11
9920.0
 21
-261.99999999999909
 31
0.0
1001
ACDBBLOCKREPETAG
1070
     1
1071
      197
1005
1398E7
  0
LINE
  5
1398E8
  8
OBJECT
 10
9954.3381997726756
 20
-137.99999999999909
 30
0.0
 11
9920.0
 21
-137.99999999999909
 31
0.0
1001
ACDBBLOCKREPETAG
1070
     1
1071
      198
1005
1398E8
  0
LINE
  5
1398E9
  8
CENTER
 10
10080.0
 20
-199.99999999999909
 30
0.0
 11
9920.0
 21
-199.99999999999909
 31
0.0
1001
ACDBBLOCKREPETAG
1070
     1
1071
      207
1005
1398E9
  0
LINE
  5
1398EA
  8
CENTER
 10
10000.0
 20
-279.99999999999909
 30
0.0
 11
10000.0
 21
-99.999999999999091
 31
0.0
1001
ACDBBLOCKREPETAG
1070
     1
1071
      208
1005
1398EA
  0
LINE
  5
1398EB
  8
OBJECT
 10
9945.5527778486357
 20
-254.44722215136329
 30
0.0
 11
9938.0
 21
-261.99999999999909
 31
0.0
1001
ACDBBLOCKREPETAG
1070
     1
1071
      209
1005
1398EB
  0
LINE
  5
1398EC
  8
OBJECT
 10
10054.447222151361
 20
-254.44722215136329
 30
0.0
 11
10062.0
 21
-261.99999999999909
 31
0.0
1001
ACDBBLOCKREPETAG
1070
     1
1071
      210
1005
1398EC
  0
ARC
  5
1398ED
  8
OBJECT
 10
10000.0
 20
-199.99999999999909
 30
0.0
 40
85.0
 50
46.837102859844251
 51
133.16289714015571
1001
ACDBBLOCKREPETAG
1070
     1
1071
      211
1005
1398ED
  0
LINE
  5
1398EE
  8
OBJECT
 10
9946.6921941437577
 20
-195.46638161316051
 30
0.0
 11
9970.4540343856352
 21
-193.79865146436981
 31
0.0
1001
ACDBBLOCKREPETAG
1070
     1
1071
      333
1005
1398EE
  0
LINE
  5
1398EF
  8
OBJECT
 10
9947.3854347270626
 20
-190.305593971766
 30
0.0
 11
9966.9884352628997
 21
-188.92975272660161
 31
0.0
1001
ACDBBLOCKREPETAG
1070
     1
1071
      334
1005
1398EF
  0
LINE
  5
1398F0
  8
OBJECT
 10
9974.1135374752757
 20
-242.77722592637201
 30
0.0
 11
9982.1366988374084
 21
-234.1690987954708
 31
0.0
1001
ACDBBLOCKREPETAG
1070
     1
1071
      335
1005
1398F0
  0
ARC
  5
1398F1
  8
OBJECT
 10
9982.1160071245395
 20
-183.28188966318251
 30
0.0
 40
60.031113246032611
 50
254.07020130412749
 51
262.33936106086588
1001
ACDBBLOCKREPETAG
1070
     1
1071
      336
1005
1398F1
  0
LINE
  5
1398F2
  8
OBJECT
 10
9977.6125997325162
 20
-197.67495277149911
 30
0.0
 11
9982.1366988374084
 21
-234.1690987954708
 31
0.0
1001
ACDBBLOCKREPETAG
1070
     1
1071
      337
1005
1398F2
  0
ARC
  5
1398F3
  8
OBJECT
 10
9967.6885653456393
 20
-198.90521351131881
 30
0.0
 40
10.0
 50
7.0667782929989968
 51
94.014734370532395
1001
ACDBBLOCKREPETAG
1070
     1
1071
      338
1005
1398F3
  0
ARC
  5
1398F4
  8
OBJECT
 10
9970.9441253709756
 20
-200.78147401875589
 30
0.0
 40
7.0
 50
7.0667782929989968
 51
94.014733775014648
1001
ACDBBLOCKREPETAG
1070
     1
1071
      339
1005
1398F4
  0
POINT
  5
1398F5
  8
DOTS
 10
10000.0
 20
-199.99999999999909
 30
0.0
 50
270.0
1001
ACDBBLOCKREPETAG
1070
     1
1071
      348
1005
1398F5
  0
ARC
  5
1398F6
  8
OBJECT
 10
10000.0
 20
-199.99999999999909
 30
0.0
 40
77.0
 50
202.25886899980159
 51
247.74113099990561
1001
ACDBBLOCKREPETAG
1070
     1
1071
      166
1005
1398F6
  0
LINE
  5
1398F7
  8
OBJECT
 10
10212.99999999998
 20
-553.0000000000008
 30
0.0
 11
10219.99999999998
 21
-553.0000000000008
 31
0.0
1001
ACDBBLOCKREPETAG
1070
     1
1071
      106
1005
1398F7
  0
LINE
  5
1398F8
  8
OBJECT
 10
10219.99999999998
 20
-553.0000000000008
 30
0.0
 11
10219.99999999998
 21
-677.0000000000008
 31
0.0
1001
ACDBBLOCKREPETAG
1070
     1
1071
      107
1005
1398F8
  0
LINE
  5
1398F9
  8
OBJECT
 10
10085.99999999998
 20
-653.3502637757274
 30
0.0
 11
10085.99999999998
 21
-755.00000000000102
 31
0.0
1001
ACDBBLOCKREPETAG
1070
     1
1071
      108
1005
1398F9
  0
LINE
  5
1398FA
  8
OBJECT
 10
10219.99999999998
 20
-677.0000000000008
 30
0.0
 11
10212.99999999998
 21
-677.0000000000008
 31
0.0
1001
ACDBBLOCKREPETAG
1070
     1
1071
      109
1005
1398FA
  0
LINE
  5
1398FB
  8
OBJECT
 10
10212.99999999998
 20
-677.0000000000008
 30
0.0
 11
10212.99999999998
 21
-553.0000000000008
 31
0.0
1001
ACDBBLOCKREPETAG
1070
     1
1071
      110
1005
1398FB
  0
LINE
  5
1398FC
  8
CENTER
 10
10144.99999999998
 20
-615.0000000000008
 30
0.0
 11
10234.99999999998
 21
-615.0000000000008
 31
0.0
1001
ACDBBLOCKREPETAG
1070
     1
1071
      111
1005
1398FC
  0
LINE
  5
1398FD
  8
OBJECT
 10
10079.99999999998
 20
-758.0
 30
0.0
 11
10082.99999999998
 21
-758.0000000000008
 31
0.0
1001
ACDBBLOCKREPETAG
1070
     1
1071
      112
1005
1398FD
  0
ARC
  5
1398FE
  8
OBJECT
 10
10082.99999999998
 20
-755.00000000000102
 30
0.0
 40
3.0
 50
270.0
 51
0.0
1001
ACDBBLOCKREPETAG
1070
     1
1071
      113
1005
1398FE
  0
LINE
  5
1398FF
  8
OBJECT
 10
10212.99999999998
 20
-556.0000000000008
 30
0.0
 11
10176.99999999998
 21
-556.0000000000008
 31
0.0
1001
ACDBBLOCKREPETAG
1070
     1
1071
      114
1005
1398FF
  0
LINE
  5
139900
  8
OBJECT
 10
10176.99999999998
 20
-556.0000000000008
 30
0.0
 11
10176.99999999998
 21
-653.15756805667843
 31
0.0
1001
ACDBBLOCKREPETAG
1070
     1
1071
      115
1005
139900
  0
LINE
  5
139901
  8
OBJECT
 10
10172.99999999998
 20
-560.5000000000008
 30
0.0
 11
10172.99999999998
 21
-645.74491827928705
 31
0.0
1001
ACDBBLOCKREPETAG
1070
     1
1071
      116
1005
139901
  0
LINE
  5
139902
  8
OBJECT
 10
10172.99999999998
 20
-560.5000000000008
 30
0.0
 11
10159.99999999998
 21
-560.5000000000008
 31
0.0
1001
ACDBBLOCKREPETAG
1070
     1
1071
      117
1005
139902
  0
LINE
  5
139903
  8
OBJECT
 10
10168.656316825471
 20
-674.0000000000008
 30
0.0
 11
10212.99999999998
 21
-674.0000000000008
 31
0.0
1001
ACDBBLOCKREPETAG
1070
     1
1071
      118
1005
139903
  0
LINE
  5
139904
  8
OBJECT
 10
10176.99999999998
 20
-556.0000000000008
 30
0.0
 11
10172.99999999998
 21
-560.5000000000008
 31
0.0
1001
ACDBBLOCKREPETAG
1070
     1
1071
      119
1005
139904
  0
LINE
  5
139905
  8
OBJECT
 10
10159.99999999998
 20
-560.5000000000008
 30
0.0
 11
10159.99999999998
 21
-645.74491827928784
 31
0.0
1001
ACDBBLOCKREPETAG
1070
     1
1071
      120
1005
139905
  0
ARC
  5
139906
  8
OBJECT
 10
10091.99999999998
 20
-637.27386365609345
 30
0.0
 40
85.0
 50
308.59099323720869
 51
334.4008612781347
1001
ACDBBLOCKREPETAG
1070
     1
1071
      121
1005
139906
  0
ARC
  5
139907
  8
OBJECT
 10
10162.799999999979
 20
-655.00000000000068
 30
0.0
 40
85.0
 50
91.887731891831123
 51
160.07406787456929
1001
ACDBBLOCKREPETAG
1070
     1
1071
      122
1005
139907
  0
LINE
  5
139908
  8
OBJECT
 10
10085.99999999998
 20
-750.81075719270905
 30
0.0
 11
10145.0193225436
 21
-703.71143914629454
 31
0.0
1001
ACDBBLOCKREPETAG
1070
     1
1071
      123
1005
139908
  0
LINE
  5
139909
  8
OBJECT
 10
10172.99999999998
 20
-645.74491827928705
 30
0.0
 11
10159.99999999998
 21
-645.74491827928784
 31
0.0
1001
ACDBBLOCKREPETAG
1070
     1
1071
      124
1005
139909
  0
LINE
  5
13990A
  8
OBJECT
 10
10176.99999999998
 20
-653.15756805667843
 30
0.0
 11
10172.99999999998
 21
-645.74491827928705
 31
0.0
1001
ACDBBLOCKREPETAG
1070
     1
1071
      125
1005
13990A
  0
LINE
  5
13990B
  8
OBJECT
 10
10080.00000000002
 20
-634.0
 30
0.0
 11
10082.888612159621
 21
-626.03156729425325
 31
0.0
1001
ACDBBLOCKREPETAG
1070
     1
1071
      126
1005
13990B
  0
LINE
  5
13990C
  8
OBJECT
 10
10080.00000000002
 20
-634.0
 30
0.0
 11
10085.99999999998
 21
-653.3502637757274
 31
0.0
1001
ACDBBLOCKREPETAG
1070
     1
1071
      127
1005
13990C
  0
LINE
  5
13990D
  8
HIDDEN
 10
10167.99999999998
 20
-570.5000000000008
 30
0.0
 11
10167.99999999998
 21
-659.50000000000068
 31
0.0
1001
ACDBBLOCKREPETAG
1070
     1
1071
      129
1005
13990D
  0
LINE
  5
13990E
  8
OBJECT
 10
10212.99999999998
 20
-137.99999999999909
 30
0.0
 11
10219.99999999998
 21
-137.99999999999909
 31
0.0
1001
ACDBBLOCKREPETAG
1070
     1
1071
      110
1005
13990E
  0
LINE
  5
13990F
  8
OBJECT
 10
10219.99999999998
 20
-137.99999999999909
 30
0.0
 11
10219.99999999998
 21
-261.99999999999909
 31
0.0
1001
ACDBBLOCKREPETAG
1070
     1
1071
      111
1005
13990F
  0
LINE
  5
139910
  8
OBJECT
 10
10219.99999999998
 20
-261.99999999999909
 30
0.0
 11
10212.99999999998
 21
-261.99999999999909
 31
0.0
1001
ACDBBLOCKREPETAG
1070
     1
1071
      112
1005
139910
  0
LINE
  5
139911
  8
OBJECT
 10
10212.99999999998
 20
-261.99999999999909
 30
0.0
 11
10212.99999999998
 21
-137.99999999999909
 31
0.0
1001
ACDBBLOCKREPETAG
1070
     1
1071
      113
1005
139911
  0
LINE
  5
139912
  8
CENTER
 10
10234.99999999998
 20
-199.99999999999909
 30
0.0
 11
10080.0
 21
-199.99999999999909
 31
0.0
1001
ACDBBLOCKREPETAG
1070
     1
1071
      114
1005
139912
  0
LINE
  5
139913
  8
OBJECT
 10
10159.999974964179
 20
-245.0000000000027
 30
0.0
 11
10086.0
 21
-244.99999999999909
 31
0.0
1001
ACDBBLOCKREPETAG
1070
     1
1071
      115
1005
139913
  0
LINE
  5
139914
  8
OBJECT
 10
10159.999974964179
 20
-154.99999999999909
 30
0.0
 11
10086.0
 21
-154.99999999999909
 31
0.0
1001
ACDBBLOCKREPETAG
1070
     1
1071
      116
1005
139914
  0
LINE
  5
139915
  8
OBJECT
 10
10212.99999999998
 20
-140.99999999999909
 30
0.0
 11
10176.99999999998
 21
-140.99999999999909
 31
0.0
1001
ACDBBLOCKREPETAG
1070
     1
1071
      117
1005
139915
  0
LINE
  5
139916
  8
OBJECT
 10
10176.99999999998
 20
-140.99999999999909
 30
0.0
 11
10176.99999999998
 21
-258.99999999999909
 31
0.0
1001
ACDBBLOCKREPETAG
1070
     1
1071
      118
1005
139916
  0
LINE
  5
139917
  8
OBJECT
 10
10176.99999999998
 20
-258.99999999999909
 30
0.0
 11
10212.99999999998
 21
-258.99999999999909
 31
0.0
1001
ACDBBLOCKREPETAG
1070
     1
1071
      119
1005
139917
  0
LINE
  5
139918
  8
OBJECT
 10
10172.99999999998
 20
-145.49999999999909
 30
0.0
 11
10159.99999999998
 21
-145.49999999999909
 31
0.0
1001
ACDBBLOCKREPETAG
1070
     1
1071
      120
1005
139918
  0
LINE
  5
139919
  8
OBJECT
 10
10159.99999999998
 20
-254.49999999999909
 30
0.0
 11
10172.99999999998
 21
-254.49999999999909
 31
0.0
1001
ACDBBLOCKREPETAG
1070
     1
1071
      121
1005
139919
  0
LINE
  5
13991A
  8
OBJECT
 10
10172.99999999998
 20
-254.49999999999909
 30
0.0
 11
10172.99999999998
 21
-145.49999999999909
 31
0.0
1001
ACDBBLOCKREPETAG
1070
     1
1071
      122
1005
13991A
  0
LINE
  5
13991B
  8
OBJECT
 10
10176.99999999998
 20
-140.99999999999909
 30
0.0
 11
10172.99999999998
 21
-145.49999999999909
 31
0.0
1001
ACDBBLOCKREPETAG
1070
     1
1071
      123
1005
13991B
  0
LINE
  5
13991C
  8
OBJECT
 10
10176.99999999998
 20
-258.99999999999909
 30
0.0
 11
10172.99999999998
 21
-254.49999999999909
 31
0.0
1001
ACDBBLOCKREPETAG
1070
     1
1071
      124
1005
13991C
  0
LINE
  5
13991D
  8
OBJECT
 10
10083.0
 20
-137.99999999999909
 30
0.0
 11
10080.0
 21
-137.99999999999909
 31
0.0
1001
ACDBBLOCKREPETAG
1070
     1
1071
      125
1005
13991D
  0
ARC
  5
13991E
  8
OBJECT
 10
10083.0
 20
-140.99999999999909
 30
0.0
 40
3.0
 50
0.0
 51
90.0
1001
ACDBBLOCKREPETAG
1070
     1
1071
      126
1005
13991E
  0
LINE
  5
13991F
  8
OBJECT
 10
10080.0
 20
-261.99999999999909
 30
0.0
 11
10083.0
 21
-261.99999999999909
 31
0.0
1001
ACDBBLOCKREPETAG
1070
     1
1071
      127
1005
13991F
  0
ARC
  5
139920
  8
OBJECT
 10
10083.0
 20
-258.99999999999909
 30
0.0
 40
3.0
 50
270.0
 51
0.0
1001
ACDBBLOCKREPETAG
1070
     1
1071
      128
1005
139920
  0
LINE
  5
139921
  8
OBJECT
 10
10086.0
 20
-258.99999999999909
 30
0.0
 11
10086.0
 21
-222.44994432063581
 31
0.0
1001
ACDBBLOCKREPETAG
1070
     1
1071
      129
1005
139921
  0
LINE
  5
139922
  8
OBJECT
 10
10086.0
 20
-177.55005567935859
 30
0.0
 11
10086.0
 21
-140.99999999999909
 31
0.0
1001
ACDBBLOCKREPETAG
1070
     1
1071
      130
1005
139922
  0
LINE
  5
139923
  8
HIDDEN
 10
10167.99999999998
 20
-155.49999999999909
 30
0.0
 11
10167.99999999998
 21
-244.49999999999909
 31
0.0
1001
ACDBBLOCKREPETAG
1070
     1
1071
      131
1005
139923
  0
LINE
  5
139924
  8
OBJECT
 10
10159.999974964179
 20
-254.4999509238105
 30
0.0
 11
10159.999974964179
 21
-145.4999509238105
 31
0.0
1001
ACDBBLOCKREPETAG
1070
     1
1071
      133
1005
139924
  0
ARC
  5
139925
  8
OBJECT
 10
10125.0
 20
-199.99999999999909
 30
0.0
 40
45.000000000000547
 50
90.0
 51
166.2158024759261
1001
ACDBBLOCKREPETAG
1070
     1
1071
      134
1005
139925
  0
ARC
  5
139926
  8
OBJECT
 10
10125.0
 20
-199.99999999999909
 30
0.0
 40
45.000000000000547
 50
193.78421279332531
 51
270.0
1001
ACDBBLOCKREPETAG
1070
     1
1071
      402
1005
139926
  0
LINE
  5
139927
  8
OBJECT
 10
7787.0000000000164
 20
-553.0
 30
0.0
 11
7780.0000000000136
 21
-553.0
 31
0.0
1001
ACDBBLOCKREPETAG
1070
     1
1071
      106
1005
139927
  0
LINE
  5
139928
  8
OBJECT
 10
7780.0000000000136
 20
-553.0
 30
0.0
 11
7780.0000000000136
 21
-677.0
 31
0.0
1001
ACDBBLOCKREPETAG
1070
     1
1071
      107
1005
139928
  0
LINE
  5
139929
  8
OBJECT
 10
7914.0000000000136
 20
-653.3502637757274
 30
0.0
 11
7914.0000000000136
 21
-755.00000000000102
 31
0.0
1001
ACDBBLOCKREPETAG
1070
     1
1071
      108
1005
139929
  0
LINE
  5
13992A
  8
OBJECT
 10
7780.0000000000136
 20
-677.0
 30
0.0
 11
7787.0000000000164
 21
-677.0
 31
0.0
1001
ACDBBLOCKREPETAG
1070
     1
1071
      109
1005
13992A
  0
LINE
  5
13992B
  8
OBJECT
 10
7787.0000000000164
 20
-677.0
 30
0.0
 11
7787.0000000000164
 21
-553.0
 31
0.0
1001
ACDBBLOCKREPETAG
1070
     1
1071
      110
1005
13992B
  0
LINE
  5
13992C
  8
CENTER
 10
7855.0000000000136
 20
-615.0000000000008
 30
0.0
 11
7765.0000000000164
 21
-615.0
 31
0.0
1001
ACDBBLOCKREPETAG
1070
     1
1071
      111
1005
13992C
  0
LINE
  5
13992D
  8
OBJECT
 10
7920.0000000000191
 20
-758.0
 30
0.0
 11
7917.0000000000136
 21
-758.0000000000008
 31
0.0
1001
ACDBBLOCKREPETAG
1070
     1
1071
      112
1005
13992D
  0
ARC
  5
13992E
  8
OBJECT
 10
7917.0000000000136
 20
-755.00000000000102
 30
0.0
 40
3.0
 50
180.0
 51
270.0
1001
ACDBBLOCKREPETAG
1070
     1
1071
      113
1005
13992E
  0
LINE
  5
13992F
  8
OBJECT
 10
7787.0000000000164
 20
-556.0
 30
0.0
 11
7823.0000000000164
 21
-556.0000000000008
 31
0.0
1001
ACDBBLOCKREPETAG
1070
     1
1071
      114
1005
13992F
  0
LINE
  5
139930
  8
OBJECT
 10
7823.0000000000164
 20
-556.0000000000008
 30
0.0
 11
7823.0000000000164
 21
-653.15756805667843
 31
0.0
1001
ACDBBLOCKREPETAG
1070
     1
1071
      115
1005
139930
  0
LINE
  5
139931
  8
OBJECT
 10
7827.0000000000136
 20
-560.5000000000008
 30
0.0
 11
7827.0000000000191
 21
-645.74491827928705
 31
0.0
1001
ACDBBLOCKREPETAG
1070
     1
1071
      116
1005
139931
  0
LINE
  5
139932
  8
OBJECT
 10
7827.0000000000136
 20
-560.5000000000008
 30
0.0
 11
7840.0000000000164
 21
-560.5000000000008
 31
0.0
1001
ACDBBLOCKREPETAG
1070
     1
1071
      117
1005
139932
  0
LINE
  5
139933
  8
OBJECT
 10
7831.3436831745303
 20
-674.0000000000008
 30
0.0
 11
7787.0000000000164
 21
-674.0
 31
0.0
1001
ACDBBLOCKREPETAG
1070
     1
1071
      118
1005
139933
  0
LINE
  5
139934
  8
OBJECT
 10
7823.0000000000164
 20
-556.0000000000008
 30
0.0
 11
7827.0000000000136
 21
-560.5000000000008
 31
0.0
1001
ACDBBLOCKREPETAG
1070
     1
1071
      119
1005
139934
  0
LINE
  5
139935
  8
OBJECT
 10
7840.0000000000164
 20
-560.5000000000008
 30
0.0
 11
7840.0000000000164
 21
-645.74491827928784
 31
0.0
1001
ACDBBLOCKREPETAG
1070
     1
1071
      120
1005
139935
  0
ARC
  5
139936
  8
OBJECT
 10
7908.0000000000136
 20
-637.27386365609345
 30
0.0
 40
85.0
 50
205.5991387218879
 51
231.40900676279119
1001
ACDBBLOCKREPETAG
1070
     1
1071
      121
1005
139936
  0
ARC
  5
139937
  8
OBJECT
 10
7837.200000000018
 20
-655.00000000000068
 30
0.0
 40
85.0
 50
19.925932125430649
 51
88.112268108168848
1001
ACDBBLOCKREPETAG
1070
     1
1071
      122
1005
139937
  0
LINE
  5
139938
  8
OBJECT
 10
7914.0000000000136
 20
-750.81075719270905
 30
0.0
 11
7854.9806774563967
 21
-703.71143914629454
 31
0.0
1001
ACDBBLOCKREPETAG
1070
     1
1071
      123
1005
139938
  0
LINE
  5
139939
  8
OBJECT
 10
7827.0000000000191
 20
-645.74491827928705
 30
0.0
 11
7840.0000000000164
 21
-645.74491827928784
 31
0.0
1001
ACDBBLOCKREPETAG
1070
     1
1071
      124
1005
139939
  0
LINE
  5
13993A
  8
OBJECT
 10
7823.0000000000164
 20
-653.15756805667843
 30
0.0
 11
7827.0000000000191
 21
-645.74491827928705
 31
0.0
1001
ACDBBLOCKREPETAG
1070
     1
1071
      125
1005
13993A
  0
LINE
  5
13993B
  8
OBJECT
 10
7919.9999999999818
 20
-634.0
 30
0.0
 11
7917.1113878403776
 21
-626.03156729425325
 31
0.0
1001
ACDBBLOCKREPETAG
1070
     1
1071
      126
1005
13993B
  0
LINE
  5
13993C
  8
OBJECT
 10
7919.9999999999818
 20
-634.0
 30
0.0
 11
7914.0000000000136
 21
-653.3502637757274
 31
0.0
1001
ACDBBLOCKREPETAG
1070
     1
1071
      127
1005
13993C
  0
LINE
  5
13993D
  8
HIDDEN
 10
7832.0000000000136
 20
-570.5000000000008
 30
0.0
 11
7832.0000000000136
 21
-659.50000000000068
 31
0.0
1001
ACDBBLOCKREPETAG
1070
     1
1071
      129
1005
13993D
  0
CIRCLE
  5
13993E
  8
OBJECT
 10
8000.0000000000027
 20
-696.0
 30
0.0
 40
62.0
1001
ACDBBLOCKREPETAG
1070
     1
1071
        0
1005
13993E
  0
LINE
  5
13993F
  8
OBJECT
 10
7787.0000000000191
 20
-137.99999999999909
 30
0.0
 11
7780.0000000000191
 21
-137.99999999999909
 31
0.0
1001
ACDBBLOCKREPETAG
1070
     1
1071
      110
1005
13993F
  0
LINE
  5
139940
  8
OBJECT
 10
7780.0000000000191
 20
-137.99999999999909
 30
0.0
 11
7780.0000000000191
 21
-261.99999999999909
 31
0.0
1001
ACDBBLOCKREPETAG
1070
     1
1071
      111
1005
139940
  0
LINE
  5
139941
  8
OBJECT
 10
7780.0000000000191
 20
-261.99999999999909
 30
0.0
 11
7787.0000000000191
 21
-261.99999999999909
 31
0.0
1001
ACDBBLOCKREPETAG
1070
     1
1071
      112
1005
139941
  0
LINE
  5
139942
  8
OBJECT
 10
7787.0000000000191
 20
-261.99999999999909
 30
0.0
 11
7787.0000000000191
 21
-137.99999999999909
 31
0.0
1001
ACDBBLOCKREPETAG
1070
     1
1071
      113
1005
139942
  0
LINE
  5
139943
  8
CENTER
 10
7765.0000000000191
 20
-199.99999999999909
 30
0.0
 11
7920.0000000000027
 21
-199.99999999999909
 31
0.0
1001
ACDBBLOCKREPETAG
1070
     1
1071
      114
1005
139943
  0
LINE
  5
139944
  8
OBJECT
 10
7840.0000250358171
 20
-245.0000000000027
 30
0.0
 11
7914.0000000000027
 21
-244.99999999999909
 31
0.0
1001
ACDBBLOCKREPETAG
1070
     1
1071
      115
1005
139944
  0
LINE
  5
139945
  8
OBJECT
 10
7840.0000250358171
 20
-154.99999999999909
 30
0.0
 11
7914.0000000000027
 21
-154.99999999999909
 31
0.0
1001
ACDBBLOCKREPETAG
1070
     1
1071
      116
1005
139945
  0
LINE
  5
139946
  8
OBJECT
 10
7787.0000000000191
 20
-140.99999999999909
 30
0.0
 11
7823.0000000000191
 21
-140.99999999999909
 31
0.0
1001
ACDBBLOCKREPETAG
1070
     1
1071
      117
1005
139946
  0
LINE
  5
139947
  8
OBJECT
 10
7823.0000000000191
 20
-140.99999999999909
 30
0.0
 11
7823.0000000000191
 21
-258.99999999999909
 31
0.0
1001
ACDBBLOCKREPETAG
1070
     1
1071
      118
1005
139947
  0
LINE
  5
139948
  8
OBJECT
 10
7823.0000000000191
 20
-258.99999999999909
 30
0.0
 11
7787.0000000000191
 21
-258.99999999999909
 31
0.0
1001
ACDBBLOCKREPETAG
1070
     1
1071
      119
1005
139948
  0
LINE
  5
139949
  8
OBJECT
 10
7827.0000000000191
 20
-145.49999999999909
 30
0.0
 11
7840.0000000000191
 21
-145.49999999999909
 31
0.0
1001
ACDBBLOCKREPETAG
1070
     1
1071
      120
1005
139949
  0
LINE
  5
13994A
  8
OBJECT
 10
7840.0000000000191
 20
-254.49999999999909
 30
0.0
 11
7827.0000000000191
 21
-254.49999999999909
 31
0.0
1001
ACDBBLOCKREPETAG
1070
     1
1071
      121
1005
13994A
  0
LINE
  5
13994B
  8
OBJECT
 10
7827.0000000000191
 20
-254.49999999999909
 30
0.0
 11
7827.0000000000191
 21
-145.49999999999909
 31
0.0
1001
ACDBBLOCKREPETAG
1070
     1
1071
      122
1005
13994B
  0
LINE
  5
13994C
  8
OBJECT
 10
7823.0000000000191
 20
-140.99999999999909
 30
0.0
 11
7827.0000000000191
 21
-145.49999999999909
 31
0.0
1001
ACDBBLOCKREPETAG
1070
     1
1071
      123
1005
13994C
  0
LINE
  5
13994D
  8
OBJECT
 10
7823.0000000000191
 20
-258.99999999999909
 30
0.0
 11
7827.0000000000191
 21
-254.49999999999909
 31
0.0
1001
ACDBBLOCKREPETAG
1070
     1
1071
      124
1005
13994D
  0
LINE
  5
13994E
  8
OBJECT
 10
7917.0000000000027
 20
-137.99999999999909
 30
0.0
 11
7920.0000000000027
 21
-137.99999999999909
 31
0.0
1001
ACDBBLOCKREPETAG
1070
     1
1071
      125
1005
13994E
  0
ARC
  5
13994F
  8
OBJECT
 10
7917.0000000000027
 20
-140.99999999999909
 30
0.0
 40
3.0
 50
90.0
 51
180.0
1001
ACDBBLOCKREPETAG
1070
     1
1071
      126
1005
13994F
  0
LINE
  5
139950
  8
OBJECT
 10
7920.0000000000027
 20
-261.99999999999909
 30
0.0
 11
7917.0000000000027
 21
-261.99999999999909
 31
0.0
1001
ACDBBLOCKREPETAG
1070
     1
1071
      127
1005
139950
  0
ARC
  5
139951
  8
OBJECT
 10
7917.0000000000027
 20
-258.99999999999909
 30
0.0
 40
3.0
 50
180.0
 51
270.0
1001
ACDBBLOCKREPETAG
1070
     1
1071
      128
1005
139951
  0
LINE
  5
139952
  8
OBJECT
 10
7914.0000000000027
 20
-258.99999999999909
 30
0.0
 11
7914.0000000000027
 21
-222.44994432063581
 31
0.0
1001
ACDBBLOCKREPETAG
1070
     1
1071
      129
1005
139952
  0
LINE
  5
139953
  8
OBJECT
 10
7914.0000000000027
 20
-177.55005567935859
 30
0.0
 11
7914.0000000000027
 21
-140.99999999999909
 31
0.0
1001
ACDBBLOCKREPETAG
1070
     1
1071
      130
1005
139953
  0
LINE
  5
139954
  8
HIDDEN
 10
7832.0000000000191
 20
-155.49999999999909
 30
0.0
 11
7832.0000000000191
 21
-244.49999999999909
 31
0.0
1001
ACDBBLOCKREPETAG
1070
     1
1071
      131
1005
139954
  0
LINE
  5
139955
  8
OBJECT
 10
7840.0000250358171
 20
-254.4999509238105
 30
0.0
 11
7840.0000250358171
 21
-145.4999509238105
 31
0.0
1001
ACDBBLOCKREPETAG
1070
     1
1071
      133
1005
139955
  0
ARC
  5
139956
  8
OBJECT
 10
7875.0000000000027
 20
-199.99999999999909
 30
0.0
 40
45.000000000000547
 50
270.0
 51
346.21579484130518
1001
ACDBBLOCKREPETAG
1070
     1
1071
      134
1005
139956
  0
ARC
  5
139957
  8
OBJECT
 10
7875.0000000000027
 20
-199.99999999999909
 30
0.0
 40
45.000000000000547
 50
13.78420515869484
 51
90.0
1001
ACDBBLOCKREPETAG
1070
     1
1071
      402
1005
139957
  0
LINE
  5
139958
  8
CENTER
 10
8000.0000000000027
 20
-300.99999999999898
 30
0.0
 11
8000.0000000000027
 21
-279.99999999999909
 31
0.0
1001
ACDBBLOCKREPETAG
1070
     1
1071
        0
1005
139958
  0
LINE
  5
139959
  8
OBJECT
 10
8062.0000000000018
 20
-283.0
 30
0.0
 11
8062.0000000000018
 21
-279.99999999999909
 31
0.0
1001
ACDBBLOCKREPETAG
1070
     1
1071
        1
1005
139959
  0
ARC
  5
13995A
  8
OBJECT
 10
8059.0000000000018
 20
-283.0
 30
0.0
 40
3.0
 50
270.0
 51
0.0
1001
ACDBBLOCKREPETAG
1070
     1
1071
        2
1005
13995A
  0
LINE
  5
13995B
  8
OBJECT
 10
7938.0000000000018
 20
-279.99999999999909
 30
0.0
 11
7938.0000000000018
 21
-282.99999999999818
 31
0.0
1001
ACDBBLOCKREPETAG
1070
     1
1071
        3
1005
13995B
  0
ARC
  5
13995C
  8
OBJECT
 10
7941.0000000000018
 20
-282.99999999999818
 30
0.0
 40
3.0
 50
180.0
 51
270.0
1001
ACDBBLOCKREPETAG
1070
     1
1071
        4
1005
13995C
  0
LINE
  5
13995D
  8
OBJECT
 10
7941.0000000000018
 20
-285.99999999999818
 30
0.0
 11
8059.0000000000018
 21
-286.0
 31
0.0
1001
ACDBBLOCKREPETAG
1070
     1
1071
        5
1005
13995D
  0
LINE
  5
13995E
  8
HIDDEN
 10
7943.0000000000036
 20
-619.99999999999955
 30
0.0
 11
8057.0
 21
-619.99999999999955
 31
0.0
1001
ACDBBLOCKREPETAG
1070
     1
1071
       57
1005
13995E
  0
LINE
  5
13995F
  8
CENTER
 10
8000.0000000000027
 20
-534.99999999999955
 30
0.0
 11
8000.0000000000027
 21
-899.99999999999955
 31
0.0
1001
ACDBBLOCKREPETAG
1070
     1
1071
       58
1005
13995F
  0
LINE
  5
139960
  8
OBJECT
 10
7928.0000000000027
 20
-570.99999999999955
 30
0.0
 11
7928.0000000000027
 21
-633.99999999999955
 31
0.0
1001
ACDBBLOCKREPETAG
1070
     1
1071
       59
1005
139960
  0
LINE
  5
139961
  8
OBJECT
 10
8072.0
 20
-633.99999999999955
 30
0.0
 11
8072.0
 21
-570.99999999999955
 31
0.0
1001
ACDBBLOCKREPETAG
1070
     1
1071
       60
1005
139961
  0
LINE
  5
139962
  8
OBJECT
 10
7920.0000000000027
 20
-887.99999999999955
 30
0.0
 11
8080.0000000000027
 21
-887.99999999999955
 31
0.0
1001
ACDBBLOCKREPETAG
1070
     1
1071
       61
1005
139962
  0
LINE
  5
139963
  8
OBJECT
 10
8080.0000000000027
 20
-633.99999999999955
 30
0.0
 11
7920.0000000000027
 21
-633.99999999999955
 31
0.0
1001
ACDBBLOCKREPETAG
1070
     1
1071
       62
1005
139963
  0
LINE
  5
139964
  8
OBJECT
 10
7920.0000000000027
 20
-887.99999999999955
 30
0.0
 11
7920.0000000000027
 21
-899.99999999999955
 31
0.0
1001
ACDBBLOCKREPETAG
1070
     1
1071
       63
1005
139964
  0
LINE
  5
139965
  8
OBJECT
 10
7920.0000000000027
 20
-899.99999999999955
 30
0.0
 11
8080.0000000000027
 21
-899.99999999999955
 31
0.0
1001
ACDBBLOCKREPETAG
1070
     1
1071
       64
1005
139965
  0
LINE
  5
139966
  8
OBJECT
 10
8080.0000000000027
 20
-899.99999999999955
 30
0.0
 11
8080.0000000000027
 21
-887.99999999999955
 31
0.0
1001
ACDBBLOCKREPETAG
1070
     1
1071
       65
1005
139966
  0
LINE
  5
139967
  8
OBJECT
 10
8074.9999999998618
 20
-757.99999999985016
 30
0.0
 11
8075.0000000000018
 21
-887.99999999999955
 31
0.0
1001
ACDBBLOCKREPETAG
1070
     1
1071
       69
1005
139967
  0
LINE
  5
139968
  8
OBJECT
 10
8074.9999908029858
 20
-757.99998602702112
 30
0.0
 11
8080.0000000000027
 21
-757.99998602702112
 31
0.0
1001
ACDBBLOCKREPETAG
1070
     1
1071
       70
1005
139968
  0
LINE
  5
139969
  8
OBJECT
 10
7925.0000000001392
 20
-757.99999999985016
 30
0.0
 11
7925.0000000000027
 21
-887.99999999999955
 31
0.0
1001
ACDBBLOCKREPETAG
1070
     1
1071
       71
1005
139969
  0
LINE
  5
13996A
  8
OBJECT
 10
7925.0000091970132
 20
-757.99998602702112
 30
0.0
 11
7920.0000000000027
 21
-757.99998602702112
 31
0.0
1001
ACDBBLOCKREPETAG
1070
     1
1071
       72
1005
13996A
  0
LINE
  5
13996B
  8
OBJECT
 10
7918.0000000000027
 20
-570.99999999999955
 30
0.0
 11
7918.0000000000027
 21
-549.99999999999955
 31
0.0
1001
ACDBBLOCKREPETAG
1070
     1
1071
       73
1005
13996B
  0
LINE
  5
13996C
  8
OBJECT
 10
7918.0000000000027
 20
-549.99999999999955
 30
0.0
 11
8082.0000000000064
 21
-549.99999999999955
 31
0.0
1001
ACDBBLOCKREPETAG
1070
     1
1071
       74
1005
13996C
  0
LINE
  5
13996D
  8
OBJECT
 10
8082.0000000000064
 20
-570.99999999999955
 30
0.0
 11
7918.0000000000027
 21
-570.99999999999955
 31
0.0
1001
ACDBBLOCKREPETAG
1070
     1
1071
       75
1005
13996D
  0
LINE
  5
13996E
  8
OBJECT
 10
7920.7940817120261
 20
-549.99999999999955
 30
0.0
 11
7920.7940817120261
 21
-570.99999999999955
 31
0.0
1001
ACDBBLOCKREPETAG
1070
     1
1071
       76
1005
13996E
  0
LINE
  5
13996F
  8
OBJECT
 10
7928.7378959999978
 20
-549.99999999999955
 30
0.0
 11
7928.7378959999978
 21
-570.99999999999955
 31
0.0
1001
ACDBBLOCKREPETAG
1070
     1
1071
       77
1005
13996F
  0
LINE
  5
139970
  8
OBJECT
 10
7970.8330260000021
 20
-549.99999999999955
 30
0.0
 11
7970.8330260000021
 21
-570.99999999999955
 31
0.0
1001
ACDBBLOCKREPETAG
1070
     1
1071
       78
1005
139970
  0
LINE
  5
139971
  8
OBJECT
 10
7978.7768389218018
 20
-549.99999999999955
 30
0.0
 11
7978.7768389218018
 21
-570.99999999999955
 31
0.0
1001
ACDBBLOCKREPETAG
1070
     1
1071
       79
1005
139971
  0
LINE
  5
139972
  8
OBJECT
 10
8082.0
 20
-570.99999999999955
 30
0.0
 11
8082.0
 21
-549.99999999999955
 31
0.0
1001
ACDBBLOCKREPETAG
1070
     1
1071
       80
1005
139972
  0
LINE
  5
139973
  8
OBJECT
 10
8079.205918287973
 20
-549.99999999999955
 30
0.0
 11
8079.205918287973
 21
-570.99999999999955
 31
0.0
1001
ACDBBLOCKREPETAG
1070
     1
1071
       81
1005
139973
  0
LINE
  5
139974
  8
OBJECT
 10
8071.262104000004
 20
-549.99999999999955
 30
0.0
 11
8071.262104000004
 21
-570.99999999999955
 31
0.0
1001
ACDBBLOCKREPETAG
1070
     1
1071
       82
1005
139974
  0
LINE
  5
139975
  8
OBJECT
 10
8029.1669739999998
 20
-549.99999999999955
 30
0.0
 11
8029.1669739999998
 21
-570.99999999999955
 31
0.0
1001
ACDBBLOCKREPETAG
1070
     1
1071
       83
1005
139975
  0
LINE
  5
139976
  8
OBJECT
 10
8021.2231610782019
 20
-549.99999999999955
 30
0.0
 11
8021.2231610782019
 21
-570.99999999999955
 31
0.0
1001
ACDBBLOCKREPETAG
1070
     1
1071
       84
1005
139976
  0
ARC
  5
139977
  8
OBJECT
 10
8200.6872746716726
 20
-749.40809941010718
 30
0.0
 40
170.6350503965856
 50
137.44134459184301
 51
149.91949581337221
1001
ACDBBLOCKREPETAG
1070
     1
1071
       85
1005
139977
  0
ARC
  5
139978
  8
OBJECT
 10
8200.6872746716726
 20
-642.59190058989179
 30
0.0
 40
170.6350503965856
 50
210.08050418662771
 51
222.55865540815699
1001
ACDBBLOCKREPETAG
1070
     1
1071
       86
1005
139978
  0
ARC
  5
139979
  8
OBJECT
 10
7799.312725328331
 20
-749.40809941010718
 30
0.0
 40
170.6350503965856
 50
30.080504186710289
 51
42.558655408382641
1001
ACDBBLOCKREPETAG
1070
     1
1071
       87
1005
139979
  0
ARC
  5
13997A
  8
OBJECT
 10
7799.312725328331
 20
-642.59190058989179
 30
0.0
 40
170.6350503965856
 50
317.44134459161722
 51
329.9194958132897
1001
ACDBBLOCKREPETAG
1070
     1
1071
       88
1005
13997A
  0
POINT
  5
13997B
  8
DOTS
 10
8000.0000000000027
 20
-754.99999999999955
 30
0.0
1001
ACDBBLOCKREPETAG
1070
     1
1071
      202
1005
13997B
  0
ARC
  5
13997C
  8
OBJECT
 10
8000.0000000000027
 20
-199.99999999999909
 30
0.0
 40
77.0
 50
292.25886900009442
 51
337.74113100019838
1001
ACDBBLOCKREPETAG
1070
     1
1071
      169
1005
13997C
  0
LINE
  5
13997D
  8
SLIM
 10
7945.2566704260989
 20
-137.99999999999909
 30
0.0
 11
7955.9548403695781
 21
-127.30183005652231
 31
0.0
1001
GRADIENTCOLOR1ACI
1070
     5
1001
GRADIENTCOLOR2ACI
1070
     2
1001
ACAD
1010
0.0
1020
0.0
1030
0.0
1001
ACDBBLOCKREPETAG
1070
     1
1071
      403
1005
13997D
  0
LINE
  5
13997E
  8
SLIM
 10
7954.2369265471707
 20
-137.99999999999909
 30
0.0
 11
7972.7507744763334
 21
-119.4861520708364
 31
0.0
1001
GRADIENTCOLOR1ACI
1070
     5
1001
GRADIENTCOLOR2ACI
1070
     2
1001
ACAD
1010
0.0
1020
0.0
1030
0.0
1001
ACDBBLOCKREPETAG
1070
     1
1071
      404
1005
13997E
  0
LINE
  5
13997F
  8
SLIM
 10
7980.9810912312323
 20
-120.2360914370078
 30
0.0
 11
7984.8575146748608
 21
-116.359667993377
 31
0.0
1001
GRADIENTCOLOR1ACI
1070
     5
1001
GRADIENTCOLOR2ACI
1070
     2
1001
ACAD
1010
0.0
1020
0.0
1030
0.0
1001
ACDBBLOCKREPETAG
1070
     1
1071
      405
1005
13997F
  0
LINE
  5
139980
  8
SLIM
 10
7991.7848884505811
 20
-118.412550338727
 30
0.0
 11
7995.0533812002559
 21
-115.1440575890517
 31
0.0
1001
GRADIENTCOLOR1ACI
1070
     5
1001
GRADIENTCOLOR2ACI
1070
     2
1001
ACAD
1010
0.0
1020
0.0
1030
0.0
1001
ACDBBLOCKREPETAG
1070
     1
1071
      406
1005
139980
  0
LINE
  5
139981
  8
SLIM
 10
8001.1693567113307
 20
-118.0083381990472
 30
0.0
 11
8004.0797313529074
 21
-115.0979635574724
 31
0.0
1001
GRADIENTCOLOR1ACI
1070
     5
1001
GRADIENTCOLOR2ACI
1070
     2
1001
ACAD
1010
0.0
1020
0.0
1030
0.0
1001
ACDBBLOCKREPETAG
1070
     1
1071
      407
1005
139981
  0
LINE
  5
139982
  8
SLIM
 10
8009.5946870887637
 20
-118.5632639426843
 30
0.0
 11
8012.2679784105749
 21
-115.88997262087101
 31
0.0
1001
GRADIENTCOLOR1ACI
1070
     5
1001
GRADIENTCOLOR2ACI
1070
     2
1001
ACAD
1010
0.0
1020
0.0
1030
0.0
1001
ACDBBLOCKREPETAG
1070
     1
1071
      408
1005
139982
  0
LINE
  5
139983
  8
SLIM
 10
8017.2938277930252
 20
-119.84437935949001
 30
0.0
 11
8019.7999414573624
 21
-117.3382656951527
 31
0.0
1001
GRADIENTCOLOR1ACI
1070
     5
1001
GRADIENTCOLOR2ACI
1070
     2
1001
ACAD
1010
0.0
1020
0.0
1030
0.0
1001
ACDBBLOCKREPETAG
1070
     1
1071
      409
1005
139983
  0
LINE
  5
139984
  8
SLIM
 10
8023.2737716367947
 20
-122.8446916367926
 30
0.0
 11
8026.7872038672804
 21
-119.3312594063044
 31
0.0
1001
GRADIENTCOLOR1ACI
1070
     5
1001
GRADIENTCOLOR2ACI
1070
     2
1001
ACAD
1010
0.0
1020
0.0
1030
0.0
1001
ACDBBLOCKREPETAG
1070
     1
1071
      410
1005
139984
  0
LINE
  5
139985
  8
SLIM
 10
8027.7638996973228
 20
-127.33481969732929
 30
0.0
 11
8033.3030030760328
 21
-121.7957163186195
 31
0.0
1001
GRADIENTCOLOR1ACI
1070
     5
1001
GRADIENTCOLOR2ACI
1070
     2
1001
ACAD
1010
0.0
1020
0.0
1030
0.0
1001
ACDBBLOCKREPETAG
1070
     1
1071
      411
1005
139985
  0
LINE
  5
139986
  8
SLIM
 10
8033.4390986513308
 20
-130.63987686439191
 30
0.0
 11
8039.3973119843777
 21
-124.681663531344
 31
0.0
1001
GRADIENTCOLOR1ACI
1070
     5
1001
GRADIENTCOLOR2ACI
1070
     2
1001
ACAD
1010
0.0
1020
0.0
1030
0.0
1001
ACDBBLOCKREPETAG
1070
     1
1071
      412
1005
139986
  0
LINE
  5
139987
  8
SLIM
 10
8039.2842246217979
 20
-133.77500701499321
 30
0.0
 11
8045.1047705343717
 21
-127.95446110242381
 31
0.0
1001
GRADIENTCOLOR1ACI
1070
     5
1001
GRADIENTCOLOR2ACI
1070
     2
1001
ACAD
1010
0.0
1020
0.0
1030
0.0
1001
ACDBBLOCKREPETAG
1070
     1
1071
      413
1005
139987
  0
LINE
  5
139988
  8
SLIM
 10
8044.7212801698061
 20
-137.31820758805651
 30
0.0
 11
8050.449155789197
 21
-131.59033196866449
 31
0.0
1001
GRADIENTCOLOR1ACI
1070
     5
1001
GRADIENTCOLOR2ACI
1070
     2
1001
ACAD
1010
0.0
1020
0.0
1030
0.0
1001
ACDBBLOCKREPETAG
1070
     1
1071
      414
1005
139988
  0
LINE
  5
139989
  8
SLIM
 10
8053.0197438789319
 20
-137.99999999999909
 30
0.0
 11
8055.4459941864034
 21
-135.57374969252561
 31
0.0
1001
GRADIENTCOLOR1ACI
1070
     5
1001
GRADIENTCOLOR2ACI
1070
     2
1001
ACAD
1010
0.0
1020
0.0
1030
0.0
1001
ACDBBLOCKREPETAG
1070
     1
1071
      415
1005
139989
  0
ARC
  5
13998A
  8
OBJECT
 10
8000.0000000000027
 20
-199.99999999999909
 30
0.0
 40
77.0
 50
112.25886900009441
 51
157.74113100019829
1001
ACDBBLOCKREPETAG
1070
     1
1071
      170
1005
13998A
  0
ARC
  5
13998B
  8
OBJECT
 10
8000.0000000000027
 20
-199.99999999999909
 30
0.0
 40
77.0
 50
22.258868999801621
 51
67.741130999905565
1001
ACDBBLOCKREPETAG
1070
     1
1071
      172
1005
13998B
  0
CIRCLE
  5
13998C
  8
OBJECT
 10
8000.0000000000027
 20
-199.99999999999909
 30
0.0
 40
70.0
1001
ACDBBLOCKREPETAG
1070
     1
1071
      173
1005
13998C
  0
LINE
  5
13998D
  8
OBJECT
 10
8029.1669749999928
 20
-271.26210499999888
 30
0.0
 11
8021.2231624441074
 21
-279.20591755589248
 31
0.0
1001
ACDBBLOCKREPETAG
1070
     1
1071
      174
1005
13998D
  0
LINE
  5
13998E
  8
OBJECT
 10
7970.8330260000021
 20
-271.26210499999888
 30
0.0
 11
7978.7768389219218
 21
-279.20591792191681
 31
0.0
1001
ACDBBLOCKREPETAG
1070
     1
1071
      175
1005
13998E
  0
ARC
  5
13998F
  8
OBJECT
 10
8000.0000000000027
 20
-199.99999999999909
 30
0.0
 40
82.000000000000014
 50
255.00000044864069
 51
285.00000053969438
1001
ACDBBLOCKREPETAG
1070
     1
1071
      176
1005
13998F
  0
LINE
  5
139990
  8
OBJECT
 10
7928.7378959999978
 20
-229.1669739999989
 30
0.0
 11
7920.7940817120561
 21
-221.2231597120545
 31
0.0
1001
ACDBBLOCKREPETAG
1070
     1
1071
      177
1005
139990
  0
ARC
  5
139991
  8
OBJECT
 10
8000.0000000000027
 20
-199.99999999999909
 30
0.0
 40
82.000000000000014
 50
165.00000044876251
 51
194.99999856301361
1001
ACDBBLOCKREPETAG
1070
     1
1071
      178
1005
139991
  0
LINE
  5
139992
  8
OBJECT
 10
7970.8330260000021
 20
-128.7378949999993
 30
0.0
 11
7978.7768389219218
 21
-120.7940820780795
 31
0.0
1001
ACDBBLOCKREPETAG
1070
     1
1071
      179
1005
139992
  0
ARC
  5
139993
  8
OBJECT
 10
8000.0000000000027
 20
-199.99999999999909
 30
0.0
 40
82.000000000000014
 50
74.999999460305631
 51
104.99999955135929
1001
ACDBBLOCKREPETAG
1070
     1
1071
      180
1005
139993
  0
LINE
  5
139994
  8
OBJECT
 10
8029.1669749999928
 20
-128.7378949999993
 30
0.0
 11
8021.2231624441074
 21
-120.79408244410391
 31
0.0
1001
ACDBBLOCKREPETAG
1070
     1
1071
      181
1005
139994
  0
LINE
  5
139995
  8
OBJECT
 10
7962.4020590000027
 20
-161.93893300000039
 30
0.0
 11
8037.0841102714267
 21
-174.5180316957439
 31
0.0
1001
ACDBBLOCKREPETAG
1070
     1
1071
      182
1005
139995
  0
LINE
  5
139996
  8
OBJECT
 10
8044.0936569999967
 20
-169.70149399999991
 30
0.0
 11
8037.0841102714267
 21
-174.5180316957439
 31
0.0
1001
ACDBBLOCKREPETAG
1070
     1
1071
      183
1005
139996
  0
LINE
  5
139997
  8
OBJECT
 10
7928.7378959999978
 20
-170.833024999999
 30
0.0
 11
7920.7940820780777
 21
-178.77683892191911
 31
0.0
1001
ACDBBLOCKREPETAG
1070
     1
1071
      184
1005
139997
  0
CIRCLE
  5
139998
  8
OBJECT
 10
8000.0000000000027
 20
-199.99999999999909
 30
0.0
 40
53.500000000000007
1001
ACDBBLOCKREPETAG
1070
     1
1071
      185
1005
139998
  0
ARC
  5
139999
  8
OBJECT
 10
8000.0000000000027
 20
-199.99999999999909
 30
0.0
 40
50.0
 50
131.70180964351781
 51
168.52376955952309
1001
ACDBBLOCKREPETAG
1070
     1
1071
      186
1005
139999
  0
ARC
  5
13999A
  8
OBJECT
 10
8000.0000000000027
 20
-199.99999999999909
 30
0.0
 40
50.0
 50
238.8199429999047
 51
34.49450625011707
1001
ACDBBLOCKREPETAG
1070
     1
1071
      187
1005
13999A
  0
LINE
  5
13999B
  8
OBJECT
 10
8071.2621049999952
 20
-170.833024999999
 30
0.0
 11
8079.2059175558898
 21
-178.77683755589439
 31
0.0
1001
ACDBBLOCKREPETAG
1070
     1
1071
      188
1005
13999B
  0
ARC
  5
13999C
  8
OBJECT
 10
8000.0000000000027
 20
-199.99999999999909
 30
0.0
 40
82.000000000000014
 50
345.00000044876259
 51
15.00000053935913
1001
ACDBBLOCKREPETAG
1070
     1
1071
      189
1005
13999C
  0
LINE
  5
13999D
  8
OBJECT
 10
8071.2621049999952
 20
-229.1669739999989
 30
0.0
 11
8079.2059179219232
 21
-221.2231610780791
 31
0.0
1001
ACDBBLOCKREPETAG
1070
     1
1071
      190
1005
13999D
  0
LINE
  5
13999E
  8
OBJECT
 10
8045.6618002273271
 20
-137.99999999999909
 30
0.0
 11
8080.0000000000027
 21
-137.99999999999909
 31
0.0
1001
ACDBBLOCKREPETAG
1070
     1
1071
      191
1005
13999E
  0
LINE
  5
13999F
  8
OBJECT
 10
8062.0000000000018
 20
-261.99999999999909
 30
0.0
 11
8080.0000000000027
 21
-261.99999999999909
 31
0.0
1001
ACDBBLOCKREPETAG
1070
     1
1071
      192
1005
13999F
  0
LINE
  5
1399A0
  8
OBJECT
 10
8062.0000000000018
 20
-261.99999999999909
 30
0.0
 11
8062.0000000000018
 21
-279.99999999999909
 31
0.0
1001
ACDBBLOCKREPETAG
1070
     1
1071
      194
1005
1399A0
  0
LINE
  5
1399A1
  8
OBJECT
 10
7938.0000000000018
 20
-261.99999999999909
 30
0.0
 11
7938.0000000000018
 21
-279.99999999999909
 31
0.0
1001
ACDBBLOCKREPETAG
1070
     1
1071
      195
1005
1399A1
  0
LINE
  5
1399A2
  8
OBJECT
 10
7938.0000000000018
 20
-261.99999999999909
 30
0.0
 11
7920.0000000000027
 21
-261.99999999999909
 31
0.0
1001
ACDBBLOCKREPETAG
1070
     1
1071
      197
1005
1399A2
  0
LINE
  5
1399A3
  8
OBJECT
 10
7954.3381997726774
 20
-137.99999999999909
 30
0.0
 11
7920.0000000000027
 21
-137.99999999999909
 31
0.0
1001
ACDBBLOCKREPETAG
1070
     1
1071
      198
1005
1399A3
  0
LINE
  5
1399A4
  8
CENTER
 10
8080.0000000000027
 20
-199.99999999999909
 30
0.0
 11
7920.0000000000027
 21
-199.99999999999909
 31
0.0
1001
ACDBBLOCKREPETAG
1070
     1
1071
      207
1005
1399A4
  0
LINE
  5
1399A5
  8
CENTER
 10
8000.0000000000027
 20
-279.99999999999909
 30
0.0
 11
8000.0000000000027
 21
-99.999999999999091
 31
0.0
1001
ACDBBLOCKREPETAG
1070
     1
1071
      208
1005
1399A5
  0
LINE
  5
1399A6
  8
OBJECT
 10
7945.5527778486367
 20
-254.44722215136329
 30
0.0
 11
7938.0000000000018
 21
-261.99999999999909
 31
0.0
1001
ACDBBLOCKREPETAG
1070
     1
1071
      209
1005
1399A6
  0
LINE
  5
1399A7
  8
OBJECT
 10
8054.4472221513652
 20
-254.44722215136329
 30
0.0
 11
8062.0000000000018
 21
-261.99999999999909
 31
0.0
1001
ACDBBLOCKREPETAG
1070
     1
1071
      210
1005
1399A7
  0
ARC
  5
1399A8
  8
OBJECT
 10
8000.0000000000027
 20
-199.99999999999909
 30
0.0
 40
85.0
 50
46.837102859806208
 51
133.16289714019371
1001
ACDBBLOCKREPETAG
1070
     1
1071
      211
1005
1399A8
  0
LINE
  5
1399A9
  8
OBJECT
 10
7946.692194143754
 20
-195.46638161316051
 30
0.0
 11
7970.4540343856352
 21
-193.79865146436981
 31
0.0
1001
ACDBBLOCKREPETAG
1070
     1
1071
      333
1005
1399A9
  0
LINE
  5
1399AA
  8
OBJECT
 10
7947.3854347270599
 20
-190.305593971766
 30
0.0
 11
7966.9884352629006
 21
-188.92975272660161
 31
0.0
1001
ACDBBLOCKREPETAG
1070
     1
1071
      334
1005
1399AA
  0
LINE
  5
1399AB
  8
OBJECT
 10
7974.1135374752794
 20
-242.77722592637201
 30
0.0
 11
7982.1366988374084
 21
-234.1690987954708
 31
0.0
1001
ACDBBLOCKREPETAG
1070
     1
1071
      335
1005
1399AB
  0
ARC
  5
1399AC
  8
OBJECT
 10
7982.1160071245422
 20
-183.28188966318251
 30
0.0
 40
60.031113246032611
 50
254.07020130412749
 51
262.33936106086588
1001
ACDBBLOCKREPETAG
1070
     1
1071
      336
1005
1399AC
  0
LINE
  5
1399AD
  8
OBJECT
 10
7977.6125997325144
 20
-197.67495277149911
 30
0.0
 11
7982.1366988374084
 21
-234.1690987954708
 31
0.0
1001
ACDBBLOCKREPETAG
1070
     1
1071
      337
1005
1399AD
  0
ARC
  5
1399AE
  8
OBJECT
 10
7967.6885653456429
 20
-198.90521351131881
 30
0.0
 40
10.0
 50
7.0667782929925851
 51
94.014734370532395
1001
ACDBBLOCKREPETAG
1070
     1
1071
      338
1005
1399AE
  0
ARC
  5
1399AF
  8
OBJECT
 10
7970.9441253709738
 20
-200.78147401875589
 30
0.0
 40
7.0
 50
7.0667782929925851
 51
94.014733775014648
1001
ACDBBLOCKREPETAG
1070
     1
1071
      339
1005
1399AF
  0
POINT
  5
1399B0
  8
DOTS
 10
8000.0000000000027
 20
-199.99999999999909
 30
0.0
 50
270.0
1001
ACDBBLOCKREPETAG
1070
     1
1071
      348
1005
1399B0
  0
ARC
  5
1399B1
  8
OBJECT
 10
8000.0000000000027
 20
-199.99999999999909
 30
0.0
 40
77.0
 50
202.25886899980159
 51
247.74113099990561
1001
ACDBBLOCKREPETAG
1070
     1
1071
      166
1005
1399B1
  0
LINE
  5
1399B2
  8
OBJECT
 10
8212.9999999999836
 20
-553.0000000000008
 30
0.0
 11
8219.9999999999873
 21
-553.0000000000008
 31
0.0
1001
ACDBBLOCKREPETAG
1070
     1
1071
      106
1005
1399B2
  0
LINE
  5
1399B3
  8
OBJECT
 10
8219.9999999999873
 20
-553.0000000000008
 30
0.0
 11
8219.9999999999873
 21
-677.0000000000008
 31
0.0
1001
ACDBBLOCKREPETAG
1070
     1
1071
      107
1005
1399B3
  0
LINE
  5
1399B4
  8
OBJECT
 10
8085.9999999999873
 20
-653.3502637757274
 30
0.0
 11
8085.9999999999873
 21
-755.00000000000102
 31
0.0
1001
ACDBBLOCKREPETAG
1070
     1
1071
      108
1005
1399B4
  0
LINE
  5
1399B5
  8
OBJECT
 10
8219.9999999999873
 20
-677.0000000000008
 30
0.0
 11
8212.9999999999836
 21
-677.0000000000008
 31
0.0
1001
ACDBBLOCKREPETAG
1070
     1
1071
      109
1005
1399B5
  0
LINE
  5
1399B6
  8
OBJECT
 10
8212.9999999999836
 20
-677.0000000000008
 30
0.0
 11
8212.9999999999836
 21
-553.0000000000008
 31
0.0
1001
ACDBBLOCKREPETAG
1070
     1
1071
      110
1005
1399B6
  0
LINE
  5
1399B7
  8
CENTER
 10
8144.9999999999873
 20
-615.0000000000008
 30
0.0
 11
8234.9999999999873
 21
-615.0000000000008
 31
0.0
1001
ACDBBLOCKREPETAG
1070
     1
1071
      111
1005
1399B7
  0
LINE
  5
1399B8
  8
OBJECT
 10
8079.9999999999818
 20
-758.0
 30
0.0
 11
8082.9999999999873
 21
-758.0000000000008
 31
0.0
1001
ACDBBLOCKREPETAG
1070
     1
1071
      112
1005
1399B8
  0
ARC
  5
1399B9
  8
OBJECT
 10
8082.9999999999873
 20
-755.00000000000102
 30
0.0
 40
3.0
 50
270.0
 51
0.0
1001
ACDBBLOCKREPETAG
1070
     1
1071
      113
1005
1399B9
  0
LINE
  5
1399BA
  8
OBJECT
 10
8212.9999999999836
 20
-556.0000000000008
 30
0.0
 11
8176.9999999999873
 21
-556.0000000000008
 31
0.0
1001
ACDBBLOCKREPETAG
1070
     1
1071
      114
1005
1399BA
  0
LINE
  5
1399BB
  8
OBJECT
 10
8176.9999999999873
 20
-556.0000000000008
 30
0.0
 11
8176.9999999999873
 21
-653.15756805667843
 31
0.0
1001
ACDBBLOCKREPETAG
1070
     1
1071
      115
1005
1399BB
  0
LINE
  5
1399BC
  8
OBJECT
 10
8172.9999999999854
 20
-560.5000000000008
 30
0.0
 11
8172.9999999999818
 21
-645.74491827928705
 31
0.0
1001
ACDBBLOCKREPETAG
1070
     1
1071
      116
1005
1399BC
  0
LINE
  5
1399BD
  8
OBJECT
 10
8172.9999999999854
 20
-560.5000000000008
 30
0.0
 11
8159.9999999999873
 21
-560.5000000000008
 31
0.0
1001
ACDBBLOCKREPETAG
1070
     1
1071
      117
1005
1399BD
  0
LINE
  5
1399BE
  8
OBJECT
 10
8168.6563168254688
 20
-674.0000000000008
 30
0.0
 11
8212.9999999999836
 21
-674.0000000000008
 31
0.0
1001
ACDBBLOCKREPETAG
1070
     1
1071
      118
1005
1399BE
  0
LINE
  5
1399BF
  8
OBJECT
 10
8176.9999999999873
 20
-556.0000000000008
 30
0.0
 11
8172.9999999999854
 21
-560.5000000000008
 31
0.0
1001
ACDBBLOCKREPETAG
1070
     1
1071
      119
1005
1399BF
  0
LINE
  5
1399C0
  8
OBJECT
 10
8159.9999999999873
 20
-560.5000000000008
 30
0.0
 11
8159.9999999999873
 21
-645.74491827928784
 31
0.0
1001
ACDBBLOCKREPETAG
1070
     1
1071
      120
1005
1399C0
  0
ARC
  5
1399C1
  8
OBJECT
 10
8091.9999999999864
 20
-637.27386365609345
 30
0.0
 40
85.0
 50
308.59099323720869
 51
334.40086127811207
1001
ACDBBLOCKREPETAG
1070
     1
1071
      121
1005
1399C1
  0
ARC
  5
1399C2
  8
OBJECT
 10
8162.7999999999884
 20
-655.00000000000068
 30
0.0
 40
85.0
 50
91.887731891831123
 51
160.07406787456929
1001
ACDBBLOCKREPETAG
1070
     1
1071
      122
1005
1399C2
  0
LINE
  5
1399C3
  8
OBJECT
 10
8085.9999999999873
 20
-750.81075719270905
 30
0.0
 11
8145.0193225436024
 21
-703.71143914629454
 31
0.0
1001
ACDBBLOCKREPETAG
1070
     1
1071
      123
1005
1399C3
  0
LINE
  5
1399C4
  8
OBJECT
 10
8172.9999999999818
 20
-645.74491827928705
 30
0.0
 11
8159.9999999999873
 21
-645.74491827928784
 31
0.0
1001
ACDBBLOCKREPETAG
1070
     1
1071
      124
1005
1399C4
  0
LINE
  5
1399C5
  8
OBJECT
 10
8176.9999999999873
 20
-653.15756805667843
 30
0.0
 11
8172.9999999999818
 21
-645.74491827928705
 31
0.0
1001
ACDBBLOCKREPETAG
1070
     1
1071
      125
1005
1399C5
  0
LINE
  5
1399C6
  8
OBJECT
 10
8080.0000000000191
 20
-634.0
 30
0.0
 11
8082.8886121596242
 21
-626.03156729425325
 31
0.0
1001
ACDBBLOCKREPETAG
1070
     1
1071
      126
1005
1399C6
  0
LINE
  5
1399C7
  8
OBJECT
 10
8080.0000000000191
 20
-634.0
 30
0.0
 11
8085.9999999999873
 21
-653.3502637757274
 31
0.0
1001
ACDBBLOCKREPETAG
1070
     1
1071
      127
1005
1399C7
  0
LINE
  5
1399C8
  8
HIDDEN
 10
8167.9999999999864
 20
-570.5000000000008
 30
0.0
 11
8167.9999999999864
 21
-659.50000000000068
 31
0.0
1001
ACDBBLOCKREPETAG
1070
     1
1071
      129
1005
1399C8
  0
LINE
  5
1399C9
  8
OBJECT
 10
8212.9999999999836
 20
-137.99999999999909
 30
0.0
 11
8219.9999999999873
 21
-137.99999999999909
 31
0.0
1001
ACDBBLOCKREPETAG
1070
     1
1071
      110
1005
1399C9
  0
LINE
  5
1399CA
  8
OBJECT
 10
8219.9999999999873
 20
-137.99999999999909
 30
0.0
 11
8219.9999999999873
 21
-261.99999999999909
 31
0.0
1001
ACDBBLOCKREPETAG
1070
     1
1071
      111
1005
1399CA
  0
LINE
  5
1399CB
  8
OBJECT
 10
8219.9999999999873
 20
-261.99999999999909
 30
0.0
 11
8212.9999999999836
 21
-261.99999999999909
 31
0.0
1001
ACDBBLOCKREPETAG
1070
     1
1071
      112
1005
1399CB
  0
LINE
  5
1399CC
  8
OBJECT
 10
8212.9999999999836
 20
-261.99999999999909
 30
0.0
 11
8212.9999999999836
 21
-137.99999999999909
 31
0.0
1001
ACDBBLOCKREPETAG
1070
     1
1071
      113
1005
1399CC
  0
LINE
  5
1399CD
  8
CENTER
 10
8234.9999999999873
 20
-199.99999999999909
 30
0.0
 11
8080.0000000000027
 21
-199.99999999999909
 31
0.0
1001
ACDBBLOCKREPETAG
1070
     1
1071
      114
1005
1399CD
  0
LINE
  5
1399CE
  8
OBJECT
 10
8159.9999749641902
 20
-245.0000000000027
 30
0.0
 11
8086.0000000000027
 21
-244.99999999999909
 31
0.0
1001
ACDBBLOCKREPETAG
1070
     1
1071
      115
1005
1399CE
  0
LINE
  5
1399CF
  8
OBJECT
 10
8159.9999749641902
 20
-154.99999999999909
 30
0.0
 11
8086.0000000000027
 21
-154.99999999999909
 31
0.0
1001
ACDBBLOCKREPETAG
1070
     1
1071
      116
1005
1399CF
  0
LINE
  5
1399D0
  8
OBJECT
 10
8212.9999999999836
 20
-140.99999999999909
 30
0.0
 11
8176.9999999999873
 21
-140.99999999999909
 31
0.0
1001
ACDBBLOCKREPETAG
1070
     1
1071
      117
1005
1399D0
  0
LINE
  5
1399D1
  8
OBJECT
 10
8176.9999999999873
 20
-140.99999999999909
 30
0.0
 11
8176.9999999999873
 21
-258.99999999999909
 31
0.0
1001
ACDBBLOCKREPETAG
1070
     1
1071
      118
1005
1399D1
  0
LINE
  5
1399D2
  8
OBJECT
 10
8176.9999999999873
 20
-258.99999999999909
 30
0.0
 11
8212.9999999999836
 21
-258.99999999999909
 31
0.0
1001
ACDBBLOCKREPETAG
1070
     1
1071
      119
1005
1399D2
  0
LINE
  5
1399D3
  8
OBJECT
 10
8172.9999999999854
 20
-145.49999999999909
 30
0.0
 11
8159.9999999999873
 21
-145.49999999999909
 31
0.0
1001
ACDBBLOCKREPETAG
1070
     1
1071
      120
1005
1399D3
  0
LINE
  5
1399D4
  8
OBJECT
 10
8159.9999999999873
 20
-254.49999999999909
 30
0.0
 11
8172.9999999999854
 21
-254.49999999999909
 31
0.0
1001
ACDBBLOCKREPETAG
1070
     1
1071
      121
1005
1399D4
  0
LINE
  5
1399D5
  8
OBJECT
 10
8172.9999999999854
 20
-254.49999999999909
 30
0.0
 11
8172.9999999999854
 21
-145.49999999999909
 31
0.0
1001
ACDBBLOCKREPETAG
1070
     1
1071
      122
1005
1399D5
  0
LINE
  5
1399D6
  8
OBJECT
 10
8176.9999999999873
 20
-140.99999999999909
 30
0.0
 11
8172.9999999999854
 21
-145.49999999999909
 31
0.0
1001
ACDBBLOCKREPETAG
1070
     1
1071
      123
1005
1399D6
  0
LINE
  5
1399D7
  8
OBJECT
 10
8176.9999999999873
 20
-258.99999999999909
 30
0.0
 11
8172.9999999999854
 21
-254.49999999999909
 31
0.0
1001
ACDBBLOCKREPETAG
1070
     1
1071
      124
1005
1399D7
  0
LINE
  5
1399D8
  8
OBJECT
 10
8083.0000000000027
 20
-137.99999999999909
 30
0.0
 11
8080.0000000000027
 21
-137.99999999999909
 31
0.0
1001
ACDBBLOCKREPETAG
1070
     1
1071
      125
1005
1399D8
  0
ARC
  5
1399D9
  8
OBJECT
 10
8083.0000000000027
 20
-140.99999999999909
 30
0.0
 40
3.0
 50
0.0
 51
90.0
1001
ACDBBLOCKREPETAG
1070
     1
1071
      126
1005
1399D9
  0
LINE
  5
1399DA
  8
OBJECT
 10
8080.0000000000027
 20
-261.99999999999909
 30
0.0
 11
8083.0000000000027
 21
-261.99999999999909
 31
0.0
1001
ACDBBLOCKREPETAG
1070
     1
1071
      127
1005
1399DA
  0
ARC
  5
1399DB
  8
OBJECT
 10
8083.0000000000027
 20
-258.99999999999909
 30
0.0
 40
3.0
 50
270.0
 51
0.0
1001
ACDBBLOCKREPETAG
1070
     1
1071
      128
1005
1399DB
  0
LINE
  5
1399DC
  8
OBJECT
 10
8086.0000000000027
 20
-258.99999999999909
 30
0.0
 11
8086.0000000000027
 21
-222.44994432063581
 31
0.0
1001
ACDBBLOCKREPETAG
1070
     1
1071
      129
1005
1399DC
  0
LINE
  5
1399DD
  8
OBJECT
 10
8086.0000000000027
 20
-177.55005567935859
 30
0.0
 11
8086.0000000000027
 21
-140.99999999999909
 31
0.0
1001
ACDBBLOCKREPETAG
1070
     1
1071
      130
1005
1399DD
  0
LINE
  5
1399DE
  8
HIDDEN
 10
8167.9999999999864
 20
-155.49999999999909
 30
0.0
 11
8167.9999999999864
 21
-244.49999999999909
 31
0.0
1001
ACDBBLOCKREPETAG
1070
     1
1071
      131
1005
1399DE
  0
LINE
  5
1399DF
  8
OBJECT
 10
8159.9999749641902
 20
-254.4999509238105
 30
0.0
 11
8159.9999749641902
 21
-145.4999509238105
 31
0.0
1001
ACDBBLOCKREPETAG
1070
     1
1071
      133
1005
1399DF
  0
ARC
  5
1399E0
  8
OBJECT
 10
8125.0000000000027
 20
-199.99999999999909
 30
0.0
 40
45.000000000000547
 50
90.0
 51
166.2158024759261
1001
ACDBBLOCKREPETAG
1070
     1
1071
      134
1005
1399E0
  0
ARC
  5
1399E1
  8
OBJECT
 10
8125.0000000000027
 20
-199.99999999999909
 30
0.0
 40
45.000000000000547
 50
193.78421279332531
 51
270.0
1001
ACDBBLOCKREPETAG
1070
     1
1071
      402
1005
1399E1
  0
LINE
  5
1399E2
  8
OBJECT
 10
5787.0000000000146
 20
-553.0
 30
0.0
 11
5780.0000000000146
 21
-553.0
 31
0.0
1001
ACDBBLOCKREPETAG
1070
     1
1071
      106
1005
1399E2
  0
LINE
  5
1399E3
  8
OBJECT
 10
5780.0000000000146
 20
-553.0
 30
0.0
 11
5780.0000000000146
 21
-677.0
 31
0.0
1001
ACDBBLOCKREPETAG
1070
     1
1071
      107
1005
1399E3
  0
LINE
  5
1399E4
  8
OBJECT
 10
5914.0000000000146
 20
-653.3502637757274
 30
0.0
 11
5914.0000000000146
 21
-755.00000000000102
 31
0.0
1001
ACDBBLOCKREPETAG
1070
     1
1071
      108
1005
1399E4
  0
LINE
  5
1399E5
  8
OBJECT
 10
5780.0000000000146
 20
-677.0
 30
0.0
 11
5787.0000000000146
 21
-677.0
 31
0.0
1001
ACDBBLOCKREPETAG
1070
     1
1071
      109
1005
1399E5
  0
LINE
  5
1399E6
  8
OBJECT
 10
5787.0000000000146
 20
-677.0
 30
0.0
 11
5787.0000000000146
 21
-553.0
 31
0.0
1001
ACDBBLOCKREPETAG
1070
     1
1071
      110
1005
1399E6
  0
LINE
  5
1399E7
  8
CENTER
 10
5855.0000000000136
 20
-615.0000000000008
 30
0.0
 11
5765.0000000000136
 21
-615.0
 31
0.0
1001
ACDBBLOCKREPETAG
1070
     1
1071
      111
1005
1399E7
  0
LINE
  5
1399E8
  8
OBJECT
 10
5920.0000000000182
 20
-758.0
 30
0.0
 11
5917.0000000000136
 21
-758.0000000000008
 31
0.0
1001
ACDBBLOCKREPETAG
1070
     1
1071
      112
1005
1399E8
  0
ARC
  5
1399E9
  8
OBJECT
 10
5917.0000000000136
 20
-755.00000000000102
 30
0.0
 40
3.0
 50
180.0
 51
270.0
1001
ACDBBLOCKREPETAG
1070
     1
1071
      113
1005
1399E9
  0
LINE
  5
1399EA
  8
OBJECT
 10
5787.0000000000146
 20
-556.0
 30
0.0
 11
5823.0000000000136
 21
-556.0000000000008
 31
0.0
1001
ACDBBLOCKREPETAG
1070
     1
1071
      114
1005
1399EA
  0
LINE
  5
1399EB
  8
OBJECT
 10
5823.0000000000136
 20
-556.0000000000008
 30
0.0
 11
5823.0000000000136
 21
-653.15756805667843
 31
0.0
1001
ACDBBLOCKREPETAG
1070
     1
1071
      115
1005
1399EB
  0
LINE
  5
1399EC
  8
OBJECT
 10
5827.0000000000146
 20
-560.5000000000008
 30
0.0
 11
5827.0000000000182
 21
-645.74491827928705
 31
0.0
1001
ACDBBLOCKREPETAG
1070
     1
1071
      116
1005
1399EC
  0
LINE
  5
1399ED
  8
OBJECT
 10
5827.0000000000146
 20
-560.5000000000008
 30
0.0
 11
5840.0000000000136
 21
-560.5000000000008
 31
0.0
1001
ACDBBLOCKREPETAG
1070
     1
1071
      117
1005
1399ED
  0
LINE
  5
1399EE
  8
OBJECT
 10
5831.3436831745312
 20
-674.0000000000008
 30
0.0
 11
5787.0000000000146
 21
-674.0
 31
0.0
1001
ACDBBLOCKREPETAG
1070
     1
1071
      118
1005
1399EE
  0
LINE
  5
1399EF
  8
OBJECT
 10
5823.0000000000136
 20
-556.0000000000008
 30
0.0
 11
5827.0000000000146
 21
-560.5000000000008
 31
0.0
1001
ACDBBLOCKREPETAG
1070
     1
1071
      119
1005
1399EF
  0
LINE
  5
1399F0
  8
OBJECT
 10
5840.0000000000136
 20
-560.5000000000008
 30
0.0
 11
5840.0000000000136
 21
-645.74491827928784
 31
0.0
1001
ACDBBLOCKREPETAG
1070
     1
1071
      120
1005
1399F0
  0
ARC
  5
1399F1
  8
OBJECT
 10
5908.0000000000146
 20
-637.27386365609345
 30
0.0
 40
85.0
 50
205.5991387218879
 51
231.40900676279119
1001
ACDBBLOCKREPETAG
1070
     1
1071
      121
1005
1399F1
  0
ARC
  5
1399F2
  8
OBJECT
 10
5837.2000000000171
 20
-655.00000000000068
 30
0.0
 40
85.0
 50
19.925932125430649
 51
88.112268108168848
1001
ACDBBLOCKREPETAG
1070
     1
1071
      122
1005
1399F2
  0
LINE
  5
1399F3
  8
OBJECT
 10
5914.0000000000146
 20
-750.81075719270905
 30
0.0
 11
5854.9806774563986
 21
-703.71143914629454
 31
0.0
1001
ACDBBLOCKREPETAG
1070
     1
1071
      123
1005
1399F3
  0
LINE
  5
1399F4
  8
OBJECT
 10
5827.0000000000182
 20
-645.74491827928705
 30
0.0
 11
5840.0000000000136
 21
-645.74491827928784
 31
0.0
1001
ACDBBLOCKREPETAG
1070
     1
1071
      124
1005
1399F4
  0
LINE
  5
1399F5
  8
OBJECT
 10
5823.0000000000136
 20
-653.15756805667843
 30
0.0
 11
5827.0000000000182
 21
-645.74491827928705
 31
0.0
1001
ACDBBLOCKREPETAG
1070
     1
1071
      125
1005
1399F5
  0
LINE
  5
1399F6
  8
OBJECT
 10
5919.9999999999818
 20
-634.0
 30
0.0
 11
5917.1113878403776
 21
-626.03156729425325
 31
0.0
1001
ACDBBLOCKREPETAG
1070
     1
1071
      126
1005
1399F6
  0
LINE
  5
1399F7
  8
OBJECT
 10
5919.9999999999818
 20
-634.0
 30
0.0
 11
5914.0000000000146
 21
-653.3502637757274
 31
0.0
1001
ACDBBLOCKREPETAG
1070
     1
1071
      127
1005
1399F7
  0
LINE
  5
1399F8
  8
HIDDEN
 10
5832.0000000000136
 20
-570.5000000000008
 30
0.0
 11
5832.0000000000136
 21
-659.50000000000068
 31
0.0
1001
ACDBBLOCKREPETAG
1070
     1
1071
      129
1005
1399F8
  0
CIRCLE
  5
1399F9
  8
OBJECT
 10
6000.0
 20
-696.0
 30
0.0
 40
62.0
1001
ACDBBLOCKREPETAG
1070
     1
1071
        0
1005
1399F9
  0
LINE
  5
1399FA
  8
OBJECT
 10
5787.0000000000182
 20
-137.99999999999909
 30
0.0
 11
5780.0000000000182
 21
-137.99999999999909
 31
0.0
1001
ACDBBLOCKREPETAG
1070
     1
1071
      110
1005
1399FA
  0
LINE
  5
1399FB
  8
OBJECT
 10
5780.0000000000182
 20
-137.99999999999909
 30
0.0
 11
5780.0000000000182
 21
-261.99999999999909
 31
0.0
1001
ACDBBLOCKREPETAG
1070
     1
1071
      111
1005
1399FB
  0
LINE
  5
1399FC
  8
OBJECT
 10
5780.0000000000182
 20
-261.99999999999909
 30
0.0
 11
5787.0000000000182
 21
-261.99999999999909
 31
0.0
1001
ACDBBLOCKREPETAG
1070
     1
1071
      112
1005
1399FC
  0
LINE
  5
1399FD
  8
OBJECT
 10
5787.0000000000182
 20
-261.99999999999909
 30
0.0
 11
5787.0000000000182
 21
-137.99999999999909
 31
0.0
1001
ACDBBLOCKREPETAG
1070
     1
1071
      113
1005
1399FD
  0
LINE
  5
1399FE
  8
CENTER
 10
5765.0000000000182
 20
-199.99999999999909
 30
0.0
 11
5920.0
 21
-199.99999999999909
 31
0.0
1001
ACDBBLOCKREPETAG
1070
     1
1071
      114
1005
1399FE
  0
LINE
  5
1399FF
  8
OBJECT
 10
5840.0000250358171
 20
-245.0000000000027
 30
0.0
 11
5914.0000000000036
 21
-244.99999999999909
 31
0.0
1001
ACDBBLOCKREPETAG
1070
     1
1071
      115
1005
1399FF
  0
LINE
  5
139A00
  8
OBJECT
 10
5840.0000250358171
 20
-154.99999999999909
 30
0.0
 11
5914.0000000000036
 21
-154.99999999999909
 31
0.0
1001
ACDBBLOCKREPETAG
1070
     1
1071
      116
1005
139A00
  0
LINE
  5
139A01
  8
OBJECT
 10
5787.0000000000182
 20
-140.99999999999909
 30
0.0
 11
5823.0000000000182
 21
-140.99999999999909
 31
0.0
1001
ACDBBLOCKREPETAG
1070
     1
1071
      117
1005
139A01
  0
LINE
  5
139A02
  8
OBJECT
 10
5823.0000000000182
 20
-140.99999999999909
 30
0.0
 11
5823.0000000000182
 21
-258.99999999999909
 31
0.0
1001
ACDBBLOCKREPETAG
1070
     1
1071
      118
1005
139A02
  0
LINE
  5
139A03
  8
OBJECT
 10
5823.0000000000182
 20
-258.99999999999909
 30
0.0
 11
5787.0000000000182
 21
-258.99999999999909
 31
0.0
1001
ACDBBLOCKREPETAG
1070
     1
1071
      119
1005
139A03
  0
LINE
  5
139A04
  8
OBJECT
 10
5827.0000000000182
 20
-145.49999999999909
 30
0.0
 11
5840.0000000000182
 21
-145.49999999999909
 31
0.0
1001
ACDBBLOCKREPETAG
1070
     1
1071
      120
1005
139A04
  0
LINE
  5
139A05
  8
OBJECT
 10
5840.0000000000182
 20
-254.49999999999909
 30
0.0
 11
5827.0000000000182
 21
-254.49999999999909
 31
0.0
1001
ACDBBLOCKREPETAG
1070
     1
1071
      121
1005
139A05
  0
LINE
  5
139A06
  8
OBJECT
 10
5827.0000000000182
 20
-254.49999999999909
 30
0.0
 11
5827.0000000000182
 21
-145.49999999999909
 31
0.0
1001
ACDBBLOCKREPETAG
1070
     1
1071
      122
1005
139A06
  0
LINE
  5
139A07
  8
OBJECT
 10
5823.0000000000182
 20
-140.99999999999909
 30
0.0
 11
5827.0000000000182
 21
-145.49999999999909
 31
0.0
1001
ACDBBLOCKREPETAG
1070
     1
1071
      123
1005
139A07
  0
LINE
  5
139A08
  8
OBJECT
 10
5823.0000000000182
 20
-258.99999999999909
 30
0.0
 11
5827.0000000000182
 21
-254.49999999999909
 31
0.0
1001
ACDBBLOCKREPETAG
1070
     1
1071
      124
1005
139A08
  0
LINE
  5
139A09
  8
OBJECT
 10
5917.0000000000036
 20
-137.99999999999909
 30
0.0
 11
5920.0000000000036
 21
-137.99999999999909
 31
0.0
1001
ACDBBLOCKREPETAG
1070
     1
1071
      125
1005
139A09
  0
ARC
  5
139A0A
  8
OBJECT
 10
5917.0000000000036
 20
-140.99999999999909
 30
0.0
 40
3.0
 50
90.0
 51
180.0
1001
ACDBBLOCKREPETAG
1070
     1
1071
      126
1005
139A0A
  0
LINE
  5
139A0B
  8
OBJECT
 10
5920.0000000000036
 20
-261.99999999999909
 30
0.0
 11
5917.0000000000036
 21
-261.99999999999909
 31
0.0
1001
ACDBBLOCKREPETAG
1070
     1
1071
      127
1005
139A0B
  0
ARC
  5
139A0C
  8
OBJECT
 10
5917.0000000000036
 20
-258.99999999999909
 30
0.0
 40
3.0
 50
180.0
 51
270.0
1001
ACDBBLOCKREPETAG
1070
     1
1071
      128
1005
139A0C
  0
LINE
  5
139A0D
  8
OBJECT
 10
5914.0000000000036
 20
-258.99999999999909
 30
0.0
 11
5914.0000000000036
 21
-222.44994432063581
 31
0.0
1001
ACDBBLOCKREPETAG
1070
     1
1071
      129
1005
139A0D
  0
LINE
  5
139A0E
  8
OBJECT
 10
5914.0000000000036
 20
-177.55005567935859
 30
0.0
 11
5914.0000000000036
 21
-140.99999999999909
 31
0.0
1001
ACDBBLOCKREPETAG
1070
     1
1071
      130
1005
139A0E
  0
LINE
  5
139A0F
  8
HIDDEN
 10
5832.0000000000182
 20
-155.49999999999909
 30
0.0
 11
5832.0000000000182
 21
-244.49999999999909
 31
0.0
1001
ACDBBLOCKREPETAG
1070
     1
1071
      131
1005
139A0F
  0
LINE
  5
139A10
  8
OBJECT
 10
5840.0000250358171
 20
-254.4999509238105
 30
0.0
 11
5840.0000250358171
 21
-145.4999509238105
 31
0.0
1001
ACDBBLOCKREPETAG
1070
     1
1071
      133
1005
139A10
  0
ARC
  5
139A11
  8
OBJECT
 10
5875.0
 20
-199.99999999999909
 30
0.0
 40
45.000000000000547
 50
270.0
 51
346.21579484130518
1001
ACDBBLOCKREPETAG
1070
     1
1071
      134
1005
139A11
  0
ARC
  5
139A12
  8
OBJECT
 10
5875.0
 20
-199.99999999999909
 30
0.0
 40
45.000000000000547
 50
13.78420515869484
 51
90.0
1001
ACDBBLOCKREPETAG
1070
     1
1071
      402
1005
139A12
  0
LINE
  5
139A13
  8
CENTER
 10
6000.0
 20
-300.99999999999898
 30
0.0
 11
6000.0
 21
-279.99999999999909
 31
0.0
1001
ACDBBLOCKREPETAG
1070
     1
1071
        0
1005
139A13
  0
LINE
  5
139A14
  8
OBJECT
 10
6062.0
 20
-283.0
 30
0.0
 11
6062.0
 21
-279.99999999999909
 31
0.0
1001
ACDBBLOCKREPETAG
1070
     1
1071
        1
1005
139A14
  0
ARC
  5
139A15
  8
OBJECT
 10
6059.0
 20
-283.0
 30
0.0
 40
3.0
 50
270.0
 51
0.0
1001
ACDBBLOCKREPETAG
1070
     1
1071
        2
1005
139A15
  0
LINE
  5
139A16
  8
OBJECT
 10
5938.0
 20
-279.99999999999909
 30
0.0
 11
5938.0
 21
-282.99999999999818
 31
0.0
1001
ACDBBLOCKREPETAG
1070
     1
1071
        3
1005
139A16
  0
ARC
  5
139A17
  8
OBJECT
 10
5941.0
 20
-282.99999999999818
 30
0.0
 40
3.0
 50
180.0
 51
270.0
1001
ACDBBLOCKREPETAG
1070
     1
1071
        4
1005
139A17
  0
LINE
  5
139A18
  8
OBJECT
 10
5941.0
 20
-285.99999999999818
 30
0.0
 11
6059.0
 21
-286.0
 31
0.0
1001
ACDBBLOCKREPETAG
1070
     1
1071
        5
1005
139A18
  0
LINE
  5
139A19
  8
HIDDEN
 10
5943.0
 20
-619.99999999999955
 30
0.0
 11
6057.0
 21
-619.99999999999955
 31
0.0
1001
ACDBBLOCKREPETAG
1070
     1
1071
       57
1005
139A19
  0
LINE
  5
139A1A
  8
CENTER
 10
6000.0
 20
-534.99999999999955
 30
0.0
 11
6000.0
 21
-899.99999999999955
 31
0.0
1001
ACDBBLOCKREPETAG
1070
     1
1071
       58
1005
139A1A
  0
LINE
  5
139A1B
  8
OBJECT
 10
5928.0
 20
-570.99999999999955
 30
0.0
 11
5928.0
 21
-633.99999999999955
 31
0.0
1001
ACDBBLOCKREPETAG
1070
     1
1071
       59
1005
139A1B
  0
LINE
  5
139A1C
  8
OBJECT
 10
6072.0
 20
-633.99999999999955
 30
0.0
 11
6072.0
 21
-570.99999999999955
 31
0.0
1001
ACDBBLOCKREPETAG
1070
     1
1071
       60
1005
139A1C
  0
LINE
  5
139A1D
  8
OBJECT
 10
5920.0
 20
-887.99999999999955
 30
0.0
 11
6080.0
 21
-887.99999999999955
 31
0.0
1001
ACDBBLOCKREPETAG
1070
     1
1071
       61
1005
139A1D
  0
LINE
  5
139A1E
  8
OBJECT
 10
6080.0
 20
-633.99999999999955
 30
0.0
 11
5920.0
 21
-633.99999999999955
 31
0.0
1001
ACDBBLOCKREPETAG
1070
     1
1071
       62
1005
139A1E
  0
LINE
  5
139A1F
  8
OBJECT
 10
5920.0
 20
-887.99999999999955
 30
0.0
 11
5920.0
 21
-899.99999999999955
 31
0.0
1001
ACDBBLOCKREPETAG
1070
     1
1071
       63
1005
139A1F
  0
LINE
  5
139A20
  8
OBJECT
 10
5920.0
 20
-899.99999999999955
 30
0.0
 11
6080.0
 21
-899.99999999999955
 31
0.0
1001
ACDBBLOCKREPETAG
1070
     1
1071
       64
1005
139A20
  0
LINE
  5
139A21
  8
OBJECT
 10
6080.0
 20
-899.99999999999955
 30
0.0
 11
6080.0
 21
-887.99999999999955
 31
0.0
1001
ACDBBLOCKREPETAG
1070
     1
1071
       65
1005
139A21
  0
LINE
  5
139A22
  8
OBJECT
 10
6074.9999999998618
 20
-757.99999999985016
 30
0.0
 11
6075.0
 21
-887.99999999999955
 31
0.0
1001
ACDBBLOCKREPETAG
1070
     1
1071
       69
1005
139A22
  0
LINE
  5
139A23
  8
OBJECT
 10
6074.9999908029858
 20
-757.99998602702112
 30
0.0
 11
6080.0
 21
-757.99998602702112
 31
0.0
1001
ACDBBLOCKREPETAG
1070
     1
1071
       70
1005
139A23
  0
LINE
  5
139A24
  8
OBJECT
 10
5925.0000000001392
 20
-757.99999999985016
 30
0.0
 11
5925.0
 21
-887.99999999999955
 31
0.0
1001
ACDBBLOCKREPETAG
1070
     1
1071
       71
1005
139A24
  0
LINE
  5
139A25
  8
OBJECT
 10
5925.0000091970142
 20
-757.99998602702112
 30
0.0
 11
5920.0
 21
-757.99998602702112
 31
0.0
1001
ACDBBLOCKREPETAG
1070
     1
1071
       72
1005
139A25
  0
LINE
  5
139A26
  8
OBJECT
 10
5918.0
 20
-570.99999999999955
 30
0.0
 11
5918.0
 21
-549.99999999999955
 31
0.0
1001
ACDBBLOCKREPETAG
1070
     1
1071
       73
1005
139A26
  0
LINE
  5
139A27
  8
OBJECT
 10
5918.0
 20
-549.99999999999955
 30
0.0
 11
6082.0000000000036
 21
-549.99999999999955
 31
0.0
1001
ACDBBLOCKREPETAG
1070
     1
1071
       74
1005
139A27
  0
LINE
  5
139A28
  8
OBJECT
 10
6082.0000000000036
 20
-570.99999999999955
 30
0.0
 11
5918.0
 21
-570.99999999999955
 31
0.0
1001
ACDBBLOCKREPETAG
1070
     1
1071
       75
1005
139A28
  0
LINE
  5
139A29
  8
OBJECT
 10
5920.7940817120252
 20
-549.99999999999955
 30
0.0
 11
5920.7940817120252
 21
-570.99999999999955
 31
0.0
1001
ACDBBLOCKREPETAG
1070
     1
1071
       76
1005
139A29
  0
LINE
  5
139A2A
  8
OBJECT
 10
5928.7378959999987
 20
-549.99999999999955
 30
0.0
 11
5928.7378959999987
 21
-570.99999999999955
 31
0.0
1001
ACDBBLOCKREPETAG
1070
     1
1071
       77
1005
139A2A
  0
LINE
  5
139A2B
  8
OBJECT
 10
5970.8330260000012
 20
-549.99999999999955
 30
0.0
 11
5970.8330260000012
 21
-570.99999999999955
 31
0.0
1001
ACDBBLOCKREPETAG
1070
     1
1071
       78
1005
139A2B
  0
LINE
  5
139A2C
  8
OBJECT
 10
5978.7768389218008
 20
-549.99999999999955
 30
0.0
 11
5978.7768389218008
 21
-570.99999999999955
 31
0.0
1001
ACDBBLOCKREPETAG
1070
     1
1071
       79
1005
139A2C
  0
LINE
  5
139A2D
  8
OBJECT
 10
6082.0
 20
-570.99999999999955
 30
0.0
 11
6082.0
 21
-549.99999999999955
 31
0.0
1001
ACDBBLOCKREPETAG
1070
     1
1071
       80
1005
139A2D
  0
LINE
  5
139A2E
  8
OBJECT
 10
6079.2059182879748
 20
-549.99999999999955
 30
0.0
 11
6079.2059182879748
 21
-570.99999999999955
 31
0.0
1001
ACDBBLOCKREPETAG
1070
     1
1071
       81
1005
139A2E
  0
LINE
  5
139A2F
  8
OBJECT
 10
6071.2621040000022
 20
-549.99999999999955
 30
0.0
 11
6071.2621040000022
 21
-570.99999999999955
 31
0.0
1001
ACDBBLOCKREPETAG
1070
     1
1071
       82
1005
139A2F
  0
LINE
  5
139A30
  8
OBJECT
 10
6029.1669739999979
 20
-549.99999999999955
 30
0.0
 11
6029.1669739999979
 21
-570.99999999999955
 31
0.0
1001
ACDBBLOCKREPETAG
1070
     1
1071
       83
1005
139A30
  0
LINE
  5
139A31
  8
OBJECT
 10
6021.2231610781992
 20
-549.99999999999955
 30
0.0
 11
6021.2231610781992
 21
-570.99999999999955
 31
0.0
1001
ACDBBLOCKREPETAG
1070
     1
1071
       84
1005
139A31
  0
ARC
  5
139A32
  8
OBJECT
 10
6200.6872746716735
 20
-749.40809941010718
 30
0.0
 40
170.6350503965856
 50
137.44134459184301
 51
149.91949581337221
1001
ACDBBLOCKREPETAG
1070
     1
1071
       85
1005
139A32
  0
ARC
  5
139A33
  8
OBJECT
 10
6200.6872746716735
 20
-642.59190058989179
 30
0.0
 40
170.6350503965856
 50
210.08050418662771
 51
222.55865540815699
1001
ACDBBLOCKREPETAG
1070
     1
1071
       86
1005
139A33
  0
ARC
  5
139A34
  8
OBJECT
 10
5799.3127253283274
 20
-749.40809941010718
 30
0.0
 40
170.6350503965856
 50
30.080504186710289
 51
42.558655408382641
1001
ACDBBLOCKREPETAG
1070
     1
1071
       87
1005
139A34
  0
ARC
  5
139A35
  8
OBJECT
 10
5799.3127253283274
 20
-642.59190058989179
 30
0.0
 40
170.6350503965856
 50
317.44134459161722
 51
329.9194958132897
1001
ACDBBLOCKREPETAG
1070
     1
1071
       88
1005
139A35
  0
POINT
  5
139A36
  8
DOTS
 10
6000.0
 20
-754.99999999999955
 30
0.0
1001
ACDBBLOCKREPETAG
1070
     1
1071
      202
1005
139A36
  0
LINE
  5
139A37
  8
OBJECT
 10
5946.692194143754
 20
-195.46638161316051
 30
0.0
 11
5970.4540343856352
 21
-193.79865146436981
 31
0.0
1001
ACDBBLOCKREPETAG
1070
     1
1071
      319
1005
139A37
  0
LINE
  5
139A38
  8
OBJECT
 10
5947.3854347270608
 20
-190.305593971766
 30
0.0
 11
5966.9884352629006
 21
-188.92975272660161
 31
0.0
1001
ACDBBLOCKREPETAG
1070
     1
1071
      320
1005
139A38
  0
LINE
  5
139A39
  8
OBJECT
 10
5974.1135374752794
 20
-242.77722592637201
 30
0.0
 11
5982.1366988374084
 21
-234.1690987954708
 31
0.0
1001
ACDBBLOCKREPETAG
1070
     1
1071
      321
1005
139A39
  0
ARC
  5
139A3A
  8
OBJECT
 10
5982.1160071245376
 20
-183.28188966318251
 30
0.0
 40
60.031113246032611
 50
254.07020130412749
 51
262.33936106086588
1001
ACDBBLOCKREPETAG
1070
     1
1071
      322
1005
139A3A
  0
LINE
  5
139A3B
  8
OBJECT
 10
5977.6125997325144
 20
-197.67495277149911
 30
0.0
 11
5982.1366988374084
 21
-234.1690987954708
 31
0.0
1001
ACDBBLOCKREPETAG
1070
     1
1071
      323
1005
139A3B
  0
ARC
  5
139A3C
  8
OBJECT
 10
5967.6885653456411
 20
-198.90521351131881
 30
0.0
 40
10.0
 50
7.0667782929925851
 51
94.014734370532395
1001
ACDBBLOCKREPETAG
1070
     1
1071
      324
1005
139A3C
  0
ARC
  5
139A3D
  8
OBJECT
 10
5970.9441253709738
 20
-200.78147401875589
 30
0.0
 40
7.0
 50
7.0667782929925851
 51
94.014733775014648
1001
ACDBBLOCKREPETAG
1070
     1
1071
      325
1005
139A3D
  0
POINT
  5
139A3E
  8
DOTS
 10
6000.0
 20
-199.99999999999909
 30
0.0
 50
270.0
1001
ACDBBLOCKREPETAG
1070
     1
1071
      153
1005
139A3E
  0
ARC
  5
139A3F
  8
OBJECT
 10
6000.0
 20
-199.99999999999909
 30
0.0
 40
77.0
 50
202.25886899988009
 51
247.74113099990561
1001
ACDBBLOCKREPETAG
1070
     1
1071
       57
1005
139A3F
  0
ARC
  5
139A40
  8
OBJECT
 10
6000.0
 20
-199.99999999999909
 30
0.0
 40
80.0
 50
50.804965661401717
 51
72.417343999921059
1001
ACDBBLOCKREPETAG
1070
     1
1071
       58
1005
139A40
  0
ARC
  5
139A41
  8
OBJECT
 10
6000.0
 20
-199.99999999999909
 30
0.0
 40
77.0
 50
292.25886900009442
 51
337.74113100011988
1001
ACDBBLOCKREPETAG
1070
     1
1071
       59
1005
139A41
  0
ARC
  5
139A42
  8
OBJECT
 10
6000.0
 20
-199.99999999999909
 30
0.0
 40
77.0
 50
112.25886900009441
 51
157.74113100011991
1001
ACDBBLOCKREPETAG
1070
     1
1071
       60
1005
139A42
  0
ARC
  5
139A43
  8
OBJECT
 10
6000.0
 20
-199.99999999999909
 30
0.0
 40
80.0
 50
107.5826560000789
 51
129.19497730755359
1001
ACDBBLOCKREPETAG
1070
     1
1071
       61
1005
139A43
  0
ARC
  5
139A44
  8
OBJECT
 10
6000.0
 20
-199.99999999999909
 30
0.0
 40
77.0
 50
22.258868999880129
 51
67.741130999905565
1001
ACDBBLOCKREPETAG
1070
     1
1071
       62
1005
139A44
  0
CIRCLE
  5
139A45
  8
OBJECT
 10
6000.0
 20
-199.99999999999909
 30
0.0
 40
70.0
1001
ACDBBLOCKREPETAG
1070
     1
1071
       63
1005
139A45
  0
LINE
  5
139A46
  8
OBJECT
 10
6029.1669749999983
 20
-271.26210499999888
 30
0.0
 11
6021.2231624441056
 21
-279.20591755589248
 31
0.0
1001
ACDBBLOCKREPETAG
1070
     1
1071
       64
1005
139A46
  0
LINE
  5
139A47
  8
OBJECT
 10
5970.8330260000012
 20
-271.26210499999888
 30
0.0
 11
5978.7768389219164
 21
-279.20591792191681
 31
0.0
1001
ACDBBLOCKREPETAG
1070
     1
1071
       65
1005
139A47
  0
ARC
  5
139A48
  8
OBJECT
 10
6000.0
 20
-199.99999999999909
 30
0.0
 40
82.000000000000014
 50
255.00000044864069
 51
285.00000053947957
1001
ACDBBLOCKREPETAG
1070
     1
1071
       66
1005
139A48
  0
LINE
  5
139A49
  8
OBJECT
 10
5928.7378959999987
 20
-229.1669739999989
 30
0.0
 11
5920.7940817120543
 21
-221.2231597120545
 31
0.0
1001
ACDBBLOCKREPETAG
1070
     1
1071
       67
1005
139A49
  0
ARC
  5
139A4A
  8
OBJECT
 10
6000.0
 20
-199.99999999999909
 30
0.0
 40
82.000000000000014
 50
165.0000004488474
 51
194.9999985630262
1001
ACDBBLOCKREPETAG
1070
     1
1071
       68
1005
139A4A
  0
LINE
  5
139A4B
  8
OBJECT
 10
5970.8330260000012
 20
-128.7378949999993
 30
0.0
 11
5978.7768389219164
 21
-120.7940820780795
 31
0.0
1001
ACDBBLOCKREPETAG
1070
     1
1071
       69
1005
139A4B
  0
ARC
  5
139A4C
  8
OBJECT
 10
6000.0
 20
-199.99999999999909
 30
0.0
 40
82.000000000000014
 50
74.999999460520442
 51
104.99999955135929
1001
ACDBBLOCKREPETAG
1070
     1
1071
       70
1005
139A4C
  0
LINE
  5
139A4D
  8
OBJECT
 10
6029.1669749999983
 20
-128.7378949999993
 30
0.0
 11
6021.2231624441056
 21
-120.79408244410391
 31
0.0
1001
ACDBBLOCKREPETAG
1070
     1
1071
       71
1005
139A4D
  0
LINE
  5
139A4E
  8
OBJECT
 10
5962.402059
 20
-161.93893300000039
 30
0.0
 11
6037.0841102714221
 21
-174.5180316957439
 31
0.0
1001
ACDBBLOCKREPETAG
1070
     1
1071
       72
1005
139A4E
  0
LINE
  5
139A4F
  8
OBJECT
 10
6044.0936569999967
 20
-169.70149399999991
 30
0.0
 11
6037.0841102714221
 21
-174.5180316957439
 31
0.0
1001
ACDBBLOCKREPETAG
1070
     1
1071
       73
1005
139A4F
  0
LINE
  5
139A50
  8
OBJECT
 10
5928.7378959999987
 20
-170.833024999999
 30
0.0
 11
5920.7940820780777
 21
-178.77683892191911
 31
0.0
1001
ACDBBLOCKREPETAG
1070
     1
1071
       74
1005
139A50
  0
CIRCLE
  5
139A51
  8
OBJECT
 10
6000.0
 20
-199.99999999999909
 30
0.0
 40
53.500000000000007
1001
ACDBBLOCKREPETAG
1070
     1
1071
       75
1005
139A51
  0
ARC
  5
139A52
  8
OBJECT
 10
6000.0
 20
-199.99999999999909
 30
0.0
 40
50.0
 50
131.70180964353301
 51
168.52376955958221
1001
ACDBBLOCKREPETAG
1070
     1
1071
       76
1005
139A52
  0
ARC
  5
139A53
  8
OBJECT
 10
6000.0
 20
-199.99999999999909
 30
0.0
 40
50.0
 50
238.8199429999047
 51
34.49450625011707
1001
ACDBBLOCKREPETAG
1070
     1
1071
       77
1005
139A53
  0
LINE
  5
139A54
  8
OBJECT
 10
6071.262104999998
 20
-170.833024999999
 30
0.0
 11
6079.2059175558934
 21
-178.77683755589439
 31
0.0
1001
ACDBBLOCKREPETAG
1070
     1
1071
       78
1005
139A54
  0
ARC
  5
139A55
  8
OBJECT
 10
6000.0
 20
-199.99999999999909
 30
0.0
 40
82.000000000000014
 50
345.00000044884729
 51
15.00000053937171
1001
ACDBBLOCKREPETAG
1070
     1
1071
       79
1005
139A55
  0
LINE
  5
139A56
  8
OBJECT
 10
6071.262104999998
 20
-229.1669739999989
 30
0.0
 11
6079.2059179219223
 21
-221.2231610780791
 31
0.0
1001
ACDBBLOCKREPETAG
1070
     1
1071
       80
1005
139A56
  0
LINE
  5
139A57
  8
OBJECT
 10
6045.6618002273253
 20
-137.99999999999909
 30
0.0
 11
6080.0
 21
-137.99999999999909
 31
0.0
1001
ACDBBLOCKREPETAG
1070
     1
1071
       81
1005
139A57
  0
LINE
  5
139A58
  8
OBJECT
 10
6062.0
 20
-261.99999999999909
 30
0.0
 11
6080.0
 21
-261.99999999999909
 31
0.0
1001
ACDBBLOCKREPETAG
1070
     1
1071
       82
1005
139A58
  0
LINE
  5
139A59
  8
OBJECT
 10
6062.0
 20
-261.99999999999909
 30
0.0
 11
6062.0
 21
-279.99999999999909
 31
0.0
1001
ACDBBLOCKREPETAG
1070
     1
1071
       84
1005
139A59
  0
LINE
  5
139A5A
  8
OBJECT
 10
5938.0
 20
-261.99999999999909
 30
0.0
 11
5938.0
 21
-279.99999999999909
 31
0.0
1001
ACDBBLOCKREPETAG
1070
     1
1071
       85
1005
139A5A
  0
LINE
  5
139A5B
  8
OBJECT
 10
5938.0
 20
-261.99999999999909
 30
0.0
 11
5920.0
 21
-261.99999999999909
 31
0.0
1001
ACDBBLOCKREPETAG
1070
     1
1071
       87
1005
139A5B
  0
LINE
  5
139A5C
  8
OBJECT
 10
5954.3381997726738
 20
-137.99999999999909
 30
0.0
 11
5920.0
 21
-137.99999999999909
 31
0.0
1001
ACDBBLOCKREPETAG
1070
     1
1071
       88
1005
139A5C
  0
LINE
  5
139A5D
  8
CENTER
 10
6080.0
 20
-199.99999999999909
 30
0.0
 11
5920.0
 21
-199.99999999999909
 31
0.0
1001
ACDBBLOCKREPETAG
1070
     1
1071
       97
1005
139A5D
  0
LINE
  5
139A5E
  8
CENTER
 10
6000.0
 20
-279.99999999999909
 30
0.0
 11
6000.0
 21
-104.9999999999991
 31
0.0
1001
ACDBBLOCKREPETAG
1070
     1
1071
       98
1005
139A5E
  0
LINE
  5
139A5F
  8
OBJECT
 10
5945.5527778486367
 20
-254.44722215136329
 30
0.0
 11
5938.0
 21
-261.99999999999909
 31
0.0
1001
ACDBBLOCKREPETAG
1070
     1
1071
       99
1005
139A5F
  0
LINE
  5
139A60
  8
OBJECT
 10
6054.4472221513633
 20
-254.44722215136329
 30
0.0
 11
6062.0
 21
-261.99999999999909
 31
0.0
1001
ACDBBLOCKREPETAG
1070
     1
1071
      100
1005
139A60
  0
LINE
  5
139A61
  8
OBJECT
 10
6212.9999999999864
 20
-553.0000000000008
 30
0.0
 11
6219.9999999999873
 21
-553.0000000000008
 31
0.0
1001
ACDBBLOCKREPETAG
1070
     1
1071
      106
1005
139A61
  0
LINE
  5
139A62
  8
OBJECT
 10
6219.9999999999873
 20
-553.0000000000008
 30
0.0
 11
6219.9999999999873
 21
-677.0000000000008
 31
0.0
1001
ACDBBLOCKREPETAG
1070
     1
1071
      107
1005
139A62
  0
LINE
  5
139A63
  8
OBJECT
 10
6085.9999999999864
 20
-653.3502637757274
 30
0.0
 11
6085.9999999999864
 21
-755.00000000000102
 31
0.0
1001
ACDBBLOCKREPETAG
1070
     1
1071
      108
1005
139A63
  0
LINE
  5
139A64
  8
OBJECT
 10
6219.9999999999873
 20
-677.0000000000008
 30
0.0
 11
6212.9999999999864
 21
-677.0000000000008
 31
0.0
1001
ACDBBLOCKREPETAG
1070
     1
1071
      109
1005
139A64
  0
LINE
  5
139A65
  8
OBJECT
 10
6212.9999999999864
 20
-677.0000000000008
 30
0.0
 11
6212.9999999999864
 21
-553.0000000000008
 31
0.0
1001
ACDBBLOCKREPETAG
1070
     1
1071
      110
1005
139A65
  0
LINE
  5
139A66
  8
CENTER
 10
6144.9999999999873
 20
-615.0000000000008
 30
0.0
 11
6234.9999999999864
 21
-615.0000000000008
 31
0.0
1001
ACDBBLOCKREPETAG
1070
     1
1071
      111
1005
139A66
  0
LINE
  5
139A67
  8
OBJECT
 10
6079.9999999999818
 20
-758.0
 30
0.0
 11
6082.9999999999864
 21
-758.0000000000008
 31
0.0
1001
ACDBBLOCKREPETAG
1070
     1
1071
      112
1005
139A67
  0
ARC
  5
139A68
  8
OBJECT
 10
6082.9999999999864
 20
-755.00000000000102
 30
0.0
 40
3.0
 50
270.0
 51
0.0
1001
ACDBBLOCKREPETAG
1070
     1
1071
      113
1005
139A68
  0
LINE
  5
139A69
  8
OBJECT
 10
6212.9999999999864
 20
-556.0000000000008
 30
0.0
 11
6176.9999999999873
 21
-556.0000000000008
 31
0.0
1001
ACDBBLOCKREPETAG
1070
     1
1071
      114
1005
139A69
  0
LINE
  5
139A6A
  8
OBJECT
 10
6176.9999999999873
 20
-556.0000000000008
 30
0.0
 11
6176.9999999999873
 21
-653.15756805667843
 31
0.0
1001
ACDBBLOCKREPETAG
1070
     1
1071
      115
1005
139A6A
  0
LINE
  5
139A6B
  8
OBJECT
 10
6172.9999999999864
 20
-560.5000000000008
 30
0.0
 11
6172.9999999999818
 21
-645.74491827928705
 31
0.0
1001
ACDBBLOCKREPETAG
1070
     1
1071
      116
1005
139A6B
  0
LINE
  5
139A6C
  8
OBJECT
 10
6172.9999999999864
 20
-560.5000000000008
 30
0.0
 11
6159.9999999999864
 21
-560.5000000000008
 31
0.0
1001
ACDBBLOCKREPETAG
1070
     1
1071
      117
1005
139A6C
  0
LINE
  5
139A6D
  8
OBJECT
 10
6168.6563168254688
 20
-674.0000000000008
 30
0.0
 11
6212.9999999999864
 21
-674.0000000000008
 31
0.0
1001
ACDBBLOCKREPETAG
1070
     1
1071
      118
1005
139A6D
  0
LINE
  5
139A6E
  8
OBJECT
 10
6176.9999999999873
 20
-556.0000000000008
 30
0.0
 11
6172.9999999999864
 21
-560.5000000000008
 31
0.0
1001
ACDBBLOCKREPETAG
1070
     1
1071
      119
1005
139A6E
  0
LINE
  5
139A6F
  8
OBJECT
 10
6159.9999999999864
 20
-560.5000000000008
 30
0.0
 11
6159.9999999999864
 21
-645.74491827928784
 31
0.0
1001
ACDBBLOCKREPETAG
1070
     1
1071
      120
1005
139A6F
  0
ARC
  5
139A70
  8
OBJECT
 10
6091.9999999999873
 20
-637.27386365609345
 30
0.0
 40
85.0
 50
308.59099323720869
 51
334.40086127811207
1001
ACDBBLOCKREPETAG
1070
     1
1071
      121
1005
139A70
  0
ARC
  5
139A71
  8
OBJECT
 10
6162.7999999999856
 20
-655.00000000000068
 30
0.0
 40
85.0
 50
91.887731891831123
 51
160.07406787456929
1001
ACDBBLOCKREPETAG
1070
     1
1071
      122
1005
139A71
  0
LINE
  5
139A72
  8
OBJECT
 10
6085.9999999999864
 20
-750.81075719270905
 30
0.0
 11
6145.0193225436024
 21
-703.71143914629454
 31
0.0
1001
ACDBBLOCKREPETAG
1070
     1
1071
      123
1005
139A72
  0
LINE
  5
139A73
  8
OBJECT
 10
6172.9999999999818
 20
-645.74491827928705
 30
0.0
 11
6159.9999999999864
 21
-645.74491827928784
 31
0.0
1001
ACDBBLOCKREPETAG
1070
     1
1071
      124
1005
139A73
  0
LINE
  5
139A74
  8
OBJECT
 10
6176.9999999999873
 20
-653.15756805667843
 30
0.0
 11
6172.9999999999818
 21
-645.74491827928705
 31
0.0
1001
ACDBBLOCKREPETAG
1070
     1
1071
      125
1005
139A74
  0
LINE
  5
139A75
  8
OBJECT
 10
6080.0000000000182
 20
-634.0
 30
0.0
 11
6082.8886121596233
 21
-626.03156729425325
 31
0.0
1001
ACDBBLOCKREPETAG
1070
     1
1071
      126
1005
139A75
  0
LINE
  5
139A76
  8
OBJECT
 10
6080.0000000000182
 20
-634.0
 30
0.0
 11
6085.9999999999864
 21
-653.3502637757274
 31
0.0
1001
ACDBBLOCKREPETAG
1070
     1
1071
      127
1005
139A76
  0
LINE
  5
139A77
  8
HIDDEN
 10
6167.9999999999864
 20
-570.5000000000008
 30
0.0
 11
6167.9999999999864
 21
-659.50000000000068
 31
0.0
1001
ACDBBLOCKREPETAG
1070
     1
1071
      129
1005
139A77
  0
LINE
  5
139A78
  8
OBJECT
 10
6212.9999999999864
 20
-137.99999999999909
 30
0.0
 11
6219.9999999999873
 21
-137.99999999999909
 31
0.0
1001
ACDBBLOCKREPETAG
1070
     1
1071
      110
1005
139A78
  0
LINE
  5
139A79
  8
OBJECT
 10
6219.9999999999873
 20
-137.99999999999909
 30
0.0
 11
6219.9999999999873
 21
-261.99999999999909
 31
0.0
1001
ACDBBLOCKREPETAG
1070
     1
1071
      111
1005
139A79
  0
LINE
  5
139A7A
  8
OBJECT
 10
6219.9999999999873
 20
-261.99999999999909
 30
0.0
 11
6212.9999999999864
 21
-261.99999999999909
 31
0.0
1001
ACDBBLOCKREPETAG
1070
     1
1071
      112
1005
139A7A
  0
LINE
  5
139A7B
  8
OBJECT
 10
6212.9999999999864
 20
-261.99999999999909
 30
0.0
 11
6212.9999999999864
 21
-137.99999999999909
 31
0.0
1001
ACDBBLOCKREPETAG
1070
     1
1071
      113
1005
139A7B
  0
LINE
  5
139A7C
  8
CENTER
 10
6234.9999999999864
 20
-199.99999999999909
 30
0.0
 11
6080.0000000000036
 21
-199.99999999999909
 31
0.0
1001
ACDBBLOCKREPETAG
1070
     1
1071
      114
1005
139A7C
  0
LINE
  5
139A7D
  8
OBJECT
 10
6159.9999749641856
 20
-245.0000000000027
 30
0.0
 11
6086.0
 21
-244.99999999999909
 31
0.0
1001
ACDBBLOCKREPETAG
1070
     1
1071
      115
1005
139A7D
  0
LINE
  5
139A7E
  8
OBJECT
 10
6159.9999749641856
 20
-154.99999999999909
 30
0.0
 11
6086.0
 21
-154.99999999999909
 31
0.0
1001
ACDBBLOCKREPETAG
1070
     1
1071
      116
1005
139A7E
  0
LINE
  5
139A7F
  8
OBJECT
 10
6212.9999999999864
 20
-140.99999999999909
 30
0.0
 11
6176.9999999999873
 21
-140.99999999999909
 31
0.0
1001
ACDBBLOCKREPETAG
1070
     1
1071
      117
1005
139A7F
  0
LINE
  5
139A80
  8
OBJECT
 10
6176.9999999999873
 20
-140.99999999999909
 30
0.0
 11
6176.9999999999873
 21
-258.99999999999909
 31
0.0
1001
ACDBBLOCKREPETAG
1070
     1
1071
      118
1005
139A80
  0
LINE
  5
139A81
  8
OBJECT
 10
6176.9999999999873
 20
-258.99999999999909
 30
0.0
 11
6212.9999999999864
 21
-258.99999999999909
 31
0.0
1001
ACDBBLOCKREPETAG
1070
     1
1071
      119
1005
139A81
  0
LINE
  5
139A82
  8
OBJECT
 10
6172.9999999999864
 20
-145.49999999999909
 30
0.0
 11
6159.9999999999864
 21
-145.49999999999909
 31
0.0
1001
ACDBBLOCKREPETAG
1070
     1
1071
      120
1005
139A82
  0
LINE
  5
139A83
  8
OBJECT
 10
6159.9999999999864
 20
-254.49999999999909
 30
0.0
 11
6172.9999999999864
 21
-254.49999999999909
 31
0.0
1001
ACDBBLOCKREPETAG
1070
     1
1071
      121
1005
139A83
  0
LINE
  5
139A84
  8
OBJECT
 10
6172.9999999999864
 20
-254.49999999999909
 30
0.0
 11
6172.9999999999864
 21
-145.49999999999909
 31
0.0
1001
ACDBBLOCKREPETAG
1070
     1
1071
      122
1005
139A84
  0
LINE
  5
139A85
  8
OBJECT
 10
6176.9999999999873
 20
-140.99999999999909
 30
0.0
 11
6172.9999999999864
 21
-145.49999999999909
 31
0.0
1001
ACDBBLOCKREPETAG
1070
     1
1071
      123
1005
139A85
  0
LINE
  5
139A86
  8
OBJECT
 10
6176.9999999999873
 20
-258.99999999999909
 30
0.0
 11
6172.9999999999864
 21
-254.49999999999909
 31
0.0
1001
ACDBBLOCKREPETAG
1070
     1
1071
      124
1005
139A86
  0
LINE
  5
139A87
  8
OBJECT
 10
6083.0
 20
-137.99999999999909
 30
0.0
 11
6080.0
 21
-137.99999999999909
 31
0.0
1001
ACDBBLOCKREPETAG
1070
     1
1071
      125
1005
139A87
  0
ARC
  5
139A88
  8
OBJECT
 10
6083.0
 20
-140.99999999999909
 30
0.0
 40
3.0
 50
0.0
 51
90.0
1001
ACDBBLOCKREPETAG
1070
     1
1071
      126
1005
139A88
  0
LINE
  5
139A89
  8
OBJECT
 10
6080.0
 20
-261.99999999999909
 30
0.0
 11
6083.0
 21
-261.99999999999909
 31
0.0
1001
ACDBBLOCKREPETAG
1070
     1
1071
      127
1005
139A89
  0
ARC
  5
139A8A
  8
OBJECT
 10
6083.0
 20
-258.99999999999909
 30
0.0
 40
3.0
 50
270.0
 51
0.0
1001
ACDBBLOCKREPETAG
1070
     1
1071
      128
1005
139A8A
  0
LINE
  5
139A8B
  8
OBJECT
 10
6086.0
 20
-258.99999999999909
 30
0.0
 11
6086.0
 21
-222.44994432063581
 31
0.0
1001
ACDBBLOCKREPETAG
1070
     1
1071
      129
1005
139A8B
  0
LINE
  5
139A8C
  8
OBJECT
 10
6086.0
 20
-177.55005567935859
 30
0.0
 11
6086.0
 21
-140.99999999999909
 31
0.0
1001
ACDBBLOCKREPETAG
1070
     1
1071
      130
1005
139A8C
  0
LINE
  5
139A8D
  8
HIDDEN
 10
6167.9999999999864
 20
-155.49999999999909
 30
0.0
 11
6167.9999999999864
 21
-244.49999999999909
 31
0.0
1001
ACDBBLOCKREPETAG
1070
     1
1071
      131
1005
139A8D
  0
LINE
  5
139A8E
  8
OBJECT
 10
6159.9999749641856
 20
-254.4999509238105
 30
0.0
 11
6159.9999749641856
 21
-145.4999509238105
 31
0.0
1001
ACDBBLOCKREPETAG
1070
     1
1071
      133
1005
139A8E
  0
ARC
  5
139A8F
  8
OBJECT
 10
6125.0000000000027
 20
-199.99999999999909
 30
0.0
 40
45.000000000000547
 50
90.0
 51
166.2158024759261
1001
ACDBBLOCKREPETAG
1070
     1
1071
      134
1005
139A8F
  0
ARC
  5
139A90
  8
OBJECT
 10
6125.0000000000027
 20
-199.99999999999909
 30
0.0
 40
45.000000000000547
 50
193.78421279332531
 51
270.0
1001
ACDBBLOCKREPETAG
1070
     1
1071
      402
1005
139A90
  0
LINE
  5
139A91
  8
OBJECT
 10
3787.000000000015
 20
-553.0
 30
0.0
 11
3780.000000000015
 21
-553.0
 31
0.0
1001
ACDBBLOCKREPETAG
1070
     1
1071
      106
1005
139A91
  0
LINE
  5
139A92
  8
OBJECT
 10
3780.000000000015
 20
-553.0
 30
0.0
 11
3780.000000000015
 21
-677.0
 31
0.0
1001
ACDBBLOCKREPETAG
1070
     1
1071
      107
1005
139A92
  0
LINE
  5
139A93
  8
OBJECT
 10
3914.0000000000159
 20
-653.3502637757274
 30
0.0
 11
3914.0000000000159
 21
-755.00000000000102
 31
0.0
1001
ACDBBLOCKREPETAG
1070
     1
1071
      108
1005
139A93
  0
LINE
  5
139A94
  8
OBJECT
 10
3780.000000000015
 20
-677.0
 30
0.0
 11
3787.000000000015
 21
-677.0
 31
0.0
1001
ACDBBLOCKREPETAG
1070
     1
1071
      109
1005
139A94
  0
LINE
  5
139A95
  8
OBJECT
 10
3787.000000000015
 20
-677.0
 30
0.0
 11
3787.000000000015
 21
-553.0
 31
0.0
1001
ACDBBLOCKREPETAG
1070
     1
1071
      110
1005
139A95
  0
LINE
  5
139A96
  8
CENTER
 10
3855.0000000000141
 20
-615.0000000000008
 30
0.0
 11
3765.0000000000159
 21
-615.0
 31
0.0
1001
ACDBBLOCKREPETAG
1070
     1
1071
      111
1005
139A96
  0
LINE
  5
139A97
  8
OBJECT
 10
3920.0000000000182
 20
-758.0
 30
0.0
 11
3917.0000000000141
 21
-758.0000000000008
 31
0.0
1001
ACDBBLOCKREPETAG
1070
     1
1071
      112
1005
139A97
  0
ARC
  5
139A98
  8
OBJECT
 10
3917.0000000000141
 20
-755.00000000000102
 30
0.0
 40
3.0
 50
180.0
 51
270.0
1001
ACDBBLOCKREPETAG
1070
     1
1071
      113
1005
139A98
  0
LINE
  5
139A99
  8
OBJECT
 10
3787.000000000015
 20
-556.0
 30
0.0
 11
3823.0000000000141
 21
-556.0000000000008
 31
0.0
1001
ACDBBLOCKREPETAG
1070
     1
1071
      114
1005
139A99
  0
LINE
  5
139A9A
  8
OBJECT
 10
3823.0000000000141
 20
-556.0000000000008
 30
0.0
 11
3823.0000000000141
 21
-653.15756805667843
 31
0.0
1001
ACDBBLOCKREPETAG
1070
     1
1071
      115
1005
139A9A
  0
LINE
  5
139A9B
  8
OBJECT
 10
3827.000000000015
 20
-560.5000000000008
 30
0.0
 11
3827.0000000000182
 21
-645.74491827928705
 31
0.0
1001
ACDBBLOCKREPETAG
1070
     1
1071
      116
1005
139A9B
  0
LINE
  5
139A9C
  8
OBJECT
 10
3827.000000000015
 20
-560.5000000000008
 30
0.0
 11
3840.0000000000159
 21
-560.5000000000008
 31
0.0
1001
ACDBBLOCKREPETAG
1070
     1
1071
      117
1005
139A9C
  0
LINE
  5
139A9D
  8
OBJECT
 10
3831.3436831745321
 20
-674.0000000000008
 30
0.0
 11
3787.000000000015
 21
-674.0
 31
0.0
1001
ACDBBLOCKREPETAG
1070
     1
1071
      118
1005
139A9D
  0
LINE
  5
139A9E
  8
OBJECT
 10
3823.0000000000141
 20
-556.0000000000008
 30
0.0
 11
3827.000000000015
 21
-560.5000000000008
 31
0.0
1001
ACDBBLOCKREPETAG
1070
     1
1071
      119
1005
139A9E
  0
LINE
  5
139A9F
  8
OBJECT
 10
3840.0000000000159
 20
-560.5000000000008
 30
0.0
 11
3840.0000000000159
 21
-645.74491827928784
 31
0.0
1001
ACDBBLOCKREPETAG
1070
     1
1071
      120
1005
139A9F
  0
ARC
  5
139AA0
  8
OBJECT
 10
3908.000000000015
 20
-637.27386365609345
 30
0.0
 40
85.0
 50
205.59913872187661
 51
231.40900676279119
1001
ACDBBLOCKREPETAG
1070
     1
1071
      121
1005
139AA0
  0
ARC
  5
139AA1
  8
OBJECT
 10
3837.2000000000162
 20
-655.00000000000068
 30
0.0
 40
85.0
 50
19.925932125430649
 51
88.112268108168848
1001
ACDBBLOCKREPETAG
1070
     1
1071
      122
1005
139AA1
  0
LINE
  5
139AA2
  8
OBJECT
 10
3914.0000000000159
 20
-750.81075719270905
 30
0.0
 11
3854.9806774563981
 21
-703.71143914629454
 31
0.0
1001
ACDBBLOCKREPETAG
1070
     1
1071
      123
1005
139AA2
  0
LINE
  5
139AA3
  8
OBJECT
 10
3827.0000000000182
 20
-645.74491827928705
 30
0.0
 11
3840.0000000000159
 21
-645.74491827928784
 31
0.0
1001
ACDBBLOCKREPETAG
1070
     1
1071
      124
1005
139AA3
  0
LINE
  5
139AA4
  8
OBJECT
 10
3823.0000000000141
 20
-653.15756805667843
 30
0.0
 11
3827.0000000000182
 21
-645.74491827928705
 31
0.0
1001
ACDBBLOCKREPETAG
1070
     1
1071
      125
1005
139AA4
  0
LINE
  5
139AA5
  8
OBJECT
 10
3919.9999999999818
 20
-634.0
 30
0.0
 11
3917.111387840378
 21
-626.03156729425325
 31
0.0
1001
ACDBBLOCKREPETAG
1070
     1
1071
      126
1005
139AA5
  0
LINE
  5
139AA6
  8
OBJECT
 10
3919.9999999999818
 20
-634.0
 30
0.0
 11
3914.0000000000159
 21
-653.3502637757274
 31
0.0
1001
ACDBBLOCKREPETAG
1070
     1
1071
      127
1005
139AA6
  0
LINE
  5
139AA7
  8
HIDDEN
 10
3832.0000000000159
 20
-570.5000000000008
 30
0.0
 11
3832.0000000000159
 21
-659.50000000000068
 31
0.0
1001
ACDBBLOCKREPETAG
1070
     1
1071
      129
1005
139AA7
  0
CIRCLE
  5
139AA8
  8
OBJECT
 10
4000.0
 20
-696.0
 30
0.0
 40
62.0
1001
ACDBBLOCKREPETAG
1070
     1
1071
        0
1005
139AA8
  0
LINE
  5
139AA9
  8
OBJECT
 10
3787.0000000000191
 20
-137.99999999999909
 30
0.0
 11
3780.0000000000182
 21
-137.99999999999909
 31
0.0
1001
ACDBBLOCKREPETAG
1070
     1
1071
      110
1005
139AA9
  0
LINE
  5
139AAA
  8
OBJECT
 10
3780.0000000000182
 20
-137.99999999999909
 30
0.0
 11
3780.0000000000182
 21
-261.99999999999909
 31
0.0
1001
ACDBBLOCKREPETAG
1070
     1
1071
      111
1005
139AAA
  0
LINE
  5
139AAB
  8
OBJECT
 10
3780.0000000000182
 20
-261.99999999999909
 30
0.0
 11
3787.0000000000191
 21
-261.99999999999909
 31
0.0
1001
ACDBBLOCKREPETAG
1070
     1
1071
      112
1005
139AAB
  0
LINE
  5
139AAC
  8
OBJECT
 10
3787.0000000000191
 20
-261.99999999999909
 30
0.0
 11
3787.0000000000191
 21
-137.99999999999909
 31
0.0
1001
ACDBBLOCKREPETAG
1070
     1
1071
      113
1005
139AAC
  0
LINE
  5
139AAD
  8
CENTER
 10
3765.0000000000182
 20
-199.99999999999909
 30
0.0
 11
3920.0
 21
-199.99999999999909
 31
0.0
1001
ACDBBLOCKREPETAG
1070
     1
1071
      114
1005
139AAD
  0
LINE
  5
139AAE
  8
OBJECT
 10
3840.0000250358171
 20
-245.0000000000027
 30
0.0
 11
3914.000000000005
 21
-244.99999999999909
 31
0.0
1001
ACDBBLOCKREPETAG
1070
     1
1071
      115
1005
139AAE
  0
LINE
  5
139AAF
  8
OBJECT
 10
3840.0000250358171
 20
-154.99999999999909
 30
0.0
 11
3914.000000000005
 21
-154.99999999999909
 31
0.0
1001
ACDBBLOCKREPETAG
1070
     1
1071
      116
1005
139AAF
  0
LINE
  5
139AB0
  8
OBJECT
 10
3787.0000000000191
 20
-140.99999999999909
 30
0.0
 11
3823.0000000000182
 21
-140.99999999999909
 31
0.0
1001
ACDBBLOCKREPETAG
1070
     1
1071
      117
1005
139AB0
  0
LINE
  5
139AB1
  8
OBJECT
 10
3823.0000000000182
 20
-140.99999999999909
 30
0.0
 11
3823.0000000000182
 21
-258.99999999999909
 31
0.0
1001
ACDBBLOCKREPETAG
1070
     1
1071
      118
1005
139AB1
  0
LINE
  5
139AB2
  8
OBJECT
 10
3823.0000000000182
 20
-258.99999999999909
 30
0.0
 11
3787.0000000000191
 21
-258.99999999999909
 31
0.0
1001
ACDBBLOCKREPETAG
1070
     1
1071
      119
1005
139AB2
  0
LINE
  5
139AB3
  8
OBJECT
 10
3827.0000000000182
 20
-145.49999999999909
 30
0.0
 11
3840.0000000000191
 21
-145.49999999999909
 31
0.0
1001
ACDBBLOCKREPETAG
1070
     1
1071
      120
1005
139AB3
  0
LINE
  5
139AB4
  8
OBJECT
 10
3840.0000000000191
 20
-254.49999999999909
 30
0.0
 11
3827.0000000000182
 21
-254.49999999999909
 31
0.0
1001
ACDBBLOCKREPETAG
1070
     1
1071
      121
1005
139AB4
  0
LINE
  5
139AB5
  8
OBJECT
 10
3827.0000000000182
 20
-254.49999999999909
 30
0.0
 11
3827.0000000000182
 21
-145.49999999999909
 31
0.0
1001
ACDBBLOCKREPETAG
1070
     1
1071
      122
1005
139AB5
  0
LINE
  5
139AB6
  8
OBJECT
 10
3823.0000000000182
 20
-140.99999999999909
 30
0.0
 11
3827.0000000000182
 21
-145.49999999999909
 31
0.0
1001
ACDBBLOCKREPETAG
1070
     1
1071
      123
1005
139AB6
  0
LINE
  5
139AB7
  8
OBJECT
 10
3823.0000000000182
 20
-258.99999999999909
 30
0.0
 11
3827.0000000000182
 21
-254.49999999999909
 31
0.0
1001
ACDBBLOCKREPETAG
1070
     1
1071
      124
1005
139AB7
  0
LINE
  5
139AB8
  8
OBJECT
 10
3917.000000000005
 20
-137.99999999999909
 30
0.0
 11
3920.0000000000041
 21
-137.99999999999909
 31
0.0
1001
ACDBBLOCKREPETAG
1070
     1
1071
      125
1005
139AB8
  0
ARC
  5
139AB9
  8
OBJECT
 10
3917.000000000005
 20
-140.99999999999909
 30
0.0
 40
3.0
 50
90.0
 51
180.0
1001
ACDBBLOCKREPETAG
1070
     1
1071
      126
1005
139AB9
  0
LINE
  5
139ABA
  8
OBJECT
 10
3920.0000000000041
 20
-261.99999999999909
 30
0.0
 11
3917.000000000005
 21
-261.99999999999909
 31
0.0
1001
ACDBBLOCKREPETAG
1070
     1
1071
      127
1005
139ABA
  0
ARC
  5
139ABB
  8
OBJECT
 10
3917.000000000005
 20
-258.99999999999909
 30
0.0
 40
3.0
 50
180.0
 51
270.0
1001
ACDBBLOCKREPETAG
1070
     1
1071
      128
1005
139ABB
  0
LINE
  5
139ABC
  8
OBJECT
 10
3914.000000000005
 20
-258.99999999999909
 30
0.0
 11
3914.000000000005
 21
-222.44994432063581
 31
0.0
1001
ACDBBLOCKREPETAG
1070
     1
1071
      129
1005
139ABC
  0
LINE
  5
139ABD
  8
OBJECT
 10
3914.000000000005
 20
-177.55005567935859
 30
0.0
 11
3914.000000000005
 21
-140.99999999999909
 31
0.0
1001
ACDBBLOCKREPETAG
1070
     1
1071
      130
1005
139ABD
  0
LINE
  5
139ABE
  8
HIDDEN
 10
3832.0000000000182
 20
-155.49999999999909
 30
0.0
 11
3832.0000000000182
 21
-244.49999999999909
 31
0.0
1001
ACDBBLOCKREPETAG
1070
     1
1071
      131
1005
139ABE
  0
LINE
  5
139ABF
  8
OBJECT
 10
3840.0000250358171
 20
-254.4999509238105
 30
0.0
 11
3840.0000250358171
 21
-145.4999509238105
 31
0.0
1001
ACDBBLOCKREPETAG
1070
     1
1071
      133
1005
139ABF
  0
ARC
  5
139AC0
  8
OBJECT
 10
3875.0
 20
-199.99999999999909
 30
0.0
 40
45.000000000000547
 50
270.0
 51
346.21579484130518
1001
ACDBBLOCKREPETAG
1070
     1
1071
      134
1005
139AC0
  0
ARC
  5
139AC1
  8
OBJECT
 10
3875.0
 20
-199.99999999999909
 30
0.0
 40
45.000000000000547
 50
13.78420515869484
 51
90.0
1001
ACDBBLOCKREPETAG
1070
     1
1071
      402
1005
139AC1
  0
LINE
  5
139AC2
  8
CENTER
 10
4000.0
 20
-300.99999999999898
 30
0.0
 11
4000.0
 21
-279.99999999999909
 31
0.0
1001
ACDBBLOCKREPETAG
1070
     1
1071
        0
1005
139AC2
  0
LINE
  5
139AC3
  8
OBJECT
 10
4062.0
 20
-283.0
 30
0.0
 11
4062.0
 21
-279.99999999999909
 31
0.0
1001
ACDBBLOCKREPETAG
1070
     1
1071
        1
1005
139AC3
  0
ARC
  5
139AC4
  8
OBJECT
 10
4059.0
 20
-283.0
 30
0.0
 40
3.0
 50
270.0
 51
0.0
1001
ACDBBLOCKREPETAG
1070
     1
1071
        2
1005
139AC4
  0
LINE
  5
139AC5
  8
OBJECT
 10
3938.0
 20
-279.99999999999909
 30
0.0
 11
3938.0
 21
-282.99999999999818
 31
0.0
1001
ACDBBLOCKREPETAG
1070
     1
1071
        3
1005
139AC5
  0
ARC
  5
139AC6
  8
OBJECT
 10
3941.0
 20
-282.99999999999818
 30
0.0
 40
3.0
 50
180.0
 51
270.0
1001
ACDBBLOCKREPETAG
1070
     1
1071
        4
1005
139AC6
  0
LINE
  5
139AC7
  8
OBJECT
 10
3941.0
 20
-285.99999999999818
 30
0.0
 11
4059.0
 21
-286.0
 31
0.0
1001
ACDBBLOCKREPETAG
1070
     1
1071
        5
1005
139AC7
  0
LINE
  5
139AC8
  8
HIDDEN
 10
3943.0
 20
-619.99999999999955
 30
0.0
 11
4057.0
 21
-619.99999999999955
 31
0.0
1001
ACDBBLOCKREPETAG
1070
     1
1071
       57
1005
139AC8
  0
LINE
  5
139AC9
  8
CENTER
 10
4000.0
 20
-534.99999999999955
 30
0.0
 11
4000.0
 21
-899.99999999999955
 31
0.0
1001
ACDBBLOCKREPETAG
1070
     1
1071
       58
1005
139AC9
  0
LINE
  5
139ACA
  8
OBJECT
 10
3928.0
 20
-570.99999999999955
 30
0.0
 11
3928.0
 21
-633.99999999999955
 31
0.0
1001
ACDBBLOCKREPETAG
1070
     1
1071
       59
1005
139ACA
  0
LINE
  5
139ACB
  8
OBJECT
 10
4072.0
 20
-633.99999999999955
 30
0.0
 11
4072.0
 21
-570.99999999999955
 31
0.0
1001
ACDBBLOCKREPETAG
1070
     1
1071
       60
1005
139ACB
  0
LINE
  5
139ACC
  8
OBJECT
 10
3920.0
 20
-887.99999999999955
 30
0.0
 11
4080.0
 21
-887.99999999999955
 31
0.0
1001
ACDBBLOCKREPETAG
1070
     1
1071
       61
1005
139ACC
  0
LINE
  5
139ACD
  8
OBJECT
 10
4080.0
 20
-633.99999999999955
 30
0.0
 11
3920.0
 21
-633.99999999999955
 31
0.0
1001
ACDBBLOCKREPETAG
1070
     1
1071
       62
1005
139ACD
  0
LINE
  5
139ACE
  8
OBJECT
 10
3920.0
 20
-887.99999999999955
 30
0.0
 11
3920.0
 21
-899.99999999999955
 31
0.0
1001
ACDBBLOCKREPETAG
1070
     1
1071
       63
1005
139ACE
  0
LINE
  5
139ACF
  8
OBJECT
 10
3920.0
 20
-899.99999999999955
 30
0.0
 11
4080.0
 21
-899.99999999999955
 31
0.0
1001
ACDBBLOCKREPETAG
1070
     1
1071
       64
1005
139ACF
  0
LINE
  5
139AD0
  8
OBJECT
 10
4080.0
 20
-899.99999999999955
 30
0.0
 11
4080.0
 21
-887.99999999999955
 31
0.0
1001
ACDBBLOCKREPETAG
1070
     1
1071
       65
1005
139AD0
  0
LINE
  5
139AD1
  8
OBJECT
 10
4074.9999999998631
 20
-757.99999999985016
 30
0.0
 11
4075.0
 21
-887.99999999999955
 31
0.0
1001
ACDBBLOCKREPETAG
1070
     1
1071
       69
1005
139AD1
  0
LINE
  5
139AD2
  8
OBJECT
 10
4074.9999908029849
 20
-757.99998602702112
 30
0.0
 11
4080.0
 21
-757.99998602702112
 31
0.0
1001
ACDBBLOCKREPETAG
1070
     1
1071
       70
1005
139AD2
  0
LINE
  5
139AD3
  8
OBJECT
 10
3925.0000000001392
 20
-757.99999999985016
 30
0.0
 11
3925.0
 21
-887.99999999999955
 31
0.0
1001
ACDBBLOCKREPETAG
1070
     1
1071
       71
1005
139AD3
  0
LINE
  5
139AD4
  8
OBJECT
 10
3925.0000091970151
 20
-757.99998602702112
 30
0.0
 11
3920.0
 21
-757.99998602702112
 31
0.0
1001
ACDBBLOCKREPETAG
1070
     1
1071
       72
1005
139AD4
  0
LINE
  5
139AD5
  8
OBJECT
 10
3918.0
 20
-570.99999999999955
 30
0.0
 11
3918.0
 21
-549.99999999999955
 31
0.0
1001
ACDBBLOCKREPETAG
1070
     1
1071
       73
1005
139AD5
  0
LINE
  5
139AD6
  8
OBJECT
 10
3918.0
 20
-549.99999999999955
 30
0.0
 11
4082.0000000000032
 21
-549.99999999999955
 31
0.0
1001
ACDBBLOCKREPETAG
1070
     1
1071
       74
1005
139AD6
  0
LINE
  5
139AD7
  8
OBJECT
 10
4082.0000000000032
 20
-570.99999999999955
 30
0.0
 11
3918.0
 21
-570.99999999999955
 31
0.0
1001
ACDBBLOCKREPETAG
1070
     1
1071
       75
1005
139AD7
  0
LINE
  5
139AD8
  8
OBJECT
 10
3920.7940817120261
 20
-549.99999999999955
 30
0.0
 11
3920.7940817120261
 21
-570.99999999999955
 31
0.0
1001
ACDBBLOCKREPETAG
1070
     1
1071
       76
1005
139AD8
  0
LINE
  5
139AD9
  8
OBJECT
 10
3928.7378959999992
 20
-549.99999999999955
 30
0.0
 11
3928.7378959999992
 21
-570.99999999999955
 31
0.0
1001
ACDBBLOCKREPETAG
1070
     1
1071
       77
1005
139AD9
  0
LINE
  5
139ADA
  8
OBJECT
 10
3970.8330260000012
 20
-549.99999999999955
 30
0.0
 11
3970.8330260000012
 21
-570.99999999999955
 31
0.0
1001
ACDBBLOCKREPETAG
1070
     1
1071
       78
1005
139ADA
  0
LINE
  5
139ADB
  8
OBJECT
 10
3978.7768389217999
 20
-549.99999999999955
 30
0.0
 11
3978.7768389217999
 21
-570.99999999999955
 31
0.0
1001
ACDBBLOCKREPETAG
1070
     1
1071
       79
1005
139ADB
  0
LINE
  5
139ADC
  8
OBJECT
 10
4082.0
 20
-570.99999999999955
 30
0.0
 11
4082.0
 21
-549.99999999999955
 31
0.0
1001
ACDBBLOCKREPETAG
1070
     1
1071
       80
1005
139ADC
  0
LINE
  5
139ADD
  8
OBJECT
 10
4079.205918287973
 20
-549.99999999999955
 30
0.0
 11
4079.205918287973
 21
-570.99999999999955
 31
0.0
1001
ACDBBLOCKREPETAG
1070
     1
1071
       81
1005
139ADD
  0
LINE
  5
139ADE
  8
OBJECT
 10
4071.2621040000008
 20
-549.99999999999955
 30
0.0
 11
4071.2621040000008
 21
-570.99999999999955
 31
0.0
1001
ACDBBLOCKREPETAG
1070
     1
1071
       82
1005
139ADE
  0
LINE
  5
139ADF
  8
OBJECT
 10
4029.1669739999979
 20
-549.99999999999955
 30
0.0
 11
4029.1669739999979
 21
-570.99999999999955
 31
0.0
1001
ACDBBLOCKREPETAG
1070
     1
1071
       83
1005
139ADF
  0
LINE
  5
139AE0
  8
OBJECT
 10
4021.2231610781992
 20
-549.99999999999955
 30
0.0
 11
4021.2231610781992
 21
-570.99999999999955
 31
0.0
1001
ACDBBLOCKREPETAG
1070
     1
1071
       84
1005
139AE0
  0
ARC
  5
139AE1
  8
OBJECT
 10
4200.6872746716726
 20
-749.40809941010718
 30
0.0
 40
170.6350503965856
 50
137.44134459184301
 51
149.91949581337221
1001
ACDBBLOCKREPETAG
1070
     1
1071
       85
1005
139AE1
  0
ARC
  5
139AE2
  8
OBJECT
 10
4200.6872746716726
 20
-642.59190058989179
 30
0.0
 40
170.6350503965856
 50
210.08050418662771
 51
222.55865540815699
1001
ACDBBLOCKREPETAG
1070
     1
1071
       86
1005
139AE2
  0
ARC
  5
139AE3
  8
OBJECT
 10
3799.3127253283278
 20
-749.40809941010718
 30
0.0
 40
170.6350503965856
 50
30.080504186710289
 51
42.558655408382641
1001
ACDBBLOCKREPETAG
1070
     1
1071
       87
1005
139AE3
  0
ARC
  5
139AE4
  8
OBJECT
 10
3799.3127253283278
 20
-642.59190058989179
 30
0.0
 40
170.6350503965856
 50
317.44134459161722
 51
329.9194958132897
1001
ACDBBLOCKREPETAG
1070
     1
1071
       88
1005
139AE4
  0
POINT
  5
139AE5
  8
DOTS
 10
4000.0
 20
-754.99999999999955
 30
0.0
1001
ACDBBLOCKREPETAG
1070
     1
1071
      202
1005
139AE5
  0
LINE
  5
139AE6
  8
OBJECT
 10
3946.6921941437549
 20
-195.46638161316051
 30
0.0
 11
3970.4540343856352
 21
-193.79865146436981
 31
0.0
1001
ACDBBLOCKREPETAG
1070
     1
1071
      319
1005
139AE6
  0
LINE
  5
139AE7
  8
OBJECT
 10
3947.3854347270608
 20
-190.305593971766
 30
0.0
 11
3966.9884352629019
 21
-188.92975272660161
 31
0.0
1001
ACDBBLOCKREPETAG
1070
     1
1071
      320
1005
139AE7
  0
LINE
  5
139AE8
  8
OBJECT
 10
3974.113537475278
 20
-242.77722592637201
 30
0.0
 11
3982.1366988374079
 21
-234.1690987954708
 31
0.0
1001
ACDBBLOCKREPETAG
1070
     1
1071
      321
1005
139AE8
  0
ARC
  5
139AE9
  8
OBJECT
 10
3982.1160071245399
 20
-183.28188966318251
 30
0.0
 40
60.031113246032611
 50
254.07020130412749
 51
262.33936106086588
1001
ACDBBLOCKREPETAG
1070
     1
1071
      322
1005
139AE9
  0
LINE
  5
139AEA
  8
OBJECT
 10
3977.6125997325148
 20
-197.67495277149911
 30
0.0
 11
3982.1366988374079
 21
-234.1690987954708
 31
0.0
1001
ACDBBLOCKREPETAG
1070
     1
1071
      323
1005
139AEA
  0
ARC
  5
139AEB
  8
OBJECT
 10
3967.6885653456411
 20
-198.90521351131881
 30
0.0
 40
10.0
 50
7.0667782929957941
 51
94.014734370532395
1001
ACDBBLOCKREPETAG
1070
     1
1071
      324
1005
139AEB
  0
ARC
  5
139AEC
  8
OBJECT
 10
3970.9441253709729
 20
-200.78147401875589
 30
0.0
 40
7.0
 50
7.0667782929957941
 51
94.014733775014648
1001
ACDBBLOCKREPETAG
1070
     1
1071
      325
1005
139AEC
  0
POINT
  5
139AED
  8
DOTS
 10
4000.0
 20
-199.99999999999909
 30
0.0
 50
270.0
1001
ACDBBLOCKREPETAG
1070
     1
1071
      153
1005
139AED
  0
ARC
  5
139AEE
  8
OBJECT
 10
4000.0
 20
-199.99999999999909
 30
0.0
 40
77.0
 50
202.25886899988009
 51
247.74113099990561
1001
ACDBBLOCKREPETAG
1070
     1
1071
       57
1005
139AEE
  0
ARC
  5
139AEF
  8
OBJECT
 10
4000.0
 20
-199.99999999999909
 30
0.0
 40
80.0
 50
50.804965661401717
 51
72.417343999921059
1001
ACDBBLOCKREPETAG
1070
     1
1071
       58
1005
139AEF
  0
ARC
  5
139AF0
  8
OBJECT
 10
4000.0
 20
-199.99999999999909
 30
0.0
 40
77.0
 50
292.25886900009442
 51
337.74113100011988
1001
ACDBBLOCKREPETAG
1070
     1
1071
       59
1005
139AF0
  0
ARC
  5
139AF1
  8
OBJECT
 10
4000.0
 20
-199.99999999999909
 30
0.0
 40
77.0
 50
112.25886900009441
 51
157.74113100011991
1001
ACDBBLOCKREPETAG
1070
     1
1071
       60
1005
139AF1
  0
ARC
  5
139AF2
  8
OBJECT
 10
4000.0
 20
-199.99999999999909
 30
0.0
 40
80.0
 50
107.5826560000789
 51
129.19497730757379
1001
ACDBBLOCKREPETAG
1070
     1
1071
       61
1005
139AF2
  0
ARC
  5
139AF3
  8
OBJECT
 10
4000.0
 20
-199.99999999999909
 30
0.0
 40
77.0
 50
22.258868999880129
 51
67.741130999905565
1001
ACDBBLOCKREPETAG
1070
     1
1071
       62
1005
139AF3
  0
CIRCLE
  5
139AF4
  8
OBJECT
 10
4000.0
 20
-199.99999999999909
 30
0.0
 40
70.0
1001
ACDBBLOCKREPETAG
1070
     1
1071
       63
1005
139AF4
  0
LINE
  5
139AF5
  8
OBJECT
 10
4029.1669749999969
 20
-271.26210499999888
 30
0.0
 11
4021.2231624441042
 21
-279.20591755589248
 31
0.0
1001
ACDBBLOCKREPETAG
1070
     1
1071
       64
1005
139AF5
  0
LINE
  5
139AF6
  8
OBJECT
 10
3970.8330260000012
 20
-271.26210499999888
 30
0.0
 11
3978.7768389219182
 21
-279.20591792191681
 31
0.0
1001
ACDBBLOCKREPETAG
1070
     1
1071
       65
1005
139AF6
  0
ARC
  5
139AF7
  8
OBJECT
 10
4000.0
 20
-199.99999999999909
 30
0.0
 40
82.000000000000014
 50
255.00000044864069
 51
285.00000053947957
1001
ACDBBLOCKREPETAG
1070
     1
1071
       66
1005
139AF7
  0
LINE
  5
139AF8
  8
OBJECT
 10
3928.7378959999992
 20
-229.1669739999989
 30
0.0
 11
3920.7940817120548
 21
-221.2231597120545
 31
0.0
1001
ACDBBLOCKREPETAG
1070
     1
1071
       67
1005
139AF8
  0
ARC
  5
139AF9
  8
OBJECT
 10
4000.0
 20
-199.99999999999909
 30
0.0
 40
82.000000000000014
 50
165.00000044885411
 51
194.9999985630262
1001
ACDBBLOCKREPETAG
1070
     1
1071
       68
1005
139AF9
  0
LINE
  5
139AFA
  8
OBJECT
 10
3970.8330260000012
 20
-128.7378949999993
 30
0.0
 11
3978.7768389219182
 21
-120.7940820780795
 31
0.0
1001
ACDBBLOCKREPETAG
1070
     1
1071
       69
1005
139AFA
  0
ARC
  5
139AFB
  8
OBJECT
 10
4000.0
 20
-199.99999999999909
 30
0.0
 40
82.000000000000014
 50
74.999999460520442
 51
104.99999955135929
1001
ACDBBLOCKREPETAG
1070
     1
1071
       70
1005
139AFB
  0
LINE
  5
139AFC
  8
OBJECT
 10
4029.1669749999969
 20
-128.7378949999993
 30
0.0
 11
4021.2231624441042
 21
-120.79408244410391
 31
0.0
1001
ACDBBLOCKREPETAG
1070
     1
1071
       71
1005
139AFC
  0
LINE
  5
139AFD
  8
OBJECT
 10
3962.4020590000009
 20
-161.93893300000039
 30
0.0
 11
4037.0841102714221
 21
-174.5180316957439
 31
0.0
1001
ACDBBLOCKREPETAG
1070
     1
1071
       72
1005
139AFD
  0
LINE
  5
139AFE
  8
OBJECT
 10
4044.0936569999958
 20
-169.70149399999991
 30
0.0
 11
4037.0841102714221
 21
-174.5180316957439
 31
0.0
1001
ACDBBLOCKREPETAG
1070
     1
1071
       73
1005
139AFE
  0
LINE
  5
139AFF
  8
OBJECT
 10
3928.7378959999992
 20
-170.833024999999
 30
0.0
 11
3920.7940820780782
 21
-178.77683892191911
 31
0.0
1001
ACDBBLOCKREPETAG
1070
     1
1071
       74
1005
139AFF
  0
CIRCLE
  5
139B00
  8
OBJECT
 10
4000.0
 20
-199.99999999999909
 30
0.0
 40
53.500000000000007
1001
ACDBBLOCKREPETAG
1070
     1
1071
       75
1005
139B00
  0
ARC
  5
139B01
  8
OBJECT
 10
4000.0
 20
-199.99999999999909
 30
0.0
 40
50.0
 50
131.70180964355251
 51
168.52376955958741
1001
ACDBBLOCKREPETAG
1070
     1
1071
       76
1005
139B01
  0
ARC
  5
139B02
  8
OBJECT
 10
4000.0
 20
-199.99999999999909
 30
0.0
 40
50.0
 50
238.8199429999047
 51
34.49450625011707
1001
ACDBBLOCKREPETAG
1070
     1
1071
       77
1005
139B02
  0
LINE
  5
139B03
  8
OBJECT
 10
4071.2621049999971
 20
-170.833024999999
 30
0.0
 11
4079.2059175558929
 21
-178.77683755589439
 31
0.0
1001
ACDBBLOCKREPETAG
1070
     1
1071
       78
1005
139B03
  0
ARC
  5
139B04
  8
OBJECT
 10
4000.0
 20
-199.99999999999909
 30
0.0
 40
82.000000000000014
 50
345.00000044885422
 51
15.00000053937171
1001
ACDBBLOCKREPETAG
1070
     1
1071
       79
1005
139B04
  0
LINE
  5
139B05
  8
OBJECT
 10
4071.2621049999971
 20
-229.1669739999989
 30
0.0
 11
4079.20591792192
 21
-221.2231610780791
 31
0.0
1001
ACDBBLOCKREPETAG
1070
     1
1071
       80
1005
139B05
  0
LINE
  5
139B06
  8
OBJECT
 10
4045.661800227324
 20
-137.99999999999909
 30
0.0
 11
4080.0
 21
-137.99999999999909
 31
0.0
1001
ACDBBLOCKREPETAG
1070
     1
1071
       81
1005
139B06
  0
LINE
  5
139B07
  8
OBJECT
 10
4062.0
 20
-261.99999999999909
 30
0.0
 11
4080.0
 21
-261.99999999999909
 31
0.0
1001
ACDBBLOCKREPETAG
1070
     1
1071
       82
1005
139B07
  0
LINE
  5
139B08
  8
OBJECT
 10
4062.0
 20
-261.99999999999909
 30
0.0
 11
4062.0
 21
-279.99999999999909
 31
0.0
1001
ACDBBLOCKREPETAG
1070
     1
1071
       84
1005
139B08
  0
LINE
  5
139B09
  8
OBJECT
 10
3938.0
 20
-261.99999999999909
 30
0.0
 11
3938.0
 21
-279.99999999999909
 31
0.0
1001
ACDBBLOCKREPETAG
1070
     1
1071
       85
1005
139B09
  0
LINE
  5
139B0A
  8
OBJECT
 10
3938.0
 20
-261.99999999999909
 30
0.0
 11
3920.0
 21
-261.99999999999909
 31
0.0
1001
ACDBBLOCKREPETAG
1070
     1
1071
       87
1005
139B0A
  0
LINE
  5
139B0B
  8
OBJECT
 10
3954.338199772676
 20
-137.99999999999909
 30
0.0
 11
3920.0
 21
-137.99999999999909
 31
0.0
1001
ACDBBLOCKREPETAG
1070
     1
1071
       88
1005
139B0B
  0
LINE
  5
139B0C
  8
CENTER
 10
4080.0
 20
-199.99999999999909
 30
0.0
 11
3920.0
 21
-199.99999999999909
 31
0.0
1001
ACDBBLOCKREPETAG
1070
     1
1071
       97
1005
139B0C
  0
LINE
  5
139B0D
  8
CENTER
 10
4000.0
 20
-279.99999999999909
 30
0.0
 11
4000.0
 21
-104.9999999999991
 31
0.0
1001
ACDBBLOCKREPETAG
1070
     1
1071
       98
1005
139B0D
  0
LINE
  5
139B0E
  8
OBJECT
 10
3945.5527778486362
 20
-254.44722215136329
 30
0.0
 11
3938.0
 21
-261.99999999999909
 31
0.0
1001
ACDBBLOCKREPETAG
1070
     1
1071
       99
1005
139B0E
  0
LINE
  5
139B0F
  8
OBJECT
 10
4054.4472221513638
 20
-254.44722215136329
 30
0.0
 11
4062.0
 21
-261.99999999999909
 31
0.0
1001
ACDBBLOCKREPETAG
1070
     1
1071
      100
1005
139B0F
  0
LINE
  5
139B10
  8
OBJECT
 10
4212.9999999999854
 20
-553.0000000000008
 30
0.0
 11
4219.9999999999854
 21
-553.0000000000008
 31
0.0
1001
ACDBBLOCKREPETAG
1070
     1
1071
      106
1005
139B10
  0
LINE
  5
139B11
  8
OBJECT
 10
4219.9999999999854
 20
-553.0000000000008
 30
0.0
 11
4219.9999999999854
 21
-677.0000000000008
 31
0.0
1001
ACDBBLOCKREPETAG
1070
     1
1071
      107
1005
139B11
  0
LINE
  5
139B12
  8
OBJECT
 10
4085.9999999999859
 20
-653.3502637757274
 30
0.0
 11
4085.9999999999859
 21
-755.00000000000102
 31
0.0
1001
ACDBBLOCKREPETAG
1070
     1
1071
      108
1005
139B12
  0
LINE
  5
139B13
  8
OBJECT
 10
4219.9999999999854
 20
-677.0000000000008
 30
0.0
 11
4212.9999999999854
 21
-677.0000000000008
 31
0.0
1001
ACDBBLOCKREPETAG
1070
     1
1071
      109
1005
139B13
  0
LINE
  5
139B14
  8
OBJECT
 10
4212.9999999999854
 20
-677.0000000000008
 30
0.0
 11
4212.9999999999854
 21
-553.0000000000008
 31
0.0
1001
ACDBBLOCKREPETAG
1070
     1
1071
      110
1005
139B14
  0
LINE
  5
139B15
  8
CENTER
 10
4144.9999999999854
 20
-615.0000000000008
 30
0.0
 11
4234.9999999999854
 21
-615.0000000000008
 31
0.0
1001
ACDBBLOCKREPETAG
1070
     1
1071
      111
1005
139B15
  0
LINE
  5
139B16
  8
OBJECT
 10
4079.9999999999818
 20
-758.0
 30
0.0
 11
4082.999999999985
 21
-758.0000000000008
 31
0.0
1001
ACDBBLOCKREPETAG
1070
     1
1071
      112
1005
139B16
  0
ARC
  5
139B17
  8
OBJECT
 10
4082.999999999985
 20
-755.00000000000102
 30
0.0
 40
3.0
 50
270.0
 51
0.0
1001
ACDBBLOCKREPETAG
1070
     1
1071
      113
1005
139B17
  0
LINE
  5
139B18
  8
OBJECT
 10
4212.9999999999854
 20
-556.0000000000008
 30
0.0
 11
4176.9999999999854
 21
-556.0000000000008
 31
0.0
1001
ACDBBLOCKREPETAG
1070
     1
1071
      114
1005
139B18
  0
LINE
  5
139B19
  8
OBJECT
 10
4176.9999999999854
 20
-556.0000000000008
 30
0.0
 11
4176.9999999999854
 21
-653.15756805667843
 31
0.0
1001
ACDBBLOCKREPETAG
1070
     1
1071
      115
1005
139B19
  0
LINE
  5
139B1A
  8
OBJECT
 10
4172.9999999999854
 20
-560.5000000000008
 30
0.0
 11
4172.9999999999818
 21
-645.74491827928705
 31
0.0
1001
ACDBBLOCKREPETAG
1070
     1
1071
      116
1005
139B1A
  0
LINE
  5
139B1B
  8
OBJECT
 10
4172.9999999999854
 20
-560.5000000000008
 30
0.0
 11
4159.9999999999854
 21
-560.5000000000008
 31
0.0
1001
ACDBBLOCKREPETAG
1070
     1
1071
      117
1005
139B1B
  0
LINE
  5
139B1C
  8
OBJECT
 10
4168.6563168254679
 20
-674.0000000000008
 30
0.0
 11
4212.9999999999854
 21
-674.0000000000008
 31
0.0
1001
ACDBBLOCKREPETAG
1070
     1
1071
      118
1005
139B1C
  0
LINE
  5
139B1D
  8
OBJECT
 10
4176.9999999999854
 20
-556.0000000000008
 30
0.0
 11
4172.9999999999854
 21
-560.5000000000008
 31
0.0
1001
ACDBBLOCKREPETAG
1070
     1
1071
      119
1005
139B1D
  0
LINE
  5
139B1E
  8
OBJECT
 10
4159.9999999999854
 20
-560.5000000000008
 30
0.0
 11
4159.9999999999854
 21
-645.74491827928784
 31
0.0
1001
ACDBBLOCKREPETAG
1070
     1
1071
      120
1005
139B1E
  0
ARC
  5
139B1F
  8
OBJECT
 10
4091.9999999999841
 20
-637.27386365609345
 30
0.0
 40
85.0
 50
308.59099323720869
 51
334.40086127812339
1001
ACDBBLOCKREPETAG
1070
     1
1071
      121
1005
139B1F
  0
ARC
  5
139B20
  8
OBJECT
 10
4162.7999999999847
 20
-655.00000000000068
 30
0.0
 40
85.0
 50
91.887731891831123
 51
160.07406787456929
1001
ACDBBLOCKREPETAG
1070
     1
1071
      122
1005
139B20
  0
LINE
  5
139B21
  8
OBJECT
 10
4085.9999999999859
 20
-750.81075719270905
 30
0.0
 11
4145.0193225436024
 21
-703.71143914629454
 31
0.0
1001
ACDBBLOCKREPETAG
1070
     1
1071
      123
1005
139B21
  0
LINE
  5
139B22
  8
OBJECT
 10
4172.9999999999818
 20
-645.74491827928705
 30
0.0
 11
4159.9999999999854
 21
-645.74491827928784
 31
0.0
1001
ACDBBLOCKREPETAG
1070
     1
1071
      124
1005
139B22
  0
LINE
  5
139B23
  8
OBJECT
 10
4176.9999999999854
 20
-653.15756805667843
 30
0.0
 11
4172.9999999999818
 21
-645.74491827928705
 31
0.0
1001
ACDBBLOCKREPETAG
1070
     1
1071
      125
1005
139B23
  0
LINE
  5
139B24
  8
OBJECT
 10
4080.0000000000168
 20
-634.0
 30
0.0
 11
4082.8886121596229
 21
-626.03156729425325
 31
0.0
1001
ACDBBLOCKREPETAG
1070
     1
1071
      126
1005
139B24
  0
LINE
  5
139B25
  8
OBJECT
 10
4080.0000000000168
 20
-634.0
 30
0.0
 11
4085.9999999999859
 21
-653.3502637757274
 31
0.0
1001
ACDBBLOCKREPETAG
1070
     1
1071
      127
1005
139B25
  0
LINE
  5
139B26
  8
HIDDEN
 10
4167.9999999999854
 20
-570.5000000000008
 30
0.0
 11
4167.9999999999854
 21
-659.50000000000068
 31
0.0
1001
ACDBBLOCKREPETAG
1070
     1
1071
      129
1005
139B26
  0
LINE
  5
139B27
  8
OBJECT
 10
4212.9999999999854
 20
-137.99999999999909
 30
0.0
 11
4219.9999999999854
 21
-137.99999999999909
 31
0.0
1001
ACDBBLOCKREPETAG
1070
     1
1071
      110
1005
139B27
  0
LINE
  5
139B28
  8
OBJECT
 10
4219.9999999999854
 20
-137.99999999999909
 30
0.0
 11
4219.9999999999854
 21
-261.99999999999909
 31
0.0
1001
ACDBBLOCKREPETAG
1070
     1
1071
      111
1005
139B28
  0
LINE
  5
139B29
  8
OBJECT
 10
4219.9999999999854
 20
-261.99999999999909
 30
0.0
 11
4212.9999999999854
 21
-261.99999999999909
 31
0.0
1001
ACDBBLOCKREPETAG
1070
     1
1071
      112
1005
139B29
  0
LINE
  5
139B2A
  8
OBJECT
 10
4212.9999999999854
 20
-261.99999999999909
 30
0.0
 11
4212.9999999999854
 21
-137.99999999999909
 31
0.0
1001
ACDBBLOCKREPETAG
1070
     1
1071
      113
1005
139B2A
  0
LINE
  5
139B2B
  8
CENTER
 10
4234.9999999999854
 20
-199.99999999999909
 30
0.0
 11
4080.0000000000041
 21
-199.99999999999909
 31
0.0
1001
ACDBBLOCKREPETAG
1070
     1
1071
      114
1005
139B2B
  0
LINE
  5
139B2C
  8
OBJECT
 10
4159.9999749641847
 20
-245.0000000000027
 30
0.0
 11
4086.0
 21
-244.99999999999909
 31
0.0
1001
ACDBBLOCKREPETAG
1070
     1
1071
      115
1005
139B2C
  0
LINE
  5
139B2D
  8
OBJECT
 10
4159.9999749641847
 20
-154.99999999999909
 30
0.0
 11
4086.0
 21
-154.99999999999909
 31
0.0
1001
ACDBBLOCKREPETAG
1070
     1
1071
      116
1005
139B2D
  0
LINE
  5
139B2E
  8
OBJECT
 10
4212.9999999999854
 20
-140.99999999999909
 30
0.0
 11
4176.9999999999854
 21
-140.99999999999909
 31
0.0
1001
ACDBBLOCKREPETAG
1070
     1
1071
      117
1005
139B2E
  0
LINE
  5
139B2F
  8
OBJECT
 10
4176.9999999999854
 20
-140.99999999999909
 30
0.0
 11
4176.9999999999854
 21
-258.99999999999909
 31
0.0
1001
ACDBBLOCKREPETAG
1070
     1
1071
      118
1005
139B2F
  0
LINE
  5
139B30
  8
OBJECT
 10
4176.9999999999854
 20
-258.99999999999909
 30
0.0
 11
4212.9999999999854
 21
-258.99999999999909
 31
0.0
1001
ACDBBLOCKREPETAG
1070
     1
1071
      119
1005
139B30
  0
LINE
  5
139B31
  8
OBJECT
 10
4172.9999999999854
 20
-145.49999999999909
 30
0.0
 11
4159.9999999999854
 21
-145.49999999999909
 31
0.0
1001
ACDBBLOCKREPETAG
1070
     1
1071
      120
1005
139B31
  0
LINE
  5
139B32
  8
OBJECT
 10
4159.9999999999854
 20
-254.49999999999909
 30
0.0
 11
4172.9999999999854
 21
-254.49999999999909
 31
0.0
1001
ACDBBLOCKREPETAG
1070
     1
1071
      121
1005
139B32
  0
LINE
  5
139B33
  8
OBJECT
 10
4172.9999999999854
 20
-254.49999999999909
 30
0.0
 11
4172.9999999999854
 21
-145.49999999999909
 31
0.0
1001
ACDBBLOCKREPETAG
1070
     1
1071
      122
1005
139B33
  0
LINE
  5
139B34
  8
OBJECT
 10
4176.9999999999854
 20
-140.99999999999909
 30
0.0
 11
4172.9999999999854
 21
-145.49999999999909
 31
0.0
1001
ACDBBLOCKREPETAG
1070
     1
1071
      123
1005
139B34
  0
LINE
  5
139B35
  8
OBJECT
 10
4176.9999999999854
 20
-258.99999999999909
 30
0.0
 11
4172.9999999999854
 21
-254.49999999999909
 31
0.0
1001
ACDBBLOCKREPETAG
1070
     1
1071
      124
1005
139B35
  0
LINE
  5
139B36
  8
OBJECT
 10
4083.0
 20
-137.99999999999909
 30
0.0
 11
4080.0
 21
-137.99999999999909
 31
0.0
1001
ACDBBLOCKREPETAG
1070
     1
1071
      125
1005
139B36
  0
ARC
  5
139B37
  8
OBJECT
 10
4083.0
 20
-140.99999999999909
 30
0.0
 40
3.0
 50
0.0
 51
90.0
1001
ACDBBLOCKREPETAG
1070
     1
1071
      126
1005
139B37
  0
LINE
  5
139B38
  8
OBJECT
 10
4080.0
 20
-261.99999999999909
 30
0.0
 11
4083.0
 21
-261.99999999999909
 31
0.0
1001
ACDBBLOCKREPETAG
1070
     1
1071
      127
1005
139B38
  0
ARC
  5
139B39
  8
OBJECT
 10
4083.0
 20
-258.99999999999909
 30
0.0
 40
3.0
 50
270.0
 51
0.0
1001
ACDBBLOCKREPETAG
1070
     1
1071
      128
1005
139B39
  0
LINE
  5
139B3A
  8
OBJECT
 10
4086.0
 20
-258.99999999999909
 30
0.0
 11
4086.0
 21
-222.44994432063581
 31
0.0
1001
ACDBBLOCKREPETAG
1070
     1
1071
      129
1005
139B3A
  0
LINE
  5
139B3B
  8
OBJECT
 10
4086.0
 20
-177.55005567935859
 30
0.0
 11
4086.0
 21
-140.99999999999909
 31
0.0
1001
ACDBBLOCKREPETAG
1070
     1
1071
      130
1005
139B3B
  0
LINE
  5
139B3C
  8
HIDDEN
 10
4167.9999999999854
 20
-155.49999999999909
 30
0.0
 11
4167.9999999999854
 21
-244.49999999999909
 31
0.0
1001
ACDBBLOCKREPETAG
1070
     1
1071
      131
1005
139B3C
  0
LINE
  5
139B3D
  8
OBJECT
 10
4159.9999749641847
 20
-254.4999509238105
 30
0.0
 11
4159.9999749641847
 21
-145.4999509238105
 31
0.0
1001
ACDBBLOCKREPETAG
1070
     1
1071
      133
1005
139B3D
  0
ARC
  5
139B3E
  8
OBJECT
 10
4125.0000000000018
 20
-199.99999999999909
 30
0.0
 40
45.000000000000547
 50
90.0
 51
166.2158024759261
1001
ACDBBLOCKREPETAG
1070
     1
1071
      134
1005
139B3E
  0
ARC
  5
139B3F
  8
OBJECT
 10
4125.0000000000018
 20
-199.99999999999909
 30
0.0
 40
45.000000000000547
 50
193.78421279332531
 51
270.0
1001
ACDBBLOCKREPETAG
1070
     1
1071
      402
1005
139B3F
  0
LINE
  5
139B40
  8
OBJECT
 10
1787.000000000015
 20
-553.0
 30
0.0
 11
1780.0000000000141
 21
-553.0
 31
0.0
1001
ACDBBLOCKREPETAG
1070
     1
1071
      106
1005
139B40
  0
LINE
  5
139B41
  8
OBJECT
 10
1780.0000000000141
 20
-553.0
 30
0.0
 11
1780.0000000000141
 21
-677.0
 31
0.0
1001
ACDBBLOCKREPETAG
1070
     1
1071
      107
1005
139B41
  0
LINE
  5
139B42
  8
OBJECT
 10
1914.0000000000141
 20
-653.3502637757274
 30
0.0
 11
1914.0000000000141
 21
-755.00000000000102
 31
0.0
1001
ACDBBLOCKREPETAG
1070
     1
1071
      108
1005
139B42
  0
LINE
  5
139B43
  8
OBJECT
 10
1780.0000000000141
 20
-677.0
 30
0.0
 11
1787.000000000015
 21
-677.0
 31
0.0
1001
ACDBBLOCKREPETAG
1070
     1
1071
      109
1005
139B43
  0
LINE
  5
139B44
  8
OBJECT
 10
1787.000000000015
 20
-677.0
 30
0.0
 11
1787.000000000015
 21
-553.0
 31
0.0
1001
ACDBBLOCKREPETAG
1070
     1
1071
      110
1005
139B44
  0
LINE
  5
139B45
  8
CENTER
 10
1855.0000000000141
 20
-615.0000000000008
 30
0.0
 11
1765.0000000000141
 21
-615.0
 31
0.0
1001
ACDBBLOCKREPETAG
1070
     1
1071
      111
1005
139B45
  0
LINE
  5
139B46
  8
OBJECT
 10
1920.000000000018
 20
-758.0
 30
0.0
 11
1917.000000000015
 21
-758.0000000000008
 31
0.0
1001
ACDBBLOCKREPETAG
1070
     1
1071
      112
1005
139B46
  0
ARC
  5
139B47
  8
OBJECT
 10
1917.000000000015
 20
-755.00000000000102
 30
0.0
 40
3.0
 50
180.0
 51
270.0
1001
ACDBBLOCKREPETAG
1070
     1
1071
      113
1005
139B47
  0
LINE
  5
139B48
  8
OBJECT
 10
1787.000000000015
 20
-556.0
 30
0.0
 11
1823.0000000000141
 21
-556.0000000000008
 31
0.0
1001
ACDBBLOCKREPETAG
1070
     1
1071
      114
1005
139B48
  0
LINE
  5
139B49
  8
OBJECT
 10
1823.0000000000141
 20
-556.0000000000008
 30
0.0
 11
1823.0000000000141
 21
-653.15756805667843
 31
0.0
1001
ACDBBLOCKREPETAG
1070
     1
1071
      115
1005
139B49
  0
LINE
  5
139B4A
  8
OBJECT
 10
1827.0000000000141
 20
-560.5000000000008
 30
0.0
 11
1827.000000000018
 21
-645.74491827928705
 31
0.0
1001
ACDBBLOCKREPETAG
1070
     1
1071
      116
1005
139B4A
  0
LINE
  5
139B4B
  8
OBJECT
 10
1827.0000000000141
 20
-560.5000000000008
 30
0.0
 11
1840.0000000000141
 21
-560.5000000000008
 31
0.0
1001
ACDBBLOCKREPETAG
1070
     1
1071
      117
1005
139B4B
  0
LINE
  5
139B4C
  8
OBJECT
 10
1831.343683174531
 20
-674.0000000000008
 30
0.0
 11
1787.000000000015
 21
-674.0
 31
0.0
1001
ACDBBLOCKREPETAG
1070
     1
1071
      118
1005
139B4C
  0
LINE
  5
139B4D
  8
OBJECT
 10
1823.0000000000141
 20
-556.0000000000008
 30
0.0
 11
1827.0000000000141
 21
-560.5000000000008
 31
0.0
1001
ACDBBLOCKREPETAG
1070
     1
1071
      119
1005
139B4D
  0
LINE
  5
139B4E
  8
OBJECT
 10
1840.0000000000141
 20
-560.5000000000008
 30
0.0
 11
1840.0000000000141
 21
-645.74491827928784
 31
0.0
1001
ACDBBLOCKREPETAG
1070
     1
1071
      120
1005
139B4E
  0
ARC
  5
139B4F
  8
OBJECT
 10
1908.000000000015
 20
-637.27386365609345
 30
0.0
 40
85.0
 50
205.59913872188221
 51
231.40900676279119
1001
ACDBBLOCKREPETAG
1070
     1
1071
      121
1005
139B4F
  0
ARC
  5
139B50
  8
OBJECT
 10
1837.2000000000151
 20
-655.00000000000068
 30
0.0
 40
85.0
 50
19.925932125426211
 51
88.112268108168848
1001
ACDBBLOCKREPETAG
1070
     1
1071
      122
1005
139B50
  0
LINE
  5
139B51
  8
OBJECT
 10
1914.0000000000141
 20
-750.81075719270905
 30
0.0
 11
1854.980677456399
 21
-703.71143914629454
 31
0.0
1001
ACDBBLOCKREPETAG
1070
     1
1071
      123
1005
139B51
  0
LINE
  5
139B52
  8
OBJECT
 10
1827.000000000018
 20
-645.74491827928705
 30
0.0
 11
1840.0000000000141
 21
-645.74491827928784
 31
0.0
1001
ACDBBLOCKREPETAG
1070
     1
1071
      124
1005
139B52
  0
LINE
  5
139B53
  8
OBJECT
 10
1823.0000000000141
 20
-653.15756805667843
 30
0.0
 11
1827.000000000018
 21
-645.74491827928705
 31
0.0
1001
ACDBBLOCKREPETAG
1070
     1
1071
      125
1005
139B53
  0
LINE
  5
139B54
  8
OBJECT
 10
1919.999999999982
 20
-634.0
 30
0.0
 11
1917.111387840378
 21
-626.03156729425325
 31
0.0
1001
ACDBBLOCKREPETAG
1070
     1
1071
      126
1005
139B54
  0
LINE
  5
139B55
  8
OBJECT
 10
1919.999999999982
 20
-634.0
 30
0.0
 11
1914.0000000000141
 21
-653.3502637757274
 31
0.0
1001
ACDBBLOCKREPETAG
1070
     1
1071
      127
1005
139B55
  0
LINE
  5
139B56
  8
HIDDEN
 10
1832.0000000000141
 20
-570.5000000000008
 30
0.0
 11
1832.0000000000141
 21
-659.50000000000068
 31
0.0
1001
ACDBBLOCKREPETAG
1070
     1
1071
      129
1005
139B56
  0
CIRCLE
  5
139B57
  8
OBJECT
 10
2000.0
 20
-696.0
 30
0.0
 40
62.0
1001
ACDBBLOCKREPETAG
1070
     1
1071
        0
1005
139B57
  0
LINE
  5
139B58
  8
OBJECT
 10
1787.000000000018
 20
-137.99999999999909
 30
0.0
 11
1780.000000000018
 21
-137.99999999999909
 31
0.0
1001
ACDBBLOCKREPETAG
1070
     1
1071
      110
1005
139B58
  0
LINE
  5
139B59
  8
OBJECT
 10
1780.000000000018
 20
-137.99999999999909
 30
0.0
 11
1780.000000000018
 21
-261.99999999999909
 31
0.0
1001
ACDBBLOCKREPETAG
1070
     1
1071
      111
1005
139B59
  0
LINE
  5
139B5A
  8
OBJECT
 10
1780.000000000018
 20
-261.99999999999909
 30
0.0
 11
1787.000000000018
 21
-261.99999999999909
 31
0.0
1001
ACDBBLOCKREPETAG
1070
     1
1071
      112
1005
139B5A
  0
LINE
  5
139B5B
  8
OBJECT
 10
1787.000000000018
 20
-261.99999999999909
 30
0.0
 11
1787.000000000018
 21
-137.99999999999909
 31
0.0
1001
ACDBBLOCKREPETAG
1070
     1
1071
      113
1005
139B5B
  0
LINE
  5
139B5C
  8
CENTER
 10
1765.000000000018
 20
-199.99999999999909
 30
0.0
 11
1920.0
 21
-199.99999999999909
 31
0.0
1001
ACDBBLOCKREPETAG
1070
     1
1071
      114
1005
139B5C
  0
LINE
  5
139B5D
  8
OBJECT
 10
1840.0000250358171
 20
-245.0000000000027
 30
0.0
 11
1914.000000000003
 21
-244.99999999999909
 31
0.0
1001
ACDBBLOCKREPETAG
1070
     1
1071
      115
1005
139B5D
  0
LINE
  5
139B5E
  8
OBJECT
 10
1840.0000250358171
 20
-154.99999999999909
 30
0.0
 11
1914.000000000003
 21
-154.99999999999909
 31
0.0
1001
ACDBBLOCKREPETAG
1070
     1
1071
      116
1005
139B5E
  0
LINE
  5
139B5F
  8
OBJECT
 10
1787.000000000018
 20
-140.99999999999909
 30
0.0
 11
1823.000000000018
 21
-140.99999999999909
 31
0.0
1001
ACDBBLOCKREPETAG
1070
     1
1071
      117
1005
139B5F
  0
LINE
  5
139B60
  8
OBJECT
 10
1823.000000000018
 20
-140.99999999999909
 30
0.0
 11
1823.000000000018
 21
-258.99999999999909
 31
0.0
1001
ACDBBLOCKREPETAG
1070
     1
1071
      118
1005
139B60
  0
LINE
  5
139B61
  8
OBJECT
 10
1823.000000000018
 20
-258.99999999999909
 30
0.0
 11
1787.000000000018
 21
-258.99999999999909
 31
0.0
1001
ACDBBLOCKREPETAG
1070
     1
1071
      119
1005
139B61
  0
LINE
  5
139B62
  8
OBJECT
 10
1827.000000000018
 20
-145.49999999999909
 30
0.0
 11
1840.000000000018
 21
-145.49999999999909
 31
0.0
1001
ACDBBLOCKREPETAG
1070
     1
1071
      120
1005
139B62
  0
LINE
  5
139B63
  8
OBJECT
 10
1840.000000000018
 20
-254.49999999999909
 30
0.0
 11
1827.000000000018
 21
-254.49999999999909
 31
0.0
1001
ACDBBLOCKREPETAG
1070
     1
1071
      121
1005
139B63
  0
LINE
  5
139B64
  8
OBJECT
 10
1827.000000000018
 20
-254.49999999999909
 30
0.0
 11
1827.000000000018
 21
-145.49999999999909
 31
0.0
1001
ACDBBLOCKREPETAG
1070
     1
1071
      122
1005
139B64
  0
LINE
  5
139B65
  8
OBJECT
 10
1823.000000000018
 20
-140.99999999999909
 30
0.0
 11
1827.000000000018
 21
-145.49999999999909
 31
0.0
1001
ACDBBLOCKREPETAG
1070
     1
1071
      123
1005
139B65
  0
LINE
  5
139B66
  8
OBJECT
 10
1823.000000000018
 20
-258.99999999999909
 30
0.0
 11
1827.000000000018
 21
-254.49999999999909
 31
0.0
1001
ACDBBLOCKREPETAG
1070
     1
1071
      124
1005
139B66
  0
LINE
  5
139B67
  8
OBJECT
 10
1917.0000000000041
 20
-137.99999999999909
 30
0.0
 11
1920.0000000000041
 21
-137.99999999999909
 31
0.0
1001
ACDBBLOCKREPETAG
1070
     1
1071
      125
1005
139B67
  0
ARC
  5
139B68
  8
OBJECT
 10
1917.0000000000041
 20
-140.99999999999909
 30
0.0
 40
3.0
 50
90.0
 51
180.0
1001
ACDBBLOCKREPETAG
1070
     1
1071
      126
1005
139B68
  0
LINE
  5
139B69
  8
OBJECT
 10
1920.0000000000041
 20
-261.99999999999909
 30
0.0
 11
1917.0000000000041
 21
-261.99999999999909
 31
0.0
1001
ACDBBLOCKREPETAG
1070
     1
1071
      127
1005
139B69
  0
ARC
  5
139B6A
  8
OBJECT
 10
1917.0000000000041
 20
-258.99999999999909
 30
0.0
 40
3.0
 50
180.0
 51
270.0
1001
ACDBBLOCKREPETAG
1070
     1
1071
      128
1005
139B6A
  0
LINE
  5
139B6B
  8
OBJECT
 10
1914.000000000003
 20
-258.99999999999909
 30
0.0
 11
1914.000000000003
 21
-222.44994432063581
 31
0.0
1001
ACDBBLOCKREPETAG
1070
     1
1071
      129
1005
139B6B
  0
LINE
  5
139B6C
  8
OBJECT
 10
1914.000000000003
 20
-177.55005567935859
 30
0.0
 11
1914.000000000003
 21
-140.99999999999909
 31
0.0
1001
ACDBBLOCKREPETAG
1070
     1
1071
      130
1005
139B6C
  0
LINE
  5
139B6D
  8
HIDDEN
 10
1832.000000000018
 20
-155.49999999999909
 30
0.0
 11
1832.000000000018
 21
-244.49999999999909
 31
0.0
1001
ACDBBLOCKREPETAG
1070
     1
1071
      131
1005
139B6D
  0
LINE
  5
139B6E
  8
OBJECT
 10
1840.0000250358171
 20
-254.4999509238105
 30
0.0
 11
1840.0000250358171
 21
-145.4999509238105
 31
0.0
1001
ACDBBLOCKREPETAG
1070
     1
1071
      133
1005
139B6E
  0
ARC
  5
139B6F
  8
OBJECT
 10
1875.0
 20
-199.99999999999909
 30
0.0
 40
45.000000000000547
 50
270.0
 51
346.21579484130518
1001
ACDBBLOCKREPETAG
1070
     1
1071
      134
1005
139B6F
  0
ARC
  5
139B70
  8
OBJECT
 10
1875.0
 20
-199.99999999999909
 30
0.0
 40
45.000000000000547
 50
13.78420515869484
 51
90.0
1001
ACDBBLOCKREPETAG
1070
     1
1071
      402
1005
139B70
  0
LINE
  5
139B71
  8
CENTER
 10
2000.0
 20
-300.99999999999898
 30
0.0
 11
2000.0
 21
-279.99999999999909
 31
0.0
1001
ACDBBLOCKREPETAG
1070
     1
1071
        0
1005
139B71
  0
LINE
  5
139B72
  8
OBJECT
 10
2062.0
 20
-283.0
 30
0.0
 11
2062.0
 21
-279.99999999999909
 31
0.0
1001
ACDBBLOCKREPETAG
1070
     1
1071
        1
1005
139B72
  0
ARC
  5
139B73
  8
OBJECT
 10
2059.0
 20
-283.0
 30
0.0
 40
3.0
 50
270.0
 51
0.0
1001
ACDBBLOCKREPETAG
1070
     1
1071
        2
1005
139B73
  0
LINE
  5
139B74
  8
OBJECT
 10
1938.0
 20
-279.99999999999909
 30
0.0
 11
1938.0
 21
-282.99999999999818
 31
0.0
1001
ACDBBLOCKREPETAG
1070
     1
1071
        3
1005
139B74
  0
ARC
  5
139B75
  8
OBJECT
 10
1941.0
 20
-282.99999999999818
 30
0.0
 40
3.0
 50
180.0
 51
270.0
1001
ACDBBLOCKREPETAG
1070
     1
1071
        4
1005
139B75
  0
LINE
  5
139B76
  8
OBJECT
 10
1941.0
 20
-285.99999999999818
 30
0.0
 11
2059.0
 21
-286.0
 31
0.0
1001
ACDBBLOCKREPETAG
1070
     1
1071
        5
1005
139B76
  0
LINE
  5
139B77
  8
SLIM
 10
11914.999999999991
 20
-769.47385309434685
 30
0.0
 11
11929.47385309434
 21
-754.99999999999955
 31
0.0
1001
GRADIENTCOLOR1ACI
1070
     5
1001
GRADIENTCOLOR2ACI
1070
     2
1001
ACAD
1010
0.0
1020
0.0
1030
0.0
  0
LINE
  5
139B78
  8
SLIM
 10
11914.999999999991
 20
-787.43436533648469
 30
0.0
 11
11947.434365336479
 21
-754.99999999999955
 31
0.0
1001
GRADIENTCOLOR1ACI
1070
     5
1001
GRADIENTCOLOR2ACI
1070
     2
1001
ACAD
1010
0.0
1020
0.0
1030
0.0
  0
LINE
  5
139B79
  8
SLIM
 10
11915.0
 20
-805.39487757862241
 30
0.0
 11
11965.394877578619
 21
-754.99999999999955
 31
0.0
1001
GRADIENTCOLOR1ACI
1070
     5
1001
GRADIENTCOLOR2ACI
1070
     2
1001
ACAD
1010
0.0
1020
0.0
1030
0.0
  0
LINE
  5
139B7A
  8
SLIM
 10
11915.0
 20
-823.35538982076014
 30
0.0
 11
11983.355389820759
 21
-754.99999999999955
 31
0.0
1001
GRADIENTCOLOR1ACI
1070
     5
1001
GRADIENTCOLOR2ACI
1070
     2
1001
ACAD
1010
0.0
1020
0.0
1030
0.0
  0
LINE
  5
139B7B
  8
SLIM
 10
11915.0
 20
-841.31590206289775
 30
0.0
 11
12001.31590206289
 21
-754.99999999999955
 31
0.0
1001
GRADIENTCOLOR1ACI
1070
     5
1001
GRADIENTCOLOR2ACI
1070
     2
1001
ACAD
1010
0.0
1020
0.0
1030
0.0
  0
LINE
  5
139B7C
  8
SLIM
 10
11915.0
 20
-859.27641430503559
 30
0.0
 11
12019.27641430503
 21
-754.99999999999955
 31
0.0
1001
GRADIENTCOLOR1ACI
1070
     5
1001
GRADIENTCOLOR2ACI
1070
     2
1001
ACAD
1010
0.0
1020
0.0
1030
0.0
  0
LINE
  5
139B7D
  8
SLIM
 10
11915.0
 20
-877.2369265471732
 30
0.0
 11
12037.23692654717
 21
-754.99999999999955
 31
0.0
1001
GRADIENTCOLOR1ACI
1070
     5
1001
GRADIENTCOLOR2ACI
1070
     2
1001
ACAD
1010
0.0
1020
0.0
1030
0.0
  0
LINE
  5
139B7E
  8
SLIM
 10
11915.0
 20
-895.19743878931092
 30
0.0
 11
12055.19743878931
 21
-754.99999999999955
 31
0.0
1001
GRADIENTCOLOR1ACI
1070
     5
1001
GRADIENTCOLOR2ACI
1070
     2
1001
ACAD
1010
0.0
1020
0.0
1030
0.0
  0
LINE
  5
139B7F
  8
SLIM
 10
11915.0
 20
-913.15795103144865
 30
0.0
 11
12073.15795103145
 21
-754.99999999999955
 31
0.0
1001
GRADIENTCOLOR1ACI
1070
     5
1001
GRADIENTCOLOR2ACI
1070
     2
1001
ACAD
1010
0.0
1020
0.0
1030
0.0
  0
LINE
  5
139B80
  8
SLIM
 10
11915.0
 20
-931.11846327358637
 30
0.0
 11
12085.000000000009
 21
-761.11846327357694
 31
0.0
1001
GRADIENTCOLOR1ACI
1070
     5
1001
GRADIENTCOLOR2ACI
1070
     2
1001
ACAD
1010
0.0
1020
0.0
1030
0.0
  0
LINE
  5
139B81
  8
SLIM
 10
11915.0
 20
-949.07897551572387
 30
0.0
 11
12085.000000000009
 21
-779.07897551571614
 31
0.0
1001
GRADIENTCOLOR1ACI
1070
     5
1001
GRADIENTCOLOR2ACI
1070
     2
1001
ACAD
1010
0.0
1020
0.0
1030
0.0
  0
LINE
  5
139B82
  8
SLIM
 10
11915.0
 20
-967.03948775786148
 30
0.0
 11
12085.000000000009
 21
-797.039487757855
 31
0.0
1001
GRADIENTCOLOR1ACI
1070
     5
1001
GRADIENTCOLOR2ACI
1070
     2
1001
ACAD
1010
0.0
1020
0.0
1030
0.0
  0
LINE
  5
139B83
  8
SLIM
 10
11915.283600749561
 20
-984.71639925044155
 30
0.0
 11
12085.000000000009
 21
-814.99999999999375
 31
0.0
1001
GRADIENTCOLOR1ACI
1070
     5
1001
GRADIENTCOLOR2ACI
1070
     2
1001
ACAD
1010
0.0
1020
0.0
1030
0.0
  0
LINE
  5
139B84
  8
SLIM
 10
11917.49791047804
 20
-1000.462601764097
 30
0.0
 11
12085.000000000009
 21
-832.96051224213272
 31
0.0
1001
GRADIENTCOLOR1ACI
1070
     5
1001
GRADIENTCOLOR2ACI
1070
     2
1001
ACAD
1010
0.0
1020
0.0
1030
0.0
  0
LINE
  5
139B85
  8
SLIM
 10
11919.71222020652
 20
-1016.2088042777521
 30
0.0
 11
12085.0
 21
-850.92102448427181
 31
0.0
1001
GRADIENTCOLOR1ACI
1070
     5
1001
GRADIENTCOLOR2ACI
1070
     2
1001
ACAD
1010
0.0
1020
0.0
1030
0.0
  0
LINE
  5
139B86
  8
SLIM
 10
11921.92652993501
 20
-1031.9550067914081
 30
0.0
 11
12085.0
 21
-868.88153672641045
 31
0.0
1001
GRADIENTCOLOR1ACI
1070
     5
1001
GRADIENTCOLOR2ACI
1070
     2
1001
ACAD
1010
0.0
1020
0.0
1030
0.0
  0
LINE
  5
139B87
  8
SLIM
 10
11924.140839663491
 20
-1047.701209305063
 30
0.0
 11
12085.0
 21
-886.84204896854965
 31
0.0
1001
GRADIENTCOLOR1ACI
1070
     5
1001
GRADIENTCOLOR2ACI
1070
     2
1001
ACAD
1010
0.0
1020
0.0
1030
0.0
  0
LINE
  5
139B88
  8
SLIM
 10
11926.35514939196
 20
-1063.4474118187179
 30
0.0
 11
12085.0
 21
-904.80256121068828
 31
0.0
1001
GRADIENTCOLOR1ACI
1070
     5
1001
GRADIENTCOLOR2ACI
1070
     2
1001
ACAD
1010
0.0
1020
0.0
1030
0.0
  0
LINE
  5
139B89
  8
SLIM
 10
11928.56945912045
 20
-1079.193614332373
 30
0.0
 11
12085.0
 21
-922.76307345282714
 31
0.0
1001
GRADIENTCOLOR1ACI
1070
     5
1001
GRADIENTCOLOR2ACI
1070
     2
1001
ACAD
1010
0.0
1020
0.0
1030
0.0
  0
LINE
  5
139B8A
  8
SLIM
 10
11930.78376884894
 20
-1094.9398168460291
 30
0.0
 11
12085.0
 21
-940.72358569496646
 31
0.0
1001
GRADIENTCOLOR1ACI
1070
     5
1001
GRADIENTCOLOR2ACI
1070
     2
1001
ACAD
1010
0.0
1020
0.0
1030
0.0
  0
LINE
  5
139B8B
  8
SLIM
 10
11932.998078577421
 20
-1110.686019359684
 30
0.0
 11
12085.0
 21
-958.68409793710521
 31
0.0
1001
GRADIENTCOLOR1ACI
1070
     5
1001
GRADIENTCOLOR2ACI
1070
     2
1001
ACAD
1010
0.0
1020
0.0
1030
0.0
  0
LINE
  5
139B8C
  8
SLIM
 10
11932.999999999991
 20
-1128.644610179251
 30
0.0
 11
12085.0
 21
-976.64461017924395
 31
0.0
1001
GRADIENTCOLOR1ACI
1070
     5
1001
GRADIENTCOLOR2ACI
1070
     2
1001
ACAD
1010
0.0
1020
0.0
1030
0.0
  0
LINE
  5
139B8D
  8
SLIM
 10
11934.60512242139
 20
-1144.9999999999959
 30
0.0
 11
12083.051837154369
 21
-996.55328526701646
 31
0.0
1001
GRADIENTCOLOR1ACI
1070
     5
1001
GRADIENTCOLOR2ACI
1070
     2
1001
ACAD
1010
0.0
1020
0.0
1030
0.0
  0
LINE
  5
139B8E
  8
SLIM
 10
11952.565634663521
 20
-1144.9999999999959
 30
0.0
 11
12080.112844242019
 21
-1017.452790421504
 31
0.0
1001
GRADIENTCOLOR1ACI
1070
     5
1001
GRADIENTCOLOR2ACI
1070
     2
1001
ACAD
1010
0.0
1020
0.0
1030
0.0
  0
LINE
  5
139B8F
  8
SLIM
 10
11970.52614690566
 20
-1144.999999999997
 30
0.0
 11
12077.17385132967
 21
-1038.3522955759911
 31
0.0
1001
GRADIENTCOLOR1ACI
1070
     5
1001
GRADIENTCOLOR2ACI
1070
     2
1001
ACAD
1010
0.0
1020
0.0
1030
0.0
  0
LINE
  5
139B90
  8
SLIM
 10
11988.4866591478
 20
-1144.999999999997
 30
0.0
 11
12074.23485841732
 21
-1059.251800730478
 31
0.0
1001
GRADIENTCOLOR1ACI
1070
     5
1001
GRADIENTCOLOR2ACI
1070
     2
1001
ACAD
1010
0.0
1020
0.0
1030
0.0
  0
LINE
  5
139B91
  8
SLIM
 10
12006.44717138994
 20
-1144.999999999998
 30
0.0
 11
12071.29586550497
 21
-1080.151305884966
 31
0.0
1001
GRADIENTCOLOR1ACI
1070
     5
1001
GRADIENTCOLOR2ACI
1070
     2
1001
ACAD
1010
0.0
1020
0.0
1030
0.0
  0
LINE
  5
139B92
  8
SLIM
 10
12024.40768363208
 20
-1144.999999999998
 30
0.0
 11
12068.35687259262
 21
-1101.050811039453
 31
0.0
1001
GRADIENTCOLOR1ACI
1070
     5
1001
GRADIENTCOLOR2ACI
1070
     2
1001
ACAD
1010
0.0
1020
0.0
1030
0.0
  0
LINE
  5
139B93
  8
SLIM
 10
12042.368195874211
 20
-1144.9999999999991
 30
0.0
 11
12067.0
 21
-1120.3681958742011
 31
0.0
1001
GRADIENTCOLOR1ACI
1070
     5
1001
GRADIENTCOLOR2ACI
1070
     2
1001
ACAD
1010
0.0
1020
0.0
1030
0.0
  0
LINE
  5
139B94
  8
SLIM
 10
12060.328708116351
 20
-1144.9999999999991
 30
0.0
 11
12067.0
 21
-1138.3287081163401
 31
0.0
1001
GRADIENTCOLOR1ACI
1070
     5
1001
GRADIENTCOLOR2ACI
1070
     2
1001
ACAD
1010
0.0
1020
0.0
1030
0.0
  0
LINE
  5
139B95
  8
OBJECT
 10
11932.999999999991
 20
-1144.9999999999959
 30
0.0
 11
12067.0
 21
-1144.9999999999991
 31
0.0
1001
ACDBBLOCKREPETAG
1070
     1
1071
        1
1005
139B95
  0
LINE
  5
139B96
  8
OBJECT
 10
11914.999999999991
 20
-754.99999999999955
 30
0.0
 11
11915.0
 21
-982.69968280914077
 31
0.0
1001
ACDBBLOCKREPETAG
1070
     1
1071
        2
1005
139B96
  0
LINE
  5
139B97
  8
OBJECT
 10
12085.000000000009
 20
-754.99999999999955
 30
0.0
 11
12085.0
 21
-982.69968280917203
 31
0.0
1001
ACDBBLOCKREPETAG
1070
     1
1071
        3
1005
139B97
  0
LINE
  5
139B98
  8
OBJECT
 10
11915.0
 20
-982.69968280914077
 30
0.0
 11
11932.999999999991
 21
-1110.699682809081
 31
0.0
1001
ACDBBLOCKREPETAG
1070
     1
1071
        4
1005
139B98
  0
LINE
  5
139B99
  8
OBJECT
 10
12067.0
 20
-1110.699682809128
 30
0.0
 11
12085.0
 21
-982.69968280917203
 31
0.0
1001
ACDBBLOCKREPETAG
1070
     1
1071
        5
1005
139B99
  0
LINE
  5
139B9A
  8
OBJECT
 10
12085.000000000009
 20
-754.99999999999955
 30
0.0
 11
11914.999999999991
 21
-754.99999999999955
 31
0.0
1001
ACDBBLOCKREPETAG
1070
     1
1071
        6
1005
139B9A
  0
LINE
  5
139B9B
  8
OBJECT
 10
11932.999999999991
 20
-1110.699682809081
 30
0.0
 11
11932.999999999991
 21
-1144.9999999999959
 31
0.0
1001
ACDBBLOCKREPETAG
1070
     1
1071
        8
1005
139B9B
  0
LINE
  5
139B9C
  8
OBJECT
 10
12067.0
 20
-1110.699682809128
 30
0.0
 11
12067.0
 21
-1144.9999999999991
 31
0.0
1001
ACDBBLOCKREPETAG
1070
     1
1071
        9
1005
139B9C
  0
LINE
  5
139B9D
  8
SLIM
 10
9914.9999999999927
 20
-769.47385309434685
 30
0.0
 11
9929.4738530943396
 21
-754.99999999999955
 31
0.0
1001
GRADIENTCOLOR1ACI
1070
     5
1001
GRADIENTCOLOR2ACI
1070
     2
1001
ACAD
1010
0.0
1020
0.0
1030
0.0
  0
LINE
  5
139B9E
  8
SLIM
 10
9914.9999999999927
 20
-787.43436533648469
 30
0.0
 11
9947.4343653364795
 21
-754.99999999999955
 31
0.0
1001
GRADIENTCOLOR1ACI
1070
     5
1001
GRADIENTCOLOR2ACI
1070
     2
1001
ACAD
1010
0.0
1020
0.0
1030
0.0
  0
LINE
  5
139B9F
  8
SLIM
 10
9914.9999999999945
 20
-805.39487757862241
 30
0.0
 11
9965.3948775786175
 21
-754.99999999999955
 31
0.0
1001
GRADIENTCOLOR1ACI
1070
     5
1001
GRADIENTCOLOR2ACI
1070
     2
1001
ACAD
1010
0.0
1020
0.0
1030
0.0
  0
LINE
  5
139BA0
  8
SLIM
 10
9914.9999999999945
 20
-823.35538982076014
 30
0.0
 11
9983.3553898207556
 21
-754.99999999999955
 31
0.0
1001
GRADIENTCOLOR1ACI
1070
     5
1001
GRADIENTCOLOR2ACI
1070
     2
1001
ACAD
1010
0.0
1020
0.0
1030
0.0
  0
LINE
  5
139BA1
  8
SLIM
 10
9914.9999999999945
 20
-841.31590206289775
 30
0.0
 11
10001.31590206289
 21
-754.99999999999955
 31
0.0
1001
GRADIENTCOLOR1ACI
1070
     5
1001
GRADIENTCOLOR2ACI
1070
     2
1001
ACAD
1010
0.0
1020
0.0
1030
0.0
  0
LINE
  5
139BA2
  8
SLIM
 10
9914.9999999999964
 20
-859.27641430503559
 30
0.0
 11
10019.27641430503
 21
-754.99999999999955
 31
0.0
1001
GRADIENTCOLOR1ACI
1070
     5
1001
GRADIENTCOLOR2ACI
1070
     2
1001
ACAD
1010
0.0
1020
0.0
1030
0.0
  0
LINE
  5
139BA3
  8
SLIM
 10
9914.9999999999964
 20
-877.2369265471732
 30
0.0
 11
10037.23692654717
 21
-754.99999999999955
 31
0.0
1001
GRADIENTCOLOR1ACI
1070
     5
1001
GRADIENTCOLOR2ACI
1070
     2
1001
ACAD
1010
0.0
1020
0.0
1030
0.0
  0
LINE
  5
139BA4
  8
SLIM
 10
9914.9999999999964
 20
-895.19743878931092
 30
0.0
 11
10055.197438789301
 21
-754.99999999999955
 31
0.0
1001
GRADIENTCOLOR1ACI
1070
     5
1001
GRADIENTCOLOR2ACI
1070
     2
1001
ACAD
1010
0.0
1020
0.0
1030
0.0
  0
LINE
  5
139BA5
  8
SLIM
 10
9914.9999999999982
 20
-913.15795103144865
 30
0.0
 11
10073.15795103144
 21
-754.99999999999955
 31
0.0
1001
GRADIENTCOLOR1ACI
1070
     5
1001
GRADIENTCOLOR2ACI
1070
     2
1001
ACAD
1010
0.0
1020
0.0
1030
0.0
  0
LINE
  5
139BA6
  8
SLIM
 10
9914.9999999999982
 20
-931.11846327358637
 30
0.0
 11
10085.000000000009
 21
-761.11846327357694
 31
0.0
1001
GRADIENTCOLOR1ACI
1070
     5
1001
GRADIENTCOLOR2ACI
1070
     2
1001
ACAD
1010
0.0
1020
0.0
1030
0.0
  0
LINE
  5
139BA7
  8
SLIM
 10
9914.9999999999982
 20
-949.07897551572387
 30
0.0
 11
10085.000000000009
 21
-779.07897551571614
 31
0.0
1001
GRADIENTCOLOR1ACI
1070
     5
1001
GRADIENTCOLOR2ACI
1070
     2
1001
ACAD
1010
0.0
1020
0.0
1030
0.0
  0
LINE
  5
139BA8
  8
SLIM
 10
9915.0
 20
-967.03948775786148
 30
0.0
 11
10085.0
 21
-797.039487757855
 31
0.0
1001
GRADIENTCOLOR1ACI
1070
     5
1001
GRADIENTCOLOR2ACI
1070
     2
1001
ACAD
1010
0.0
1020
0.0
1030
0.0
  0
LINE
  5
139BA9
  8
SLIM
 10
9915.2836007495607
 20
-984.71639925044155
 30
0.0
 11
10085.0
 21
-814.99999999999375
 31
0.0
1001
GRADIENTCOLOR1ACI
1070
     5
1001
GRADIENTCOLOR2ACI
1070
     2
1001
ACAD
1010
0.0
1020
0.0
1030
0.0
  0
LINE
  5
139BAA
  8
SLIM
 10
9917.4979104780396
 20
-1000.462601764097
 30
0.0
 11
10085.0
 21
-832.96051224213272
 31
0.0
1001
GRADIENTCOLOR1ACI
1070
     5
1001
GRADIENTCOLOR2ACI
1070
     2
1001
ACAD
1010
0.0
1020
0.0
1030
0.0
  0
LINE
  5
139BAB
  8
SLIM
 10
9919.7122202065257
 20
-1016.2088042777521
 30
0.0
 11
10085.0
 21
-850.92102448427181
 31
0.0
1001
GRADIENTCOLOR1ACI
1070
     5
1001
GRADIENTCOLOR2ACI
1070
     2
1001
ACAD
1010
0.0
1020
0.0
1030
0.0
  0
LINE
  5
139BAC
  8
SLIM
 10
9921.9265299350063
 20
-1031.9550067914081
 30
0.0
 11
10085.0
 21
-868.88153672641045
 31
0.0
1001
GRADIENTCOLOR1ACI
1070
     5
1001
GRADIENTCOLOR2ACI
1070
     2
1001
ACAD
1010
0.0
1020
0.0
1030
0.0
  0
LINE
  5
139BAD
  8
SLIM
 10
9924.1408396634924
 20
-1047.701209305063
 30
0.0
 11
10085.0
 21
-886.84204896854965
 31
0.0
1001
GRADIENTCOLOR1ACI
1070
     5
1001
GRADIENTCOLOR2ACI
1070
     2
1001
ACAD
1010
0.0
1020
0.0
1030
0.0
  0
LINE
  5
139BAE
  8
SLIM
 10
9926.3551493919731
 20
-1063.4474118187179
 30
0.0
 11
10085.0
 21
-904.80256121068828
 31
0.0
1001
GRADIENTCOLOR1ACI
1070
     5
1001
GRADIENTCOLOR2ACI
1070
     2
1001
ACAD
1010
0.0
1020
0.0
1030
0.0
  0
LINE
  5
139BAF
  8
SLIM
 10
9928.5694591204574
 20
-1079.193614332373
 30
0.0
 11
10085.0
 21
-922.76307345282714
 31
0.0
1001
GRADIENTCOLOR1ACI
1070
     5
1001
GRADIENTCOLOR2ACI
1070
     2
1001
ACAD
1010
0.0
1020
0.0
1030
0.0
  0
LINE
  5
139BB0
  8
SLIM
 10
9930.7837688489417
 20
-1094.9398168460291
 30
0.0
 11
10085.0
 21
-940.72358569496646
 31
0.0
1001
GRADIENTCOLOR1ACI
1070
     5
1001
GRADIENTCOLOR2ACI
1070
     2
1001
ACAD
1010
0.0
1020
0.0
1030
0.0
  0
LINE
  5
139BB1
  8
SLIM
 10
9932.9980785774187
 20
-1110.686019359684
 30
0.0
 11
10085.0
 21
-958.68409793710521
 31
0.0
1001
GRADIENTCOLOR1ACI
1070
     5
1001
GRADIENTCOLOR2ACI
1070
     2
1001
ACAD
1010
0.0
1020
0.0
1030
0.0
  0
LINE
  5
139BB2
  8
SLIM
 10
9932.9999999999927
 20
-1128.644610179251
 30
0.0
 11
10085.0
 21
-976.64461017924395
 31
0.0
1001
GRADIENTCOLOR1ACI
1070
     5
1001
GRADIENTCOLOR2ACI
1070
     2
1001
ACAD
1010
0.0
1020
0.0
1030
0.0
  0
LINE
  5
139BB3
  8
SLIM
 10
9934.6051224213898
 20
-1144.9999999999959
 30
0.0
 11
10083.05183715436
 21
-996.55328526701646
 31
0.0
1001
GRADIENTCOLOR1ACI
1070
     5
1001
GRADIENTCOLOR2ACI
1070
     2
1001
ACAD
1010
0.0
1020
0.0
1030
0.0
  0
LINE
  5
139BB4
  8
SLIM
 10
9952.5656346635242
 20
-1144.9999999999959
 30
0.0
 11
10080.11284424201
 21
-1017.452790421504
 31
0.0
1001
GRADIENTCOLOR1ACI
1070
     5
1001
GRADIENTCOLOR2ACI
1070
     2
1001
ACAD
1010
0.0
1020
0.0
1030
0.0
  0
LINE
  5
139BB5
  8
SLIM
 10
9970.5261469056622
 20
-1144.999999999997
 30
0.0
 11
10077.17385132967
 21
-1038.3522955759911
 31
0.0
1001
GRADIENTCOLOR1ACI
1070
     5
1001
GRADIENTCOLOR2ACI
1070
     2
1001
ACAD
1010
0.0
1020
0.0
1030
0.0
  0
LINE
  5
139BB6
  8
SLIM
 10
9988.4866591478003
 20
-1144.999999999997
 30
0.0
 11
10074.23485841732
 21
-1059.251800730478
 31
0.0
1001
GRADIENTCOLOR1ACI
1070
     5
1001
GRADIENTCOLOR2ACI
1070
     2
1001
ACAD
1010
0.0
1020
0.0
1030
0.0
  0
LINE
  5
139BB7
  8
SLIM
 10
10006.44717138994
 20
-1144.999999999998
 30
0.0
 11
10071.29586550497
 21
-1080.151305884966
 31
0.0
1001
GRADIENTCOLOR1ACI
1070
     5
1001
GRADIENTCOLOR2ACI
1070
     2
1001
ACAD
1010
0.0
1020
0.0
1030
0.0
  0
LINE
  5
139BB8
  8
SLIM
 10
10024.407683632069
 20
-1144.999999999998
 30
0.0
 11
10068.35687259262
 21
-1101.050811039453
 31
0.0
1001
GRADIENTCOLOR1ACI
1070
     5
1001
GRADIENTCOLOR2ACI
1070
     2
1001
ACAD
1010
0.0
1020
0.0
1030
0.0
  0
LINE
  5
139BB9
  8
SLIM
 10
10042.368195874211
 20
-1144.9999999999991
 30
0.0
 11
10067.000000000009
 21
-1120.3681958742011
 31
0.0
1001
GRADIENTCOLOR1ACI
1070
     5
1001
GRADIENTCOLOR2ACI
1070
     2
1001
ACAD
1010
0.0
1020
0.0
1030
0.0
  0
LINE
  5
139BBA
  8
SLIM
 10
10060.328708116351
 20
-1144.9999999999991
 30
0.0
 11
10067.000000000009
 21
-1138.3287081163401
 31
0.0
1001
GRADIENTCOLOR1ACI
1070
     5
1001
GRADIENTCOLOR2ACI
1070
     2
1001
ACAD
1010
0.0
1020
0.0
1030
0.0
  0
LINE
  5
139BBB
  8
OBJECT
 10
9932.9999999999927
 20
-1144.9999999999959
 30
0.0
 11
10067.000000000009
 21
-1144.9999999999991
 31
0.0
1001
ACDBBLOCKREPETAG
1070
     1
1071
        1
1005
139BBB
  0
LINE
  5
139BBC
  8
OBJECT
 10
9914.9999999999927
 20
-754.99999999999955
 30
0.0
 11
9915.0
 21
-982.69968280914077
 31
0.0
1001
ACDBBLOCKREPETAG
1070
     1
1071
        2
1005
139BBC
  0
LINE
  5
139BBD
  8
OBJECT
 10
10085.000000000009
 20
-754.99999999999955
 30
0.0
 11
10085.0
 21
-982.69968280917203
 31
0.0
1001
ACDBBLOCKREPETAG
1070
     1
1071
        3
1005
139BBD
  0
LINE
  5
139BBE
  8
OBJECT
 10
9915.0
 20
-982.69968280914077
 30
0.0
 11
9932.9999999999927
 21
-1110.699682809081
 31
0.0
1001
ACDBBLOCKREPETAG
1070
     1
1071
        4
1005
139BBE
  0
LINE
  5
139BBF
  8
OBJECT
 10
10067.000000000009
 20
-1110.699682809128
 30
0.0
 11
10085.0
 21
-982.69968280917203
 31
0.0
1001
ACDBBLOCKREPETAG
1070
     1
1071
        5
1005
139BBF
  0
LINE
  5
139BC0
  8
OBJECT
 10
10085.000000000009
 20
-754.99999999999955
 30
0.0
 11
9914.9999999999927
 21
-754.99999999999955
 31
0.0
1001
ACDBBLOCKREPETAG
1070
     1
1071
        6
1005
139BC0
  0
LINE
  5
139BC1
  8
OBJECT
 10
9932.9999999999927
 20
-1110.699682809081
 30
0.0
 11
9932.9999999999927
 21
-1144.9999999999959
 31
0.0
1001
ACDBBLOCKREPETAG
1070
     1
1071
        8
1005
139BC1
  0
LINE
  5
139BC2
  8
OBJECT
 10
10067.000000000009
 20
-1110.699682809128
 30
0.0
 11
10067.000000000009
 21
-1144.9999999999991
 31
0.0
1001
ACDBBLOCKREPETAG
1070
     1
1071
        9
1005
139BC2
  0
LINE
  5
139BC3
  8
SLIM
 10
7914.9999999999918
 20
-769.47385309434685
 30
0.0
 11
7929.4738530943387
 21
-754.99999999999955
 31
0.0
1001
GRADIENTCOLOR1ACI
1070
     5
1001
GRADIENTCOLOR2ACI
1070
     2
1001
ACAD
1010
0.0
1020
0.0
1030
0.0
  0
LINE
  5
139BC4
  8
SLIM
 10
7914.9999999999918
 20
-787.43436533648469
 30
0.0
 11
7947.4343653364758
 21
-754.99999999999955
 31
0.0
1001
GRADIENTCOLOR1ACI
1070
     5
1001
GRADIENTCOLOR2ACI
1070
     2
1001
ACAD
1010
0.0
1020
0.0
1030
0.0
  0
LINE
  5
139BC5
  8
SLIM
 10
7914.9999999999918
 20
-805.39487757862241
 30
0.0
 11
7965.3948775786139
 21
-754.99999999999955
 31
0.0
1001
GRADIENTCOLOR1ACI
1070
     5
1001
GRADIENTCOLOR2ACI
1070
     2
1001
ACAD
1010
0.0
1020
0.0
1030
0.0
  0
LINE
  5
139BC6
  8
SLIM
 10
7914.9999999999964
 20
-823.35538982076014
 30
0.0
 11
7983.3553898207547
 21
-754.99999999999955
 31
0.0
1001
GRADIENTCOLOR1ACI
1070
     5
1001
GRADIENTCOLOR2ACI
1070
     2
1001
ACAD
1010
0.0
1020
0.0
1030
0.0
  0
LINE
  5
139BC7
  8
SLIM
 10
7914.9999999999982
 20
-841.31590206289775
 30
0.0
 11
8001.3159020628927
 21
-754.99999999999955
 31
0.0
1001
GRADIENTCOLOR1ACI
1070
     5
1001
GRADIENTCOLOR2ACI
1070
     2
1001
ACAD
1010
0.0
1020
0.0
1030
0.0
  0
LINE
  5
139BC8
  8
SLIM
 10
7914.9999999999982
 20
-859.27641430503536
 30
0.0
 11
8019.2764143050299
 21
-754.99999999999955
 31
0.0
1001
GRADIENTCOLOR1ACI
1070
     5
1001
GRADIENTCOLOR2ACI
1070
     2
1001
ACAD
1010
0.0
1020
0.0
1030
0.0
  0
LINE
  5
139BC9
  8
SLIM
 10
7914.9999999999982
 20
-877.2369265471732
 30
0.0
 11
8037.2369265471707
 21
-754.99999999999955
 31
0.0
1001
GRADIENTCOLOR1ACI
1070
     5
1001
GRADIENTCOLOR2ACI
1070
     2
1001
ACAD
1010
0.0
1020
0.0
1030
0.0
  0
LINE
  5
139BCA
  8
SLIM
 10
7914.9999999999982
 20
-895.19743878931092
 30
0.0
 11
8055.1974387893079
 21
-754.99999999999955
 31
0.0
1001
GRADIENTCOLOR1ACI
1070
     5
1001
GRADIENTCOLOR2ACI
1070
     2
1001
ACAD
1010
0.0
1020
0.0
1030
0.0
  0
LINE
  5
139BCB
  8
SLIM
 10
7914.9999999999982
 20
-913.15795103144865
 30
0.0
 11
8073.1579510314468
 21
-754.99999999999955
 31
0.0
1001
GRADIENTCOLOR1ACI
1070
     5
1001
GRADIENTCOLOR2ACI
1070
     2
1001
ACAD
1010
0.0
1020
0.0
1030
0.0
  0
LINE
  5
139BCC
  8
SLIM
 10
7914.9999999999982
 20
-931.11846327358569
 30
0.0
 11
8085.0000000000064
 21
-761.11846327357694
 31
0.0
1001
GRADIENTCOLOR1ACI
1070
     5
1001
GRADIENTCOLOR2ACI
1070
     2
1001
ACAD
1010
0.0
1020
0.0
1030
0.0
  0
LINE
  5
139BCD
  8
SLIM
 10
7914.9999999999982
 20
-949.07897551572387
 30
0.0
 11
8085.0000000000064
 21
-779.07897551571614
 31
0.0
1001
GRADIENTCOLOR1ACI
1070
     5
1001
GRADIENTCOLOR2ACI
1070
     2
1001
ACAD
1010
0.0
1020
0.0
1030
0.0
  0
LINE
  5
139BCE
  8
SLIM
 10
7914.9999999999982
 20
-967.03948775786148
 30
0.0
 11
8085.0000000000064
 21
-797.039487757855
 31
0.0
1001
GRADIENTCOLOR1ACI
1070
     5
1001
GRADIENTCOLOR2ACI
1070
     2
1001
ACAD
1010
0.0
1020
0.0
1030
0.0
  0
LINE
  5
139BCF
  8
SLIM
 10
7915.283600749558
 20
-984.71639925044155
 30
0.0
 11
8085.0000000000064
 21
-814.99999999999375
 31
0.0
1001
GRADIENTCOLOR1ACI
1070
     5
1001
GRADIENTCOLOR2ACI
1070
     2
1001
ACAD
1010
0.0
1020
0.0
1030
0.0
  0
LINE
  5
139BD0
  8
SLIM
 10
7917.4979104780423
 20
-1000.462601764097
 30
0.0
 11
8085.0000000000064
 21
-832.96051224213272
 31
0.0
1001
GRADIENTCOLOR1ACI
1070
     5
1001
GRADIENTCOLOR2ACI
1070
     2
1001
ACAD
1010
0.0
1020
0.0
1030
0.0
  0
LINE
  5
139BD1
  8
SLIM
 10
7919.7122202065239
 20
-1016.2088042777521
 30
0.0
 11
8085.0000000000064
 21
-850.92102448427181
 31
0.0
1001
GRADIENTCOLOR1ACI
1070
     5
1001
GRADIENTCOLOR2ACI
1070
     2
1001
ACAD
1010
0.0
1020
0.0
1030
0.0
  0
LINE
  5
139BD2
  8
SLIM
 10
7921.9265299350072
 20
-1031.955006791407
 30
0.0
 11
8085.0000000000018
 21
-868.88153672641045
 31
0.0
1001
GRADIENTCOLOR1ACI
1070
     5
1001
GRADIENTCOLOR2ACI
1070
     2
1001
ACAD
1010
0.0
1020
0.0
1030
0.0
  0
LINE
  5
139BD3
  8
SLIM
 10
7924.1408396634897
 20
-1047.701209305063
 30
0.0
 11
8085.0000000000018
 21
-886.84204896854965
 31
0.0
1001
GRADIENTCOLOR1ACI
1070
     5
1001
GRADIENTCOLOR2ACI
1070
     2
1001
ACAD
1010
0.0
1020
0.0
1030
0.0
  0
LINE
  5
139BD4
  8
SLIM
 10
7926.3551493919731
 20
-1063.4474118187179
 30
0.0
 11
8085.0000000000018
 21
-904.80256121068828
 31
0.0
1001
GRADIENTCOLOR1ACI
1070
     5
1001
GRADIENTCOLOR2ACI
1070
     2
1001
ACAD
1010
0.0
1020
0.0
1030
0.0
  0
LINE
  5
139BD5
  8
SLIM
 10
7928.5694591204538
 20
-1079.193614332373
 30
0.0
 11
8085.0000000000018
 21
-922.76307345282714
 31
0.0
1001
GRADIENTCOLOR1ACI
1070
     5
1001
GRADIENTCOLOR2ACI
1070
     2
1001
ACAD
1010
0.0
1020
0.0
1030
0.0
  0
LINE
  5
139BD6
  8
SLIM
 10
7930.783768848939
 20
-1094.939816846028
 30
0.0
 11
8085.0000000000018
 21
-940.72358569496646
 31
0.0
1001
GRADIENTCOLOR1ACI
1070
     5
1001
GRADIENTCOLOR2ACI
1070
     2
1001
ACAD
1010
0.0
1020
0.0
1030
0.0
  0
LINE
  5
139BD7
  8
SLIM
 10
7938.6840979371091
 20
-1104.999999999997
 30
0.0
 11
8085.0
 21
-958.68409793710521
 31
0.0
1001
GRADIENTCOLOR1ACI
1070
     5
1001
GRADIENTCOLOR2ACI
1070
     2
1001
ACAD
1010
0.0
1020
0.0
1030
0.0
  0
LINE
  5
139BD8
  8
SLIM
 10
7943.0
 20
-1118.644610179244
 30
0.0
 11
7956.6446101792453
 21
-1104.999999999997
 31
0.0
1001
GRADIENTCOLOR1ACI
1070
     5
1001
GRADIENTCOLOR2ACI
1070
     2
1001
ACAD
1010
0.0
1020
0.0
1030
0.0
  0
LINE
  5
139BD9
  8
SLIM
 10
7956.6446101792453
 20
-1104.999999999997
 30
0.0
 11
8085.0
 21
-976.64461017924395
 31
0.0
1001
GRADIENTCOLOR1ACI
1070
     5
1001
GRADIENTCOLOR2ACI
1070
     2
1001
ACAD
1010
0.0
1020
0.0
1030
0.0
  0
LINE
  5
139BDA
  8
SLIM
 10
7944.6051224213861
 20
-1134.999999999998
 30
0.0
 11
7974.6051224213861
 21
-1104.999999999997
 31
0.0
1001
GRADIENTCOLOR1ACI
1070
     5
1001
GRADIENTCOLOR2ACI
1070
     2
1001
ACAD
1010
0.0
1020
0.0
1030
0.0
  0
LINE
  5
139BDB
  8
SLIM
 10
7974.6051224213861
 20
-1104.999999999997
 30
0.0
 11
8083.051837154364
 21
-996.55328526701703
 31
0.0
1001
GRADIENTCOLOR1ACI
1070
     5
1001
GRADIENTCOLOR2ACI
1070
     2
1001
ACAD
1010
0.0
1020
0.0
1030
0.0
  0
LINE
  5
139BDC
  8
SLIM
 10
7962.5656346635242
 20
-1134.999999999998
 30
0.0
 11
7992.5656346635242
 21
-1104.999999999997
 31
0.0
1001
GRADIENTCOLOR1ACI
1070
     5
1001
GRADIENTCOLOR2ACI
1070
     2
1001
ACAD
1010
0.0
1020
0.0
1030
0.0
  0
LINE
  5
139BDD
  8
SLIM
 10
7992.5656346635242
 20
-1104.999999999997
 30
0.0
 11
8080.1128442420159
 21
-1017.452790421505
 31
0.0
1001
GRADIENTCOLOR1ACI
1070
     5
1001
GRADIENTCOLOR2ACI
1070
     2
1001
ACAD
1010
0.0
1020
0.0
1030
0.0
  0
LINE
  5
139BDE
  8
SLIM
 10
7980.5261469056622
 20
-1134.999999999998
 30
0.0
 11
8010.5261469056586
 21
-1104.999999999997
 31
0.0
1001
GRADIENTCOLOR1ACI
1070
     5
1001
GRADIENTCOLOR2ACI
1070
     2
1001
ACAD
1010
0.0
1020
0.0
1030
0.0
  0
LINE
  5
139BDF
  8
SLIM
 10
8010.5261469056586
 20
-1104.999999999997
 30
0.0
 11
8077.1738513296659
 21
-1038.352295575992
 31
0.0
1001
GRADIENTCOLOR1ACI
1070
     5
1001
GRADIENTCOLOR2ACI
1070
     2
1001
ACAD
1010
0.0
1020
0.0
1030
0.0
  0
LINE
  5
139BE0
  8
SLIM
 10
7998.4866591478003
 20
-1134.999999999998
 30
0.0
 11
8028.4866591478003
 21
-1104.999999999997
 31
0.0
1001
GRADIENTCOLOR1ACI
1070
     5
1001
GRADIENTCOLOR2ACI
1070
     2
1001
ACAD
1010
0.0
1020
0.0
1030
0.0
  0
LINE
  5
139BE1
  8
SLIM
 10
8028.4866591478003
 20
-1104.999999999997
 30
0.0
 11
8074.234858417316
 21
-1059.2518007304809
 31
0.0
1001
GRADIENTCOLOR1ACI
1070
     5
1001
GRADIENTCOLOR2ACI
1070
     2
1001
ACAD
1010
0.0
1020
0.0
1030
0.0
  0
LINE
  5
139BE2
  8
SLIM
 10
8016.4471713899393
 20
-1134.999999999998
 30
0.0
 11
8046.4471713899411
 21
-1104.999999999997
 31
0.0
1001
GRADIENTCOLOR1ACI
1070
     5
1001
GRADIENTCOLOR2ACI
1070
     2
1001
ACAD
1010
0.0
1020
0.0
1030
0.0
  0
LINE
  5
139BE3
  8
SLIM
 10
8046.4471713899411
 20
-1104.999999999997
 30
0.0
 11
8071.2958655049679
 21
-1080.151305884968
 31
0.0
1001
GRADIENTCOLOR1ACI
1070
     5
1001
GRADIENTCOLOR2ACI
1070
     2
1001
ACAD
1010
0.0
1020
0.0
1030
0.0
  0
LINE
  5
139BE4
  8
SLIM
 10
8034.4076836320774
 20
-1134.999999999998
 30
0.0
 11
8057.0
 21
-1112.4076836320739
 31
0.0
1001
GRADIENTCOLOR1ACI
1070
     5
1001
GRADIENTCOLOR2ACI
1070
     2
1001
ACAD
1010
0.0
1020
0.0
1030
0.0
  0
LINE
  5
139BE5
  8
SLIM
 10
8064.4076836320764
 20
-1104.999999999997
 30
0.0
 11
8068.3568725926198
 21
-1101.050811039456
 31
0.0
1001
GRADIENTCOLOR1ACI
1070
     5
1001
GRADIENTCOLOR2ACI
1070
     2
1001
ACAD
1010
0.0
1020
0.0
1030
0.0
  0
LINE
  5
139BE6
  8
SLIM
 10
8052.3681958742136
 20
-1134.999999999998
 30
0.0
 11
8057.0
 21
-1130.368195874212
 31
0.0
1001
GRADIENTCOLOR1ACI
1070
     5
1001
GRADIENTCOLOR2ACI
1070
     2
1001
ACAD
1010
0.0
1020
0.0
1030
0.0
  0
LINE
  5
139BE7
  8
OBJECT
 10
7943.0
 20
-1134.999999999998
 30
0.0
 11
8057.0
 21
-1134.999999999998
 31
0.0
1001
ACDBBLOCKREPETAG
1070
     1
1071
        1
1005
139BE7
  0
LINE
  5
139BE8
  8
OBJECT
 10
7932.1984821049646
 20
-1104.999999999997
 30
0.0
 11
8067.8015178950409
 21
-1104.999999999997
 31
0.0
1001
ACDBBLOCKREPETAG
1070
     1
1071
        2
1005
139BE8
  0
LINE
  5
139BE9
  8
OBJECT
 10
7943.0
 20
-1134.999999999998
 30
0.0
 11
7943.0
 21
-1109.999999999998
 31
0.0
1001
ACDBBLOCKREPETAG
1070
     1
1071
        3
1005
139BE9
  0
LINE
  5
139BEA
  8
OBJECT
 10
7914.9999999999918
 20
-754.99999999999955
 30
0.0
 11
7915.0
 21
-982.69968280914077
 31
0.0
1001
ACDBBLOCKREPETAG
1070
     1
1071
        4
1005
139BEA
  0
LINE
  5
139BEB
  8
OBJECT
 10
8085.0000000000064
 20
-754.99999999999955
 30
0.0
 11
8085.0
 21
-982.69968280917203
 31
0.0
1001
ACDBBLOCKREPETAG
1070
     1
1071
        5
1005
139BEB
  0
LINE
  5
139BEC
  8
OBJECT
 10
7915.0
 20
-982.69968280914077
 30
0.0
 11
7932.1984821049646
 21
-1104.999999999997
 31
0.0
1001
ACDBBLOCKREPETAG
1070
     1
1071
        6
1005
139BEC
  0
LINE
  5
139BED
  8
OBJECT
 10
8067.8015178950409
 20
-1104.999999999997
 30
0.0
 11
8085.0
 21
-982.69968280917203
 31
0.0
1001
ACDBBLOCKREPETAG
1070
     1
1071
        7
1005
139BED
  0
LINE
  5
139BEE
  8
OBJECT
 10
8085.0000000000064
 20
-754.99999999999955
 30
0.0
 11
7914.9999999999918
 21
-754.99999999999955
 31
0.0
1001
ACDBBLOCKREPETAG
1070
     1
1071
        8
1005
139BEE
  0
LINE
  5
139BEF
  8
OBJECT
 10
7943.0
 20
-1109.999999999998
 30
0.0
 11
7942.296875
 21
-1104.999999999997
 31
0.0
1001
ACDBBLOCKREPETAG
1070
     1
1071
       10
1005
139BEF
  0
LINE
  5
139BF0
  8
OBJECT
 10
8057.0
 20
-1134.999999999998
 30
0.0
 11
8057.0
 21
-1109.999999999998
 31
0.0
1001
ACDBBLOCKREPETAG
1070
     1
1071
       11
1005
139BF0
  0
LINE
  5
139BF1
  8
OBJECT
 10
8057.0
 20
-1109.999999999998
 30
0.0
 11
8057.7031250000027
 21
-1104.999999999997
 31
0.0
1001
ACDBBLOCKREPETAG
1070
     1
1071
       12
1005
139BF1
  0
LINE
  5
139BF2
  8
HIDDEN
 10
1943.0
 20
-619.99999999999955
 30
0.0
 11
2057.0
 21
-619.99999999999955
 31
0.0
1001
ACDBBLOCKREPETAG
1070
     1
1071
       57
1005
139BF2
  0
LINE
  5
139BF3
  8
CENTER
 10
2000.0
 20
-534.99999999999955
 30
0.0
 11
2000.0
 21
-899.99999999999955
 31
0.0
1001
ACDBBLOCKREPETAG
1070
     1
1071
       58
1005
139BF3
  0
LINE
  5
139BF4
  8
OBJECT
 10
1928.0
 20
-570.99999999999955
 30
0.0
 11
1928.0
 21
-633.99999999999955
 31
0.0
1001
ACDBBLOCKREPETAG
1070
     1
1071
       59
1005
139BF4
  0
LINE
  5
139BF5
  8
OBJECT
 10
2072.0
 20
-633.99999999999955
 30
0.0
 11
2072.0
 21
-570.99999999999955
 31
0.0
1001
ACDBBLOCKREPETAG
1070
     1
1071
       60
1005
139BF5
  0
LINE
  5
139BF6
  8
OBJECT
 10
1920.0
 20
-887.99999999999955
 30
0.0
 11
2080.0
 21
-887.99999999999955
 31
0.0
1001
ACDBBLOCKREPETAG
1070
     1
1071
       61
1005
139BF6
  0
LINE
  5
139BF7
  8
OBJECT
 10
2080.0
 20
-633.99999999999955
 30
0.0
 11
1920.0
 21
-633.99999999999955
 31
0.0
1001
ACDBBLOCKREPETAG
1070
     1
1071
       62
1005
139BF7
  0
LINE
  5
139BF8
  8
OBJECT
 10
1920.0
 20
-887.99999999999955
 30
0.0
 11
1920.0
 21
-899.99999999999955
 31
0.0
1001
ACDBBLOCKREPETAG
1070
     1
1071
       63
1005
139BF8
  0
LINE
  5
139BF9
  8
OBJECT
 10
1920.0
 20
-899.99999999999955
 30
0.0
 11
2080.0
 21
-899.99999999999955
 31
0.0
1001
ACDBBLOCKREPETAG
1070
     1
1071
       64
1005
139BF9
  0
LINE
  5
139BFA
  8
OBJECT
 10
2080.0
 20
-899.99999999999955
 30
0.0
 11
2080.0
 21
-887.99999999999955
 31
0.0
1001
ACDBBLOCKREPETAG
1070
     1
1071
       65
1005
139BFA
  0
LINE
  5
139BFB
  8
OBJECT
 10
2074.9999999998622
 20
-757.99999999985016
 30
0.0
 11
2075.0
 21
-887.99999999999955
 31
0.0
1001
ACDBBLOCKREPETAG
1070
     1
1071
       69
1005
139BFB
  0
LINE
  5
139BFC
  8
OBJECT
 10
2074.9999908029849
 20
-757.99998602702112
 30
0.0
 11
2080.0
 21
-757.99998602702112
 31
0.0
1001
ACDBBLOCKREPETAG
1070
     1
1071
       70
1005
139BFC
  0
LINE
  5
139BFD
  8
OBJECT
 10
1925.000000000138
 20
-757.99999999985016
 30
0.0
 11
1925.0
 21
-887.99999999999955
 31
0.0
1001
ACDBBLOCKREPETAG
1070
     1
1071
       71
1005
139BFD
  0
LINE
  5
139BFE
  8
OBJECT
 10
1925.000009197013
 20
-757.99998602702112
 30
0.0
 11
1920.0
 21
-757.99998602702112
 31
0.0
1001
ACDBBLOCKREPETAG
1070
     1
1071
       72
1005
139BFE
  0
LINE
  5
139BFF
  8
OBJECT
 10
1918.0
 20
-570.99999999999955
 30
0.0
 11
1918.0
 21
-549.99999999999955
 31
0.0
1001
ACDBBLOCKREPETAG
1070
     1
1071
       73
1005
139BFF
  0
LINE
  5
139C00
  8
OBJECT
 10
1918.0
 20
-549.99999999999955
 30
0.0
 11
2082.0000000000041
 21
-549.99999999999955
 31
0.0
1001
ACDBBLOCKREPETAG
1070
     1
1071
       74
1005
139C00
  0
LINE
  5
139C01
  8
OBJECT
 10
2082.0000000000041
 20
-570.99999999999955
 30
0.0
 11
1918.0
 21
-570.99999999999955
 31
0.0
1001
ACDBBLOCKREPETAG
1070
     1
1071
       75
1005
139C01
  0
LINE
  5
139C02
  8
OBJECT
 10
1920.794081712025
 20
-549.99999999999955
 30
0.0
 11
1920.794081712025
 21
-570.99999999999955
 31
0.0
1001
ACDBBLOCKREPETAG
1070
     1
1071
       76
1005
139C02
  0
LINE
  5
139C03
  8
OBJECT
 10
1928.737895999999
 20
-549.99999999999955
 30
0.0
 11
1928.737895999999
 21
-570.99999999999955
 31
0.0
1001
ACDBBLOCKREPETAG
1070
     1
1071
       77
1005
139C03
  0
LINE
  5
139C04
  8
OBJECT
 10
1970.833026
 20
-549.99999999999955
 30
0.0
 11
1970.833026
 21
-570.99999999999955
 31
0.0
1001
ACDBBLOCKREPETAG
1070
     1
1071
       78
1005
139C04
  0
LINE
  5
139C05
  8
OBJECT
 10
1978.7768389217999
 20
-549.99999999999955
 30
0.0
 11
1978.7768389217999
 21
-570.99999999999955
 31
0.0
1001
ACDBBLOCKREPETAG
1070
     1
1071
       79
1005
139C05
  0
LINE
  5
139C06
  8
OBJECT
 10
2082.0
 20
-570.99999999999955
 30
0.0
 11
2082.0
 21
-549.99999999999955
 31
0.0
1001
ACDBBLOCKREPETAG
1070
     1
1071
       80
1005
139C06
  0
LINE
  5
139C07
  8
OBJECT
 10
2079.2059182879748
 20
-549.99999999999955
 30
0.0
 11
2079.2059182879748
 21
-570.99999999999955
 31
0.0
1001
ACDBBLOCKREPETAG
1070
     1
1071
       81
1005
139C07
  0
LINE
  5
139C08
  8
OBJECT
 10
2071.2621040000008
 20
-549.99999999999955
 30
0.0
 11
2071.2621040000008
 21
-570.99999999999955
 31
0.0
1001
ACDBBLOCKREPETAG
1070
     1
1071
       82
1005
139C08
  0
LINE
  5
139C09
  8
OBJECT
 10
2029.166974
 20
-549.99999999999955
 30
0.0
 11
2029.166974
 21
-570.99999999999955
 31
0.0
1001
ACDBBLOCKREPETAG
1070
     1
1071
       83
1005
139C09
  0
LINE
  5
139C0A
  8
OBJECT
 10
2021.2231610782001
 20
-549.99999999999955
 30
0.0
 11
2021.2231610782001
 21
-570.99999999999955
 31
0.0
1001
ACDBBLOCKREPETAG
1070
     1
1071
       84
1005
139C0A
  0
ARC
  5
139C0B
  8
OBJECT
 10
2200.6872746716731
 20
-749.40809941010718
 30
0.0
 40
170.6350503965856
 50
137.44134459184301
 51
149.91949581336559
1001
ACDBBLOCKREPETAG
1070
     1
1071
       85
1005
139C0B
  0
ARC
  5
139C0C
  8
OBJECT
 10
2200.6872746716731
 20
-642.59190058989179
 30
0.0
 40
170.6350503965856
 50
210.0805041866343
 51
222.55865540815699
1001
ACDBBLOCKREPETAG
1070
     1
1071
       86
1005
139C0C
  0
ARC
  5
139C0D
  8
OBJECT
 10
1799.312725328326
 20
-749.40809941010718
 30
0.0
 40
170.6350503965856
 50
30.080504186710289
 51
42.558655408373838
1001
ACDBBLOCKREPETAG
1070
     1
1071
       87
1005
139C0D
  0
ARC
  5
139C0E
  8
OBJECT
 10
1799.312725328326
 20
-642.59190058989179
 30
0.0
 40
170.6350503965856
 50
317.4413445916262
 51
329.9194958132897
1001
ACDBBLOCKREPETAG
1070
     1
1071
       88
1005
139C0E
  0
POINT
  5
139C0F
  8
DOTS
 10
2000.0
 20
-754.99999999999955
 30
0.0
1001
ACDBBLOCKREPETAG
1070
     1
1071
      202
1005
139C0F
  0
LINE
  5
139C10
  8
OBJECT
 10
1946.692194143754
 20
-195.46638161316051
 30
0.0
 11
1970.4540343856349
 21
-193.79865146436981
 31
0.0
1001
ACDBBLOCKREPETAG
1070
     1
1071
      319
1005
139C10
  0
LINE
  5
139C11
  8
OBJECT
 10
1947.385434727061
 20
-190.305593971766
 30
0.0
 11
1966.988435262901
 21
-188.92975272660161
 31
0.0
1001
ACDBBLOCKREPETAG
1070
     1
1071
      320
1005
139C11
  0
LINE
  5
139C12
  8
OBJECT
 10
1974.1135374752771
 20
-242.77722592637201
 30
0.0
 11
1982.136698837405
 21
-234.1690987954708
 31
0.0
1001
ACDBBLOCKREPETAG
1070
     1
1071
      321
1005
139C12
  0
ARC
  5
139C13
  8
OBJECT
 10
1982.1160071245381
 20
-183.28188966318251
 30
0.0
 40
60.031113246032611
 50
254.07020130412749
 51
262.33936106086588
1001
ACDBBLOCKREPETAG
1070
     1
1071
      322
1005
139C13
  0
LINE
  5
139C14
  8
OBJECT
 10
1977.612599732513
 20
-197.67495277149911
 30
0.0
 11
1982.136698837405
 21
-234.1690987954708
 31
0.0
1001
ACDBBLOCKREPETAG
1070
     1
1071
      323
1005
139C14
  0
ARC
  5
139C15
  8
OBJECT
 10
1967.6885653456411
 20
-198.90521351131881
 30
0.0
 40
10.0
 50
7.0667782929957941
 51
94.014734370532395
1001
ACDBBLOCKREPETAG
1070
     1
1071
      324
1005
139C15
  0
ARC
  5
139C16
  8
OBJECT
 10
1970.944125370974
 20
-200.78147401875589
 30
0.0
 40
7.0
 50
7.0667782929957941
 51
94.014733775014648
1001
ACDBBLOCKREPETAG
1070
     1
1071
      325
1005
139C16
  0
POINT
  5
139C17
  8
DOTS
 10
2000.0
 20
-199.99999999999909
 30
0.0
 50
270.0
1001
ACDBBLOCKREPETAG
1070
     1
1071
      153
1005
139C17
  0
ARC
  5
139C18
  8
OBJECT
 10
2000.0
 20
-199.99999999999909
 30
0.0
 40
77.0
 50
202.25886899987509
 51
247.7411309999176
1001
ACDBBLOCKREPETAG
1070
     1
1071
       57
1005
139C18
  0
ARC
  5
139C19
  8
OBJECT
 10
2000.0
 20
-199.99999999999909
 30
0.0
 40
80.0
 50
50.804965661401717
 51
72.417343999921059
1001
ACDBBLOCKREPETAG
1070
     1
1071
       58
1005
139C19
  0
ARC
  5
139C1A
  8
OBJECT
 10
2000.0
 20
-199.99999999999909
 30
0.0
 40
77.0
 50
292.25886900008243
 51
337.74113100012482
1001
ACDBBLOCKREPETAG
1070
     1
1071
       59
1005
139C1A
  0
ARC
  5
139C1B
  8
OBJECT
 10
2000.0
 20
-199.99999999999909
 30
0.0
 40
77.0
 50
112.2588690000823
 51
157.7411310001248
1001
ACDBBLOCKREPETAG
1070
     1
1071
       60
1005
139C1B
  0
ARC
  5
139C1C
  8
OBJECT
 10
2000.0
 20
-199.99999999999909
 30
0.0
 40
80.0
 50
107.5826560000789
 51
129.1949773075637
1001
ACDBBLOCKREPETAG
1070
     1
1071
       61
1005
139C1C
  0
ARC
  5
139C1D
  8
OBJECT
 10
2000.0
 20
-199.99999999999909
 30
0.0
 40
77.0
 50
22.258868999875201
 51
67.74113099991763
1001
ACDBBLOCKREPETAG
1070
     1
1071
       62
1005
139C1D
  0
CIRCLE
  5
139C1E
  8
OBJECT
 10
2000.0
 20
-199.99999999999909
 30
0.0
 40
70.0
1001
ACDBBLOCKREPETAG
1070
     1
1071
       63
1005
139C1E
  0
LINE
  5
139C1F
  8
OBJECT
 10
2029.1669749999969
 20
-271.26210499999888
 30
0.0
 11
2021.2231624441049
 21
-279.20591755589248
 31
0.0
1001
ACDBBLOCKREPETAG
1070
     1
1071
       64
1005
139C1F
  0
LINE
  5
139C20
  8
OBJECT
 10
1970.833026
 20
-271.26210499999888
 30
0.0
 11
1978.7768389219159
 21
-279.20591792191681
 31
0.0
1001
ACDBBLOCKREPETAG
1070
     1
1071
       65
1005
139C20
  0
ARC
  5
139C21
  8
OBJECT
 10
2000.0
 20
-199.99999999999909
 30
0.0
 40
82.000000000000014
 50
255.00000044864069
 51
285.00000053949208
1001
ACDBBLOCKREPETAG
1070
     1
1071
       66
1005
139C21
  0
LINE
  5
139C22
  8
OBJECT
 10
1928.737895999999
 20
-229.1669739999989
 30
0.0
 11
1920.7940817120541
 21
-221.2231597120545
 31
0.0
1001
ACDBBLOCKREPETAG
1070
     1
1071
       67
1005
139C22
  0
ARC
  5
139C23
  8
OBJECT
 10
2000.0
 20
-199.99999999999909
 30
0.0
 40
82.000000000000014
 50
165.00000044885081
 51
194.9999985630262
1001
ACDBBLOCKREPETAG
1070
     1
1071
       68
1005
139C23
  0
LINE
  5
139C24
  8
OBJECT
 10
1970.833026
 20
-128.7378949999993
 30
0.0
 11
1978.7768389219159
 21
-120.7940820780795
 31
0.0
1001
ACDBBLOCKREPETAG
1070
     1
1071
       69
1005
139C24
  0
ARC
  5
139C25
  8
OBJECT
 10
2000.0
 20
-199.99999999999909
 30
0.0
 40
82.000000000000014
 50
74.999999460507865
 51
104.99999955135929
1001
ACDBBLOCKREPETAG
1070
     1
1071
       70
1005
139C25
  0
LINE
  5
139C26
  8
OBJECT
 10
2029.1669749999969
 20
-128.7378949999993
 30
0.0
 11
2021.2231624441049
 21
-120.79408244410391
 31
0.0
1001
ACDBBLOCKREPETAG
1070
     1
1071
       71
1005
139C26
  0
LINE
  5
139C27
  8
OBJECT
 10
1962.402059
 20
-161.93893300000039
 30
0.0
 11
2037.0841102714221
 21
-174.5180316957439
 31
0.0
1001
ACDBBLOCKREPETAG
1070
     1
1071
       72
1005
139C27
  0
LINE
  5
139C28
  8
OBJECT
 10
2044.0936569999981
 20
-169.70149399999991
 30
0.0
 11
2037.0841102714221
 21
-174.5180316957439
 31
0.0
1001
ACDBBLOCKREPETAG
1070
     1
1071
       73
1005
139C28
  0
LINE
  5
139C29
  8
OBJECT
 10
1928.737895999999
 20
-170.833024999999
 30
0.0
 11
1920.7940820780791
 21
-178.77683892191911
 31
0.0
1001
ACDBBLOCKREPETAG
1070
     1
1071
       74
1005
139C29
  0
CIRCLE
  5
139C2A
  8
OBJECT
 10
2000.0
 20
-199.99999999999909
 30
0.0
 40
53.500000000000007
1001
ACDBBLOCKREPETAG
1070
     1
1071
       75
1005
139C2A
  0
ARC
  5
139C2B
  8
OBJECT
 10
2000.0
 20
-199.99999999999909
 30
0.0
 40
50.0
 50
131.70180964355251
 51
168.52376955958479
1001
ACDBBLOCKREPETAG
1070
     1
1071
       76
1005
139C2B
  0
ARC
  5
139C2C
  8
OBJECT
 10
2000.0
 20
-199.99999999999909
 30
0.0
 40
50.0
 50
238.8199429999047
 51
34.49450625011707
1001
ACDBBLOCKREPETAG
1070
     1
1071
       77
1005
139C2C
  0
LINE
  5
139C2D
  8
OBJECT
 10
2071.262104999998
 20
-170.833024999999
 30
0.0
 11
2079.2059175558929
 21
-178.77683755589439
 31
0.0
1001
ACDBBLOCKREPETAG
1070
     1
1071
       78
1005
139C2D
  0
ARC
  5
139C2E
  8
OBJECT
 10
2000.0
 20
-199.99999999999909
 30
0.0
 40
82.000000000000014
 50
345.00000044885081
 51
15.00000053937171
1001
ACDBBLOCKREPETAG
1070
     1
1071
       79
1005
139C2E
  0
LINE
  5
139C2F
  8
OBJECT
 10
2071.262104999998
 20
-229.1669739999989
 30
0.0
 11
2079.2059179219209
 21
-221.2231610780791
 31
0.0
1001
ACDBBLOCKREPETAG
1070
     1
1071
       80
1005
139C2F
  0
LINE
  5
139C30
  8
OBJECT
 10
2045.6618002273251
 20
-137.99999999999909
 30
0.0
 11
2080.0
 21
-137.99999999999909
 31
0.0
1001
ACDBBLOCKREPETAG
1070
     1
1071
       81
1005
139C30
  0
LINE
  5
139C31
  8
OBJECT
 10
2062.0
 20
-261.99999999999909
 30
0.0
 11
2080.0
 21
-261.99999999999909
 31
0.0
1001
ACDBBLOCKREPETAG
1070
     1
1071
       82
1005
139C31
  0
LINE
  5
139C32
  8
OBJECT
 10
2062.0
 20
-261.99999999999909
 30
0.0
 11
2062.0
 21
-279.99999999999909
 31
0.0
1001
ACDBBLOCKREPETAG
1070
     1
1071
       84
1005
139C32
  0
LINE
  5
139C33
  8
OBJECT
 10
1938.0
 20
-261.99999999999909
 30
0.0
 11
1938.0
 21
-279.99999999999909
 31
0.0
1001
ACDBBLOCKREPETAG
1070
     1
1071
       85
1005
139C33
  0
LINE
  5
139C34
  8
OBJECT
 10
1938.0
 20
-261.99999999999909
 30
0.0
 11
1920.0
 21
-261.99999999999909
 31
0.0
1001
ACDBBLOCKREPETAG
1070
     1
1071
       87
1005
139C34
  0
LINE
  5
139C35
  8
OBJECT
 10
1954.3381997726749
 20
-137.99999999999909
 30
0.0
 11
1920.0
 21
-137.99999999999909
 31
0.0
1001
ACDBBLOCKREPETAG
1070
     1
1071
       88
1005
139C35
  0
LINE
  5
139C36
  8
CENTER
 10
2080.0
 20
-199.99999999999909
 30
0.0
 11
1920.0
 21
-199.99999999999909
 31
0.0
1001
ACDBBLOCKREPETAG
1070
     1
1071
       97
1005
139C36
  0
LINE
  5
139C37
  8
CENTER
 10
2000.0
 20
-279.99999999999909
 30
0.0
 11
2000.0
 21
-104.9999999999991
 31
0.0
1001
ACDBBLOCKREPETAG
1070
     1
1071
       98
1005
139C37
  0
LINE
  5
139C38
  8
OBJECT
 10
1945.5527778486351
 20
-254.44722215136329
 30
0.0
 11
1938.0
 21
-261.99999999999909
 31
0.0
1001
ACDBBLOCKREPETAG
1070
     1
1071
       99
1005
139C38
  0
LINE
  5
139C39
  8
OBJECT
 10
2054.4472221513638
 20
-254.44722215136329
 30
0.0
 11
2062.0
 21
-261.99999999999909
 31
0.0
1001
ACDBBLOCKREPETAG
1070
     1
1071
      100
1005
139C39
  0
LINE
  5
139C3A
  8
OBJECT
 10
11914.0
 20
-1233.9999999999991
 30
0.0
 11
11914.0
 21
-1243.9999999999991
 31
0.0
1001
ACDBBLOCKREPETAG
1070
     1
1071
      121
1005
139C3A
  0
LINE
  5
139C3B
  8
OBJECT
 10
11930.0
 20
-1233.9999999999991
 30
0.0
 11
11930.0
 21
-1243.9999999999991
 31
0.0
1001
ACDBBLOCKREPETAG
1070
     1
1071
      122
1005
139C3B
  0
LINE
  5
139C3C
  8
OBJECT
 10
11914.0
 20
-1243.9999999999991
 30
0.0
 11
11930.0
 21
-1243.9999999999991
 31
0.0
1001
ACDBBLOCKREPETAG
1070
     1
1071
      123
1005
139C3C
  0
LINE
  5
139C3D
  8
OBJECT
 10
11910.0
 20
-1194.9999999999959
 30
0.0
 11
12076.0
 21
-1194.9999999999959
 31
0.0
1001
ACDBBLOCKREPETAG
1070
     1
1071
      124
1005
139C3D
  0
LINE
  5
139C3E
  8
OBJECT
 10
11910.0
 20
-1209.9999999999991
 30
0.0
 11
11910.0
 21
-1194.9999999999959
 31
0.0
1001
ACDBBLOCKREPETAG
1070
     1
1071
      125
1005
139C3E
  0
LINE
  5
139C3F
  8
OBJECT
 10
12076.0
 20
-1209.9999999999991
 30
0.0
 11
11910.0
 21
-1209.9999999999991
 31
0.0
1001
ACDBBLOCKREPETAG
1070
     1
1071
      126
1005
139C3F
  0
LINE
  5
139C40
  8
OBJECT
 10
11932.500000000009
 20
-1209.9999999999991
 30
0.0
 11
11932.500000000009
 21
-1219.9999999999991
 31
0.0
1001
ACDBBLOCKREPETAG
1070
     1
1071
      127
1005
139C40
  0
LINE
  5
139C41
  8
OBJECT
 10
11927.0
 20
-1219.9999999999991
 30
0.0
 11
11927.0
 21
-1209.9999999999991
 31
0.0
1001
ACDBBLOCKREPETAG
1070
     1
1071
      128
1005
139C41
  0
LINE
  5
139C42
  8
OBJECT
 10
11917.000000000009
 20
-1219.9999999999991
 30
0.0
 11
11917.000000000009
 21
-1209.9999999999991
 31
0.0
1001
ACDBBLOCKREPETAG
1070
     1
1071
      129
1005
139C42
  0
LINE
  5
139C43
  8
OBJECT
 10
12076.0
 20
-1219.9999999999991
 30
0.0
 11
12076.0
 21
-1233.9999999999959
 31
0.0
1001
ACDBBLOCKREPETAG
1070
     1
1071
      130
1005
139C43
  0
LINE
  5
139C44
  8
OBJECT
 10
11910.0
 20
-1219.9999999999991
 30
0.0
 11
11910.0
 21
-1233.9999999999959
 31
0.0
1001
ACDBBLOCKREPETAG
1070
     1
1071
      131
1005
139C44
  0
LINE
  5
139C45
  8
OBJECT
 10
12076.0
 20
-1233.9999999999959
 30
0.0
 11
11910.0
 21
-1233.9999999999959
 31
0.0
1001
ACDBBLOCKREPETAG
1070
     1
1071
      132
1005
139C45
  0
LINE
  5
139C46
  8
OBJECT
 10
12076.0
 20
-1219.9999999999991
 30
0.0
 11
11910.0
 21
-1219.9999999999991
 31
0.0
1001
ACDBBLOCKREPETAG
1070
     1
1071
      133
1005
139C46
  0
LINE
  5
139C47
  8
OBJECT
 10
12067.500000000009
 20
-1209.9999999999991
 30
0.0
 11
12067.500000000009
 21
-1219.9999999999991
 31
0.0
1001
ACDBBLOCKREPETAG
1070
     1
1071
      134
1005
139C47
  0
LINE
  5
139C48
  8
OBJECT
 10
12066.0
 20
-1158.9999999999959
 30
0.0
 11
11934.0
 21
-1158.9999999999959
 31
0.0
1001
ACDBBLOCKREPETAG
1070
     1
1071
      135
1005
139C48
  0
LINE
  5
139C49
  8
OBJECT
 10
12076.0
 20
-1209.9999999999991
 30
0.0
 11
12076.0
 21
-1194.9999999999959
 31
0.0
1001
ACDBBLOCKREPETAG
1070
     1
1071
      136
1005
139C49
  0
LINE
  5
139C4A
  8
HIDDEN
 10
12057.0
 20
-1169.9999999999991
 30
0.0
 11
11943.0
 21
-1169.9999999999991
 31
0.0
1001
ACDBBLOCKREPETAG
1070
     1
1071
      137
1005
139C4A
  0
LINE
  5
139C4B
  8
OBJECT
 10
11913.0
 20
-1193.2
 30
0.0
 11
11913.0
 21
-1194.9999999999991
 31
0.0
1001
ACDBBLOCKREPETAG
1070
     1
1071
      138
1005
139C4B
  0
LINE
  5
139C4C
  8
OBJECT
 10
11931.0
 20
-1193.2
 30
0.0
 11
11931.0
 21
-1194.9999999999991
 31
0.0
1001
ACDBBLOCKREPETAG
1070
     1
1071
      139
1005
139C4C
  0
LINE
  5
139C4D
  8
OBJECT
 10
11927.750000000009
 20
-1183.4999999999991
 30
0.0
 11
11916.250000000009
 21
-1183.4999999999991
 31
0.0
1001
ACDBBLOCKREPETAG
1070
     1
1071
      140
1005
139C4D
  0
LINE
  5
139C4E
  8
OBJECT
 10
11927.750000000009
 20
-1183.4999999999991
 30
0.0
 11
11927.750000000009
 21
-1193.2
 31
0.0
1001
ACDBBLOCKREPETAG
1070
     1
1071
      141
1005
139C4E
  0
LINE
  5
139C4F
  8
OBJECT
 10
11916.250000000009
 20
-1183.4999999999991
 30
0.0
 11
11916.250000000009
 21
-1193.2
 31
0.0
1001
ACDBBLOCKREPETAG
1070
     1
1071
      142
1005
139C4F
  0
LINE
  5
139C50
  8
OBJECT
 10
12068.0
 20
-1274.9999999999991
 30
0.0
 11
11932.0
 21
-1274.9999999999991
 31
0.0
1001
ACDBBLOCKREPETAG
1070
     1
1071
      143
1005
139C50
  0
LINE
  5
139C51
  8
OBJECT
 10
12068.0
 20
-1274.9999999999991
 30
0.0
 11
12068.0
 21
-1233.9999999999991
 31
0.0
1001
ACDBBLOCKREPETAG
1070
     1
1071
      144
1005
139C51
  0
LINE
  5
139C52
  8
OBJECT
 10
11932.0
 20
-1274.9999999999991
 30
0.0
 11
11932.0
 21
-1233.9999999999991
 31
0.0
1001
ACDBBLOCKREPETAG
1070
     1
1071
      145
1005
139C52
  0
LINE
  5
139C53
  8
OBJECT
 10
11913.0
 20
-1193.2
 30
0.0
 11
11931.0
 21
-1193.2
 31
0.0
1001
ACDBBLOCKREPETAG
1070
     1
1071
      146
1005
139C53
  0
LINE
  5
139C54
  8
CENTER
 10
12000.0
 20
-899.99999999999955
 30
0.0
 11
12000.0
 21
-1289.9999999999991
 31
0.0
1001
ACDBBLOCKREPETAG
1070
     1
1071
      147
1005
139C54
  0
LINE
  5
139C55
  8
OBJECT
 10
12075.0
 20
-899.99999999999955
 30
0.0
 11
12075.0
 21
-981.99999999999613
 31
0.0
1001
ACDBBLOCKREPETAG
1070
     1
1071
      148
1005
139C55
  0
LINE
  5
139C56
  8
OBJECT
 10
11925.0
 20
-899.99999999999955
 30
0.0
 11
11925.0
 21
-981.99999999999204
 31
0.0
1001
ACDBBLOCKREPETAG
1070
     1
1071
      149
1005
139C56
  0
LINE
  5
139C57
  8
OBJECT
 10
12075.0
 20
-981.99999999999613
 30
0.0
 11
11925.0
 21
-981.99999999999204
 31
0.0
1001
ACDBBLOCKREPETAG
1070
     1
1071
      150
1005
139C57
  0
LINE
  5
139C58
  8
OBJECT
 10
12057.0
 20
-1158.9999999999959
 30
0.0
 11
12057.0
 21
-1109.999999999992
 31
0.0
1001
ACDBBLOCKREPETAG
1070
     1
1071
      151
1005
139C58
  0
LINE
  5
139C59
  8
OBJECT
 10
11943.0
 20
-1109.999999999992
 30
0.0
 11
12057.0
 21
-1109.999999999992
 31
0.0
1001
ACDBBLOCKREPETAG
1070
     1
1071
      152
1005
139C59
  0
LINE
  5
139C5A
  8
OBJECT
 10
11943.0
 20
-1109.999999999992
 30
0.0
 11
11943.0
 21
-1158.9999999999959
 31
0.0
1001
ACDBBLOCKREPETAG
1070
     1
1071
      153
1005
139C5A
  0
LINE
  5
139C5B
  8
OBJECT
 10
12075.0
 20
-981.99999999999613
 30
0.0
 11
12057.0
 21
-1109.999999999992
 31
0.0
1001
ACDBBLOCKREPETAG
1070
     1
1071
      154
1005
139C5B
  0
LINE
  5
139C5C
  8
OBJECT
 10
11943.0
 20
-1109.999999999992
 30
0.0
 11
11925.0
 21
-981.99999999999204
 31
0.0
1001
ACDBBLOCKREPETAG
1070
     1
1071
      155
1005
139C5C
  0
LINE
  5
139C5D
  8
OBJECT
 10
12066.0
 20
-1194.9999999999959
 30
0.0
 11
12066.0
 21
-1158.9999999999959
 31
0.0
1001
ACDBBLOCKREPETAG
1070
     1
1071
      156
1005
139C5D
  0
LINE
  5
139C5E
  8
OBJECT
 10
11934.0
 20
-1194.9999999999959
 30
0.0
 11
11934.0
 21
-1158.9999999999959
 31
0.0
1001
ACDBBLOCKREPETAG
1070
     1
1071
      157
1005
139C5E
  0
LINE
  5
139C5F
  8
OBJECT
 10
12045.25
 20
-1184.699999999993
 30
0.0
 11
12032.75
 21
-1184.699999999993
 31
0.0
1001
ACDBBLOCKREPETAG
1070
     1
1071
      158
1005
139C5F
  0
LINE
  5
139C60
  8
OBJECT
 10
12054.0
 20
-1194.9999999999959
 30
0.0
 11
12054.0
 21
-1192.699999999996
 31
0.0
1001
ACDBBLOCKREPETAG
1070
     1
1071
      159
1005
139C60
  0
LINE
  5
139C61
  8
OBJECT
 10
12024.0
 20
-1194.9999999999959
 30
0.0
 11
12024.0
 21
-1192.699999999996
 31
0.0
1001
ACDBBLOCKREPETAG
1070
     1
1071
      160
1005
139C61
  0
LINE
  5
139C62
  8
OBJECT
 10
12045.25
 20
-1184.699999999993
 30
0.0
 11
12045.25
 21
-1192.699999999996
 31
0.0
1001
ACDBBLOCKREPETAG
1070
     1
1071
      161
1005
139C62
  0
LINE
  5
139C63
  8
OBJECT
 10
12032.75
 20
-1184.699999999993
 30
0.0
 11
12032.75
 21
-1192.699999999996
 31
0.0
1001
ACDBBLOCKREPETAG
1070
     1
1071
      162
1005
139C63
  0
LINE
  5
139C64
  8
OBJECT
 10
12054.0
 20
-1192.699999999996
 30
0.0
 11
12024.0
 21
-1192.699999999996
 31
0.0
1001
ACDBBLOCKREPETAG
1070
     1
1071
      163
1005
139C64
  0
LINE
  5
139C65
  8
OBJECT
 10
12047.0
 20
-1233.9999999999959
 30
0.0
 11
12047.0
 21
-1243.9999999999959
 31
0.0
1001
ACDBBLOCKREPETAG
1070
     1
1071
      164
1005
139C65
  0
LINE
  5
139C66
  8
OBJECT
 10
12031.0
 20
-1233.9999999999959
 30
0.0
 11
12031.0
 21
-1243.9999999999959
 31
0.0
1001
ACDBBLOCKREPETAG
1070
     1
1071
      165
1005
139C66
  0
LINE
  5
139C67
  8
OBJECT
 10
12047.0
 20
-1243.9999999999959
 30
0.0
 11
12031.0
 21
-1243.9999999999959
 31
0.0
1001
ACDBBLOCKREPETAG
1070
     1
1071
      166
1005
139C67
  0
LINE
  5
139C68
  8
OBJECT
 10
12034.0
 20
-1219.9999999999959
 30
0.0
 11
12034.0
 21
-1209.9999999999959
 31
0.0
1001
ACDBBLOCKREPETAG
1070
     1
1071
      167
1005
139C68
  0
LINE
  5
139C69
  8
OBJECT
 10
12044.0
 20
-1219.9999999999959
 30
0.0
 11
12044.0
 21
-1209.9999999999959
 31
0.0
1001
ACDBBLOCKREPETAG
1070
     1
1071
      168
1005
139C69
  0
LINE
  5
139C6A
  8
OBJECT
 10
9910.0
 20
-1194.9999999999959
 30
0.0
 11
10076.0
 21
-1194.9999999999959
 31
0.0
1001
ACDBBLOCKREPETAG
1070
     1
1071
       12
1005
139C6A
  0
LINE
  5
139C6B
  8
OBJECT
 10
9934.0
 20
-1158.9999999999959
 30
0.0
 11
10066.0
 21
-1158.9999999999959
 31
0.0
1001
ACDBBLOCKREPETAG
1070
     1
1071
       13
1005
139C6B
  0
LINE
  5
139C6C
  8
OBJECT
 10
9910.0
 20
-1209.9999999999991
 30
0.0
 11
9910.0
 21
-1194.9999999999959
 31
0.0
1001
ACDBBLOCKREPETAG
1070
     1
1071
       14
1005
139C6C
  0
LINE
  5
139C6D
  8
OBJECT
 10
10076.0
 20
-1209.9999999999991
 30
0.0
 11
9910.0
 21
-1209.9999999999991
 31
0.0
1001
ACDBBLOCKREPETAG
1070
     1
1071
       15
1005
139C6D
  0
LINE
  5
139C6E
  8
OBJECT
 10
9932.5000000000127
 20
-1209.9999999999991
 30
0.0
 11
9932.5000000000127
 21
-1219.9999999999991
 31
0.0
1001
ACDBBLOCKREPETAG
1070
     1
1071
       16
1005
139C6E
  0
LINE
  5
139C6F
  8
OBJECT
 10
10076.0
 20
-1219.9999999999991
 30
0.0
 11
10076.0
 21
-1233.9999999999959
 31
0.0
1001
ACDBBLOCKREPETAG
1070
     1
1071
       17
1005
139C6F
  0
LINE
  5
139C70
  8
OBJECT
 10
9910.0
 20
-1219.9999999999991
 30
0.0
 11
9910.0
 21
-1233.9999999999959
 31
0.0
1001
ACDBBLOCKREPETAG
1070
     1
1071
       18
1005
139C70
  0
LINE
  5
139C71
  8
OBJECT
 10
10076.0
 20
-1233.9999999999959
 30
0.0
 11
9910.0
 21
-1233.9999999999959
 31
0.0
1001
ACDBBLOCKREPETAG
1070
     1
1071
       19
1005
139C71
  0
LINE
  5
139C72
  8
OBJECT
 10
10076.0
 20
-1219.9999999999991
 30
0.0
 11
9910.0
 21
-1219.9999999999991
 31
0.0
1001
ACDBBLOCKREPETAG
1070
     1
1071
       20
1005
139C72
  0
LINE
  5
139C73
  8
OBJECT
 10
10067.500000000009
 20
-1209.9999999999991
 30
0.0
 11
10067.500000000009
 21
-1219.9999999999991
 31
0.0
1001
ACDBBLOCKREPETAG
1070
     1
1071
       21
1005
139C73
  0
LINE
  5
139C74
  8
OBJECT
 10
10076.0
 20
-1209.9999999999991
 30
0.0
 11
10076.0
 21
-1194.9999999999959
 31
0.0
1001
ACDBBLOCKREPETAG
1070
     1
1071
       22
1005
139C74
  0
LINE
  5
139C75
  8
HIDDEN
 10
10057.0
 20
-1169.9999999999991
 30
0.0
 11
9943.0
 21
-1169.9999999999991
 31
0.0
1001
ACDBBLOCKREPETAG
1070
     1
1071
       23
1005
139C75
  0
LINE
  5
139C76
  8
CENTER
 10
10000.0
 20
-899.99999999999955
 30
0.0
 11
10000.0
 21
-1248.9999999999959
 31
0.0
1001
ACDBBLOCKREPETAG
1070
     1
1071
       24
1005
139C76
  0
LINE
  5
139C77
  8
OBJECT
 10
10075.0
 20
-899.99999999999955
 30
0.0
 11
10075.0
 21
-981.99999999999613
 31
0.0
1001
ACDBBLOCKREPETAG
1070
     1
1071
       25
1005
139C77
  0
LINE
  5
139C78
  8
OBJECT
 10
9925.0
 20
-899.99999999999955
 30
0.0
 11
9925.0
 21
-981.99999999999204
 31
0.0
1001
ACDBBLOCKREPETAG
1070
     1
1071
       26
1005
139C78
  0
LINE
  5
139C79
  8
OBJECT
 10
10075.0
 20
-981.99999999999613
 30
0.0
 11
9925.0
 21
-981.99999999999204
 31
0.0
1001
ACDBBLOCKREPETAG
1070
     1
1071
       27
1005
139C79
  0
LINE
  5
139C7A
  8
OBJECT
 10
9943.0
 20
-1158.9999999999959
 30
0.0
 11
9943.0
 21
-1109.999999999992
 31
0.0
1001
ACDBBLOCKREPETAG
1070
     1
1071
       28
1005
139C7A
  0
LINE
  5
139C7B
  8
OBJECT
 10
10057.0
 20
-1158.9999999999959
 30
0.0
 11
10057.0
 21
-1109.999999999992
 31
0.0
1001
ACDBBLOCKREPETAG
1070
     1
1071
       29
1005
139C7B
  0
LINE
  5
139C7C
  8
OBJECT
 10
9943.0
 20
-1109.999999999992
 30
0.0
 11
10057.0
 21
-1109.999999999992
 31
0.0
1001
ACDBBLOCKREPETAG
1070
     1
1071
       30
1005
139C7C
  0
LINE
  5
139C7D
  8
OBJECT
 10
10075.0
 20
-981.99999999999613
 30
0.0
 11
10057.0
 21
-1109.999999999992
 31
0.0
1001
ACDBBLOCKREPETAG
1070
     1
1071
       31
1005
139C7D
  0
LINE
  5
139C7E
  8
OBJECT
 10
9943.0
 20
-1109.999999999992
 30
0.0
 11
9925.0
 21
-981.99999999999204
 31
0.0
1001
ACDBBLOCKREPETAG
1070
     1
1071
       32
1005
139C7E
  0
LINE
  5
139C7F
  8
OBJECT
 10
10066.0
 20
-1158.9999999999959
 30
0.0
 11
10066.0
 21
-1194.9999999999959
 31
0.0
1001
ACDBBLOCKREPETAG
1070
     1
1071
       33
1005
139C7F
  0
LINE
  5
139C80
  8
OBJECT
 10
9934.0
 20
-1158.9999999999959
 30
0.0
 11
9934.0
 21
-1194.9999999999959
 31
0.0
1001
ACDBBLOCKREPETAG
1070
     1
1071
       34
1005
139C80
  0
LINE
  5
139C81
  8
OBJECT
 10
9917.0000000000073
 20
-1219.9999999999959
 30
0.0
 11
9917.0000000000073
 21
-1209.9999999999959
 31
0.0
1001
ACDBBLOCKREPETAG
1070
     1
1071
       35
1005
139C81
  0
LINE
  5
139C82
  8
OBJECT
 10
9927.0000000000091
 20
-1219.9999999999959
 30
0.0
 11
9927.0000000000091
 21
-1209.9999999999959
 31
0.0
1001
ACDBBLOCKREPETAG
1070
     1
1071
       36
1005
139C82
  0
LINE
  5
139C83
  8
OBJECT
 10
9931.0000000000127
 20
-1189.9999999999959
 30
0.0
 11
9931.0000000000127
 21
-1194.9999999999959
 31
0.0
1001
ACDBBLOCKREPETAG
1070
     1
1071
       37
1005
139C83
  0
LINE
  5
139C84
  8
OBJECT
 10
9913.0
 20
-1189.9999999999959
 30
0.0
 11
9913.0
 21
-1194.9999999999959
 31
0.0
1001
ACDBBLOCKREPETAG
1070
     1
1071
       38
1005
139C84
  0
LINE
  5
139C85
  8
OBJECT
 10
9913.0
 20
-1189.9999999999959
 30
0.0
 11
9931.0000000000127
 21
-1189.9999999999959
 31
0.0
1001
ACDBBLOCKREPETAG
1070
     1
1071
       39
1005
139C85
  0
LINE
  5
139C86
  8
OBJECT
 10
9927.0
 20
-1241.9999999999959
 30
0.0
 11
9927.0
 21
-1244.9999999999959
 31
0.0
1001
ACDBBLOCKREPETAG
1070
     1
1071
       40
1005
139C86
  0
LINE
  5
139C87
  8
OBJECT
 10
9927.0
 20
-1244.9999999999959
 30
0.0
 11
9917.0
 21
-1244.9999999999959
 31
0.0
1001
ACDBBLOCKREPETAG
1070
     1
1071
       41
1005
139C87
  0
LINE
  5
139C88
  8
OBJECT
 10
9931.814954576228
 20
-1241.9999999999959
 30
0.0
 11
9912.1850454237829
 21
-1241.9999999999959
 31
0.0
1001
ACDBBLOCKREPETAG
1070
     1
1071
       42
1005
139C88
  0
LINE
  5
139C89
  8
OBJECT
 10
9917.0
 20
-1244.9999999999959
 30
0.0
 11
9917.0
 21
-1241.9999999999959
 31
0.0
1001
ACDBBLOCKREPETAG
1070
     1
1071
       43
1005
139C89
  0
LINE
  5
139C8A
  8
OBJECT
 10
9931.8149640087086
 20
-1233.9999868402549
 30
0.0
 11
9931.8149640087086
 21
-1241.9999868402549
 31
0.0
1001
ACDBBLOCKREPETAG
1070
     1
1071
       44
1005
139C8A
  0
LINE
  5
139C8B
  8
OBJECT
 10
9926.9074986408014
 20
-1233.9999868402549
 30
0.0
 11
9926.9074986408014
 21
-1241.9999868402549
 31
0.0
1001
ACDBBLOCKREPETAG
1070
     1
1071
       45
1005
139C8B
  0
LINE
  5
139C8C
  8
OBJECT
 10
9917.092567904976
 20
-1233.9999868402549
 30
0.0
 11
9917.092567904976
 21
-1241.9999868402549
 31
0.0
1001
ACDBBLOCKREPETAG
1070
     1
1071
       46
1005
139C8C
  0
LINE
  5
139C8D
  8
OBJECT
 10
9912.1850084472026
 20
-1233.9999868402549
 30
0.0
 11
9912.1850084472026
 21
-1241.9999868402549
 31
0.0
1001
ACDBBLOCKREPETAG
1070
     1
1071
       47
1005
139C8D
  0
LINE
  5
139C8E
  8
OBJECT
 10
10031.5
 20
-1189.9999999999959
 30
0.0
 11
10048.000000000009
 21
-1189.9999999999959
 31
0.0
1001
ACDBBLOCKREPETAG
1070
     1
1071
       48
1005
139C8E
  0
LINE
  5
139C8F
  8
OBJECT
 10
10024.0
 20
-1194.9999999999959
 30
0.0
 11
10024.0
 21
-1192.9999999999959
 31
0.0
1001
ACDBBLOCKREPETAG
1070
     1
1071
       49
1005
139C8F
  0
LINE
  5
139C90
  8
OBJECT
 10
10034.0
 20
-1219.9999999999959
 30
0.0
 11
10034.0
 21
-1209.9999999999959
 31
0.0
1001
ACDBBLOCKREPETAG
1070
     1
1071
       50
1005
139C90
  0
LINE
  5
139C91
  8
OBJECT
 10
10044.0
 20
-1219.9999999999959
 30
0.0
 11
10044.0
 21
-1209.9999999999959
 31
0.0
1001
ACDBBLOCKREPETAG
1070
     1
1071
       51
1005
139C91
  0
LINE
  5
139C92
  8
OBJECT
 10
10048.000000000009
 20
-1189.9999999999959
 30
0.0
 11
10048.000000000009
 21
-1194.9999999999959
 31
0.0
1001
ACDBBLOCKREPETAG
1070
     1
1071
       52
1005
139C92
  0
LINE
  5
139C93
  8
OBJECT
 10
10044.0
 20
-1241.9999999999959
 30
0.0
 11
10044.0
 21
-1244.9999999999959
 31
0.0
1001
ACDBBLOCKREPETAG
1070
     1
1071
       53
1005
139C93
  0
LINE
  5
139C94
  8
OBJECT
 10
10044.0
 20
-1244.9999999999959
 30
0.0
 11
10034.0
 21
-1244.9999999999959
 31
0.0
1001
ACDBBLOCKREPETAG
1070
     1
1071
       54
1005
139C94
  0
LINE
  5
139C95
  8
OBJECT
 10
10048.81495457623
 20
-1241.9999999999959
 30
0.0
 11
10029.185045423779
 21
-1241.9999999999959
 31
0.0
1001
ACDBBLOCKREPETAG
1070
     1
1071
       55
1005
139C95
  0
LINE
  5
139C96
  8
OBJECT
 10
10034.0
 20
-1244.9999999999959
 30
0.0
 11
10034.0
 21
-1241.9999999999959
 31
0.0
1001
ACDBBLOCKREPETAG
1070
     1
1071
       56
1005
139C96
  0
LINE
  5
139C97
  8
OBJECT
 10
10024.0
 20
-1192.9999999999959
 30
0.0
 11
10031.5
 21
-1189.9999999999959
 31
0.0
1001
ACDBBLOCKREPETAG
1070
     1
1071
       57
1005
139C97
  0
LINE
  5
139C98
  8
OBJECT
 10
10048.814964008699
 20
-1233.9999868402549
 30
0.0
 11
10048.814964008699
 21
-1241.9999868402549
 31
0.0
1001
ACDBBLOCKREPETAG
1070
     1
1071
       58
1005
139C98
  0
LINE
  5
139C99
  8
OBJECT
 10
10043.9074986408
 20
-1233.9999868402549
 30
0.0
 11
10043.9074986408
 21
-1241.9999868402549
 31
0.0
1001
ACDBBLOCKREPETAG
1070
     1
1071
       59
1005
139C99
  0
LINE
  5
139C9A
  8
OBJECT
 10
10034.092567904971
 20
-1233.9999868402549
 30
0.0
 11
10034.092567904971
 21
-1241.9999868402549
 31
0.0
1001
ACDBBLOCKREPETAG
1070
     1
1071
       60
1005
139C9A
  0
LINE
  5
139C9B
  8
OBJECT
 10
10029.185008447201
 20
-1233.9999868402549
 30
0.0
 11
10029.185008447201
 21
-1241.9999868402549
 31
0.0
1001
ACDBBLOCKREPETAG
1070
     1
1071
       61
1005
139C9B
  0
LINE
  5
139C9C
  8
OBJECT
 10
7943.0
 20
-1209.9999999999959
 30
0.0
 11
8057.0
 21
-1209.9999999999959
 31
0.0
1001
ACDBBLOCKREPETAG
1070
     1
1071
        0
1005
139C9C
  0
LINE
  5
139C9D
  8
OBJECT
 10
7943.0
 20
-1209.9999999999959
 30
0.0
 11
7943.0
 21
-1109.9999999999959
 31
0.0
1001
ACDBBLOCKREPETAG
1070
     1
1071
        1
1005
139C9D
  0
LINE
  5
139C9E
  8
OBJECT
 10
8057.0
 20
-1209.9999999999959
 30
0.0
 11
8057.0
 21
-1109.9999999999959
 31
0.0
1001
ACDBBLOCKREPETAG
1070
     1
1071
        2
1005
139C9E
  0
LINE
  5
139C9F
  8
OBJECT
 10
7943.0
 20
-1109.9999999999959
 30
0.0
 11
8057.0
 21
-1109.9999999999959
 31
0.0
1001
ACDBBLOCKREPETAG
1070
     1
1071
        3
1005
139C9F
  0
LINE
  5
139CA0
  8
HIDDEN
 10
7950.0
 20
-1109.9999999999959
 30
0.0
 11
7950.0
 21
-1209.9999999999959
 31
0.0
1001
ACDBBLOCKREPETAG
1070
     1
1071
        4
1005
139CA0
  0
LINE
  5
139CA1
  8
HIDDEN
 10
8050.0
 20
-1109.9999999999959
 30
0.0
 11
8050.0
 21
-1209.9999999999959
 31
0.0
1001
ACDBBLOCKREPETAG
1070
     1
1071
        5
1005
139CA1
  0
LINE
  5
139CA2
  8
CENTER
 10
8000.0
 20
-899.99999999999955
 30
0.0
 11
8000.0
 21
-1224.9999999999959
 31
0.0
1001
ACDBBLOCKREPETAG
1070
     1
1071
        6
1005
139CA2
  0
LINE
  5
139CA3
  8
OBJECT
 10
7925.0
 20
-899.99999999999955
 30
0.0
 11
7925.0
 21
-981.99999999999613
 31
0.0
1001
ACDBBLOCKREPETAG
1070
     1
1071
        7
1005
139CA3
  0
LINE
  5
139CA4
  8
OBJECT
 10
8075.0
 20
-899.99999999999955
 30
0.0
 11
8075.0
 21
-981.99999999999613
 31
0.0
1001
ACDBBLOCKREPETAG
1070
     1
1071
        8
1005
139CA4
  0
LINE
  5
139CA5
  8
OBJECT
 10
7925.0
 20
-981.99999999999613
 30
0.0
 11
8075.0
 21
-981.99999999999613
 31
0.0
1001
ACDBBLOCKREPETAG
1070
     1
1071
        9
1005
139CA5
  0
LINE
  5
139CA6
  8
OBJECT
 10
7925.0
 20
-981.99999999999613
 30
0.0
 11
7943.0
 21
-1109.9999999999959
 31
0.0
1001
ACDBBLOCKREPETAG
1070
     1
1071
       10
1005
139CA6
  0
LINE
  5
139CA7
  8
OBJECT
 10
8057.0
 20
-1109.9999999999959
 30
0.0
 11
8075.0
 21
-981.99999999999613
 31
0.0
1001
ACDBBLOCKREPETAG
1070
     1
1071
       11
1005
139CA7
  0
LINE
  5
139CA8
  8
OBJECT
 10
5914.0000000000073
 20
-1233.9999999999991
 30
0.0
 11
5914.0000000000073
 21
-1243.9999999999991
 31
0.0
1001
ACDBBLOCKREPETAG
1070
     1
1071
      121
1005
139CA8
  0
LINE
  5
139CA9
  8
OBJECT
 10
5930.0000000000073
 20
-1233.9999999999991
 30
0.0
 11
5930.0000000000073
 21
-1243.9999999999991
 31
0.0
1001
ACDBBLOCKREPETAG
1070
     1
1071
      122
1005
139CA9
  0
LINE
  5
139CAA
  8
OBJECT
 10
5914.0000000000073
 20
-1243.9999999999991
 30
0.0
 11
5930.0000000000073
 21
-1243.9999999999991
 31
0.0
1001
ACDBBLOCKREPETAG
1070
     1
1071
      123
1005
139CAA
  0
LINE
  5
139CAB
  8
OBJECT
 10
5910.0
 20
-1194.9999999999959
 30
0.0
 11
6076.0
 21
-1194.9999999999959
 31
0.0
1001
ACDBBLOCKREPETAG
1070
     1
1071
      124
1005
139CAB
  0
LINE
  5
139CAC
  8
OBJECT
 10
5910.0
 20
-1209.9999999999991
 30
0.0
 11
5910.0
 21
-1194.9999999999959
 31
0.0
1001
ACDBBLOCKREPETAG
1070
     1
1071
      125
1005
139CAC
  0
LINE
  5
139CAD
  8
OBJECT
 10
6076.0
 20
-1209.9999999999991
 30
0.0
 11
5910.0
 21
-1209.9999999999991
 31
0.0
1001
ACDBBLOCKREPETAG
1070
     1
1071
      126
1005
139CAD
  0
LINE
  5
139CAE
  8
OBJECT
 10
5932.5000000000146
 20
-1209.9999999999991
 30
0.0
 11
5932.5000000000146
 21
-1219.9999999999991
 31
0.0
1001
ACDBBLOCKREPETAG
1070
     1
1071
      127
1005
139CAE
  0
LINE
  5
139CAF
  8
OBJECT
 10
5927.0000000000073
 20
-1219.9999999999991
 30
0.0
 11
5927.0000000000073
 21
-1209.9999999999991
 31
0.0
1001
ACDBBLOCKREPETAG
1070
     1
1071
      128
1005
139CAF
  0
LINE
  5
139CB0
  8
OBJECT
 10
5917.0000000000073
 20
-1219.9999999999991
 30
0.0
 11
5917.0000000000073
 21
-1209.9999999999991
 31
0.0
1001
ACDBBLOCKREPETAG
1070
     1
1071
      129
1005
139CB0
  0
LINE
  5
139CB1
  8
OBJECT
 10
6076.0
 20
-1219.9999999999991
 30
0.0
 11
6076.0
 21
-1233.9999999999959
 31
0.0
1001
ACDBBLOCKREPETAG
1070
     1
1071
      130
1005
139CB1
  0
LINE
  5
139CB2
  8
OBJECT
 10
5910.0
 20
-1219.9999999999991
 30
0.0
 11
5910.0
 21
-1233.9999999999959
 31
0.0
1001
ACDBBLOCKREPETAG
1070
     1
1071
      131
1005
139CB2
  0
LINE
  5
139CB3
  8
OBJECT
 10
6076.0
 20
-1233.9999999999959
 30
0.0
 11
5910.0
 21
-1233.9999999999959
 31
0.0
1001
ACDBBLOCKREPETAG
1070
     1
1071
      132
1005
139CB3
  0
LINE
  5
139CB4
  8
OBJECT
 10
6076.0
 20
-1219.9999999999991
 30
0.0
 11
5910.0
 21
-1219.9999999999991
 31
0.0
1001
ACDBBLOCKREPETAG
1070
     1
1071
      133
1005
139CB4
  0
LINE
  5
139CB5
  8
OBJECT
 10
6067.5000000000136
 20
-1209.9999999999991
 30
0.0
 11
6067.5000000000136
 21
-1219.9999999999991
 31
0.0
1001
ACDBBLOCKREPETAG
1070
     1
1071
      134
1005
139CB5
  0
LINE
  5
139CB6
  8
OBJECT
 10
6066.0
 20
-1158.9999999999959
 30
0.0
 11
5934.0000000000082
 21
-1158.9999999999959
 31
0.0
1001
ACDBBLOCKREPETAG
1070
     1
1071
      135
1005
139CB6
  0
LINE
  5
139CB7
  8
OBJECT
 10
6076.0
 20
-1209.9999999999991
 30
0.0
 11
6076.0
 21
-1194.9999999999959
 31
0.0
1001
ACDBBLOCKREPETAG
1070
     1
1071
      136
1005
139CB7
  0
LINE
  5
139CB8
  8
HIDDEN
 10
6057.0
 20
-1169.9999999999991
 30
0.0
 11
5943.0
 21
-1169.9999999999991
 31
0.0
1001
ACDBBLOCKREPETAG
1070
     1
1071
      137
1005
139CB8
  0
LINE
  5
139CB9
  8
OBJECT
 10
5913.0000000000073
 20
-1193.2
 30
0.0
 11
5913.0000000000073
 21
-1194.9999999999991
 31
0.0
1001
ACDBBLOCKREPETAG
1070
     1
1071
      138
1005
139CB9
  0
LINE
  5
139CBA
  8
OBJECT
 10
5931.0000000000082
 20
-1193.2
 30
0.0
 11
5931.0000000000082
 21
-1194.9999999999991
 31
0.0
1001
ACDBBLOCKREPETAG
1070
     1
1071
      139
1005
139CBA
  0
LINE
  5
139CBB
  8
OBJECT
 10
5927.7500000000073
 20
-1183.4999999999991
 30
0.0
 11
5916.2500000000073
 21
-1183.4999999999991
 31
0.0
1001
ACDBBLOCKREPETAG
1070
     1
1071
      140
1005
139CBB
  0
LINE
  5
139CBC
  8
OBJECT
 10
5927.7500000000073
 20
-1183.4999999999991
 30
0.0
 11
5927.7500000000073
 21
-1193.2
 31
0.0
1001
ACDBBLOCKREPETAG
1070
     1
1071
      141
1005
139CBC
  0
LINE
  5
139CBD
  8
OBJECT
 10
5916.2500000000073
 20
-1183.4999999999991
 30
0.0
 11
5916.2500000000073
 21
-1193.2
 31
0.0
1001
ACDBBLOCKREPETAG
1070
     1
1071
      142
1005
139CBD
  0
LINE
  5
139CBE
  8
OBJECT
 10
6068.0000000000146
 20
-1274.9999999999991
 30
0.0
 11
5932.0000000000146
 21
-1274.9999999999991
 31
0.0
1001
ACDBBLOCKREPETAG
1070
     1
1071
      143
1005
139CBE
  0
LINE
  5
139CBF
  8
OBJECT
 10
6068.0000000000146
 20
-1274.9999999999991
 30
0.0
 11
6068.0000000000146
 21
-1233.9999999999991
 31
0.0
1001
ACDBBLOCKREPETAG
1070
     1
1071
      144
1005
139CBF
  0
LINE
  5
139CC0
  8
OBJECT
 10
5932.0000000000146
 20
-1274.9999999999991
 30
0.0
 11
5932.0000000000146
 21
-1233.9999999999991
 31
0.0
1001
ACDBBLOCKREPETAG
1070
     1
1071
      145
1005
139CC0
  0
LINE
  5
139CC1
  8
OBJECT
 10
5913.0000000000073
 20
-1193.2
 30
0.0
 11
5931.0000000000082
 21
-1193.2
 31
0.0
1001
ACDBBLOCKREPETAG
1070
     1
1071
      146
1005
139CC1
  0
LINE
  5
139CC2
  8
CENTER
 10
6000.0
 20
-899.99999999999955
 30
0.0
 11
6000.0
 21
-1289.9999999999991
 31
0.0
1001
ACDBBLOCKREPETAG
1070
     1
1071
      147
1005
139CC2
  0
LINE
  5
139CC3
  8
OBJECT
 10
6075.0
 20
-899.99999999999955
 30
0.0
 11
6075.0
 21
-981.99999999999613
 31
0.0
1001
ACDBBLOCKREPETAG
1070
     1
1071
      148
1005
139CC3
  0
LINE
  5
139CC4
  8
OBJECT
 10
5925.0
 20
-899.99999999999955
 30
0.0
 11
5925.0
 21
-981.99999999999204
 31
0.0
1001
ACDBBLOCKREPETAG
1070
     1
1071
      149
1005
139CC4
  0
LINE
  5
139CC5
  8
OBJECT
 10
6075.0
 20
-981.99999999999613
 30
0.0
 11
5925.0
 21
-981.99999999999204
 31
0.0
1001
ACDBBLOCKREPETAG
1070
     1
1071
      150
1005
139CC5
  0
LINE
  5
139CC6
  8
OBJECT
 10
6057.0
 20
-1158.9999999999959
 30
0.0
 11
6057.0
 21
-1109.999999999992
 31
0.0
1001
ACDBBLOCKREPETAG
1070
     1
1071
      151
1005
139CC6
  0
LINE
  5
139CC7
  8
OBJECT
 10
5943.0
 20
-1109.999999999992
 30
0.0
 11
6057.0
 21
-1109.999999999992
 31
0.0
1001
ACDBBLOCKREPETAG
1070
     1
1071
      152
1005
139CC7
  0
LINE
  5
139CC8
  8
OBJECT
 10
5943.0
 20
-1109.999999999992
 30
0.0
 11
5943.0
 21
-1158.9999999999959
 31
0.0
1001
ACDBBLOCKREPETAG
1070
     1
1071
      153
1005
139CC8
  0
LINE
  5
139CC9
  8
OBJECT
 10
6075.0
 20
-981.99999999999613
 30
0.0
 11
6057.0
 21
-1109.999999999992
 31
0.0
1001
ACDBBLOCKREPETAG
1070
     1
1071
      154
1005
139CC9
  0
LINE
  5
139CCA
  8
OBJECT
 10
5943.0
 20
-1109.999999999992
 30
0.0
 11
5925.0
 21
-981.99999999999204
 31
0.0
1001
ACDBBLOCKREPETAG
1070
     1
1071
      155
1005
139CCA
  0
LINE
  5
139CCB
  8
OBJECT
 10
6066.0
 20
-1194.9999999999959
 30
0.0
 11
6066.0
 21
-1158.9999999999959
 31
0.0
1001
ACDBBLOCKREPETAG
1070
     1
1071
      156
1005
139CCB
  0
LINE
  5
139CCC
  8
OBJECT
 10
5934.0
 20
-1194.9999999999959
 30
0.0
 11
5934.0000000000082
 21
-1158.9999999999959
 31
0.0
1001
ACDBBLOCKREPETAG
1070
     1
1071
      157
1005
139CCC
  0
LINE
  5
139CCD
  8
OBJECT
 10
6045.25
 20
-1184.699999999993
 30
0.0
 11
6032.75
 21
-1184.699999999993
 31
0.0
1001
ACDBBLOCKREPETAG
1070
     1
1071
      158
1005
139CCD
  0
LINE
  5
139CCE
  8
OBJECT
 10
6054.0
 20
-1194.9999999999959
 30
0.0
 11
6054.0
 21
-1192.699999999996
 31
0.0
1001
ACDBBLOCKREPETAG
1070
     1
1071
      159
1005
139CCE
  0
LINE
  5
139CCF
  8
OBJECT
 10
6024.0
 20
-1194.9999999999959
 30
0.0
 11
6024.0
 21
-1192.699999999996
 31
0.0
1001
ACDBBLOCKREPETAG
1070
     1
1071
      160
1005
139CCF
  0
LINE
  5
139CD0
  8
OBJECT
 10
6045.25
 20
-1184.699999999993
 30
0.0
 11
6045.25
 21
-1192.699999999996
 31
0.0
1001
ACDBBLOCKREPETAG
1070
     1
1071
      161
1005
139CD0
  0
LINE
  5
139CD1
  8
OBJECT
 10
6032.75
 20
-1184.699999999993
 30
0.0
 11
6032.75
 21
-1192.699999999996
 31
0.0
1001
ACDBBLOCKREPETAG
1070
     1
1071
      162
1005
139CD1
  0
LINE
  5
139CD2
  8
OBJECT
 10
6054.0
 20
-1192.699999999996
 30
0.0
 11
6024.0
 21
-1192.699999999996
 31
0.0
1001
ACDBBLOCKREPETAG
1070
     1
1071
      163
1005
139CD2
  0
LINE
  5
139CD3
  8
OBJECT
 10
6047.0
 20
-1233.9999999999959
 30
0.0
 11
6047.0
 21
-1243.9999999999959
 31
0.0
1001
ACDBBLOCKREPETAG
1070
     1
1071
      164
1005
139CD3
  0
LINE
  5
139CD4
  8
OBJECT
 10
6031.0
 20
-1233.9999999999959
 30
0.0
 11
6031.0
 21
-1243.9999999999959
 31
0.0
1001
ACDBBLOCKREPETAG
1070
     1
1071
      165
1005
139CD4
  0
LINE
  5
139CD5
  8
OBJECT
 10
6047.0
 20
-1243.9999999999959
 30
0.0
 11
6031.0
 21
-1243.9999999999959
 31
0.0
1001
ACDBBLOCKREPETAG
1070
     1
1071
      166
1005
139CD5
  0
LINE
  5
139CD6
  8
OBJECT
 10
6034.0
 20
-1219.9999999999959
 30
0.0
 11
6034.0
 21
-1209.9999999999959
 31
0.0
1001
ACDBBLOCKREPETAG
1070
     1
1071
      167
1005
139CD6
  0
LINE
  5
139CD7
  8
OBJECT
 10
6044.0
 20
-1219.9999999999959
 30
0.0
 11
6044.0
 21
-1209.9999999999959
 31
0.0
1001
ACDBBLOCKREPETAG
1070
     1
1071
      168
1005
139CD7
  0
LINE
  5
139CD8
  8
OBJECT
 10
3910.0
 20
-1194.9999999999959
 30
0.0
 11
4076.0
 21
-1194.9999999999959
 31
0.0
1001
ACDBBLOCKREPETAG
1070
     1
1071
       12
1005
139CD8
  0
LINE
  5
139CD9
  8
OBJECT
 10
3934.0
 20
-1158.9999999999959
 30
0.0
 11
4066.0
 21
-1158.9999999999959
 31
0.0
1001
ACDBBLOCKREPETAG
1070
     1
1071
       13
1005
139CD9
  0
LINE
  5
139CDA
  8
OBJECT
 10
3910.0
 20
-1209.9999999999991
 30
0.0
 11
3910.0
 21
-1194.9999999999959
 31
0.0
1001
ACDBBLOCKREPETAG
1070
     1
1071
       14
1005
139CDA
  0
LINE
  5
139CDB
  8
OBJECT
 10
4076.0
 20
-1209.9999999999991
 30
0.0
 11
3910.0
 21
-1209.9999999999991
 31
0.0
1001
ACDBBLOCKREPETAG
1070
     1
1071
       15
1005
139CDB
  0
LINE
  5
139CDC
  8
OBJECT
 10
3932.500000000015
 20
-1209.9999999999991
 30
0.0
 11
3932.500000000015
 21
-1219.9999999999991
 31
0.0
1001
ACDBBLOCKREPETAG
1070
     1
1071
       16
1005
139CDC
  0
LINE
  5
139CDD
  8
OBJECT
 10
4076.0
 20
-1219.9999999999991
 30
0.0
 11
4076.0
 21
-1233.9999999999959
 31
0.0
1001
ACDBBLOCKREPETAG
1070
     1
1071
       17
1005
139CDD
  0
LINE
  5
139CDE
  8
OBJECT
 10
3910.0
 20
-1219.9999999999991
 30
0.0
 11
3910.0
 21
-1233.9999999999959
 31
0.0
1001
ACDBBLOCKREPETAG
1070
     1
1071
       18
1005
139CDE
  0
LINE
  5
139CDF
  8
OBJECT
 10
4076.0
 20
-1233.9999999999959
 30
0.0
 11
3910.0
 21
-1233.9999999999959
 31
0.0
1001
ACDBBLOCKREPETAG
1070
     1
1071
       19
1005
139CDF
  0
LINE
  5
139CE0
  8
OBJECT
 10
4076.0
 20
-1219.9999999999991
 30
0.0
 11
3910.0
 21
-1219.9999999999991
 31
0.0
1001
ACDBBLOCKREPETAG
1070
     1
1071
       20
1005
139CE0
  0
LINE
  5
139CE1
  8
OBJECT
 10
4067.5000000000141
 20
-1209.9999999999991
 30
0.0
 11
4067.5000000000141
 21
-1219.9999999999991
 31
0.0
1001
ACDBBLOCKREPETAG
1070
     1
1071
       21
1005
139CE1
  0
LINE
  5
139CE2
  8
OBJECT
 10
4076.0
 20
-1209.9999999999991
 30
0.0
 11
4076.0
 21
-1194.9999999999959
 31
0.0
1001
ACDBBLOCKREPETAG
1070
     1
1071
       22
1005
139CE2
  0
LINE
  5
139CE3
  8
HIDDEN
 10
4057.0
 20
-1169.9999999999991
 30
0.0
 11
3943.0
 21
-1169.9999999999991
 31
0.0
1001
ACDBBLOCKREPETAG
1070
     1
1071
       23
1005
139CE3
  0
LINE
  5
139CE4
  8
CENTER
 10
4000.0
 20
-899.99999999999955
 30
0.0
 11
4000.0
 21
-1248.9999999999959
 31
0.0
1001
ACDBBLOCKREPETAG
1070
     1
1071
       24
1005
139CE4
  0
LINE
  5
139CE5
  8
OBJECT
 10
4075.0
 20
-899.99999999999955
 30
0.0
 11
4075.0
 21
-981.99999999999613
 31
0.0
1001
ACDBBLOCKREPETAG
1070
     1
1071
       25
1005
139CE5
  0
LINE
  5
139CE6
  8
OBJECT
 10
3925.0
 20
-899.99999999999955
 30
0.0
 11
3925.0
 21
-981.99999999999204
 31
0.0
1001
ACDBBLOCKREPETAG
1070
     1
1071
       26
1005
139CE6
  0
LINE
  5
139CE7
  8
OBJECT
 10
4075.0
 20
-981.99999999999613
 30
0.0
 11
3925.0
 21
-981.99999999999204
 31
0.0
1001
ACDBBLOCKREPETAG
1070
     1
1071
       27
1005
139CE7
  0
LINE
  5
139CE8
  8
OBJECT
 10
3943.0
 20
-1158.9999999999959
 30
0.0
 11
3943.0
 21
-1109.999999999992
 31
0.0
1001
ACDBBLOCKREPETAG
1070
     1
1071
       28
1005
139CE8
  0
LINE
  5
139CE9
  8
OBJECT
 10
4057.0
 20
-1158.9999999999959
 30
0.0
 11
4057.0
 21
-1109.999999999992
 31
0.0
1001
ACDBBLOCKREPETAG
1070
     1
1071
       29
1005
139CE9
  0
LINE
  5
139CEA
  8
OBJECT
 10
3943.0
 20
-1109.999999999992
 30
0.0
 11
4057.0
 21
-1109.999999999992
 31
0.0
1001
ACDBBLOCKREPETAG
1070
     1
1071
       30
1005
139CEA
  0
LINE
  5
139CEB
  8
OBJECT
 10
4075.0
 20
-981.99999999999613
 30
0.0
 11
4057.0
 21
-1109.999999999992
 31
0.0
1001
ACDBBLOCKREPETAG
1070
     1
1071
       31
1005
139CEB
  0
LINE
  5
139CEC
  8
OBJECT
 10
3943.0
 20
-1109.999999999992
 30
0.0
 11
3925.0
 21
-981.99999999999204
 31
0.0
1001
ACDBBLOCKREPETAG
1070
     1
1071
       32
1005
139CEC
  0
LINE
  5
139CED
  8
OBJECT
 10
4066.0
 20
-1158.9999999999959
 30
0.0
 11
4066.0
 21
-1194.9999999999959
 31
0.0
1001
ACDBBLOCKREPETAG
1070
     1
1071
       33
1005
139CED
  0
LINE
  5
139CEE
  8
OBJECT
 10
3934.0
 20
-1158.9999999999959
 30
0.0
 11
3934.0
 21
-1194.9999999999959
 31
0.0
1001
ACDBBLOCKREPETAG
1070
     1
1071
       34
1005
139CEE
  0
LINE
  5
139CEF
  8
OBJECT
 10
3917.0000000000068
 20
-1219.9999999999959
 30
0.0
 11
3917.0000000000068
 21
-1209.9999999999959
 31
0.0
1001
ACDBBLOCKREPETAG
1070
     1
1071
       35
1005
139CEF
  0
LINE
  5
139CF0
  8
OBJECT
 10
3927.0000000000082
 20
-1219.9999999999959
 30
0.0
 11
3927.0000000000082
 21
-1209.9999999999959
 31
0.0
1001
ACDBBLOCKREPETAG
1070
     1
1071
       36
1005
139CF0
  0
LINE
  5
139CF1
  8
OBJECT
 10
3931.0000000000159
 20
-1189.9999999999959
 30
0.0
 11
3931.0000000000159
 21
-1194.9999999999959
 31
0.0
1001
ACDBBLOCKREPETAG
1070
     1
1071
       37
1005
139CF1
  0
LINE
  5
139CF2
  8
OBJECT
 10
3913.0
 20
-1189.9999999999959
 30
0.0
 11
3913.0
 21
-1194.9999999999959
 31
0.0
1001
ACDBBLOCKREPETAG
1070
     1
1071
       38
1005
139CF2
  0
LINE
  5
139CF3
  8
OBJECT
 10
3913.0
 20
-1189.9999999999959
 30
0.0
 11
3931.0000000000159
 21
-1189.9999999999959
 31
0.0
1001
ACDBBLOCKREPETAG
1070
     1
1071
       39
1005
139CF3
  0
LINE
  5
139CF4
  8
OBJECT
 10
3927.0
 20
-1241.9999999999959
 30
0.0
 11
3927.0
 21
-1244.9999999999959
 31
0.0
1001
ACDBBLOCKREPETAG
1070
     1
1071
       40
1005
139CF4
  0
LINE
  5
139CF5
  8
OBJECT
 10
3927.0
 20
-1244.9999999999959
 30
0.0
 11
3917.0
 21
-1244.9999999999959
 31
0.0
1001
ACDBBLOCKREPETAG
1070
     1
1071
       41
1005
139CF5
  0
LINE
  5
139CF6
  8
OBJECT
 10
3931.814954576228
 20
-1241.9999999999959
 30
0.0
 11
3912.1850454237788
 21
-1241.9999999999959
 31
0.0
1001
ACDBBLOCKREPETAG
1070
     1
1071
       42
1005
139CF6
  0
LINE
  5
139CF7
  8
OBJECT
 10
3917.0
 20
-1244.9999999999959
 30
0.0
 11
3917.0
 21
-1241.9999999999959
 31
0.0
1001
ACDBBLOCKREPETAG
1070
     1
1071
       43
1005
139CF7
  0
LINE
  5
139CF8
  8
OBJECT
 10
3931.8149640087072
 20
-1233.9999868402549
 30
0.0
 11
3931.8149640087072
 21
-1241.9999868402549
 31
0.0
1001
ACDBBLOCKREPETAG
1070
     1
1071
       44
1005
139CF8
  0
LINE
  5
139CF9
  8
OBJECT
 10
3926.9074986408009
 20
-1233.9999868402549
 30
0.0
 11
3926.9074986408009
 21
-1241.9999868402549
 31
0.0
1001
ACDBBLOCKREPETAG
1070
     1
1071
       45
1005
139CF9
  0
LINE
  5
139CFA
  8
OBJECT
 10
3917.092567904976
 20
-1233.9999868402549
 30
0.0
 11
3917.092567904976
 21
-1241.9999868402549
 31
0.0
1001
ACDBBLOCKREPETAG
1070
     1
1071
       46
1005
139CFA
  0
LINE
  5
139CFB
  8
OBJECT
 10
3912.185008447203
 20
-1233.9999868402549
 30
0.0
 11
3912.185008447203
 21
-1241.9999868402549
 31
0.0
1001
ACDBBLOCKREPETAG
1070
     1
1071
       47
1005
139CFB
  0
LINE
  5
139CFC
  8
OBJECT
 10
4031.5
 20
-1189.9999999999959
 30
0.0
 11
4048.0000000000082
 21
-1189.9999999999959
 31
0.0
1001
ACDBBLOCKREPETAG
1070
     1
1071
       48
1005
139CFC
  0
LINE
  5
139CFD
  8
OBJECT
 10
4024.0
 20
-1194.9999999999959
 30
0.0
 11
4024.0
 21
-1192.9999999999959
 31
0.0
1001
ACDBBLOCKREPETAG
1070
     1
1071
       49
1005
139CFD
  0
LINE
  5
139CFE
  8
OBJECT
 10
4034.0
 20
-1219.9999999999959
 30
0.0
 11
4034.0
 21
-1209.9999999999959
 31
0.0
1001
ACDBBLOCKREPETAG
1070
     1
1071
       50
1005
139CFE
  0
LINE
  5
139CFF
  8
OBJECT
 10
4044.0
 20
-1219.9999999999959
 30
0.0
 11
4044.0
 21
-1209.9999999999959
 31
0.0
1001
ACDBBLOCKREPETAG
1070
     1
1071
       51
1005
139CFF
  0
LINE
  5
139D00
  8
OBJECT
 10
4048.0000000000082
 20
-1189.9999999999959
 30
0.0
 11
4048.0000000000082
 21
-1194.9999999999959
 31
0.0
1001
ACDBBLOCKREPETAG
1070
     1
1071
       52
1005
139D00
  0
LINE
  5
139D01
  8
OBJECT
 10
4044.0
 20
-1241.9999999999959
 30
0.0
 11
4044.0
 21
-1244.9999999999959
 31
0.0
1001
ACDBBLOCKREPETAG
1070
     1
1071
       53
1005
139D01
  0
LINE
  5
139D02
  8
OBJECT
 10
4044.0
 20
-1244.9999999999959
 30
0.0
 11
4034.0
 21
-1244.9999999999959
 31
0.0
1001
ACDBBLOCKREPETAG
1070
     1
1071
       54
1005
139D02
  0
LINE
  5
139D03
  8
OBJECT
 10
4048.814954576228
 20
-1241.9999999999959
 30
0.0
 11
4029.1850454237788
 21
-1241.9999999999959
 31
0.0
1001
ACDBBLOCKREPETAG
1070
     1
1071
       55
1005
139D03
  0
LINE
  5
139D04
  8
OBJECT
 10
4034.0
 20
-1244.9999999999959
 30
0.0
 11
4034.0
 21
-1241.9999999999959
 31
0.0
1001
ACDBBLOCKREPETAG
1070
     1
1071
       56
1005
139D04
  0
LINE
  5
139D05
  8
OBJECT
 10
4024.0
 20
-1192.9999999999959
 30
0.0
 11
4031.5
 21
-1189.9999999999959
 31
0.0
1001
ACDBBLOCKREPETAG
1070
     1
1071
       57
1005
139D05
  0
LINE
  5
139D06
  8
OBJECT
 10
4048.814964008704
 20
-1233.9999868402549
 30
0.0
 11
4048.814964008704
 21
-1241.9999868402549
 31
0.0
1001
ACDBBLOCKREPETAG
1070
     1
1071
       58
1005
139D06
  0
LINE
  5
139D07
  8
OBJECT
 10
4043.9074986408009
 20
-1233.9999868402549
 30
0.0
 11
4043.9074986408009
 21
-1241.9999868402549
 31
0.0
1001
ACDBBLOCKREPETAG
1070
     1
1071
       59
1005
139D07
  0
LINE
  5
139D08
  8
OBJECT
 10
4034.092567904976
 20
-1233.9999868402549
 30
0.0
 11
4034.092567904976
 21
-1241.9999868402549
 31
0.0
1001
ACDBBLOCKREPETAG
1070
     1
1071
       60
1005
139D08
  0
LINE
  5
139D09
  8
OBJECT
 10
4029.1850084472021
 20
-1233.9999868402549
 30
0.0
 11
4029.1850084472021
 21
-1241.9999868402549
 31
0.0
1001
ACDBBLOCKREPETAG
1070
     1
1071
       61
1005
139D09
  0
LINE
  5
139D0A
  8
OBJECT
 10
1943.0
 20
-1209.9999999999959
 30
0.0
 11
2057.0
 21
-1209.9999999999959
 31
0.0
1001
ACDBBLOCKREPETAG
1070
     1
1071
        0
1005
139D0A
  0
LINE
  5
139D0B
  8
OBJECT
 10
1943.0
 20
-1209.9999999999959
 30
0.0
 11
1943.0
 21
-1109.9999999999959
 31
0.0
1001
ACDBBLOCKREPETAG
1070
     1
1071
        1
1005
139D0B
  0
LINE
  5
139D0C
  8
OBJECT
 10
2057.0
 20
-1209.9999999999959
 30
0.0
 11
2057.0
 21
-1109.9999999999959
 31
0.0
1001
ACDBBLOCKREPETAG
1070
     1
1071
        2
1005
139D0C
  0
LINE
  5
139D0D
  8
OBJECT
 10
1943.0
 20
-1109.9999999999959
 30
0.0
 11
2057.0
 21
-1109.9999999999959
 31
0.0
1001
ACDBBLOCKREPETAG
1070
     1
1071
        3
1005
139D0D
  0
LINE
  5
139D0E
  8
HIDDEN
 10
1950.0
 20
-1109.9999999999959
 30
0.0
 11
1950.0
 21
-1209.9999999999959
 31
0.0
1001
ACDBBLOCKREPETAG
1070
     1
1071
        4
1005
139D0E
  0
LINE
  5
139D0F
  8
HIDDEN
 10
2050.0
 20
-1109.9999999999959
 30
0.0
 11
2050.0
 21
-1209.9999999999959
 31
0.0
1001
ACDBBLOCKREPETAG
1070
     1
1071
        5
1005
139D0F
  0
LINE
  5
139D10
  8
CENTER
 10
2000.0
 20
-899.99999999999955
 30
0.0
 11
2000.0
 21
-1224.9999999999959
 31
0.0
1001
ACDBBLOCKREPETAG
1070
     1
1071
        6
1005
139D10
  0
LINE
  5
139D11
  8
OBJECT
 10
1925.0
 20
-899.99999999999955
 30
0.0
 11
1925.0
 21
-981.99999999999613
 31
0.0
1001
ACDBBLOCKREPETAG
1070
     1
1071
        7
1005
139D11
  0
LINE
  5
139D12
  8
OBJECT
 10
2075.0
 20
-899.99999999999955
 30
0.0
 11
2075.0
 21
-981.99999999999613
 31
0.0
1001
ACDBBLOCKREPETAG
1070
     1
1071
        8
1005
139D12
  0
LINE
  5
139D13
  8
OBJECT
 10
1925.0
 20
-981.99999999999613
 30
0.0
 11
2075.0
 21
-981.99999999999613
 31
0.0
1001
ACDBBLOCKREPETAG
1070
     1
1071
        9
1005
139D13
  0
LINE
  5
139D14
  8
OBJECT
 10
1925.0
 20
-981.99999999999613
 30
0.0
 11
1943.0
 21
-1109.9999999999959
 31
0.0
1001
ACDBBLOCKREPETAG
1070
     1
1071
       10
1005
139D14
  0
LINE
  5
139D15
  8
OBJECT
 10
2057.0
 20
-1109.9999999999959
 30
0.0
 11
2075.0
 21
-981.99999999999613
 31
0.0
1001
ACDBBLOCKREPETAG
1070
     1
1071
       11
1005
139D15
  0
LINE
  5
139D16
  8
OBJECT
 10
2212.999999999985
 20
-553.0000000000008
 30
0.0
 11
2219.999999999985
 21
-553.0000000000008
 31
0.0
1001
ACDBBLOCKREPETAG
1070
     1
1071
      106
1005
139D16
  0
LINE
  5
139D17
  8
OBJECT
 10
2219.999999999985
 20
-553.0000000000008
 30
0.0
 11
2219.999999999985
 21
-677.0000000000008
 31
0.0
1001
ACDBBLOCKREPETAG
1070
     1
1071
      107
1005
139D17
  0
LINE
  5
139D18
  8
OBJECT
 10
2085.9999999999859
 20
-653.3502637757274
 30
0.0
 11
2085.9999999999859
 21
-755.00000000000102
 31
0.0
1001
ACDBBLOCKREPETAG
1070
     1
1071
      108
1005
139D18
  0
LINE
  5
139D19
  8
OBJECT
 10
2219.999999999985
 20
-677.0000000000008
 30
0.0
 11
2212.999999999985
 21
-677.0000000000008
 31
0.0
1001
ACDBBLOCKREPETAG
1070
     1
1071
      109
1005
139D19
  0
LINE
  5
139D1A
  8
OBJECT
 10
2212.999999999985
 20
-677.0000000000008
 30
0.0
 11
2212.999999999985
 21
-553.0000000000008
 31
0.0
1001
ACDBBLOCKREPETAG
1070
     1
1071
      110
1005
139D1A
  0
LINE
  5
139D1B
  8
CENTER
 10
2144.999999999985
 20
-615.0000000000008
 30
0.0
 11
2234.9999999999859
 21
-615.0000000000008
 31
0.0
1001
ACDBBLOCKREPETAG
1070
     1
1071
      111
1005
139D1B
  0
LINE
  5
139D1C
  8
OBJECT
 10
2079.9999999999809
 20
-758.0
 30
0.0
 11
2082.999999999985
 21
-758.0000000000008
 31
0.0
1001
ACDBBLOCKREPETAG
1070
     1
1071
      112
1005
139D1C
  0
ARC
  5
139D1D
  8
OBJECT
 10
2082.999999999985
 20
-755.00000000000102
 30
0.0
 40
3.0
 50
270.0
 51
0.0
1001
ACDBBLOCKREPETAG
1070
     1
1071
      113
1005
139D1D
  0
LINE
  5
139D1E
  8
OBJECT
 10
2212.999999999985
 20
-556.0000000000008
 30
0.0
 11
2176.999999999985
 21
-556.0000000000008
 31
0.0
1001
ACDBBLOCKREPETAG
1070
     1
1071
      114
1005
139D1E
  0
LINE
  5
139D1F
  8
OBJECT
 10
2176.999999999985
 20
-556.0000000000008
 30
0.0
 11
2176.999999999985
 21
-653.15756805667843
 31
0.0
1001
ACDBBLOCKREPETAG
1070
     1
1071
      115
1005
139D1F
  0
LINE
  5
139D20
  8
OBJECT
 10
2172.999999999985
 20
-560.5000000000008
 30
0.0
 11
2172.9999999999818
 21
-645.74491827928705
 31
0.0
1001
ACDBBLOCKREPETAG
1070
     1
1071
      116
1005
139D20
  0
LINE
  5
139D21
  8
OBJECT
 10
2172.999999999985
 20
-560.5000000000008
 30
0.0
 11
2159.999999999985
 21
-560.5000000000008
 31
0.0
1001
ACDBBLOCKREPETAG
1070
     1
1071
      117
1005
139D21
  0
LINE
  5
139D22
  8
OBJECT
 10
2168.6563168254688
 20
-674.0000000000008
 30
0.0
 11
2212.999999999985
 21
-674.0000000000008
 31
0.0
1001
ACDBBLOCKREPETAG
1070
     1
1071
      118
1005
139D22
  0
LINE
  5
139D23
  8
OBJECT
 10
2176.999999999985
 20
-556.0000000000008
 30
0.0
 11
2172.999999999985
 21
-560.5000000000008
 31
0.0
1001
ACDBBLOCKREPETAG
1070
     1
1071
      119
1005
139D23
  0
LINE
  5
139D24
  8
OBJECT
 10
2159.999999999985
 20
-560.5000000000008
 30
0.0
 11
2159.999999999985
 21
-645.74491827928784
 31
0.0
1001
ACDBBLOCKREPETAG
1070
     1
1071
      120
1005
139D24
  0
ARC
  5
139D25
  8
OBJECT
 10
2091.9999999999859
 20
-637.27386365609345
 30
0.0
 40
85.0
 50
308.59099323720869
 51
334.40086127812339
1001
ACDBBLOCKREPETAG
1070
     1
1071
      121
1005
139D25
  0
ARC
  5
139D26
  8
OBJECT
 10
2162.7999999999852
 20
-655.00000000000068
 30
0.0
 40
85.0
 50
91.887731891831123
 51
160.07406787456929
1001
ACDBBLOCKREPETAG
1070
     1
1071
      122
1005
139D26
  0
LINE
  5
139D27
  8
OBJECT
 10
2085.9999999999859
 20
-750.81075719270905
 30
0.0
 11
2145.0193225436019
 21
-703.71143914629454
 31
0.0
1001
ACDBBLOCKREPETAG
1070
     1
1071
      123
1005
139D27
  0
LINE
  5
139D28
  8
OBJECT
 10
2172.9999999999818
 20
-645.74491827928705
 30
0.0
 11
2159.999999999985
 21
-645.74491827928784
 31
0.0
1001
ACDBBLOCKREPETAG
1070
     1
1071
      124
1005
139D28
  0
LINE
  5
139D29
  8
OBJECT
 10
2176.999999999985
 20
-653.15756805667843
 30
0.0
 11
2172.9999999999818
 21
-645.74491827928705
 31
0.0
1001
ACDBBLOCKREPETAG
1070
     1
1071
      125
1005
139D29
  0
LINE
  5
139D2A
  8
OBJECT
 10
2080.0000000000191
 20
-634.0
 30
0.0
 11
2082.8886121596229
 21
-626.03156729425325
 31
0.0
1001
ACDBBLOCKREPETAG
1070
     1
1071
      126
1005
139D2A
  0
LINE
  5
139D2B
  8
OBJECT
 10
2080.0000000000191
 20
-634.0
 30
0.0
 11
2085.9999999999859
 21
-653.3502637757274
 31
0.0
1001
ACDBBLOCKREPETAG
1070
     1
1071
      127
1005
139D2B
  0
LINE
  5
139D2C
  8
HIDDEN
 10
2167.999999999985
 20
-570.5000000000008
 30
0.0
 11
2167.999999999985
 21
-659.50000000000068
 31
0.0
1001
ACDBBLOCKREPETAG
1070
     1
1071
      129
1005
139D2C
  0
LINE
  5
139D2D
  8
OBJECT
 10
2212.999999999985
 20
-137.99999999999909
 30
0.0
 11
2219.999999999985
 21
-137.99999999999909
 31
0.0
1001
ACDBBLOCKREPETAG
1070
     1
1071
      110
1005
139D2D
  0
LINE
  5
139D2E
  8
OBJECT
 10
2219.999999999985
 20
-137.99999999999909
 30
0.0
 11
2219.999999999985
 21
-261.99999999999909
 31
0.0
1001
ACDBBLOCKREPETAG
1070
     1
1071
      111
1005
139D2E
  0
LINE
  5
139D2F
  8
OBJECT
 10
2219.999999999985
 20
-261.99999999999909
 30
0.0
 11
2212.999999999985
 21
-261.99999999999909
 31
0.0
1001
ACDBBLOCKREPETAG
1070
     1
1071
      112
1005
139D2F
  0
LINE
  5
139D30
  8
OBJECT
 10
2212.999999999985
 20
-261.99999999999909
 30
0.0
 11
2212.999999999985
 21
-137.99999999999909
 31
0.0
1001
ACDBBLOCKREPETAG
1070
     1
1071
      113
1005
139D30
  0
LINE
  5
139D31
  8
CENTER
 10
2234.9999999999859
 20
-199.99999999999909
 30
0.0
 11
2080.0000000000041
 21
-199.99999999999909
 31
0.0
1001
ACDBBLOCKREPETAG
1070
     1
1071
      114
1005
139D31
  0
LINE
  5
139D32
  8
OBJECT
 10
2159.999974964187
 20
-245.0000000000027
 30
0.0
 11
2086.0
 21
-244.99999999999909
 31
0.0
1001
ACDBBLOCKREPETAG
1070
     1
1071
      115
1005
139D32
  0
LINE
  5
139D33
  8
OBJECT
 10
2159.999974964187
 20
-154.99999999999909
 30
0.0
 11
2086.0
 21
-154.99999999999909
 31
0.0
1001
ACDBBLOCKREPETAG
1070
     1
1071
      116
1005
139D33
  0
LINE
  5
139D34
  8
OBJECT
 10
2212.999999999985
 20
-140.99999999999909
 30
0.0
 11
2176.999999999985
 21
-140.99999999999909
 31
0.0
1001
ACDBBLOCKREPETAG
1070
     1
1071
      117
1005
139D34
  0
LINE
  5
139D35
  8
OBJECT
 10
2176.999999999985
 20
-140.99999999999909
 30
0.0
 11
2176.999999999985
 21
-258.99999999999909
 31
0.0
1001
ACDBBLOCKREPETAG
1070
     1
1071
      118
1005
139D35
  0
LINE
  5
139D36
  8
OBJECT
 10
2176.999999999985
 20
-258.99999999999909
 30
0.0
 11
2212.999999999985
 21
-258.99999999999909
 31
0.0
1001
ACDBBLOCKREPETAG
1070
     1
1071
      119
1005
139D36
  0
LINE
  5
139D37
  8
OBJECT
 10
2172.999999999985
 20
-145.49999999999909
 30
0.0
 11
2159.999999999985
 21
-145.49999999999909
 31
0.0
1001
ACDBBLOCKREPETAG
1070
     1
1071
      120
1005
139D37
  0
LINE
  5
139D38
  8
OBJECT
 10
2159.999999999985
 20
-254.49999999999909
 30
0.0
 11
2172.999999999985
 21
-254.49999999999909
 31
0.0
1001
ACDBBLOCKREPETAG
1070
     1
1071
      121
1005
139D38
  0
LINE
  5
139D39
  8
OBJECT
 10
2172.999999999985
 20
-254.49999999999909
 30
0.0
 11
2172.999999999985
 21
-145.49999999999909
 31
0.0
1001
ACDBBLOCKREPETAG
1070
     1
1071
      122
1005
139D39
  0
LINE
  5
139D3A
  8
OBJECT
 10
2176.999999999985
 20
-140.99999999999909
 30
0.0
 11
2172.999999999985
 21
-145.49999999999909
 31
0.0
1001
ACDBBLOCKREPETAG
1070
     1
1071
      123
1005
139D3A
  0
LINE
  5
139D3B
  8
OBJECT
 10
2176.999999999985
 20
-258.99999999999909
 30
0.0
 11
2172.999999999985
 21
-254.49999999999909
 31
0.0
1001
ACDBBLOCKREPETAG
1070
     1
1071
      124
1005
139D3B
  0
LINE
  5
139D3C
  8
OBJECT
 10
2083.0
 20
-137.99999999999909
 30
0.0
 11
2080.0
 21
-137.99999999999909
 31
0.0
1001
ACDBBLOCKREPETAG
1070
     1
1071
      125
1005
139D3C
  0
ARC
  5
139D3D
  8
OBJECT
 10
2083.0
 20
-140.99999999999909
 30
0.0
 40
3.0
 50
0.0
 51
90.0
1001
ACDBBLOCKREPETAG
1070
     1
1071
      126
1005
139D3D
  0
LINE
  5
139D3E
  8
OBJECT
 10
2080.0
 20
-261.99999999999909
 30
0.0
 11
2083.0
 21
-261.99999999999909
 31
0.0
1001
ACDBBLOCKREPETAG
1070
     1
1071
      127
1005
139D3E
  0
ARC
  5
139D3F
  8
OBJECT
 10
2083.0
 20
-258.99999999999909
 30
0.0
 40
3.0
 50
270.0
 51
0.0
1001
ACDBBLOCKREPETAG
1070
     1
1071
      128
1005
139D3F
  0
LINE
  5
139D40
  8
OBJECT
 10
2086.0
 20
-258.99999999999909
 30
0.0
 11
2086.0
 21
-222.44994432063581
 31
0.0
1001
ACDBBLOCKREPETAG
1070
     1
1071
      129
1005
139D40
  0
LINE
  5
139D41
  8
OBJECT
 10
2086.0
 20
-177.55005567935859
 30
0.0
 11
2086.0
 21
-140.99999999999909
 31
0.0
1001
ACDBBLOCKREPETAG
1070
     1
1071
      130
1005
139D41
  0
LINE
  5
139D42
  8
HIDDEN
 10
2167.999999999985
 20
-155.49999999999909
 30
0.0
 11
2167.999999999985
 21
-244.49999999999909
 31
0.0
1001
ACDBBLOCKREPETAG
1070
     1
1071
      131
1005
139D42
  0
LINE
  5
139D43
  8
OBJECT
 10
2159.999974964187
 20
-254.4999509238105
 30
0.0
 11
2159.999974964187
 21
-145.4999509238105
 31
0.0
1001
ACDBBLOCKREPETAG
1070
     1
1071
      133
1005
139D43
  0
ARC
  5
139D44
  8
OBJECT
 10
2125.0000000000032
 20
-199.99999999999909
 30
0.0
 40
45.000000000000547
 50
90.0
 51
166.2158024759261
1001
ACDBBLOCKREPETAG
1070
     1
1071
      134
1005
139D44
  0
ARC
  5
139D45
  8
OBJECT
 10
2125.0000000000032
 20
-199.99999999999909
 30
0.0
 40
45.000000000000547
 50
193.78421279332531
 51
270.0
1001
ACDBBLOCKREPETAG
1070
     1
1071
      402
1005
139D45
  0
TEXT
  5
139D46
  8
SLIM
 10
0.0
 20
670.0
 30
0.0
 40
100.0
  1
4HF-Z606-P140-S
 41
0.75
  0
TEXT
  5
139D47
  8
SLIM
 10
0.0
 20
520.0
 30
0.0
 40
100.0
  1
4HF-Z606-P140-W
 41
0.75
  0
LINE
  5
139D48
  8
CENTER
 10
12091.0
 20
-1483.9999999999959
 30
0.0
 11
11895.0
 21
-1483.9999999999959
 31
0.0
1001
ACDBBLOCKREPETAG
1070
     1
1071
       10
1005
139D48
  0
LINE
  5
139D49
  8
CENTER
 10
12000.0
 20
-1575.274664429212
 30
0.0
 11
12000.0
 21
-1392.725335570779
 31
0.0
1001
ACDBBLOCKREPETAG
1070
     1
1071
       11
1005
139D49
  0
CIRCLE
  5
139D4A
  8
OBJECT
 10
12000.0
 20
-1483.9999999999959
 30
0.0
 40
50.0
1001
ACDBBLOCKREPETAG
1070
     1
1071
       12
1005
139D4A
  0
CIRCLE
  5
139D4B
  8
OBJECT
 10
12000.0
 20
-1483.9999999999959
 30
0.0
 40
60.0
1001
ACDBBLOCKREPETAG
1070
     1
1071
       13
1005
139D4B
  0
CIRCLE
  5
139D4C
  8
OBJECT
 10
12000.0
 20
-1483.9999999999959
 30
0.0
 40
68.0
1001
ACDBBLOCKREPETAG
1070
     1
1071
       14
1005
139D4C
  0
ARC
  5
139D4D
  8
OBJECT
 10
11922.5
 20
-1483.9999999999959
 30
0.0
 40
12.0
 50
92.105426272216135
 51
267.89457372778372
1001
ACDBBLOCKREPETAG
1070
     1
1071
       15
1005
139D4D
  0
ARC
  5
139D4E
  8
OBJECT
 10
11921.508064516131
 20
-1510.9817728104681
 30
0.0
 40
15.0
 50
18.97051877965265
 51
87.894573727783893
1001
ACDBBLOCKREPETAG
1070
     1
1071
       16
1005
139D4E
  0
ARC
  5
139D4F
  8
OBJECT
 10
11921.508064516131
 20
-1457.018227189528
 30
0.0
 40
15.0
 50
272.10542627221611
 51
341.02948122034741
1001
ACDBBLOCKREPETAG
1070
     1
1071
       17
1005
139D4F
  0
CIRCLE
  5
139D50
  8
SLIM
 10
11922.0
 20
-1483.9999999999959
 30
0.0
 40
8.0
1001
ACDBBLOCKREPETAG
1070
     1
1071
       18
1005
139D50
  0
POLYLINE
  5
139D51
  8
SLIM
 66
     1
 10
0.0
 20
0.0
 30
0.0
 70
     1
1001
ACDBBLOCKREPETAG
1070
     1
1071
       19
1005
139D51
  0
VERTEX
  5
13A4A2
  8
SLIM
 10
11924.30940107676
 20
-1487.9999999999959
 30
0.0
  0
VERTEX
  5
13A4A3
  8
SLIM
 10
11926.61880215352
 20
-1483.9999999999959
 30
0.0
  0
VERTEX
  5
13A4A4
  8
SLIM
 10
11924.30940107676
 20
-1479.9999999999959
 30
0.0
  0
VERTEX
  5
13A4A5
  8
SLIM
 10
11919.69059892324
 20
-1479.9999999999959
 30
0.0
  0
VERTEX
  5
13A4A6
  8
SLIM
 10
11917.381197846489
 20
-1483.9999999999959
 30
0.0
  0
VERTEX
  5
13A4A7
  8
SLIM
 10
11919.69059892324
 20
-1487.9999999999959
 30
0.0
  0
SEQEND
  5
13A4A8
  8
SLIM
  0
ARC
  5
139D52
  8
OBJECT
 10
12038.75
 20
-1551.116968793292
 30
0.0
 40
12.0
 50
212.10542627213019
 51
27.89457372768311
1001
ACDBBLOCKREPETAG
1070
     1
1071
       20
1005
139D52
  0
ARC
  5
139D53
  8
OBJECT
 10
12062.612868434941
 20
-1538.485123716003
 30
0.0
 40
15.0
 50
138.97051877944759
 51
207.89457372768319
1001
ACDBBLOCKREPETAG
1070
     1
1071
       21
1005
139D53
  0
ARC
  5
139D54
  8
OBJECT
 10
12015.879067048931
 20
-1565.466896526475
 30
0.0
 40
15.0
 50
32.105426272130188
 51
101.0294812204407
1001
ACDBBLOCKREPETAG
1070
     1
1071
       22
1005
139D54
  0
CIRCLE
  5
139D55
  8
SLIM
 10
12039.0
 20
-1551.549981495182
 30
0.0
 40
7.9999999999999982
1001
ACDBBLOCKREPETAG
1070
     1
1071
       23
1005
139D55
  0
POLYLINE
  5
139D56
  8
SLIM
 66
     1
 10
0.0
 20
0.0
 30
0.0
 70
     1
1001
ACDBBLOCKREPETAG
1070
     1
1071
       24
1005
139D56
  0
VERTEX
  5
13A4A9
  8
SLIM
 10
12041.30940107676
 20
-1547.5499814951829
 30
0.0
  0
VERTEX
  5
13A4AA
  8
SLIM
 10
12036.69059892324
 20
-1547.5499814951829
 30
0.0
  0
VERTEX
  5
13A4AB
  8
SLIM
 10
12034.381197846489
 20
-1551.549981495182
 30
0.0
  0
VERTEX
  5
13A4AC
  8
SLIM
 10
12036.69059892324
 20
-1555.5499814951829
 30
0.0
  0
VERTEX
  5
13A4AD
  8
SLIM
 10
12041.30940107676
 20
-1555.5499814951829
 30
0.0
  0
VERTEX
  5
13A4AE
  8
SLIM
 10
12043.61880215352
 20
-1551.549981495182
 30
0.0
  0
SEQEND
  5
13A4AF
  8
SLIM
  0
ARC
  5
139D57
  8
OBJECT
 10
12038.75
 20
-1416.883031206703
 30
0.0
 40
12.0
 50
332.10542627231678
 51
147.89457372786981
1001
ACDBBLOCKREPETAG
1070
     1
1071
       25
1005
139D57
  0
ARC
  5
139D58
  8
OBJECT
 10
12015.879067048931
 20
-1402.53310347352
 30
0.0
 40
15.0
 50
258.97051877955931
 51
327.89457372786978
1001
ACDBBLOCKREPETAG
1070
     1
1071
       26
1005
139D58
  0
ARC
  5
139D59
  8
OBJECT
 10
12062.612868434941
 20
-1429.5148762839881
 30
0.0
 40
15.0
 50
152.10542627231681
 51
221.02948122055241
1001
ACDBBLOCKREPETAG
1070
     1
1071
       27
1005
139D59
  0
CIRCLE
  5
139D5A
  8
SLIM
 10
12039.0
 20
-1416.4500185048089
 30
0.0
 40
8.0
1001
ACDBBLOCKREPETAG
1070
     1
1071
       28
1005
139D5A
  0
POLYLINE
  5
139D5B
  8
SLIM
 66
     1
 10
0.0
 20
0.0
 30
0.0
 70
     1
1001
ACDBBLOCKREPETAG
1070
     1
1071
       29
1005
139D5B
  0
VERTEX
  5
13A4B0
  8
SLIM
 10
12034.381197846489
 20
-1416.4500185048121
 30
0.0
  0
VERTEX
  5
13A4B1
  8
SLIM
 10
12036.69059892324
 20
-1420.4500185048089
 30
0.0
  0
VERTEX
  5
13A4B2
  8
SLIM
 10
12041.30940107676
 20
-1420.4500185048121
 30
0.0
  0
VERTEX
  5
13A4B3
  8
SLIM
 10
12043.61880215352
 20
-1416.4500185048089
 30
0.0
  0
VERTEX
  5
13A4B4
  8
SLIM
 10
12041.30940107676
 20
-1412.4500185048121
 30
0.0
  0
VERTEX
  5
13A4B5
  8
SLIM
 10
12036.69059892324
 20
-1412.4500185048089
 30
0.0
  0
SEQEND
  5
13A4B6
  8
SLIM
  0
ARC
  5
139D5C
  8
OBJECT
 10
12000.0
 20
-1483.9999999999959
 30
0.0
 40
76.0
 50
214.8638379541718
 51
265.13616204573287
1001
ACDBBLOCKREPETAG
1070
     1
1071
       42
1005
139D5C
  0
ARC
  5
139D5D
  8
OBJECT
 10
12000.0
 20
-1483.9999999999959
 30
0.0
 40
76.0
 50
334.86383795430942
 51
25.136162045690561
1001
ACDBBLOCKREPETAG
1070
     1
1071
       43
1005
139D5D
  0
ARC
  5
139D5E
  8
OBJECT
 10
12000.0
 20
-1483.9999999999959
 30
0.0
 40
76.0
 50
94.863837954267041
 51
145.13616204582809
1001
ACDBBLOCKREPETAG
1070
     1
1071
       44
1005
139D5E
  0
ARC
  5
139D5F
  8
OBJECT
 10
11922.0
 20
-1483.9999999999959
 30
0.0
 40
12.0
 50
145.13616204582809
 51
214.8638379541718
1001
ACDBBLOCKREPETAG
1070
     1
1071
       45
1005
139D5F
  0
LINE
  5
139D60
  8
OBJECT
 10
11912.153846153829
 20
-1490.8595374798581
 30
0.0
 11
11937.641025640951
 21
-1527.443737372457
 31
0.0
1001
ACDBBLOCKREPETAG
1070
     1
1071
       46
1005
139D60
  0
LINE
  5
139D61
  8
OBJECT
 10
11912.153846153829
 20
-1477.1404625201351
 30
0.0
 11
11937.641025640951
 21
-1440.556262627533
 31
0.0
1001
ACDBBLOCKREPETAG
1070
     1
1071
       47
1005
139D61
  0
ARC
  5
139D62
  8
OBJECT
 10
12039.0
 20
-1551.5499814951811
 30
0.0
 40
12.0
 50
265.13616204594291
 51
334.86383795410012
1001
ACDBBLOCKREPETAG
1070
     1
1071
       48
1005
139D62
  0
LINE
  5
139D63
  8
OBJECT
 10
12049.863610638849
 20
-1556.6472321156009
 30
0.0
 11
12068.802867379411
 21
-1516.2825872626449
 31
0.0
1001
ACDBBLOCKREPETAG
1070
     1
1071
       49
1005
139D63
  0
LINE
  5
139D64
  8
OBJECT
 10
12037.98254320731
 20
-1563.5067695954649
 30
0.0
 11
11993.556106979629
 21
-1559.726324635106
 31
0.0
1001
ACDBBLOCKREPETAG
1070
     1
1071
       50
1005
139D64
  0
ARC
  5
139D65
  8
OBJECT
 10
12039.0
 20
-1416.45001850481
 30
0.0
 40
12.0
 50
25.136162045899951
 51
94.863837954057146
1001
ACDBBLOCKREPETAG
1070
     1
1071
       51
1005
139D65
  0
LINE
  5
139D66
  8
OBJECT
 10
12037.98254320731
 20
-1404.493230404528
 30
0.0
 11
11993.556106979629
 21
-1408.2736753648851
 31
0.0
1001
ACDBBLOCKREPETAG
1070
     1
1071
       52
1005
139D66
  0
LINE
  5
139D67
  8
OBJECT
 10
12049.863610638849
 20
-1411.352767884387
 30
0.0
 11
12068.80286737942
 21
-1451.717412737348
 31
0.0
1001
ACDBBLOCKREPETAG
1070
     1
1071
       53
1005
139D67
  0
LINE
  5
139D68
  8
CENTER
 10
9909.0
 20
-1483.9999999999959
 30
0.0
 11
10105.0
 21
-1483.9999999999959
 31
0.0
1001
ACDBBLOCKREPETAG
1070
     1
1071
        0
1005
139D68
  0
LINE
  5
139D69
  8
CENTER
 10
10000.0
 20
-1575.274664429212
 30
0.0
 11
10000.0
 21
-1392.725335570779
 31
0.0
1001
ACDBBLOCKREPETAG
1070
     1
1071
        1
1005
139D69
  0
CIRCLE
  5
139D6A
  8
OBJECT
 10
10000.0
 20
-1483.9999999999959
 30
0.0
 40
50.0
1001
ACDBBLOCKREPETAG
1070
     1
1071
        2
1005
139D6A
  0
CIRCLE
  5
139D6B
  8
OBJECT
 10
10000.0
 20
-1483.9999999999959
 30
0.0
 40
62.0
1001
ACDBBLOCKREPETAG
1070
     1
1071
        3
1005
139D6B
  0
CIRCLE
  5
139D6C
  8
SLIM
 10
9922.0
 20
-1483.9999999999959
 30
0.0
 40
5.0
1001
ACDBBLOCKREPETAG
1070
     1
1071
        4
1005
139D6C
  0
POLYLINE
  5
139D6D
  8
SLIM
 66
     1
 10
0.0
 20
0.0
 30
0.0
 70
     1
1001
ACDBBLOCKREPETAG
1070
     1
1071
        5
1005
139D6D
  0
VERTEX
  5
13A4B7
  8
SLIM
 10
9926.907477288114
 20
-1492.4999999999959
 30
0.0
  0
VERTEX
  5
13A4B8
  8
SLIM
 10
9931.814954576228
 20
-1483.9999999999959
 30
0.0
  0
VERTEX
  5
13A4B9
  8
SLIM
 10
9926.907477288114
 20
-1475.4999999999959
 30
0.0
  0
VERTEX
  5
13A4BA
  8
SLIM
 10
9917.0925227118914
 20
-1475.4999999999959
 30
0.0
  0
VERTEX
  5
13A4BB
  8
SLIM
 10
9912.1850454237829
 20
-1483.9999999999959
 30
0.0
  0
VERTEX
  5
13A4BC
  8
SLIM
 10
9917.0925227118914
 20
-1492.4999999999959
 30
0.0
  0
SEQEND
  5
13A4BD
  8
SLIM
  0
CIRCLE
  5
139D6E
  8
SLIM
 10
10039.0
 20
-1551.549981495182
 30
0.0
 40
4.9999999999999991
1001
ACDBBLOCKREPETAG
1070
     1
1071
        6
1005
139D6E
  0
POLYLINE
  5
139D6F
  8
SLIM
 66
     1
 10
0.0
 20
0.0
 30
0.0
 70
     1
1001
ACDBBLOCKREPETAG
1070
     1
1071
        7
1005
139D6F
  0
VERTEX
  5
13A4BE
  8
SLIM
 10
10043.90747728811
 20
-1543.049981495182
 30
0.0
  0
VERTEX
  5
13A4BF
  8
SLIM
 10
10034.092522711881
 20
-1543.049981495182
 30
0.0
  0
VERTEX
  5
13A4C0
  8
SLIM
 10
10029.185045423779
 20
-1551.549981495182
 30
0.0
  0
VERTEX
  5
13A4C1
  8
SLIM
 10
10034.092522711881
 20
-1560.0499814951829
 30
0.0
  0
VERTEX
  5
13A4C2
  8
SLIM
 10
10043.90747728811
 20
-1560.0499814951829
 30
0.0
  0
VERTEX
  5
13A4C3
  8
SLIM
 10
10048.81495457623
 20
-1551.549981495182
 30
0.0
  0
SEQEND
  5
13A4C4
  8
SLIM
  0
CIRCLE
  5
139D70
  8
SLIM
 10
10039.0
 20
-1416.4500185048089
 30
0.0
 40
5.0
1001
ACDBBLOCKREPETAG
1070
     1
1071
        8
1005
139D70
  0
POLYLINE
  5
139D71
  8
SLIM
 66
     1
 10
0.0
 20
0.0
 30
0.0
 70
     1
1001
ACDBBLOCKREPETAG
1070
     1
1071
        9
1005
139D71
  0
VERTEX
  5
13A4C5
  8
SLIM
 10
10029.185045423779
 20
-1416.4500185048089
 30
0.0
  0
VERTEX
  5
13A4C6
  8
SLIM
 10
10034.09252271189
 20
-1424.9500185048121
 30
0.0
  0
VERTEX
  5
13A4C7
  8
SLIM
 10
10043.90747728811
 20
-1424.9500185048089
 30
0.0
  0
VERTEX
  5
13A4C8
  8
SLIM
 10
10048.81495457623
 20
-1416.4500185048121
 30
0.0
  0
VERTEX
  5
13A4C9
  8
SLIM
 10
10043.90747728811
 20
-1407.9500185048089
 30
0.0
  0
VERTEX
  5
13A4CA
  8
SLIM
 10
10034.092522711881
 20
-1407.9500185048121
 30
0.0
  0
SEQEND
  5
13A4CB
  8
SLIM
  0
ARC
  5
139D72
  8
OBJECT
 10
10000.0
 20
-1483.9999999999959
 30
0.0
 40
76.0
 50
214.8638379541718
 51
265.13616204573287
1001
ACDBBLOCKREPETAG
1070
     1
1071
       30
1005
139D72
  0
ARC
  5
139D73
  8
OBJECT
 10
10000.0
 20
-1483.9999999999959
 30
0.0
 40
76.0
 50
334.86383795430942
 51
25.136162045690561
1001
ACDBBLOCKREPETAG
1070
     1
1071
       31
1005
139D73
  0
ARC
  5
139D74
  8
OBJECT
 10
10000.0
 20
-1483.9999999999959
 30
0.0
 40
76.0
 50
94.863837954267041
 51
145.13616204582809
1001
ACDBBLOCKREPETAG
1070
     1
1071
       32
1005
139D74
  0
ARC
  5
139D75
  8
OBJECT
 10
9922.0
 20
-1483.9999999999959
 30
0.0
 40
12.0
 50
145.13616204582809
 51
214.8638379541718
1001
ACDBBLOCKREPETAG
1070
     1
1071
       33
1005
139D75
  0
LINE
  5
139D76
  8
OBJECT
 10
9912.1538461538348
 20
-1490.8595374798581
 30
0.0
 11
9937.641025640949
 21
-1527.443737372457
 31
0.0
1001
ACDBBLOCKREPETAG
1070
     1
1071
       34
1005
139D76
  0
LINE
  5
139D77
  8
OBJECT
 10
9912.1538461538275
 20
-1477.1404625201351
 30
0.0
 11
9937.641025640949
 21
-1440.556262627533
 31
0.0
1001
ACDBBLOCKREPETAG
1070
     1
1071
       35
1005
139D77
  0
ARC
  5
139D78
  8
OBJECT
 10
10039.0
 20
-1551.5499814951811
 30
0.0
 40
12.0
 50
265.13616204594291
 51
334.86383795410012
1001
ACDBBLOCKREPETAG
1070
     1
1071
       36
1005
139D78
  0
LINE
  5
139D79
  8
OBJECT
 10
10049.86361063884
 20
-1556.6472321156009
 30
0.0
 11
10068.802867379411
 21
-1516.2825872626449
 31
0.0
1001
ACDBBLOCKREPETAG
1070
     1
1071
       37
1005
139D79
  0
LINE
  5
139D7A
  8
OBJECT
 10
10037.98254320731
 20
-1563.5067695954649
 30
0.0
 11
9993.5561069796331
 21
-1559.726324635106
 31
0.0
1001
ACDBBLOCKREPETAG
1070
     1
1071
       38
1005
139D7A
  0
ARC
  5
139D7B
  8
OBJECT
 10
10039.0
 20
-1416.45001850481
 30
0.0
 40
12.0
 50
25.136162045899951
 51
94.863837954057146
1001
ACDBBLOCKREPETAG
1070
     1
1071
       39
1005
139D7B
  0
LINE
  5
139D7C
  8
OBJECT
 10
10037.98254320731
 20
-1404.493230404528
 30
0.0
 11
9993.5561069796368
 21
-1408.2736753648851
 31
0.0
1001
ACDBBLOCKREPETAG
1070
     1
1071
       40
1005
139D7C
  0
LINE
  5
139D7D
  8
OBJECT
 10
10049.86361063884
 20
-1411.352767884387
 30
0.0
 11
10068.80286737942
 21
-1451.717412737348
 31
0.0
1001
ACDBBLOCKREPETAG
1070
     1
1071
       41
1005
139D7D
  0
LINE
  5
139D7E
  8
CENTER
 10
6091.0
 20
-1524.9999999999991
 30
0.0
 11
5895.0
 21
-1524.9999999999991
 31
0.0
1001
ACDBBLOCKREPETAG
1070
     1
1071
       10
1005
139D7E
  0
LINE
  5
139D7F
  8
CENTER
 10
6000.0
 20
-1616.2746644292149
 30
0.0
 11
6000.0
 21
-1433.7253355707819
 31
0.0
1001
ACDBBLOCKREPETAG
1070
     1
1071
       11
1005
139D7F
  0
CIRCLE
  5
139D80
  8
OBJECT
 10
6000.0
 20
-1524.9999999999991
 30
0.0
 40
50.0
1001
ACDBBLOCKREPETAG
1070
     1
1071
       12
1005
139D80
  0
CIRCLE
  5
139D81
  8
OBJECT
 10
6000.0
 20
-1524.9999999999991
 30
0.0
 40
60.0
1001
ACDBBLOCKREPETAG
1070
     1
1071
       13
1005
139D81
  0
CIRCLE
  5
139D82
  8
OBJECT
 10
6000.0
 20
-1524.9999999999991
 30
0.0
 40
68.0
1001
ACDBBLOCKREPETAG
1070
     1
1071
       14
1005
139D82
  0
ARC
  5
139D83
  8
OBJECT
 10
5922.5
 20
-1524.9999999999991
 30
0.0
 40
12.0
 50
92.105426272216135
 51
267.89457372778372
1001
ACDBBLOCKREPETAG
1070
     1
1071
       15
1005
139D83
  0
ARC
  5
139D84
  8
OBJECT
 10
5921.5080645161361
 20
-1551.9817728104711
 30
0.0
 40
15.0
 50
18.970518779635711
 51
87.894573727783893
1001
ACDBBLOCKREPETAG
1070
     1
1071
       16
1005
139D84
  0
ARC
  5
139D85
  8
OBJECT
 10
5921.5080645161361
 20
-1498.018227189531
 30
0.0
 40
15.0
 50
272.10542627221611
 51
341.02948122036429
1001
ACDBBLOCKREPETAG
1070
     1
1071
       17
1005
139D85
  0
CIRCLE
  5
139D86
  8
SLIM
 10
5922.0
 20
-1524.9999999999991
 30
0.0
 40
8.0
1001
ACDBBLOCKREPETAG
1070
     1
1071
       18
1005
139D86
  0
POLYLINE
  5
139D87
  8
SLIM
 66
     1
 10
0.0
 20
0.0
 30
0.0
 70
     1
1001
ACDBBLOCKREPETAG
1070
     1
1071
       19
1005
139D87
  0
VERTEX
  5
13A4CC
  8
SLIM
 10
5924.3094010767672
 20
-1528.9999999999991
 30
0.0
  0
VERTEX
  5
13A4CD
  8
SLIM
 10
5926.618802153519
 20
-1524.9999999999991
 30
0.0
  0
VERTEX
  5
13A4CE
  8
SLIM
 10
5924.3094010767672
 20
-1520.9999999999991
 30
0.0
  0
VERTEX
  5
13A4CF
  8
SLIM
 10
5919.6905989232482
 20
-1520.9999999999991
 30
0.0
  0
VERTEX
  5
13A4D0
  8
SLIM
 10
5917.3811978464882
 20
-1524.9999999999991
 30
0.0
  0
VERTEX
  5
13A4D1
  8
SLIM
 10
5919.6905989232482
 20
-1528.9999999999991
 30
0.0
  0
SEQEND
  5
13A4D2
  8
SLIM
  0
ARC
  5
139D88
  8
OBJECT
 10
6038.75
 20
-1592.116968793295
 30
0.0
 40
12.0
 50
212.1054262721579
 51
27.894573727707481
1001
ACDBBLOCKREPETAG
1070
     1
1071
       20
1005
139D88
  0
ARC
  5
139D89
  8
OBJECT
 10
6062.612868434946
 20
-1579.485123716006
 30
0.0
 40
15.0
 50
138.97051877944759
 51
207.89457372770741
1001
ACDBBLOCKREPETAG
1070
     1
1071
       21
1005
139D89
  0
ARC
  5
139D8A
  8
OBJECT
 10
6015.8790670489307
 20
-1606.466896526478
 30
0.0
 40
15.0
 50
32.105426272157878
 51
101.0294812204407
1001
ACDBBLOCKREPETAG
1070
     1
1071
       22
1005
139D8A
  0
CIRCLE
  5
139D8B
  8
SLIM
 10
6039.0
 20
-1592.5499814951861
 30
0.0
 40
7.9999999999999982
1001
ACDBBLOCKREPETAG
1070
     1
1071
       23
1005
139D8B
  0
POLYLINE
  5
139D8C
  8
SLIM
 66
     1
 10
0.0
 20
0.0
 30
0.0
 70
     1
1001
ACDBBLOCKREPETAG
1070
     1
1071
       24
1005
139D8C
  0
VERTEX
  5
13A4D3
  8
SLIM
 10
6041.30940107676
 20
-1588.5499814951861
 30
0.0
  0
VERTEX
  5
13A4D4
  8
SLIM
 10
6036.6905989232473
 20
-1588.5499814951861
 30
0.0
  0
VERTEX
  5
13A4D5
  8
SLIM
 10
6034.3811978464892
 20
-1592.5499814951861
 30
0.0
  0
VERTEX
  5
13A4D6
  8
SLIM
 10
6036.6905989232473
 20
-1596.5499814951861
 30
0.0
  0
VERTEX
  5
13A4D7
  8
SLIM
 10
6041.30940107676
 20
-1596.5499814951861
 30
0.0
  0
VERTEX
  5
13A4D8
  8
SLIM
 10
6043.6188021535199
 20
-1592.5499814951861
 30
0.0
  0
SEQEND
  5
13A4D9
  8
SLIM
  0
ARC
  5
139D8D
  8
OBJECT
 10
6038.75
 20
-1457.8830312067071
 30
0.0
 40
12.0
 50
332.1054262722925
 51
147.8945737278421
1001
ACDBBLOCKREPETAG
1070
     1
1071
       25
1005
139D8D
  0
ARC
  5
139D8E
  8
OBJECT
 10
6015.8790670489307
 20
-1443.5331034735229
 30
0.0
 40
15.0
 50
258.97051877955931
 51
327.89457372784221
1001
ACDBBLOCKREPETAG
1070
     1
1071
       26
1005
139D8E
  0
ARC
  5
139D8F
  8
OBJECT
 10
6062.612868434946
 20
-1470.514876283991
 30
0.0
 40
15.0
 50
152.1054262722925
 51
221.02948122055241
1001
ACDBBLOCKREPETAG
1070
     1
1071
       27
1005
139D8F
  0
CIRCLE
  5
139D90
  8
SLIM
 10
6039.0
 20
-1457.4500185048121
 30
0.0
 40
8.0
1001
ACDBBLOCKREPETAG
1070
     1
1071
       28
1005
139D90
  0
POLYLINE
  5
139D91
  8
SLIM
 66
     1
 10
0.0
 20
0.0
 30
0.0
 70
     1
1001
ACDBBLOCKREPETAG
1070
     1
1071
       29
1005
139D91
  0
VERTEX
  5
13A4DA
  8
SLIM
 10
6034.3811978464892
 20
-1457.450018504815
 30
0.0
  0
VERTEX
  5
13A4DB
  8
SLIM
 10
6036.6905989232473
 20
-1461.4500185048121
 30
0.0
  0
VERTEX
  5
13A4DC
  8
SLIM
 10
6041.30940107676
 20
-1461.450018504815
 30
0.0
  0
VERTEX
  5
13A4DD
  8
SLIM
 10
6043.6188021535199
 20
-1457.4500185048121
 30
0.0
  0
VERTEX
  5
13A4DE
  8
SLIM
 10
6041.3094010767672
 20
-1453.450018504815
 30
0.0
  0
VERTEX
  5
13A4DF
  8
SLIM
 10
6036.6905989232473
 20
-1453.4500185048121
 30
0.0
  0
SEQEND
  5
13A4E0
  8
SLIM
  0
ARC
  5
139D92
  8
OBJECT
 10
6000.0
 20
-1524.9999999999991
 30
0.0
 40
76.0
 50
214.8638379541421
 51
265.13616204573287
1001
ACDBBLOCKREPETAG
1070
     1
1071
       42
1005
139D92
  0
ARC
  5
139D93
  8
OBJECT
 10
6000.0
 20
-1524.9999999999991
 30
0.0
 40
76.0
 50
334.86383795430942
 51
25.136162045690561
1001
ACDBBLOCKREPETAG
1070
     1
1071
       43
1005
139D93
  0
ARC
  5
139D94
  8
OBJECT
 10
6000.0
 20
-1524.9999999999991
 30
0.0
 40
76.0
 50
94.863837954267041
 51
145.1361620458579
1001
ACDBBLOCKREPETAG
1070
     1
1071
       44
1005
139D94
  0
ARC
  5
139D95
  8
OBJECT
 10
5922.0
 20
-1524.9999999999991
 30
0.0
 40
12.0
 50
145.1361620458579
 51
214.8638379541421
1001
ACDBBLOCKREPETAG
1070
     1
1071
       45
1005
139D95
  0
LINE
  5
139D96
  8
OBJECT
 10
5912.153846153833
 20
-1531.859537479861
 30
0.0
 11
5937.641025640949
 21
-1568.44373737246
 31
0.0
1001
ACDBBLOCKREPETAG
1070
     1
1071
       46
1005
139D96
  0
LINE
  5
139D97
  8
OBJECT
 10
5912.1538461538294
 20
-1518.140462520138
 30
0.0
 11
5937.641025640949
 21
-1481.5562626275359
 31
0.0
1001
ACDBBLOCKREPETAG
1070
     1
1071
       47
1005
139D97
  0
ARC
  5
139D98
  8
OBJECT
 10
6039.0
 20
-1592.5499814951841
 30
0.0
 40
12.0
 50
265.13616204594291
 51
334.86383795410012
1001
ACDBBLOCKREPETAG
1070
     1
1071
       48
1005
139D98
  0
LINE
  5
139D99
  8
OBJECT
 10
6049.8636106388549
 20
-1597.6472321156041
 30
0.0
 11
6068.8028673794142
 21
-1557.2825872626479
 31
0.0
1001
ACDBBLOCKREPETAG
1070
     1
1071
       49
1005
139D99
  0
LINE
  5
139D9A
  8
OBJECT
 10
6037.9825432073158
 20
-1604.5067695954681
 30
0.0
 11
5993.5561069796322
 21
-1600.726324635109
 31
0.0
1001
ACDBBLOCKREPETAG
1070
     1
1071
       50
1005
139D9A
  0
ARC
  5
139D9B
  8
OBJECT
 10
6039.0
 20
-1457.4500185048139
 30
0.0
 40
12.0
 50
25.136162045899951
 51
94.863837954057146
1001
ACDBBLOCKREPETAG
1070
     1
1071
       51
1005
139D9B
  0
LINE
  5
139D9C
  8
OBJECT
 10
6037.9825432073121
 20
-1445.493230404531
 30
0.0
 11
5993.556106979634
 21
-1449.273675364889
 31
0.0
1001
ACDBBLOCKREPETAG
1070
     1
1071
       52
1005
139D9C
  0
LINE
  5
139D9D
  8
OBJECT
 10
6049.8636106388549
 20
-1452.35276788439
 30
0.0
 11
6068.8028673794161
 21
-1492.7174127373521
 31
0.0
1001
ACDBBLOCKREPETAG
1070
     1
1071
       53
1005
139D9D
  0
LINE
  5
139D9E
  8
CENTER
 10
3909.0
 20
-1483.9999999999959
 30
0.0
 11
4105.0
 21
-1483.9999999999959
 31
0.0
1001
ACDBBLOCKREPETAG
1070
     1
1071
        0
1005
139D9E
  0
LINE
  5
139D9F
  8
CENTER
 10
4000.0
 20
-1575.274664429212
 30
0.0
 11
4000.0
 21
-1392.725335570779
 31
0.0
1001
ACDBBLOCKREPETAG
1070
     1
1071
        1
1005
139D9F
  0
CIRCLE
  5
139DA0
  8
OBJECT
 10
4000.0
 20
-1483.9999999999959
 30
0.0
 40
50.0
1001
ACDBBLOCKREPETAG
1070
     1
1071
        2
1005
139DA0
  0
CIRCLE
  5
139DA1
  8
OBJECT
 10
4000.0
 20
-1483.9999999999959
 30
0.0
 40
62.0
1001
ACDBBLOCKREPETAG
1070
     1
1071
        3
1005
139DA1
  0
CIRCLE
  5
139DA2
  8
SLIM
 10
3922.0
 20
-1483.9999999999959
 30
0.0
 40
5.0
1001
ACDBBLOCKREPETAG
1070
     1
1071
        4
1005
139DA2
  0
POLYLINE
  5
139DA3
  8
SLIM
 66
     1
 10
0.0
 20
0.0
 30
0.0
 70
     1
1001
ACDBBLOCKREPETAG
1070
     1
1071
        5
1005
139DA3
  0
VERTEX
  5
13A4E1
  8
SLIM
 10
3926.907477288114
 20
-1492.4999999999959
 30
0.0
  0
VERTEX
  5
13A4E2
  8
SLIM
 10
3931.814954576228
 20
-1483.9999999999959
 30
0.0
  0
VERTEX
  5
13A4E3
  8
SLIM
 10
3926.907477288114
 20
-1475.4999999999959
 30
0.0
  0
VERTEX
  5
13A4E4
  8
SLIM
 10
3917.0925227118928
 20
-1475.4999999999959
 30
0.0
  0
VERTEX
  5
13A4E5
  8
SLIM
 10
3912.1850454237788
 20
-1483.9999999999959
 30
0.0
  0
VERTEX
  5
13A4E6
  8
SLIM
 10
3917.0925227118928
 20
-1492.4999999999959
 30
0.0
  0
SEQEND
  5
13A4E7
  8
SLIM
  0
CIRCLE
  5
139DA4
  8
SLIM
 10
4039.0
 20
-1551.549981495182
 30
0.0
 40
4.9999999999999991
1001
ACDBBLOCKREPETAG
1070
     1
1071
        6
1005
139DA4
  0
POLYLINE
  5
139DA5
  8
SLIM
 66
     1
 10
0.0
 20
0.0
 30
0.0
 70
     1
1001
ACDBBLOCKREPETAG
1070
     1
1071
        7
1005
139DA5
  0
VERTEX
  5
13A4E8
  8
SLIM
 10
4043.907477288114
 20
-1543.049981495182
 30
0.0
  0
VERTEX
  5
13A4E9
  8
SLIM
 10
4034.092522711886
 20
-1543.049981495182
 30
0.0
  0
VERTEX
  5
13A4EA
  8
SLIM
 10
4029.1850454237788
 20
-1551.549981495182
 30
0.0
  0
VERTEX
  5
13A4EB
  8
SLIM
 10
4034.092522711886
 20
-1560.0499814951829
 30
0.0
  0
VERTEX
  5
13A4EC
  8
SLIM
 10
4043.907477288114
 20
-1560.0499814951829
 30
0.0
  0
VERTEX
  5
13A4ED
  8
SLIM
 10
4048.814954576228
 20
-1551.549981495182
 30
0.0
  0
SEQEND
  5
13A4EE
  8
SLIM
  0
CIRCLE
  5
139DA6
  8
SLIM
 10
4039.0
 20
-1416.4500185048089
 30
0.0
 40
5.0
1001
ACDBBLOCKREPETAG
1070
     1
1071
        8
1005
139DA6
  0
POLYLINE
  5
139DA7
  8
SLIM
 66
     1
 10
0.0
 20
0.0
 30
0.0
 70
     1
1001
ACDBBLOCKREPETAG
1070
     1
1071
        9
1005
139DA7
  0
VERTEX
  5
13A4EF
  8
SLIM
 10
4029.1850454237788
 20
-1416.4500185048089
 30
0.0
  0
VERTEX
  5
13A4F0
  8
SLIM
 10
4034.0925227118928
 20
-1424.9500185048121
 30
0.0
  0
VERTEX
  5
13A4F1
  8
SLIM
 10
4043.907477288114
 20
-1424.9500185048089
 30
0.0
  0
VERTEX
  5
13A4F2
  8
SLIM
 10
4048.814954576228
 20
-1416.4500185048121
 30
0.0
  0
VERTEX
  5
13A4F3
  8
SLIM
 10
4043.907477288114
 20
-1407.9500185048089
 30
0.0
  0
VERTEX
  5
13A4F4
  8
SLIM
 10
4034.092522711886
 20
-1407.9500185048121
 30
0.0
  0
SEQEND
  5
13A4F5
  8
SLIM
  0
ARC
  5
139DA8
  8
OBJECT
 10
4000.0
 20
-1483.9999999999959
 30
0.0
 40
76.0
 50
214.8638379541421
 51
265.13616204573287
1001
ACDBBLOCKREPETAG
1070
     1
1071
       30
1005
139DA8
  0
ARC
  5
139DA9
  8
OBJECT
 10
4000.0
 20
-1483.9999999999959
 30
0.0
 40
76.0
 50
334.86383795430942
 51
25.136162045690561
1001
ACDBBLOCKREPETAG
1070
     1
1071
       31
1005
139DA9
  0
ARC
  5
139DAA
  8
OBJECT
 10
4000.0
 20
-1483.9999999999959
 30
0.0
 40
76.0
 50
94.863837954267041
 51
145.1361620458579
1001
ACDBBLOCKREPETAG
1070
     1
1071
       32
1005
139DAA
  0
ARC
  5
139DAB
  8
OBJECT
 10
3922.0
 20
-1483.9999999999959
 30
0.0
 40
12.0
 50
145.1361620458579
 51
214.8638379541421
1001
ACDBBLOCKREPETAG
1070
     1
1071
       33
1005
139DAB
  0
LINE
  5
139DAC
  8
OBJECT
 10
3912.153846153833
 20
-1490.8595374798581
 30
0.0
 11
3937.6410256409508
 21
-1527.443737372457
 31
0.0
1001
ACDBBLOCKREPETAG
1070
     1
1071
       34
1005
139DAC
  0
LINE
  5
139DAD
  8
OBJECT
 10
3912.1538461538298
 20
-1477.1404625201351
 30
0.0
 11
3937.6410256409508
 21
-1440.556262627533
 31
0.0
1001
ACDBBLOCKREPETAG
1070
     1
1071
       35
1005
139DAD
  0
ARC
  5
139DAE
  8
OBJECT
 10
4039.0
 20
-1551.5499814951811
 30
0.0
 40
12.0
 50
265.13616204594291
 51
334.86383795411098
1001
ACDBBLOCKREPETAG
1070
     1
1071
       36
1005
139DAE
  0
LINE
  5
139DAF
  8
OBJECT
 10
4049.8636106388549
 20
-1556.6472321156009
 30
0.0
 11
4068.8028673794129
 21
-1516.2825872626449
 31
0.0
1001
ACDBBLOCKREPETAG
1070
     1
1071
       37
1005
139DAF
  0
LINE
  5
139DB0
  8
OBJECT
 10
4037.9825432073148
 20
-1563.5067695954649
 30
0.0
 11
3993.5561069796322
 21
-1559.726324635106
 31
0.0
1001
ACDBBLOCKREPETAG
1070
     1
1071
       38
1005
139DB0
  0
ARC
  5
139DB1
  8
OBJECT
 10
4039.0
 20
-1416.45001850481
 30
0.0
 40
12.0
 50
25.13616204588887
 51
94.863837954057146
1001
ACDBBLOCKREPETAG
1070
     1
1071
       39
1005
139DB1
  0
LINE
  5
139DB2
  8
OBJECT
 10
4037.9825432073121
 20
-1404.493230404528
 30
0.0
 11
3993.556106979634
 21
-1408.2736753648851
 31
0.0
1001
ACDBBLOCKREPETAG
1070
     1
1071
       40
1005
139DB2
  0
LINE
  5
139DB3
  8
OBJECT
 10
4049.8636106388549
 20
-1411.352767884387
 30
0.0
 11
4068.8028673794161
 21
-1451.717412737348
 31
0.0
1001
ACDBBLOCKREPETAG
1070
     1
1071
       41
1005
139DB3
  0
TEXT
  5
139DB4
  8
SLIM
 10
3853.75
 20
-1751.4999999999959
 30
0.0
 40
35.0
  1
両受けスタイル（W）
 41
0.75
  0
TEXT
  5
139DB5
  8
SLIM
 10
5811.8000000000002
 20
-1848.9999999999991
 30
0.0
 40
28.0
  1
※ 対応スラブ厚　150mm以上
 41
0.75
  0
TEXT
  5
139DB6
  8
SLIM
 10
5611.5
 20
-1942.3333333333319
 30
0.0
 40
28.0
  1
国土交通大臣認定・（財）日本消防設備安全センター性能評定取得品
 41
0.75
  0
TEXT
  5
139DB7
  8
SLIM
 10
5631.1000000000004
 20
-1988.9999999999991
 30
0.0
 40
28.0
  1
注）ご採用にあたり、認定書及び評定書の内容をご確認ください。
 41
0.75
  0
TEXT
  5
139DB8
  8
SLIM
 10
11824.6
 20
-1807.9999999999959
 30
0.0
 40
28.0
  1
※ 対応スラブ厚　150～380
 41
0.75
  0
TEXT
  5
139DB9
  8
SLIM
 10
11611.5
 20
-1901.3333333333289
 30
0.0
 40
28.0
  1
国土交通大臣認定・（財）日本消防設備安全センター性能評定取得品
 41
0.75
  0
TEXT
  5
139DBA
  8
SLIM
 10
11631.1
 20
-1947.9999999999959
 30
0.0
 40
28.0
  1
注）ご採用にあたり、認定書及び評定書の内容をご確認ください。
 41
0.75
  0
TEXT
  5
139DBB
  8
SLIM
 10
9824.6000000000004
 20
-1807.9999999999959
 30
0.0
 40
28.0
  1
※ 対応スラブ厚　180～380
 41
0.75
  0
TEXT
  5
139DBC
  8
SLIM
 10
9611.5000000000018
 20
-1901.3333333333289
 30
0.0
 40
28.0
  1
国土交通大臣認定・（財）日本消防設備安全センター性能評定取得品
 41
0.75
  0
TEXT
  5
139DBD
  8
SLIM
 10
9631.1000000000004
 20
-1947.9999999999959
 30
0.0
 40
28.0
  1
注）ご採用にあたり、認定書及び評定書の内容をご確認ください。
 41
0.75
  0
TEXT
  5
139DBE
  8
SLIM
 10
7771.3999999999987
 20
-1540.666666666664
 30
0.0
 40
28.0
  1
※ 対応スラブ厚　180｛150｝～340
 41
0.75
  0
TEXT
  5
139DBF
  8
SLIM
 10
7733.2999999999975
 20
-1587.333333333331
 30
0.0
 40
28.0
  1
｛｝内はカンペイ立て管との組み合わせの場合
 41
0.75
  0
TEXT
  5
139DC0
  8
SLIM
 10
7611.4999999999982
 20
-1680.666666666664
 30
0.0
 40
28.0
  1
国土交通大臣認定・（財）日本消防設備安全センター性能評定取得品
 41
0.75
  0
TEXT
  5
139DC1
  8
SLIM
 10
7631.1000000000004
 20
-1727.333333333331
 30
0.0
 40
28.0
  1
注）ご採用にあたり、認定書及び評定書の内容をご確認ください。
 41
0.75
  0
TEXT
  5
139DC2
  8
SLIM
 10
9739.1250000000018
 20
-1751.4999999999959
 30
0.0
 40
35.0
  1
両受けスタイル（W）＋シンドカット
 41
0.75
  0
TEXT
  5
139DC3
  8
SLIM
 10
11743.5
 20
-1751.4999999999959
 30
0.0
 40
35.0
  1
カンペイ君（WKP）＋シンドカット
 41
0.75
  0
TEXT
  5
139DC4
  8
SLIM
 10
7741.625
 20
-1477.499999999998
 30
0.0
 40
35.0
  1
片受けスタイル（S）＋シンドカット
 41
0.75
  0
TEXT
  5
139DC5
  8
SLIM
 10
5858.1250000000009
 20
-1792.4999999999991
 30
0.0
 40
35.0
  1
カンペイ君（WKP）
 41
0.75
  0
TEXT
  5
139DC6
  8
SLIM
 10
1856.25
 20
-1477.499999999998
 30
0.0
 40
35.0
  1
片受けスタイル（S）
 41
0.75
  0
TEXT
  5
139DC7
  8
SLIM
 10
0.0
 20
370.0
 30
0.0
 40
100.0
  1
4HF-Z606-P140-WKP
 41
0.75
  0
VIEWPORT
  5
F6BA7
 67
     1
  8
0
 10
145.33033752441401
 20
101.8328354358673
 30
0.0
 40
334.0025019414623
 41
222.19657968139651
 68
     1
 69
     1
1001
ACAD
1000
MVIEW
1002
{
1070
    16
1010
0.0
1020
0.0
1030
0.0
1010
0.0
1020
0.0
1030
1.0
1040
0.0
1040
222.19657968139651
1040
145.33033752441401
1040
101.8328354358673
1040
50.0
1040
0.0
1040
0.0
1070
     0
1070
     0
1070
     1
1070
     1
1070
     0
1070
     0
1070
     0
1070
     0
1040
0.0
1040
0.0
1040
0.0
1040
10.0
1040
10.0
1040
10.0
1040
10.0
1070
     0
1002
{
1002
}
1002
}
  0
VIEWPORT
  5
F6BA9
 67
     1
  8
OBJECT
 10
145.3303314447403
 20
101.8328338861465
 30
0.0
 40
232.5285303115844
 41
162.93253421783439
 68
     2
 69
     2
1001
ACAD
1000
MVIEW
1002
{
1070
    16
1010
0.0
1020
0.0
1030
0.0
1010
0.0
1020
0.0
1030
1.0
1040
0.0
1040
25942.55904403147
1040
2377.604457077377
1040
-7591.5176687056619
1040
50.0
1040
0.0
1040
0.0
1070
     0
1070
   600
1070
     1
1070
     1
1070
     0
1070
     0
1070
     0
1070
     0
1040
0.0
1040
0.0
1040
0.0
1040
1.0
1040
1.0
1040
0.0
1040
0.0
1070
     0
1002
{
1002
}
1002
}
  0
ENDSEC
  0
EOF
