  0
SECTION
  2
HEADER
  9
$INSBASE
 10
0
 20
0
  9
$EXTMIN
 10
0
 20
0
  9
$EXTMAX
 10
4200.000000
 20
2970.000000
  9
$LIMMIN
 10
0
 20
0
  9
$LIMMAX
 10
4200.000000
 20
2970.000000
  9
$VIEWCTR
 10
2100.000000
 20
1485.000000
  9
$DIMASZ
 40
30.000000
  9
$DIMDLI
 40
80.000000
  9
$DIMEXE
 40
10.000000
  9
$DIMEXO
 40
10.000000
  9
$DIMTXT
 40
32.000000
  9
$TEXTSIZE
 40
32.000000
  9
$ANGBASE
 50
0.0
  9
$ANGDIR
 70
     0
  9
$ATTMODE
 70
     1
  9
$AUNITS
 70
     1
  9
$AUPREC
 70
     2
  9
$AXISMODE
 70
     0
  9
$AXISUNIT
 10
0.0
 20
0.0
  9
$BLIPMODE
 70
     1
  9
$CECOLOR
 62
   256
  9
$CELTYPE
  6
BYLAYER
  9
$CHAMFERA
 40
0.0
  9
$CHAMFERB
 40
0.0
  9
$CLAYER
  8
0
  9
$COORDS
 70
     0
  9
$DIMALT
 70
     0
  9
$DIMALTD
 70
     2
  9
$DIMALTF
 40
25.4
  9
$DIMDLE
 40
0.0
  9
$DIMLFAC
 40
1.0
  9
$DIMLIM
 70
     0
  9
$DIMRND
 40
0.0
  9
$DIMSCALE
 40
1.0
  9
$DIMSE1
 70
     0
  9
$DIMSE2
 70
     0
  9
$DIMTAD
 70
     1
  9
$DIMTIH
 70
     0
  9
$DIMTM
 40
0.0
  9
$DIMTOH
 70
     0
  9
$DIMTOL
 70
     0
  9
$DIMTP
 40
0.0
  9
$DIMTSZ
 40
0.0
  9
$DIMZIN
 70
     0
  9
$DRAGMODE
 70
     2
  9
$ELEVATION
 40
0.0
  9
$FASTZOOM
 70
     1
  9
$FILLETRAD
 40
0.0
  9
$FILLMODE
 70
     1
  9
$GRIDMODE
 70
     0
  9
$GRIDUNIT
 10
0.0
 20
0.0
  9
$LTSCALE
 40
1.0
  9
$LUNITS
 70
     2
  9
$LUPREC
 70
     2
  9
$MENU
  1
ACAD
  9
$ORTHOMODE
 70
     0
  9
$OSMODE
 70
     0
  9
$PDMODE
 70
     0
  9
$PDSIZE
 40
0.0
  9
$PLINEWID
 40
0.0
  9
$QTEXTMODE
 70
     0
  9
$REGENMODE
 70
     1
  9
$SKETCHINC
 40
0.1
  9
$SKPOLY
 70
     0
  9
$SNAPBASE
 10
0.0
 20
0.0
  9
$SNAPISOPAIR
 70
     0
  9
$SNAPMODE
 70
     0
  9
$SNAPSTYLE
 70
     0
  9
$SNAPUNIT
 10
0.0
 20
0.0
  9
$TEXTSTYLE
  7
KANJI
  9
$THICKNESS
 40
0.0
  9
$TRACEWID
 40
0.05
  9
$VIEWDIR
 10
0.0
 20
0.0
 30
1.0
  9
$VIEWSIZE
 40
0.0
  0
ENDSEC
  0
SECTION
  2
TABLES
  0
TABLE
  2
LTYPE
 70
     9
  0
LTYPE
  2
CONTINUOUS
 70
    64
  3
Solid line
 72
    65
 73
     0
 40
0.0
  0
LTYPE
  2
DASHED
 70
    64
  3
__ __ __ __ __ __ __ __ __ __ __ __ __ __ __
 72
    65
 73
     2
 40
0.75
 49
0.5
 49
-0.25
  0
LTYPE
  2
HIDDEN
 70
    64
  3
_ _ _ _ _ _ _ _ _ _ _ _ _ _ _ _ _ _ _ _ _ _ _
 72
    65
 73
     2
 40
0.375
 49
0.25
 49
-0.125
  0
LTYPE
  2
CENTER
 70
    64
  3
____ _ ____ _ ____ _ ____ _ ____ _ ____ _ ____
 72
    65
 73
     4
 40
2.0
 49
1.25
 49
-0.25
 49
0.25
 49
-0.25
  0
LTYPE
  2
PHANTOM
 70
    64
  3
_____ _ _ _____ _ _ _____ _ _ _____ _ _ ____
 72
    65
 73
     6
 40
2.5
 49
1.25
 49
-0.25
 49
0.25
 49
-0.25
 49
0.25
 49
-0.25
  0
LTYPE
  2
DOT
 70
    64
  3
...............................................
 72
    65
 73
     2
 40
0.25
 49
0.0
 49
-0.25
  0
LTYPE
  2
DASHDOT
 70
    64
  3
__ . __ . __ . __ . __ . __ . __ . __ . __ . __
 72
    65
 73
     4
 40
1.0
 49
0.5
 49
-0.25
 49
0.0
 49
-0.25
  0
LTYPE
  2
BORDER
 70
    64
  3
__ __ . __ __ . __ __ . __ __ . __ __ . __ __
 72
    65
 73
     6
 40
1.75
 49
0.5
 49
-0.25
 49
0.5
 49
-0.25
 49
0.0
 49
-0.25
  0
LTYPE
  2
DIVIDE
 70
    64
  3
__ . . __ . . __ . . __ . . __ . . __ . . __
 72
    65
 73
     6
 40
1.25
 49
0.5
 49
-0.25
 49
0.0
 49
-0.25
 49
0.0
 49
-0.25
  0
ENDTAB
  0
TABLE
  2
LAYER
 70
   100
  0
LAYER
  2
0
 70
     0
 62
     3
  6
CONTINUOUS
  0
LAYER
  2
1
 70
     0
 62
     3
  6
CONTINUOUS
  0
LAYER
  2
2
 70
     0
 62
     3
  6
CONTINUOUS
  0
LAYER
  2
3
 70
     0
 62
     3
  6
CONTINUOUS
  0
LAYER
  2
4
 70
     0
 62
     3
  6
CONTINUOUS
  0
LAYER
  2
5
 70
     0
 62
     3
  6
CONTINUOUS
  0
LAYER
  2
6
 70
     0
 62
     3
  6
CONTINUOUS
  0
LAYER
  2
7
 70
     0
 62
     3
  6
CONTINUOUS
  0
LAYER
  2
8
 70
     0
 62
     3
  6
CONTINUOUS
  0
LAYER
  2
9
 70
     0
 62
     3
  6
CONTINUOUS
  0
LAYER
  2
10
 70
     0
 62
     3
  6
CONTINUOUS
  0
LAYER
  2
11
 70
     0
 62
     3
  6
CONTINUOUS
  0
LAYER
  2
12
 70
     0
 62
     3
  6
CONTINUOUS
  0
LAYER
  2
13
 70
     0
 62
     3
  6
CONTINUOUS
  0
LAYER
  2
14
 70
     0
 62
     3
  6
CONTINUOUS
  0
LAYER
  2
15
 70
     0
 62
     3
  6
CONTINUOUS
  0
LAYER
  2
16
 70
     0
 62
     3
  6
CONTINUOUS
  0
LAYER
  2
17
 70
     0
 62
     3
  6
CONTINUOUS
  0
LAYER
  2
18
 70
     0
 62
     3
  6
CONTINUOUS
  0
LAYER
  2
19
 70
     0
 62
     3
  6
CONTINUOUS
  0
LAYER
  2
20
 70
     0
 62
     3
  6
CONTINUOUS
  0
LAYER
  2
21
 70
     0
 62
     3
  6
CONTINUOUS
  0
LAYER
  2
22
 70
     0
 62
     3
  6
CONTINUOUS
  0
LAYER
  2
23
 70
     0
 62
     3
  6
CONTINUOUS
  0
LAYER
  2
24
 70
     0
 62
     3
  6
CONTINUOUS
  0
LAYER
  2
25
 70
     0
 62
     3
  6
CONTINUOUS
  0
LAYER
  2
26
 70
     0
 62
     3
  6
CONTINUOUS
  0
LAYER
  2
27
 70
     0
 62
     3
  6
CONTINUOUS
  0
LAYER
  2
28
 70
     0
 62
     3
  6
CONTINUOUS
  0
LAYER
  2
29
 70
     0
 62
     3
  6
CONTINUOUS
  0
LAYER
  2
30
 70
     0
 62
     3
  6
CONTINUOUS
  0
LAYER
  2
31
 70
     0
 62
     3
  6
CONTINUOUS
  0
LAYER
  2
32
 70
     0
 62
     3
  6
CONTINUOUS
  0
LAYER
  2
33
 70
     0
 62
     3
  6
CONTINUOUS
  0
LAYER
  2
34
 70
     0
 62
     3
  6
CONTINUOUS
  0
LAYER
  2
35
 70
     0
 62
     3
  6
CONTINUOUS
  0
LAYER
  2
36
 70
     0
 62
     3
  6
CONTINUOUS
  0
LAYER
  2
37
 70
     0
 62
     3
  6
CONTINUOUS
  0
LAYER
  2
38
 70
     0
 62
     3
  6
CONTINUOUS
  0
LAYER
  2
39
 70
     0
 62
     3
  6
CONTINUOUS
  0
LAYER
  2
40
 70
     0
 62
     3
  6
CONTINUOUS
  0
LAYER
  2
41
 70
     0
 62
     3
  6
CONTINUOUS
  0
LAYER
  2
42
 70
     0
 62
     3
  6
CONTINUOUS
  0
LAYER
  2
43
 70
     0
 62
     3
  6
CONTINUOUS
  0
LAYER
  2
44
 70
     0
 62
     3
  6
CONTINUOUS
  0
LAYER
  2
45
 70
     0
 62
     3
  6
CONTINUOUS
  0
LAYER
  2
46
 70
     0
 62
     3
  6
CONTINUOUS
  0
LAYER
  2
47
 70
     0
 62
     3
  6
CONTINUOUS
  0
LAYER
  2
48
 70
     0
 62
     3
  6
CONTINUOUS
  0
LAYER
  2
49
 70
     0
 62
     3
  6
CONTINUOUS
  0
LAYER
  2
50
 70
     0
 62
     3
  6
CONTINUOUS
  0
LAYER
  2
51
 70
     0
 62
     3
  6
CONTINUOUS
  0
LAYER
  2
52
 70
     0
 62
     3
  6
CONTINUOUS
  0
LAYER
  2
53
 70
     0
 62
     3
  6
CONTINUOUS
  0
LAYER
  2
54
 70
     0
 62
     3
  6
CONTINUOUS
  0
LAYER
  2
55
 70
     0
 62
     3
  6
CONTINUOUS
  0
LAYER
  2
56
 70
     0
 62
     3
  6
CONTINUOUS
  0
LAYER
  2
57
 70
     0
 62
     3
  6
CONTINUOUS
  0
LAYER
  2
58
 70
     0
 62
     3
  6
CONTINUOUS
  0
LAYER
  2
59
 70
     0
 62
     3
  6
CONTINUOUS
  0
LAYER
  2
60
 70
     0
 62
     3
  6
CONTINUOUS
  0
LAYER
  2
61
 70
     0
 62
     3
  6
CONTINUOUS
  0
LAYER
  2
62
 70
     0
 62
     3
  6
CONTINUOUS
  0
LAYER
  2
63
 70
     0
 62
     3
  6
CONTINUOUS
  0
LAYER
  2
64
 70
     0
 62
     3
  6
CONTINUOUS
  0
LAYER
  2
65
 70
     0
 62
     3
  6
CONTINUOUS
  0
LAYER
  2
66
 70
     0
 62
     3
  6
CONTINUOUS
  0
LAYER
  2
67
 70
     0
 62
     3
  6
CONTINUOUS
  0
LAYER
  2
68
 70
     0
 62
     3
  6
CONTINUOUS
  0
LAYER
  2
69
 70
     0
 62
     3
  6
CONTINUOUS
  0
LAYER
  2
70
 70
     0
 62
     3
  6
CONTINUOUS
  0
LAYER
  2
71
 70
     0
 62
     3
  6
CONTINUOUS
  0
LAYER
  2
72
 70
     0
 62
     3
  6
CONTINUOUS
  0
LAYER
  2
73
 70
     0
 62
     3
  6
CONTINUOUS
  0
LAYER
  2
74
 70
     0
 62
     3
  6
CONTINUOUS
  0
LAYER
  2
75
 70
     0
 62
     3
  6
CONTINUOUS
  0
LAYER
  2
76
 70
     0
 62
     3
  6
CONTINUOUS
  0
LAYER
  2
77
 70
     0
 62
     3
  6
CONTINUOUS
  0
LAYER
  2
78
 70
     0
 62
     3
  6
CONTINUOUS
  0
LAYER
  2
79
 70
     0
 62
     3
  6
CONTINUOUS
  0
LAYER
  2
80
 70
     0
 62
     3
  6
CONTINUOUS
  0
LAYER
  2
81
 70
     0
 62
     3
  6
CONTINUOUS
  0
LAYER
  2
82
 70
     0
 62
     3
  6
CONTINUOUS
  0
LAYER
  2
83
 70
     0
 62
     3
  6
CONTINUOUS
  0
LAYER
  2
84
 70
     0
 62
     3
  6
CONTINUOUS
  0
LAYER
  2
85
 70
     0
 62
     3
  6
CONTINUOUS
  0
LAYER
  2
86
 70
     0
 62
     3
  6
CONTINUOUS
  0
LAYER
  2
87
 70
     0
 62
     3
  6
CONTINUOUS
  0
LAYER
  2
88
 70
     0
 62
     3
  6
CONTINUOUS
  0
LAYER
  2
89
 70
     0
 62
     3
  6
CONTINUOUS
  0
LAYER
  2
90
 70
     0
 62
     3
  6
CONTINUOUS
  0
LAYER
  2
91
 70
     0
 62
     3
  6
CONTINUOUS
  0
LAYER
  2
92
 70
     0
 62
     3
  6
CONTINUOUS
  0
LAYER
  2
93
 70
     0
 62
     3
  6
CONTINUOUS
  0
LAYER
  2
94
 70
     0
 62
     3
  6
CONTINUOUS
  0
LAYER
  2
95
 70
     0
 62
     3
  6
CONTINUOUS
  0
LAYER
  2
96
 70
     0
 62
     3
  6
CONTINUOUS
  0
LAYER
  2
97
 70
     0
 62
     3
  6
CONTINUOUS
  0
LAYER
  2
98
 70
     0
 62
     3
  6
CONTINUOUS
  0
LAYER
  2
99
 70
     0
 62
     3
  6
CONTINUOUS
  0
ENDTAB
  0
TABLE
  2
STYLE
 70
     2
  0
STYLE
  2
STANDARD
 70
     0
 40
0.0
 41
1.0
 50
0.0
 71
     0
 42
0.2
  3
TXT
  4
BIGFONT
  0
STYLE
  2
KANJI
 70
     0
 40
4.5
 41
1.0
 50
0.0
 71
     0
 42
0.2
  3
TXT
  4
BIGFONT
  0
ENDTAB
  0
TABLE
  2
VIEW
 70
     0
  0
ENDTAB
  0
ENDSEC
  0
SECTION
  2
BLOCKS
  0
BLOCK
  8
0
  2
G0
 70
     0
 10
0
 20
0
  0
TEXT
  8
0
 62
     1
 10
-1015.996281
 20
-185.972883
 40
32.000000
 50
90.000000
 41
0.89 
  1
Ｌ（有効長）
 72
     5
 11
-1015.996281
 21
10.027117
  0
LINE
  8
0
 62
     1
  6
CONTINUOUS
 10
-1060.662948
 20
-546.972883
 11
-1000.662948
 21
-546.972883
  0
LINE
  8
0
 62
     1
  6
CONTINUOUS
 10
-1010.662948
 20
363.027117
 11
-1010.662948
 21
-546.972883
  0
SOLID
  8
0
 62
     1
 10
-1004.192472
 20
338.878971
 11
-1017.133424
 21
338.878971
 12
-1010.662948
 22
363.027117
 13
-1010.662948
 23
363.027117
  0
SOLID
  8
0
 62
     1
 10
-1017.133424
 20
-522.824738
 11
-1004.192472
 21
-522.824738
 12
-1010.662948
 22
-546.972883
 13
-1010.662948
 23
-546.972883
  0
ENDBLK
  0
BLOCK
  8
0
  2
G1
 70
     0
 10
0
 20
0
  0
POINT
  8
0
 62
     4
 10
270.000000
 20
1315.000000
  0
POINT
  8
0
 62
     4
 10
-1830.000000
 20
1315.000000
  0
ENDBLK
  0
BLOCK
  8
0
  2
G2
 70
     0
 10
0
 20
0
  0
LINE
  8
0
 62
     3
  6
CONTINUOUS
 10
-1213.043291
 20
-48.975228
 11
-1235.545746
 21
-35.983430
  0
LINE
  8
0
 62
     3
  6
CONTINUOUS
 10
-1228.460760
 20
-75.679068
 11
-1213.043291
 21
-48.975228
  0
TEXT
  8
0
 62
     3
 10
-1240.254043
 20
-108.037285
 40
32.000000
 50
0.000000E+00
 41
0.86 
  1
Ｃ
 72
     5
 11
-1208.254043
 21
-108.037285
  0
LINE
  8
0
 62
     3
  6
CONTINUOUS
 10
-1228.460760
 20
-28.308819
 11
-1228.460760
 21
-75.679068
  0
LINE
  8
0
 62
     3
  6
CONTINUOUS
 10
-1228.460760
 20
-28.308819
 11
-1308.023323
 21
-28.308819
  0
ENDBLK
  0
BLOCK
  8
0
  2
G3
 70
     0
 10
0
 20
0
  0
TEXT
  8
0
 62
     1
 10
-1075.996281
 20
-394.972883
 40
32.000000
 50
90.000000
 41
0.58 
  1
360
 72
     5
 11
-1075.996281
 21
-338.972883
  0
LINE
  8
0
 62
     1
  6
CONTINUOUS
 10
-1060.662948
 20
-546.972883
 11
-1180.662948
 21
-546.972883
  0
LINE
  8
0
 62
     1
  6
CONTINUOUS
 10
-1070.662948
 20
-186.972883
 11
-1070.662948
 21
-546.972883
  0
SOLID
  8
0
 62
     1
 10
-1064.192472
 20
-211.121029
 11
-1077.133424
 21
-211.121029
 12
-1070.662948
 22
-186.972883
 13
-1070.662948
 23
-186.972883
  0
SOLID
  8
0
 62
     1
 10
-1077.133424
 20
-522.824738
 11
-1064.192472
 21
-522.824738
 12
-1070.662948
 22
-546.972883
 13
-1070.662948
 23
-546.972883
  0
ENDBLK
  0
BLOCK
  8
0
  2
G4
 70
     0
 10
0
 20
0
  0
LINE
  8
0
 62
     1
  6
CONTINUOUS
 10
-645.301113
 20
375.139775
 11
-709.983194
 21
375.139775
  0
LINE
  8
0
 62
     1
  6
CONTINUOUS
 10
-709.983194
 20
455.264522
 11
-709.983194
 21
360.139775
  0
TEXT
  8
0
 62
     1
 10
-697.508961
 20
380.473108
 40
32.000000
 50
0.000000E+00
 41
0.56 
  1
65
 72
     5
 11
-661.508961
 21
380.473108
  0
LINE
  8
0
 62
     1
  6
CONTINUOUS
 10
-645.301113
 20
375.139775
 11
-606.216388
 21
375.139775
  0
SOLID
  8
0
 62
     1
 10
-621.152967
 20
381.610251
 11
-621.152967
 21
368.669299
 12
-645.301113
 22
375.139775
 13
-645.301113
 23
375.139775
  0
LINE
  8
0
 62
     1
  6
CONTINUOUS
 10
-709.983194
 20
375.139775
 11
-752.162334
 21
375.139775
  0
SOLID
  8
0
 62
     1
 10
-734.131340
 20
368.669299
 11
-734.131340
 21
381.610251
 12
-709.983194
 22
375.139775
 13
-709.983194
 23
375.139775
  0
ENDBLK
  0
BLOCK
  8
0
  2
G5
 70
     0
 10
0
 20
0
  0
LINE
  8
0
 62
     1
  6
CONTINUOUS
 10
-822.307886
 20
632.764522
 11
-822.307886
 21
422.764522
  0
SOLID
  8
0
 62
     1
 10
-815.837410
 20
608.616376
 11
-828.778362
 21
608.616376
 12
-822.307886
 22
632.764522
 13
-822.307886
 23
632.764522
  0
SOLID
  8
0
 62
     1
 10
-828.778362
 20
446.912667
 11
-815.837410
 21
446.912667
 12
-822.307886
 22
422.764522
 13
-822.307886
 23
422.764522
  0
LINE
  8
0
 62
     1
  6
CONTINUOUS
 10
-559.983194
 20
632.764522
 11
-832.307886
 21
632.764522
  0
TEXT
  8
0
 62
     1
 10
-827.641219
 20
499.764522
 40
32.000000
 50
90.000000
 41
0.58 
  1
210
 72
     5
 11
-827.641219
 21
555.764522
  0
ENDBLK
  0
BLOCK
  8
0
  2
G6
 70
     0
 10
0
 20
0
  0
LINE
  8
0
 62
     1
  6
CONTINUOUS
 10
-654.983194
 20
801.139775
 11
-444.983194
 21
801.139775
  0
SOLID
  8
0
 62
     1
 10
-630.835048
 20
807.610251
 11
-630.835048
 21
794.669299
 12
-654.983194
 22
801.139775
 13
-654.983194
 23
801.139775
  0
SOLID
  8
0
 62
     1
 10
-469.131340
 20
794.669299
 11
-469.131340
 21
807.610251
 12
-444.983194
 22
801.139775
 13
-444.983194
 23
801.139775
  0
TEXT
  8
0
 62
     1
 10
-577.983194
 20
806.473108
 40
32.000000
 50
0.000000E+00
 41
0.58 
  1
210
 72
     5
 11
-521.983194
 21
806.473108
  0
ENDBLK
  0
BLOCK
  8
0
  2
G7
 70
     0
 10
0
 20
0
  0
LINE
  8
0
 62
     1
  6
CONTINUOUS
 10
-337.658502
 20
623.082441
 11
-337.658502
 21
687.764522
  0
LINE
  8
0
 62
     1
  6
CONTINUOUS
 10
-479.983194
 20
623.082441
 11
-327.658502
 21
623.082441
  0
LINE
  8
0
 62
     1
  6
CONTINUOUS
 10
-477.483194
 20
687.764522
 11
-327.658502
 21
687.764522
  0
TEXT
  8
0
 62
     1
 10
-342.991835
 20
637.423481
 40
32.000000
 50
90.000000
 41
0.56 
  1
65
 72
     5
 11
-342.991835
 21
673.423481
  0
LINE
  8
0
 62
     1
  6
CONTINUOUS
 10
-337.658502
 20
623.082441
 11
-337.658502
 21
596.035536
  0
SOLID
  8
0
 62
     1
 10
-331.188026
 20
598.934295
 11
-344.128978
 21
598.934295
 12
-337.658502
 22
623.082441
 13
-337.658502
 23
623.082441
  0
LINE
  8
0
 62
     1
  6
CONTINUOUS
 10
-337.658502
 20
687.764522
 11
-337.658502
 21
737.764522
  0
SOLID
  8
0
 62
     1
 10
-344.128978
 20
711.912667
 11
-331.188026
 21
711.912667
 12
-337.658502
 22
687.764522
 13
-337.658502
 23
687.764522
  0
ENDBLK
  0
BLOCK
  8
0
  2
G8
 70
     0
 10
0
 20
0
  0
LINE
  8
0
 62
     1
  6
CONTINUOUS
 10
-709.983194
 20
313.139775
 11
-549.983194
 21
313.139775
  0
LINE
  8
0
 62
     1
  6
CONTINUOUS
 10
-709.983194
 20
360.139775
 11
-709.983194
 21
303.139775
  0
TEXT
  8
0
 62
     1
 10
-657.983194
 20
318.473108
 40
32.000000
 50
0.000000E+00
 41
0.58 
  1
160
 72
     5
 11
-601.983194
 21
318.473108
  0
LINE
  8
0
 62
     1
  6
CONTINUOUS
 10
-709.983194
 20
313.139775
 11
-759.983194
 21
313.139775
  0
SOLID
  8
0
 62
     1
 10
-734.131340
 20
306.669299
 11
-734.131340
 21
319.610251
 12
-709.983194
 22
313.139775
 13
-709.983194
 23
313.139775
  0
ENDBLK
  0
BLOCK
  8
0
  2
G9
 70
     0
 10
0
 20
0
  0
TEXT
  8
0
 62
     1
 10
-1195.996281
 20
-499.972883
 40
32.000000
 50
90.000000
 41
0.58 
  1
150
 72
     5
 11
-1195.996281
 21
-443.972883
  0
LINE
  8
0
 62
     1
  6
CONTINUOUS
 10
-1364.739862
 20
-546.972883
 11
-1180.662948
 21
-546.972883
  0
LINE
  8
0
 62
     1
  6
CONTINUOUS
 10
-1190.662948
 20
-396.972883
 11
-1190.662948
 21
-546.972883
  0
SOLID
  8
0
 62
     1
 10
-1184.192472
 20
-421.121029
 11
-1197.133424
 21
-421.121029
 12
-1190.662948
 22
-396.972883
 13
-1190.662948
 23
-396.972883
  0
SOLID
  8
0
 62
     1
 10
-1197.133424
 20
-522.824738
 11
-1184.192472
 21
-522.824738
 12
-1190.662948
 22
-546.972883
 13
-1190.662948
 23
-546.972883
  0
ENDBLK
  0
BLOCK
  8
0
  2
G10
 70
     0
 10
0
 20
0
  0
TEXT
  8
0
 62
     1
 10
-1195.996281
 20
-364.972883
 40
32.000000
 50
90.000000
 41
0.58 
  1
120
 72
     5
 11
-1195.996281
 21
-308.972883
  0
LINE
  8
0
 62
     1
  6
CONTINUOUS
 10
-1367.488951
 20
-396.972883
 11
-1180.662948
 21
-396.972883
  0
LINE
  8
0
 62
     1
  6
CONTINUOUS
 10
-1336.990773
 20
-276.972883
 11
-1180.662948
 21
-276.972883
  0
LINE
  8
0
 62
     1
  6
CONTINUOUS
 10
-1190.662948
 20
-276.972883
 11
-1190.662948
 21
-396.972883
  0
SOLID
  8
0
 62
     1
 10
-1184.192472
 20
-301.121029
 11
-1197.133424
 21
-301.121029
 12
-1190.662948
 22
-276.972883
 13
-1190.662948
 23
-276.972883
  0
SOLID
  8
0
 62
     1
 10
-1197.133424
 20
-372.824738
 11
-1184.192472
 21
-372.824738
 12
-1190.662948
 22
-396.972883
 13
-1190.662948
 23
-396.972883
  0
ENDBLK
  0
BLOCK
  8
0
  2
G11
 70
     0
 10
0
 20
0
  0
TEXT
  8
0
 62
     1
 10
-1135.996281
 20
210.027117
 40
32.000000
 50
90.000000
 41
0.58 
  1
250
 72
     5
 11
-1135.996281
 21
266.027117
  0
LINE
  8
0
 62
     1
  6
CONTINUOUS
 10
-1417.739862
 20
363.027117
 11
-1120.662948
 21
363.027117
  0
LINE
  8
0
 62
     1
  6
CONTINUOUS
 10
-1180.662948
 20
113.027117
 11
-1120.662948
 21
113.027117
  0
LINE
  8
0
 62
     1
  6
CONTINUOUS
 10
-1130.662948
 20
113.027117
 11
-1130.662948
 21
363.027117
  0
SOLID
  8
0
 62
     1
 10
-1138.427519
 20
142.004891
 11
-1122.898377
 21
142.004891
 12
-1130.662948
 22
113.027117
 13
-1130.662948
 23
113.027117
  0
SOLID
  8
0
 62
     1
 10
-1122.898377
 20
334.049342
 11
-1138.427519
 21
334.049342
 12
-1130.662948
 22
363.027117
 13
-1130.662948
 23
363.027117
  0
ENDBLK
  0
BLOCK
  8
0
  2
G12
 70
     0
 10
0
 20
0
  0
TEXT
  8
0
 62
     1
 10
-1075.996281
 20
-22.972883
 40
32.000000
 50
90.000000
 41
0.86 
  1
Ｐ
 72
     5
 11
-1075.996281
 21
9.027117
  0
LINE
  8
0
 62
     1
  6
CONTINUOUS
 10
-1060.662948
 20
-186.972883
 11
-1180.662948
 21
-186.972883
  0
LINE
  8
0
 62
     1
  6
CONTINUOUS
 10
-1070.662948
 20
-186.972883
 11
-1070.662948
 21
173.027117
  0
SOLID
  8
0
 62
     1
 10
-1078.427519
 20
-157.995109
 11
-1062.898377
 21
-157.995109
 12
-1070.662948
 22
-186.972883
 13
-1070.662948
 23
-186.972883
  0
SOLID
  8
0
 62
     1
 10
-1062.898377
 20
144.049342
 11
-1078.427519
 21
144.049342
 12
-1070.662948
 22
173.027117
 13
-1070.662948
 23
173.027117
  0
ENDBLK
  0
BLOCK
  8
0
  2
G13
 70
     0
 10
0
 20
0
  0
TEXT
  8
0
 62
     1
 10
-1015.996281
 20
382.527117
 40
32.000000
 50
90.000000
 41
0.56 
  1
75
 72
     5
 11
-1015.996281
 21
418.527117
  0
LINE
  8
0
 62
     1
  6
CONTINUOUS
 10
-1000.662948
 20
363.027117
 11
-1130.662948
 21
363.027117
  0
LINE
  8
0
 62
     1
  6
CONTINUOUS
 10
-1000.662948
 20
438.027117
 11
-1347.549807
 21
438.027117
  0
LINE
  8
0
 62
     1
  6
CONTINUOUS
 10
-1010.662948
 20
438.027117
 11
-1010.662948
 21
363.027117
  0
SOLID
  8
0
 62
     1
 10
-1004.192472
 20
413.878971
 11
-1017.133424
 21
413.878971
 12
-1010.662948
 22
438.027117
 13
-1010.662948
 23
438.027117
  0
SOLID
  8
0
 62
     1
 10
-1017.133424
 20
387.175262
 11
-1004.192472
 21
387.175262
 12
-1010.662948
 22
363.027117
 13
-1010.662948
 23
363.027117
  0
ENDBLK
  0
BLOCK
  8
0
  2
G14
 70
     0
 10
0
 20
0
  0
LINE
  8
0
 62
     1
  6
CONTINUOUS
 10
-1190.662948
 20
173.027117
 11
-1190.662948
 21
223.027117
  0
SOLID
  8
0
 62
     1
 10
-1198.427519
 20
202.004891
 11
-1182.898377
 21
202.004891
 12
-1190.662948
 22
173.027117
 13
-1190.662948
 23
173.027117
  0
TEXT
  8
0
 62
     1
 10
-1195.996281
 20
125.027117
 40
32.000000
 50
90.000000
 41
0.56 
  1
60
 72
     5
 11
-1195.996281
 21
161.027117
  0
LINE
  8
0
 62
     1
  6
CONTINUOUS
 10
-1251.806156
 20
173.027117
 11
-1180.662948
 21
173.027117
  0
LINE
  8
0
 62
     1
  6
CONTINUOUS
 10
-1262.739862
 20
113.027117
 11
-1180.662948
 21
113.027117
  0
LINE
  8
0
 62
     1
  6
CONTINUOUS
 10
-1190.662948
 20
113.027117
 11
-1190.662948
 21
173.027117
  0
CIRCLE
  8
0
 62
     1
  6
CONTINUOUS
 10
-1190.662948
 20
113.027117
 40
2.500000
  0
CIRCLE
  8
0
 62
     1
  6
CONTINUOUS
 10
-1190.662948
 20
113.027117
 40
1.250000
  0
ENDBLK
  0
BLOCK
  8
0
  2
G15
 70
     0
 10
0
 20
0
  0
LINE
  8
0
 62
     1
  6
CONTINUOUS
 10
-1190.662948
 20
110.527117
 11
-1190.662948
 21
19.944416
  0
SOLID
  8
0
 62
     1
 10
-1184.192472
 20
86.378971
 11
-1197.133424
 21
86.378971
 12
-1190.662948
 22
110.527117
 13
-1190.662948
 23
110.527117
  0
TEXT
  8
0
 62
     1
 10
-1195.996281
 20
24.799037
 40
32.000000
 50
90.000000
 41
0.58 
  1
2.5
 72
     5
 11
-1195.996281
 21
80.799037
  0
LINE
  8
0
 62
     1
  6
CONTINUOUS
 10
-1180.662948
 20
110.527117
 11
-1262.739862
 21
110.527117
  0
LINE
  8
0
 62
     1
  6
CONTINUOUS
 10
-1190.662948
 20
110.527117
 11
-1190.662948
 21
113.027117
  0
ENDBLK
  0
BLOCK
  8
0
  2
G16
 70
     0
 10
0
 20
0
  0
LINE
  8
0
 62
     3
  6
CONTINUOUS
 10
-1218.084833
 20
864.693959
 11
-1218.084833
 21
954.693959
  0
LINE
  8
0
 62
     3
  6
CONTINUOUS
 10
-1278.084833
 20
864.693959
 11
-1218.084833
 21
864.693959
  0
SOLID
  8
0
 62
     3
 10
-1249.395690
 20
873.465110
 11
-1249.395690
 21
855.922808
 12
-1278.084833
 22
864.693959
 13
-1278.084833
 23
864.693959
  0
ENDBLK
  0
BLOCK
  8
0
  2
G17
 70
     0
 10
0
 20
0
  0
TEXT
  8
0
 62
     3
 10
-1290.980707
 20
966.070505
 40
32.000000
 50
0.000000E+00
 41
1.02 
  1
受口深さ
 72
     5
 11
-1138.980707
 21
966.070505
  0
ENDBLK
  0
BLOCK
  8
0
  2
G18
 70
     0
 10
0
 20
0
  0
TEXT
  8
0
 62
     1
 10
-1199.818508
 20
632.389268
 40
32.000000
 50
90.000000
 41
0.60 
  1
%%c125
 72
     5
 11
-1199.818508
 21
748.389268
  0
LINE
  8
0
 62
     1
  6
CONTINUOUS
 10
-1257.739862
 20
627.889268
 11
-1184.485175
 21
627.889268
  0
LINE
  8
0
 62
     1
  6
CONTINUOUS
 10
-1257.739862
 20
752.889268
 11
-1184.485175
 21
752.889268
  0
LINE
  8
0
 62
     1
  6
CONTINUOUS
 10
-1194.485175
 20
752.889268
 11
-1194.485175
 21
627.889268
  0
SOLID
  8
0
 62
     1
 10
-1188.014699
 20
728.741123
 11
-1200.955651
 21
728.741123
 12
-1194.485175
 22
752.889268
 13
-1194.485175
 23
752.889268
  0
SOLID
  8
0
 62
     1
 10
-1200.955651
 20
652.037414
 11
-1188.014699
 21
652.037414
 12
-1194.485175
 22
627.889268
 13
-1194.485175
 23
627.889268
  0
ENDBLK
  0
BLOCK
  8
0
  2
G19
 70
     0
 10
0
 20
0
  0
TEXT
  8
0
 62
     1
 10
-1375.739862
 20
898.832148
 40
32.000000
 50
0.000000E+00
 41
0.58 
  1
160
 72
     5
 11
-1319.739862
 21
898.832148
  0
LINE
  8
0
 62
     1
  6
CONTINUOUS
 10
-1427.739862
 20
798.830428
 11
-1427.739862
 21
903.498815
  0
LINE
  8
0
 62
     1
  6
CONTINUOUS
 10
-1267.739862
 20
845.279722
 11
-1267.739862
 21
903.498815
  0
LINE
  8
0
 62
     1
  6
CONTINUOUS
 10
-1267.739862
 20
893.498815
 11
-1427.739862
 21
893.498815
  0
SOLID
  8
0
 62
     1
 10
-1296.717636
 20
885.734243
 11
-1296.717636
 21
901.263386
 12
-1267.739862
 22
893.498815
 13
-1267.739862
 23
893.498815
  0
SOLID
  8
0
 62
     1
 10
-1398.762087
 20
901.263386
 11
-1398.762087
 21
885.734243
 12
-1427.739862
 22
893.498815
 13
-1427.739862
 23
893.498815
  0
ENDBLK
  0
BLOCK
  8
0
  2
G20
 70
     0
 10
0
 20
0
  0
LINE
  8
0
 62
     1
  6
CONTINUOUS
 10
-1267.739862
 20
835.279722
 11
-1217.739862
 21
835.279722
  0
SOLID
  8
0
 62
     1
 10
-1243.591716
 20
841.750198
 11
-1243.591716
 21
828.809246
 12
-1267.739862
 22
835.279722
 13
-1267.739862
 23
835.279722
  0
LINE
  8
0
 62
     1
  6
CONTINUOUS
 10
-1382.739862
 20
835.279722
 11
-1332.739862
 21
835.279722
  0
SOLID
  8
0
 62
     1
 10
-1356.888007
 20
828.809246
 11
-1356.888007
 21
841.750198
 12
-1332.739862
 22
835.279722
 13
-1332.739862
 23
835.279722
  0
TEXT
  8
0
 62
     1
 10
-1318.239862
 20
840.613055
 40
32.000000
 50
0.000000E+00
 41
0.56 
  1
65
 72
     5
 11
-1282.239862
 21
840.613055
  0
LINE
  8
0
 62
     1
  6
CONTINUOUS
 10
-1267.739862
 20
762.889268
 11
-1267.739862
 21
845.279722
  0
LINE
  8
0
 62
     1
  6
CONTINUOUS
 10
-1332.739862
 20
760.389268
 11
-1332.739862
 21
845.279722
  0
LINE
  8
0
 62
     1
  6
CONTINUOUS
 10
-1332.739862
 20
835.279722
 11
-1267.739862
 21
835.279722
  0
ENDBLK
  0
BLOCK
  8
0
  2
G21
 70
     0
 10
0
 20
0
  0
LINE
  8
0
 62
     1
  6
CONTINUOUS
 10
-280.658502
 20
527.764522
 11
-280.658502
 21
687.764522
  0
LINE
  8
0
 62
     1
  6
CONTINUOUS
 10
-477.483194
 20
687.764522
 11
-270.658502
 21
687.764522
  0
TEXT
  8
0
 62
     1
 10
-285.991835
 20
579.764522
 40
32.000000
 50
90.000000
 41
0.58 
  1
160
 72
     5
 11
-285.991835
 21
635.764522
  0
LINE
  8
0
 62
     1
  6
CONTINUOUS
 10
-280.658502
 20
477.764522
 11
-280.658502
 21
527.764522
  0
SOLID
  8
0
 62
     1
 10
-274.188026
 20
503.616376
 11
-287.128978
 21
503.616376
 12
-280.658502
 22
527.764522
 13
-280.658502
 23
527.764522
  0
LINE
  8
0
 62
     1
  6
CONTINUOUS
 10
-280.658502
 20
687.764522
 11
-280.658502
 21
737.764522
  0
SOLID
  8
0
 62
     1
 10
-287.128978
 20
711.912667
 11
-274.188026
 21
711.912667
 12
-280.658502
 22
687.764522
 13
-280.658502
 23
687.764522
  0
ENDBLK
  0
BLOCK
  8
0
  2
G22
 70
     0
 10
0
 20
0
  0
LINE
  8
0
 62
     1
  6
CONTINUOUS
 10
-389.983194
 20
375.139775
 11
-347.804054
 21
375.139775
  0
SOLID
  8
0
 62
     1
 10
-365.835048
 20
381.610251
 11
-365.835048
 21
368.669299
 12
-389.983194
 22
375.139775
 13
-389.983194
 23
375.139775
  0
LINE
  8
0
 62
     1
  6
CONTINUOUS
 10
-454.665275
 20
375.139775
 11
-493.750000
 21
375.139775
  0
SOLID
  8
0
 62
     1
 10
-478.813421
 20
368.669299
 11
-478.813421
 21
381.610251
 12
-454.665275
 22
375.139775
 13
-454.665275
 23
375.139775
  0
TEXT
  8
0
 62
     1
 10
-438.457427
 20
380.473108
 40
32.000000
 50
360.000000
 41
0.56 
  1
65
 72
     5
 11
-402.457427
 21
380.473108
  0
LINE
  8
0
 62
     1
  6
CONTINUOUS
 10
-389.983194
 20
455.264522
 11
-389.983194
 21
360.139775
  0
LINE
  8
0
 62
     1
  6
CONTINUOUS
 10
-454.665275
 20
375.139775
 11
-389.983194
 21
375.139775
  0
ENDBLK
  0
BLOCK
  8
0
  2
G23
 70
     0
 10
0
 20
0
  0
LINE
  8
0
 62
     1
  6
CONTINUOUS
 10
-389.983194
 20
313.139775
 11
-339.983194
 21
313.139775
  0
SOLID
  8
0
 62
     1
 10
-365.835048
 20
319.610251
 11
-365.835048
 21
306.669299
 12
-389.983194
 22
313.139775
 13
-389.983194
 23
313.139775
  0
TEXT
  8
0
 62
     1
 10
-497.983194
 20
318.473108
 40
32.000000
 50
360.000000
 41
0.58 
  1
160
 72
     5
 11
-441.983194
 21
318.473108
  0
LINE
  8
0
 62
     1
  6
CONTINUOUS
 10
-389.983194
 20
360.139775
 11
-389.983194
 21
303.139775
  0
LINE
  8
0
 62
     1
  6
CONTINUOUS
 10
-389.983194
 20
313.139775
 11
-549.983194
 21
313.139775
  0
CIRCLE
  8
0
 62
     1
  6
CONTINUOUS
 10
-549.983194
 20
313.139775
 40
5.000000
  0
CIRCLE
  8
0
 62
     1
  6
CONTINUOUS
 10
-549.983194
 20
313.139775
 40
2.500000
  0
ENDBLK
  0
BLOCK
  8
0
  2
G24
 70
     0
 10
0
 20
0
  0
TEXT
  8
0
 62
     3
 10
-857.297305
 20
266.618803
 40
32.000000
 50
0.000000E+00
 41
0.95 
  1
受口深さ　
 72
     5
 11
-681.297305
 21
266.618803
  0
ENDBLK
  0
BLOCK
  8
0
  2
G25
 70
     0
 10
0
 20
0
  0
TEXT
  8
0
 62
     7
 10
-382.332536
 20
363.453230
 40
32.000000
 50
360.000000
 41
0.66 
  1
％％ｃ　　　枝管
 72
     5
 11
-190.332536
 21
363.453230
  0
LINE
  8
0
 62
     3
  6
CONTINUOUS
 10
-190.033469
 20
353.955643
 11
-347.050257
 21
353.955643
  0
LINE
  8
0
 62
     3
  6
CONTINUOUS
 10
-190.033469
 20
345.955643
 11
-347.050257
 21
345.955643
  0
ENDBLK
  0
BLOCK
  8
0
  2
G26
 70
     0
 10
0
 20
0
  0
LINE
  8
0
 62
     1
  6
CONTINUOUS
 10
-808.213680
 20
610.632526
 11
-632.851199
 21
785.995008
  0
SOLID
  8
0
 62
     1
 10
-795.713680
 20
632.283161
 11
-786.563045
 21
623.132526
 12
-808.213680
 22
610.632526
 13
-808.213680
 23
610.632526
  0
SOLID
  8
0
 62
     1
 10
-645.351199
 20
764.344373
 11
-654.501834
 21
773.495008
 12
-632.851199
 22
785.995008
 13
-632.851199
 23
785.995008
  0
LINE
  8
0
 62
     1
  6
CONTINUOUS
 10
-644.735503
 20
447.154349
 11
-815.284748
 21
617.703594
  0
LINE
  8
0
 62
     1
  6
CONTINUOUS
 10
-469.373021
 20
622.516830
 11
-639.922266
 21
793.066076
  0
TEXT
  8
0
 62
     1
 10
-744.102665
 20
682.286013
 40
32.000000
 50
45.000000
 41
0.58 
  1
248
 72
     5
 11
-704.504686
 21
721.883993
  0
ENDBLK
  0
BLOCK
  8
0
  2
G27
 70
     0
 10
0
 20
0
  0
TEXT
  8
0
 62
     1
 10
-955.996281
 20
-90.472883
 40
32.000000
 50
90.000000
 41
0.97 
  1
Ｌｔ
 72
     5
 11
-955.996281
 21
-18.472883
  0
LINE
  8
0
 62
     1
  6
CONTINUOUS
 10
-1000.662948
 20
-546.972883
 11
-940.662948
 21
-546.972883
  0
LINE
  8
0
 62
     1
  6
CONTINUOUS
 10
-1000.662948
 20
438.027117
 11
-940.662948
 21
438.027117
  0
LINE
  8
0
 62
     1
  6
CONTINUOUS
 10
-950.662948
 20
438.027117
 11
-950.662948
 21
-546.972883
  0
SOLID
  8
0
 62
     1
 10
-944.192472
 20
413.878971
 11
-957.133424
 21
413.878971
 12
-950.662948
 22
438.027117
 13
-950.662948
 23
438.027117
  0
SOLID
  8
0
 62
     1
 10
-957.133424
 20
-522.824738
 11
-944.192472
 21
-522.824738
 12
-950.662948
 22
-546.972883
 13
-950.662948
 23
-546.972883
  0
ENDBLK
  0
BLOCK
  8
0
  2
G28
 70
     0
 10
0
 20
0
  0
TEXT
  8
0
 62
     7
 10
-392.284686
 20
833.190072
 40
32.000000
 50
0.000000E+00
 41
0.66 
  1
％％ｃ　　　枝管
 72
     5
 11
-200.284686
 21
833.190072
  0
LINE
  8
0
 62
     3
  6
CONTINUOUS
 10
-392.583753
 20
823.692485
 11
-222.583753
 21
823.692485
  0
LINE
  8
0
 62
     3
  6
CONTINUOUS
 10
-392.583753
 20
815.692485
 11
-222.583753
 21
815.692485
  0
ENDBLK
  0
BLOCK
  8
0
  2
G29
 70
     0
 10
0
 20
0
  0
TEXT
  8
0
 62
     3
 10
-1077.283774
 20
513.253919
 40
32.000000
 50
0.000000E+00
 41
0.95 
  1
受口深さ　
 72
     5
 11
-901.283774
 21
513.253919
  0
ENDBLK
  0
BLOCK
  8
0
  2
G30
 70
     0
 10
0
 20
0
  0
LINE
  8
0
 62
     3
  6
CONTINUOUS
 10
-909.932919
 20
345.955643
 11
-752.916131
 21
345.955643
  0
LINE
  8
0
 62
     3
  6
CONTINUOUS
 10
-909.932919
 20
353.955643
 11
-752.916131
 21
353.955643
  0
TEXT
  8
0
 62
     7
 10
-909.633851
 20
363.453230
 40
32.000000
 50
0.000000E+00
 41
0.66 
  1
％％ｃ　　　枝管
 72
     5
 11
-717.633851
 21
363.453230
  0
ENDBLK
  0
BLOCK
  8
0
  2
G31
 70
     0
 10
0
 20
0
  0
TEXT
  8
0
 62
     3
 10
-350.669083
 20
266.618803
 40
32.000000
 50
0.000000E+00
 41
0.95 
  1
受口深さ　
 72
     5
 11
-174.669083
 21
266.618803
  0
ENDBLK
  0
BLOCK
  8
0
  2
G32
 70
     0
 10
0
 20
0
  0
LINE
  8
0
 62
     7
  6
CONTINUOUS
 10
-1522.739862
 20
762.389268
 11
-1522.739862
 21
903.498815
  0
LINE
  8
0
 62
     7
  6
CONTINUOUS
 10
-1427.739862
 20
808.830428
 11
-1427.739862
 21
903.498815
  0
LINE
  8
0
 62
     7
  6
CONTINUOUS
 10
-1522.739862
 20
893.498815
 11
-1427.739862
 21
893.498815
  0
SOLID
  8
0
 62
     7
 10
-1494.050719
 20
902.269966
 11
-1494.050719
 21
884.727664
 12
-1522.739862
 22
893.498815
 13
-1522.739862
 23
893.498815
  0
SOLID
  8
0
 62
     7
 10
-1456.429004
 20
884.727664
 11
-1456.429004
 21
902.269966
 12
-1427.739862
 22
893.498815
 13
-1427.739862
 23
893.498815
  0
TEXT
  8
0
 62
     7
 10
-1493.239862
 20
898.832145
 40
32.000000
 50
0.000000E+00
 41
0.56 
  1
95
 72
     5
 11
-1457.239862
 21
898.832145
  0
ENDBLK
  0
BLOCK
  8
0
  2
G33
 70
     0
 10
0
 20
0
  0
LINE
  8
0
 62
     7
  6
CONTINUOUS
 10
-1355.739862
 20
785.389268
 11
-1124.485175
 21
785.389268
  0
LINE
  8
0
 62
     7
  6
CONTINUOUS
 10
-1189.153340
 20
690.389268
 11
-1124.485175
 21
690.389268
  0
LINE
  8
0
 62
     7
  6
CONTINUOUS
 10
-1134.485175
 20
785.389268
 11
-1134.485175
 21
690.389268
  0
SOLID
  8
0
 62
     7
 10
-1125.714024
 20
756.700126
 11
-1143.256326
 21
756.700126
 12
-1134.485175
 22
785.389268
 13
-1134.485175
 23
785.389268
  0
SOLID
  8
0
 62
     7
 10
-1143.256326
 20
719.078411
 11
-1125.714024
 21
719.078411
 12
-1134.485175
 22
690.389268
 13
-1134.485175
 23
690.389268
  0
TEXT
  8
0
 62
     7
 10
-1139.818505
 20
719.889268
 40
32.000000
 50
90.000000
 41
0.56 
  1
95
 72
     5
 11
-1139.818505
 21
755.889268
  0
ENDBLK
  0
BLOCK
  8
0
  2
G34
 70
     0
 10
0
 20
0
  0
LINE
  8
0
 62
     7
  6
CONTINUOUS
 10
-1502.739862
 20
448.027117
 11
-1502.739862
 21
491.551724
  0
LINE
  8
0
 62
     7
  6
CONTINUOUS
 10
-1352.739862
 20
448.027117
 11
-1352.739862
 21
491.551724
  0
LINE
  8
0
 62
     7
  6
CONTINUOUS
 10
-1502.739862
 20
481.551724
 11
-1352.739862
 21
481.551724
  0
SOLID
  8
0
 62
     7
 10
-1474.050719
 20
490.322875
 11
-1474.050719
 21
472.780573
 12
-1502.739862
 22
481.551724
 13
-1502.739862
 23
481.551724
  0
SOLID
  8
0
 62
     7
 10
-1381.429004
 20
472.780573
 11
-1381.429004
 21
490.322875
 12
-1352.739862
 22
481.551724
 13
-1352.739862
 23
481.551724
  0
TEXT
  8
0
 62
     7
 10
-1485.739862
 20
486.885054
 40
32.000000
 50
0.000000E+00
 41
0.60 
  1
%%c150
 72
     5
 11
-1369.739862
 21
486.885054
  0
ENDBLK
  0
BLOCK
  8
0
  2
G35
 70
     0
 10
0
 20
0
  0
LINE
  8
0
 62
     7
  6
CONTINUOUS
 10
-1513.739862
 20
268.786486
 11
-1513.739862
 21
553.748668
  0
LINE
  8
0
 62
     7
  6
CONTINUOUS
 10
-1341.739862
 20
258.786486
 11
-1341.739862
 21
553.748668
  0
LINE
  8
0
 62
     7
  6
CONTINUOUS
 10
-1513.739862
 20
543.748668
 11
-1341.739862
 21
543.748668
  0
SOLID
  8
0
 62
     7
 10
-1485.050719
 20
552.519819
 11
-1485.050719
 21
534.977516
 12
-1513.739862
 22
543.748668
 13
-1513.739862
 23
543.748668
  0
SOLID
  8
0
 62
     7
 10
-1370.429004
 20
534.977516
 11
-1370.429004
 21
552.519819
 12
-1341.739862
 22
543.748668
 13
-1341.739862
 23
543.748668
  0
TEXT
  8
0
 62
     7
 10
-1485.739862
 20
549.081997
 40
32.000000
 50
0.000000E+00
 41
0.60 
  1
%%c172
 72
     5
 11
-1369.739862
 21
549.081997
  0
ENDBLK
  0
BLOCK
  8
0
  2
G36
 70
     0
 10
0
 20
0
  0
LINE
  8
0
 62
     7
  6
CONTINUOUS
 10
-1482.739862
 20
-556.972883
 11
-1482.739862
 21
-631.607049
  0
LINE
  8
0
 62
     7
  6
CONTINUOUS
 10
-1372.739862
 20
-556.972883
 11
-1372.739862
 21
-631.607049
  0
LINE
  8
0
 62
     7
  6
CONTINUOUS
 10
-1482.739862
 20
-621.607049
 11
-1372.739862
 21
-621.607049
  0
SOLID
  8
0
 62
     7
 10
-1454.050719
 20
-612.835898
 11
-1454.050719
 21
-630.378201
 12
-1482.739862
 22
-621.607049
 13
-1482.739862
 23
-621.607049
  0
SOLID
  8
0
 62
     7
 10
-1401.429004
 20
-630.378201
 11
-1401.429004
 21
-612.835898
 12
-1372.739862
 22
-621.607049
 13
-1372.739862
 23
-621.607049
  0
TEXT
  8
0
 62
     7
 10
-1485.739862
 20
-616.273720
 40
32.000000
 50
0.000000E+00
 41
0.60 
  1
%%c110
 72
     5
 11
-1369.739862
 21
-616.273720
  0
ENDBLK
  0
BLOCK
  8
0
  2
G37
 70
     0
 10
0
 20
0
  0
LINE
  8
0
 62
     7
  6
CONTINUOUS
 10
-1513.739862
 20
-293.100972
 11
-1513.739862
 21
-696.251332
  0
LINE
  8
0
 62
     7
  6
CONTINUOUS
 10
-1341.739862
 20
-283.100972
 11
-1341.739862
 21
-696.251332
  0
LINE
  8
0
 62
     7
  6
CONTINUOUS
 10
-1513.739862
 20
-686.251332
 11
-1341.739862
 21
-686.251332
  0
SOLID
  8
0
 62
     7
 10
-1485.050719
 20
-677.480181
 11
-1485.050719
 21
-695.022484
 12
-1513.739862
 22
-686.251332
 13
-1513.739862
 23
-686.251332
  0
SOLID
  8
0
 62
     7
 10
-1370.429004
 20
-695.022484
 11
-1370.429004
 21
-677.480181
 12
-1341.739862
 22
-686.251332
 13
-1341.739862
 23
-686.251332
  0
TEXT
  8
0
 62
     7
 10
-1485.739862
 20
-680.918003
 40
32.000000
 50
0.000000E+00
 41
0.60 
  1
%%c172
 72
     5
 11
-1369.739862
 21
-680.918003
  0
ENDBLK
  0
BLOCK
  8
0
  2
G38
 70
     0
 10
0
 20
0
  0
LINE
  8
0
 62
     7
  6
CONTINUOUS
 10
-1596.710036
 20
-135.481581
 11
-1651.529960
 21
-135.481581
  0
LINE
  8
0
 62
     7
  6
CONTINUOUS
 10
-1597.739862
 20
-186.972883
 11
-1651.529960
 21
-186.972883
  0
LINE
  8
0
 62
     7
  6
CONTINUOUS
 10
-1641.529960
 20
-135.481581
 11
-1641.529960
 21
-186.972883
  0
LINE
  8
0
 62
     7
  6
CONTINUOUS
 10
-1641.529960
 20
-135.481581
 11
-1641.529960
 21
-85.481581
  0
SOLID
  8
0
 62
     7
 10
-1650.301112
 20
-106.792438
 11
-1632.758809
 21
-106.792438
 12
-1641.529960
 22
-135.481581
 13
-1641.529960
 23
-135.481581
  0
LINE
  8
0
 62
     7
  6
CONTINUOUS
 10
-1641.529960
 20
-186.972883
 11
-1641.529960
 21
-236.972883
  0
SOLID
  8
0
 62
     7
 10
-1632.758809
 20
-215.662026
 11
-1650.301112
 21
-215.662026
 12
-1641.529960
 22
-186.972883
 13
-1641.529960
 23
-186.972883
  0
TEXT
  8
0
 62
     7
 10
-1646.863290
 20
-177.227232
 40
32.000000
 50
90.000000
 41
0.86 
  1
Ｂ
 72
     5
 11
-1646.863290
 21
-145.227232
  0
ENDBLK
  0
BLOCK
  8
0
  2
G39
 70
     0
 10
0
 20
0
  0
POINT
  8
0
 62
     2
 10
-1514.710036
 20
-128.921581
  0
LINE
  8
0
 62
     2
  6
CENTER
 10
-1597.989865
 20
-135.255985
 11
-1514.710036
 21
-136.921581
  0
LINE
  8
0
 62
     2
  6
CONTINUOUS
 10
-1580.671243
 20
-83.591958
 11
-1522.739862
 21
-84.750586
  0
LINE
  8
0
 62
     2
  6
CONTINUOUS
 10
-1522.756212
 20
-188.272556
 11
-1587.739862
 21
-186.972883
  0
LINE
  8
0
 62
     2
  6
CONTINUOUS
 10
-1580.611255
 20
-80.592558
 11
-1585.610256
 21
-80.492578
  0
LINE
  8
0
 62
     2
  6
CONTINUOUS
 10
-1585.610256
 20
-80.492578
 11
-1587.739862
 21
-186.972883
  0
LINE
  8
0
 62
     2
  6
CONTINUOUS
 10
-1580.611255
 20
-80.592558
 11
-1582.740861
 21
-187.072863
  0
POINT
  8
0
 62
     2
 10
-1586.710036
 20
-135.481581
  0
ENDBLK
  0
BLOCK
  8
0
  2
G40
 70
     0
 10
0
 20
0
  0
LINE
  8
0
 62
     7
  6
CONTINUOUS
 10
-1258.769688
 20
-135.481581
 11
-1180.662948
 21
-135.481581
  0
LINE
  8
0
 62
     7
  6
CONTINUOUS
 10
-1257.739862
 20
-186.972883
 11
-1180.662948
 21
-186.972883
  0
LINE
  8
0
 62
     7
  6
CONTINUOUS
 10
-1190.662948
 20
-135.481581
 11
-1190.662948
 21
-186.972883
  0
LINE
  8
0
 62
     7
  6
CONTINUOUS
 10
-1190.662948
 20
-135.481581
 11
-1190.662948
 21
-85.481581
  0
SOLID
  8
0
 62
     7
 10
-1199.434099
 20
-106.792438
 11
-1181.891797
 21
-106.792438
 12
-1190.662948
 22
-135.481581
 13
-1190.662948
 23
-135.481581
  0
LINE
  8
0
 62
     7
  6
CONTINUOUS
 10
-1190.662948
 20
-186.972883
 11
-1190.662948
 21
-236.972883
  0
SOLID
  8
0
 62
     7
 10
-1181.891797
 20
-215.662026
 11
-1199.434099
 21
-215.662026
 12
-1190.662948
 22
-186.972883
 13
-1190.662948
 23
-186.972883
  0
TEXT
  8
0
 62
     7
 10
-1195.996278
 20
-177.227232
 40
32.000000
 50
90.000000
 41
0.86 
  1
Ｂ
 72
     5
 11
-1195.996278
 21
-145.227232
  0
ENDBLK
  0
BLOCK
  8
0
  2
G41
 70
     0
 10
0
 20
0
  0
POINT
  8
0
 62
     2
 10
-1268.769688
 20
-135.481581
  0
LINE
  8
0
 62
     2
  6
CONTINUOUS
 10
-1274.868468
 20
-80.592558
 11
-1272.738862
 21
-187.072863
  0
LINE
  8
0
 62
     2
  6
CONTINUOUS
 10
-1269.869468
 20
-80.492578
 11
-1267.739862
 21
-186.972883
  0
LINE
  8
0
 62
     2
  6
CONTINUOUS
 10
-1274.868468
 20
-80.592558
 11
-1269.869468
 21
-80.492578
  0
LINE
  8
0
 62
     2
  6
CONTINUOUS
 10
-1332.723512
 20
-188.272556
 11
-1267.739862
 21
-186.972883
  0
LINE
  8
0
 62
     2
  6
CONTINUOUS
 10
-1274.808480
 20
-83.591958
 11
-1332.739862
 21
-84.750586
  0
LINE
  8
0
 62
     2
  6
CENTER
 10
-1257.489859
 20
-135.255985
 11
-1340.769688
 21
-136.921581
  0
POINT
  8
0
 62
     2
 10
-1340.769688
 20
-128.921581
  0
ENDBLK
  0
BLOCK
  8
0
  2
G42
 70
     0
 10
0
 20
0
  0
LINE
  8
0
 62
     2
  6
CONTINUOUS
 10
-494.983194
 20
682.764522
 11
-494.983194
 21
687.764522
  0
LINE
  8
0
 62
     2
  6
CONTINUOUS
 10
-604.983194
 20
682.764522
 11
-604.983194
 21
687.764522
  0
LINE
  8
0
 62
     2
  6
CONTINUOUS
 10
-498.017796
 20
682.764522
 11
-498.413484
 21
625.785354
  0
LINE
  8
0
 62
     2
  6
CONTINUOUS
 10
-601.948592
 20
682.764522
 11
-601.552904
 21
625.785354
  0
LINE
  8
0
 62
     2
  6
CONTINUOUS
 10
-604.983194
 20
682.764522
 11
-494.983194
 21
682.764522
  0
LINE
  8
0
 62
     2
  6
CONTINUOUS
 10
-494.983194
 20
687.764522
 11
-604.983194
 21
687.764522
  0
ENDBLK
  0
BLOCK
  8
0
  2
G43
 70
     0
 10
0
 20
0
  0
LINE
  8
0
 62
     7
  6
CONTINUOUS
 10
-604.983194
 20
697.764522
 11
-604.983194
 21
749.745143
  0
LINE
  8
0
 62
     7
  6
CONTINUOUS
 10
-494.983194
 20
697.764522
 11
-494.983194
 21
749.745143
  0
LINE
  8
0
 62
     7
  6
CONTINUOUS
 10
-604.983194
 20
739.745143
 11
-494.983194
 21
739.745143
  0
SOLID
  8
0
 62
     7
 10
-576.294051
 20
748.516294
 11
-576.294051
 21
730.973992
 12
-604.983194
 22
739.745143
 13
-604.983194
 23
739.745143
  0
SOLID
  8
0
 62
     7
 10
-523.672337
 20
730.973992
 11
-523.672337
 21
748.516294
 12
-494.983194
 22
739.745143
 13
-494.983194
 23
739.745143
  0
TEXT
  8
0
 62
     7
 10
-565.983194
 20
745.078473
 40
32.000000
 50
0.000000E+00
 41
0.86 
  1
Ａ
 72
     5
 11
-533.983194
 21
745.078473
  0
ENDBLK
  0
BLOCK
  8
0
  2
G44
 70
     0
 10
0
 20
0
  0
LINE
  8
0
 62
     7
  6
CONTINUOUS
 10
-719.983194
 20
582.764522
 11
-772.307886
 21
582.764522
  0
LINE
  8
0
 62
     7
  6
CONTINUOUS
 10
-719.983194
 20
472.764522
 11
-772.307886
 21
472.764522
  0
LINE
  8
0
 62
     7
  6
CONTINUOUS
 10
-762.307886
 20
582.764522
 11
-762.307886
 21
472.764522
  0
SOLID
  8
0
 62
     7
 10
-753.536735
 20
554.075379
 11
-771.079037
 21
554.075379
 12
-762.307886
 22
582.764522
 13
-762.307886
 23
582.764522
  0
SOLID
  8
0
 62
     7
 10
-771.079037
 20
501.453664
 11
-753.536735
 21
501.453664
 12
-762.307886
 22
472.764522
 13
-762.307886
 23
472.764522
  0
TEXT
  8
0
 62
     7
 10
-767.641216
 20
511.764522
 40
32.000000
 50
90.000000
 41
0.86 
  1
Ａ
 72
     5
 11
-767.641216
 21
543.764522
  0
ENDBLK
  0
BLOCK
  8
0
  2
G45
 70
     0
 10
0
 20
0
  0
LINE
  8
0
 62
     2
  6
CONTINUOUS
 10
-644.983194
 20
579.764522
 11
-704.983194
 21
579.764522
  0
LINE
  8
0
 62
     2
  6
CONTINUOUS
 10
-704.983194
 20
475.764522
 11
-644.983194
 21
475.764522
  0
LINE
  8
0
 62
     2
  6
CONTINUOUS
 10
-704.983194
 20
582.764522
 11
-709.983194
 21
582.764522
  0
LINE
  8
0
 62
     2
  6
CONTINUOUS
 10
-704.983194
 20
472.764522
 11
-709.983194
 21
472.764522
  0
LINE
  8
0
 62
     2
  6
CONTINUOUS
 10
-704.983194
 20
472.764522
 11
-704.983194
 21
582.764522
  0
LINE
  8
0
 62
     2
  6
CONTINUOUS
 10
-709.983194
 20
472.764522
 11
-709.983194
 21
582.764522
  0
ENDBLK
  0
BLOCK
  8
0
  2
G46
 70
     0
 10
0
 20
0
  0
LINE
  8
0
 62
     7
  6
CONTINUOUS
 10
-379.983194
 20
582.764522
 11
-327.658502
 21
582.764522
  0
LINE
  8
0
 62
     7
  6
CONTINUOUS
 10
-379.983194
 20
472.764522
 11
-327.658502
 21
472.764522
  0
LINE
  8
0
 62
     7
  6
CONTINUOUS
 10
-337.658502
 20
582.764522
 11
-337.658502
 21
472.764522
  0
SOLID
  8
0
 62
     7
 10
-328.887351
 20
554.075379
 11
-346.429653
 21
554.075379
 12
-337.658502
 22
582.764522
 13
-337.658502
 23
582.764522
  0
SOLID
  8
0
 62
     7
 10
-346.429653
 20
501.453664
 11
-328.887351
 21
501.453664
 12
-337.658502
 22
472.764522
 13
-337.658502
 23
472.764522
  0
TEXT
  8
0
 62
     7
 10
-342.991832
 20
511.764522
 40
32.000000
 50
90.000000
 41
0.86 
  1
Ａ
 72
     5
 11
-342.991832
 21
543.764522
  0
ENDBLK
  0
BLOCK
  8
0
  2
G47
 70
     0
 10
0
 20
0
  0
LINE
  8
0
 62
     2
  6
CONTINUOUS
 10
-389.983194
 20
472.764522
 11
-389.983194
 21
582.764522
  0
LINE
  8
0
 62
     2
  6
CONTINUOUS
 10
-394.983194
 20
472.764522
 11
-394.983194
 21
582.764522
  0
LINE
  8
0
 62
     2
  6
CONTINUOUS
 10
-394.983194
 20
472.764522
 11
-389.983194
 21
472.764522
  0
LINE
  8
0
 62
     2
  6
CONTINUOUS
 10
-394.983194
 20
582.764522
 11
-389.983194
 21
582.764522
  0
LINE
  8
0
 62
     2
  6
CONTINUOUS
 10
-394.983194
 20
475.764522
 11
-454.983194
 21
475.764522
  0
LINE
  8
0
 62
     2
  6
CONTINUOUS
 10
-454.983194
 20
579.764522
 11
-394.983194
 21
579.764522
  0
ENDBLK
  0
ENDSEC
  0
SECTION
  2
ENTITIES
  0
LINE
  8
3
 62
     4
  6
CONTINUOUS
 10
-1510.539450
 20
-186.482684
 11
-1506.994801
 21
-184.763737
  0
LINE
  8
3
 62
     4
  6
CONTINUOUS
 10
-1506.994801
 20
-184.763737
 11
-1503.590333
 21
-181.843725
  0
LINE
  8
3
 62
     4
  6
CONTINUOUS
 10
-1503.590333
 20
-181.843725
 11
-1500.396804
 21
-177.783333
  0
LINE
  8
3
 62
     4
  6
CONTINUOUS
 10
-1500.396804
 20
-177.783333
 11
-1497.480582
 21
-172.666949
  0
LINE
  8
3
 62
     4
  6
CONTINUOUS
 10
-1497.480582
 20
-172.666949
 11
-1494.902277
 21
-166.600907
  0
LINE
  8
3
 62
     4
  6
CONTINUOUS
 10
-1494.902277
 20
-166.600907
 11
-1492.715473
 21
-159.711277
  0
LINE
  8
3
 62
     4
  6
CONTINUOUS
 10
-1492.715473
 20
-159.711277
 11
-1490.965617
 21
-152.141246
  0
LINE
  8
3
 62
     4
  6
CONTINUOUS
 10
-1490.965617
 20
-152.141246
 11
-1489.689079
 21
-144.048142
  0
LINE
  8
3
 62
     4
  6
CONTINUOUS
 10
-1489.689079
 20
-144.048142
 11
-1488.912387
 21
-135.600163
  0
LINE
  8
3
 62
     4
  6
CONTINUOUS
 10
-1488.912387
 20
-135.600163
 11
-1488.651683
 21
-126.972883
  0
LINE
  8
3
 62
     4
  6
CONTINUOUS
 10
-1488.912387
 20
-135.600163
 11
-1488.651683
 21
-126.972883
  0
ARC
  8
1
 62
     4
  6
CONTINUOUS
 10
-1321.938544
 20
-92.212691
 40
30.639745
 50
117.551999
 51
146.346996
  0
POINT
  8
3
 62
     7
 10
-1341.739862
 20
-66.972883
  0
POINT
  8
3
 62
     4
 10
-1341.739862
 20
-188.972883
  0
ARC
  8
3
 62
     4
  6
CONTINUOUS
 10
-1338.739862
 20
-191.972883
 40
3.000000
 50
90.000000
 51
180.000000
  0
LINE
  8
3
 62
     4
  6
CONTINUOUS
 10
-1334.739862
 20
-188.972883
 11
-1338.739862
 21
-188.972883
  0
ARC
  8
3
 62
     4
  6
CONTINUOUS
 10
-1334.739862
 20
-186.972883
 40
2.000000
 50
-90.000000
 51
0.000000E+00
  0
LINE
  8
3
 62
     4
  6
CONTINUOUS
 10
-1332.739862
 20
-186.972883
 11
-1332.739862
 21
-66.972883
  0
ARC
  8
3
 62
     4
  6
CONTINUOUS
 10
-1334.739862
 20
-66.972883
 40
2.000000
 50
0.000000E+00
 51
90.000000
  0
LINE
  8
3
 62
     4
  6
CONTINUOUS
 10
-1494.893237
 20
-81.972883
 11
-1427.739862
 21
-81.972883
  0
LINE
  8
0
 62
     2
  6
CONTINUOUS
 10
-1525.739862
 20
-31.471285
 11
-1525.739862
 21
-29.471285
  0
LINE
  8
0
 62
     2
  6
CONTINUOUS
 10
-1532.739862
 20
-28.471285
 11
-1427.739862
 21
-28.471285
  0
LINE
  8
0
 62
     2
  6
CONTINUOUS
 10
-1525.739862
 20
-31.471285
 11
-1329.739862
 21
-31.471285
  0
LINE
  8
0
 62
     2
  6
CONTINUOUS
 10
-1532.739862
 20
-28.471285
 11
-1532.739862
 21
-20.471285
  0
LINE
  8
0
 62
     3
  6
CONTINUOUS
 10
-1341.739862
 20
238.027117
 11
-1341.739862
 21
248.786486
  0
LINE
  8
3
 62
     3
  6
CONTINUOUS
 10
-1352.739862
 20
433.027117
 11
-1427.739862
 21
433.027117
  0
LINE
  8
3
 62
     3
  6
CONTINUOUS
 10
-1502.739862
 20
438.027117
 11
-1352.739862
 21
438.027117
  0
LINE
  8
3
 62
     3
  6
CONTINUOUS
 10
-1502.739862
 20
438.027117
 11
-1502.739862
 21
433.027117
  0
LINE
  8
0
 62
     3
  6
CONTINUOUS
 10
-1341.739862
 20
108.027117
 11
-1341.739862
 21
-13.471285
  0
INSERT
  8
0
  2
G0
 10
0
 20
0
  0
ARC
  8
3
 62
     3
  6
CONTINUOUS
 10
-1365.739862
 20
361.027117
 40
10.000000
 50
-57.472862
 51
0.000000E+00
  0
LINE
  8
3
 62
     3
  6
CONTINUOUS
 10
-1499.739862
 20
428.444541
 11
-1499.739862
 21
361.027117
  0
LINE
  8
3
 62
     3
  6
CONTINUOUS
 10
-1355.739862
 20
428.444541
 11
-1355.739862
 21
361.027117
  0
ARC
  8
3
 62
     3
  6
CONTINUOUS
 10
-1489.739862
 20
361.027117
 40
10.000000
 50
180.000000
 51
238.038250
  0
LINE
  8
3
 62
     3
  6
CENTER
 10
-1261.806156
 20
173.027117
 11
-1529.665810
 21
173.027117
  0
LINE
  8
0
 62
     2
  6
CONTINUOUS
 10
-1329.739862
 20
-13.471285
 11
-1322.739862
 21
-20.471285
  0
ARC
  8
3
 62
     3
  6
CONTINUOUS
 10
-1504.739862
 20
428.444541
 40
5.000000
 50
0.000000E+00
 51
66.421822
  0
LINE
  8
3
 62
     3
  6
CONTINUOUS
 10
-1352.739862
 20
438.027117
 11
-1352.739862
 21
433.027117
  0
ARC
  8
0
 62
     3
  6
CONTINUOUS
 10
-1376.739862
 20
248.786486
 40
35.000000
 50
0.000000E+00
 51
17.716492
  0
ARC
  8
3
 62
     3
  6
CONTINUOUS
 10
-1350.739862
 20
428.444541
 40
5.000000
 50
113.578178
 51
180.000000
  0
LINE
  8
3
 62
     3
  6
CONTINUOUS
 10
-1350.000839
 20
255.903002
 11
-1427.739862
 21
255.903002
  0
ARC
  8
1
 62
     4
  6
CONTINUOUS
 10
-1334.739862
 20
-186.972883
 40
2.000000
 50
-90.000000
 51
0.000000E+00
  0
ARC
  8
1
 62
     4
  6
CONTINUOUS
 10
-1334.739862
 20
-66.972883
 40
2.000000
 50
0.000000E+00
 51
90.000000
  0
LINE
  8
1
 62
     4
  6
CONTINUOUS
 10
-1332.739862
 20
-66.972883
 11
-1332.739862
 21
-186.972883
  0
ARC
  8
3
 62
     4
  6
CONTINUOUS
 10
-1507.739862
 20
-400.844795
 40
25.000000
 50
0.000000E+00
 51
14.708304
  0
LINE
  8
3
 62
     4
  6
CONTINUOUS
 10
-1512.592945
 20
-281.987407
 11
-1483.559088
 21
-394.497342
  0
ARC
  8
3
 62
     4
  6
CONTINUOUS
 10
-1478.739862
 20
-273.100972
 40
35.000000
 50
180.000000
 51
194.708304
  0
LINE
  8
3
 62
     4
  6
CONTINUOUS
 10
-1482.739862
 20
-400.844795
 11
-1482.739862
 21
-544.972883
  0
ARC
  8
3
 62
     4
  6
CONTINUOUS
 10
-1347.739862
 20
-400.844795
 40
25.000000
 50
165.291696
 51
180.000000
  0
LINE
  8
3
 62
     4
  6
CONTINUOUS
 10
-1342.886778
 20
-281.987407
 11
-1371.920636
 21
-394.497342
  0
ARC
  8
3
 62
     4
  6
CONTINUOUS
 10
-1376.739862
 20
-273.100972
 40
35.000000
 50
-14.708304
 51
0.000000E+00
  0
LINE
  8
3
 62
     4
  6
CONTINUOUS
 10
-1372.739862
 20
-400.844795
 11
-1372.739862
 21
-544.972883
  0
LINE
  8
3
 62
     4
  6
CONTINUOUS
 10
-1374.739862
 20
-546.972883
 11
-1480.739862
 21
-546.972883
  0
LINE
  8
3
 62
     4
  6
CONTINUOUS
 10
-1477.990773
 20
-396.972883
 11
-1377.488951
 21
-396.972883
  0
LINE
  8
3
 62
     4
  6
CONTINUOUS
 10
-1508.488951
 20
-276.972883
 11
-1346.990773
 21
-276.972883
  0
LINE
  8
3
 62
     4
  6
CONTINUOUS
 10
-1513.739862
 20
-276.972883
 11
-1513.739862
 21
-191.972883
  0
LINE
  8
3
 62
     4
  6
CONTINUOUS
 10
-1334.739862
 20
-56.273521
 11
-1520.739862
 21
-56.273521
  0
LINE
  8
3
 62
     4
  6
CONTINUOUS
 10
-1341.739862
 20
-273.100972
 11
-1341.739862
 21
-191.972883
  0
LINE
  8
3
 62
     4
  6
CONTINUOUS
 10
-1531.739862
 20
-46.972883
 11
-1323.739862
 21
-46.972883
  0
LINE
  8
3
 62
     4
  6
CONTINUOUS
 10
-1322.739862
 20
-31.972883
 11
-1532.739862
 21
-31.972883
  0
ARC
  8
3
 62
     4
  6
CONTINUOUS
 10
-1480.739862
 20
-544.972883
 40
2.000000
 50
180.000000
 51
270.000000
  0
ARC
  8
3
 62
     4
  6
CONTINUOUS
 10
-1374.739862
 20
-544.972883
 40
2.000000
 50
-90.000000
 51
0.000000E+00
  0
LINE
  8
3
 62
     4
  6
CONTINUOUS
 10
-1322.739862
 20
-31.972883
 11
-1322.739862
 21
-46.972883
  0
LINE
  8
3
 62
     4
  6
CONTINUOUS
 10
-1323.739862
 20
-46.972883
 11
-1322.739862
 21
-46.972883
  0
LINE
  8
3
 62
     3
  6
CENTER
 10
-1506.228714
 20
-55.916452
 11
-1506.228714
 21
-25.425681
  0
LINE
  8
3
 62
     3
  6
CENTER
 10
-1349.251009
 20
-55.916452
 11
-1349.251009
 21
-25.425681
  0
ARC
  8
3
 62
     4
  6
CONTINUOUS
 10
-1323.739862
 20
-48.972883
 40
2.000000
 50
90.000000
 51
180.000000
  0
LINE
  8
3
 62
     4
  6
CONTINUOUS
 10
-1325.739862
 20
-48.972883
 11
-1325.739862
 21
-50.472883
  0
LINE
  8
3
 62
     4
  6
CONTINUOUS
 10
-1360.586486
 20
-81.972883
 11
-1427.739862
 21
-81.972883
  0
ARC
  8
3
 62
     4
  6
CONTINUOUS
 10
-1327.239862
 20
-50.472883
 40
1.500000
 50
-90.000000
 51
0.000000E+00
  0
LINE
  8
3
 62
     4
  6
CONTINUOUS
 10
-1327.239862
 20
-51.972883
 11
-1528.239862
 21
-51.972883
  0
LINE
  8
3
 62
     4
  6
CONTINUOUS
 10
-1331.180713
 20
-51.972883
 11
-1334.739862
 21
-56.273521
  0
LINE
  8
3
 62
     4
  6
CONTINUOUS
 10
-1334.739862
 20
-56.273521
 11
-1334.739862
 21
-64.972883
  0
LINE
  8
3
 62
     4
  6
CONTINUOUS
 10
-1520.739862
 20
-56.273521
 11
-1520.739862
 21
-64.972883
  0
LINE
  8
3
 62
     4
  6
CONTINUOUS
 10
-1524.299010
 20
-51.972883
 11
-1520.739862
 21
-56.273521
  0
ARC
  8
3
 62
     4
  6
CONTINUOUS
 10
-1528.239862
 20
-50.472883
 40
1.500000
 50
180.000000
 51
270.000000
  0
LINE
  8
3
 62
     4
  6
CONTINUOUS
 10
-1529.739862
 20
-48.972883
 11
-1529.739862
 21
-50.472883
  0
ARC
  8
3
 62
     4
  6
CONTINUOUS
 10
-1531.739862
 20
-48.972883
 40
2.000000
 50
0.000000E+00
 51
90.000000
  0
LINE
  8
3
 62
     4
  6
CONTINUOUS
 10
-1531.739862
 20
-46.972883
 11
-1532.739862
 21
-46.972883
  0
LINE
  8
3
 62
     4
  6
CONTINUOUS
 10
-1532.739862
 20
-31.972883
 11
-1532.739862
 21
-46.972883
  0
LINE
  8
0
 62
     3
  6
CONTINUOUS
 10
-1513.739862
 20
248.786486
 11
-1513.739862
 21
238.027117
  0
ARC
  8
0
 62
     3
  6
CONTINUOUS
 10
-1478.739862
 20
248.786486
 40
35.000000
 50
162.283508
 51
180.000000
  0
LINE
  8
3
 62
     3
  6
CONTINUOUS
 10
-1366.769878
 20
352.543100
 11
-1427.739862
 21
352.543100
  0
LINE
  8
0
 62
     3
  6
CONTINUOUS
 10
-1488.493178
 20
334.836132
 11
-1512.079949
 21
259.437240
  0
LINE
  8
0
 62
     3
  6
CONTINUOUS
 10
-1366.986545
 20
334.836132
 11
-1343.399774
 21
259.437240
  0
ARC
  8
2
 62
     3
  6
CONTINUOUS
 10
-1502.781787
 20
339.400741
 40
15.000000
 50
-17.716492
 51
59.888987
  0
LINE
  8
3
 62
     4
  6
CENTER
 10
-1427.739862
 20
-319.368262
 11
-1427.739862
 21
-7.290674
  0
LINE
  8
3
 62
     4
  6
CENTER
 10
-1427.739862
 20
-560.060403
 11
-1427.739862
 21
-319.368262
  0
LINE
  8
0
 62
     2
  6
CONTINUOUS
 10
-1525.739862
 20
-13.471285
 11
-1532.739862
 21
-20.471285
  0
LINE
  8
0
 62
     3
  6
CONTINUOUS
 10
-1513.739862
 20
108.027117
 11
-1513.739862
 21
-13.471285
  0
ARC
  8
2
 62
     3
  6
CONTINUOUS
 10
-1352.697936
 20
339.400741
 40
15.000000
 50
120.111013
 51
197.716492
  0
LINE
  8
3
 62
     3
  6
CONTINUOUS
 10
-1344.384056
 20
113.387137
 11
-1348.271706
 21
115.232300
  0
LINE
  8
3
 62
     3
  6
CONTINUOUS
 10
-1348.271706
 20
115.232300
 11
-1351.986868
 21
118.597538
  0
LINE
  8
3
 62
     3
  6
CONTINUOUS
 10
-1351.986868
 20
118.597538
 11
-1355.431827
 21
123.394342
  0
LINE
  8
3
 62
     3
  6
CONTINUOUS
 10
-1355.431827
 20
123.394342
 11
-1358.515977
 21
129.496551
  0
LINE
  8
3
 62
     3
  6
CONTINUOUS
 10
-1358.515977
 20
129.496551
 11
-1361.158201
 21
136.743668
  0
LINE
  8
3
 62
     3
  6
CONTINUOUS
 10
-1361.158201
 20
136.743668
 11
-1363.289005
 21
144.945085
  0
LINE
  8
3
 62
     3
  6
CONTINUOUS
 10
-1363.289005
 20
144.945085
 11
-1364.852346
 21
153.885095
  0
LINE
  8
3
 62
     3
  6
CONTINUOUS
 10
-1364.852346
 20
153.885095
 11
-1365.807106
 21
163.328564
  0
LINE
  8
3
 62
     3
  6
CONTINUOUS
 10
-1365.807106
 20
163.328564
 11
-1366.128174
 21
173.027117
  0
LINE
  8
3
 62
     3
  6
CONTINUOUS
 10
-1365.807106
 20
163.328564
 11
-1366.128174
 21
173.027117
  0
INSERT
  8
0
  2
G1
 10
0
 20
0
  0
LINE
  8
3
 62
     3
  6
CONTINUOUS
 10
-1343.926165
 20
232.780203
 11
-1347.487459
 21
231.325073
  0
LINE
  8
3
 62
     3
  6
CONTINUOUS
 10
-1347.487459
 20
231.325073
 11
-1350.922502
 21
228.595239
  0
LINE
  8
3
 62
     3
  6
CONTINUOUS
 10
-1350.922502
 20
228.595239
 11
-1354.156188
 21
224.650390
  0
LINE
  8
3
 62
     3
  6
CONTINUOUS
 10
-1354.156188
 20
224.650390
 11
-1357.117811
 21
219.576782
  0
LINE
  8
3
 62
     3
  6
CONTINUOUS
 10
-1357.117811
 20
219.576782
 11
-1359.742613
 21
213.485350
  0
LINE
  8
3
 62
     3
  6
CONTINUOUS
 10
-1359.742613
 20
213.485350
 11
-1361.973203
 21
206.509286
  0
LINE
  8
3
 62
     3
  6
CONTINUOUS
 10
-1361.973203
 20
206.509286
 11
-1363.760808
 21
198.801123
  0
LINE
  8
3
 62
     3
  6
CONTINUOUS
 10
-1363.760808
 20
198.801123
 11
-1365.066341
 21
190.529404
  0
LINE
  8
3
 62
     3
  6
CONTINUOUS
 10
-1365.066341
 20
190.529404
 11
-1365.861257
 21
181.874991
  0
LINE
  8
3
 62
     3
  6
CONTINUOUS
 10
-1365.861257
 20
181.874991
 11
-1366.128174
 21
173.027117
  0
LINE
  8
3
 62
     3
  6
CONTINUOUS
 10
-1365.861257
 20
181.874991
 11
-1366.128174
 21
173.027117
  0
TEXT
  8
0
 62
     7
 10
-1313.885785
 20
287.847523
 40
32.000000
 50
0.000000E+00
 41
0.78 
  1
７５枝管
 72
     5
 11
-1201.885785
 21
287.847523
  0
INSERT
  8
0
  2
G2
 10
0
 20
0
  0
LINE
  8
0
 62
     3
  6
CONTINUOUS
 10
-1522.739862
 20
233.027117
 11
-1522.739862
 21
113.027117
  0
LINE
  8
0
 62
     3
  6
CONTINUOUS
 10
-414.669023
 20
587.137789
 11
-414.669023
 21
844.914139
  0
SOLID
  8
0
 62
     3
 10
-422.433594
 20
616.115564
 11
-406.904452
 21
616.115564
 12
-414.669023
 22
587.137789
 13
-414.669023
 23
587.137789
  0
TEXT
  8
0
 62
     6
 10
-1297.933805
 20
1169.451072
 40
32.000000
 50
0.000000E+00
 41
0.86 
  1
ａ
 72
     5
 11
-1265.933805
 21
1169.451072
  0
INSERT
  8
0
  2
G3
 10
0
 20
0
  0
LINE
  8
0
 62
     7
  6
CONTINUOUS
 10
-1280.260304
 20
279.111644
 11
-1280.260304
 21
237.327305
  0
SOLID
  8
0
 62
     7
 10
-1288.024875
 20
266.305080
 11
-1272.495733
 21
266.305080
 12
-1280.260304
 22
237.327305
 13
-1280.260304
 23
237.327305
  0
LINE
  8
3
 62
     4
  6
CONTINUOUS
 10
-1496.278439
 20
-83.890495
 11
-1494.746424
 21
-87.772664
  0
LINE
  8
3
 62
     4
  6
CONTINUOUS
 10
-1494.746424
 20
-87.772664
 11
-1493.364750
 21
-91.965120
  0
LINE
  8
3
 62
     4
  6
CONTINUOUS
 10
-1493.364750
 20
-91.965120
 11
-1492.144354
 21
-96.434677
  0
LINE
  8
3
 62
     4
  6
CONTINUOUS
 10
-1492.144354
 20
-96.434677
 11
-1491.094895
 21
-101.145956
  0
LINE
  8
3
 62
     4
  6
CONTINUOUS
 10
-1491.094895
 20
-101.145956
 11
-1490.224681
 21
-106.061667
  0
LINE
  8
3
 62
     4
  6
CONTINUOUS
 10
-1490.224681
 20
-106.061667
 11
-1489.540599
 21
-111.142898
  0
LINE
  8
3
 62
     4
  6
CONTINUOUS
 10
-1489.540599
 20
-111.142898
 11
-1489.048064
 21
-116.349430
  0
LINE
  8
3
 62
     4
  6
CONTINUOUS
 10
-1489.048064
 20
-116.349430
 11
-1488.750975
 21
-121.640051
  0
LINE
  8
3
 62
     4
  6
CONTINUOUS
 10
-1488.750975
 20
-121.640051
 11
-1488.651683
 21
-126.972883
  0
LINE
  8
3
 62
     4
  6
CONTINUOUS
 10
-1488.750975
 20
-121.640051
 11
-1488.651683
 21
-126.972883
  0
ARC
  8
3
 62
     4
  6
CONTINUOUS
 10
-1487.868044
 20
-55.024384
 40
28.500781
 50
225.057601
 51
244.512889
  0
POINT
  8
3
 62
     7
 10
-1513.739862
 20
-66.972883
  0
ARC
  8
3
 62
     4
  6
CONTINUOUS
 10
-1367.611679
 20
-55.024384
 40
28.500781
 50
295.487111
 51
314.942399
  0
ARC
  8
1
 62
     4
  6
CONTINUOUS
 10
-1520.739862
 20
-186.972883
 40
2.000000
 50
180.000000
 51
270.000000
  0
ARC
  8
1
 62
     4
  6
CONTINUOUS
 10
-1520.739862
 20
-66.972883
 40
2.000000
 50
90.000000
 51
180.000000
  0
ARC
  8
1
 62
     4
  6
CONTINUOUS
 10
-1516.739862
 20
-191.972883
 40
3.000000
 50
0.000000E+00
 51
90.000000
  0
LINE
  8
1
 62
     4
  6
CONTINUOUS
 10
-1516.739862
 20
-188.972883
 11
-1520.739862
 21
-188.972883
  0
ARC
  8
1
 62
     4
  6
CONTINUOUS
 10
-1533.541179
 20
-92.212691
 40
30.639745
 50
33.671563
 51
62.448001
  0
LINE
  8
1
 62
     4
  6
CONTINUOUS
 10
-1522.739862
 20
-66.972883
 11
-1522.739862
 21
-186.972883
  0
LINE
  8
3
 62
     4
  6
CONTINUOUS
 10
-1359.201285
 20
-83.890495
 11
-1360.586672
 21
-87.369957
  0
LINE
  8
3
 62
     4
  6
CONTINUOUS
 10
-1360.586672
 20
-87.369957
 11
-1361.851208
 21
-91.103366
  0
LINE
  8
3
 62
     4
  6
CONTINUOUS
 10
-1361.851208
 20
-91.103366
 11
-1362.986785
 21
-95.066780
  0
LINE
  8
3
 62
     4
  6
CONTINUOUS
 10
-1362.986785
 20
-95.066780
 11
-1363.986120
 21
-99.234785
  0
LINE
  8
3
 62
     4
  6
CONTINUOUS
 10
-1363.986120
 20
-99.234785
 11
-1364.842805
 21
-103.580655
  0
LINE
  8
3
 62
     4
  6
CONTINUOUS
 10
-1364.842805
 20
-103.580655
 11
-1365.551348
 21
-108.076523
  0
LINE
  8
3
 62
     4
  6
CONTINUOUS
 10
-1365.551348
 20
-108.076523
 11
-1366.107205
 21
-112.693560
  0
LINE
  8
3
 62
     4
  6
CONTINUOUS
 10
-1366.107205
 20
-112.693560
 11
-1366.506811
 21
-117.402159
  0
LINE
  8
3
 62
     4
  6
CONTINUOUS
 10
-1366.506811
 20
-117.402159
 11
-1366.747604
 21
-122.172130
  0
LINE
  8
3
 62
     4
  6
CONTINUOUS
 10
-1366.747604
 20
-122.172130
 11
-1366.828040
 21
-126.972883
  0
LINE
  8
3
 62
     4
  6
CONTINUOUS
 10
-1366.747604
 20
-122.172130
 11
-1366.828040
 21
-126.972883
  0
LINE
  8
3
 62
     4
  6
CONTINUOUS
 10
-1344.940273
 20
-186.482684
 11
-1348.484923
 21
-184.763737
  0
LINE
  8
3
 62
     4
  6
CONTINUOUS
 10
-1348.484923
 20
-184.763737
 11
-1351.889390
 21
-181.843725
  0
LINE
  8
3
 62
     4
  6
CONTINUOUS
 10
-1351.889390
 20
-181.843725
 11
-1355.082920
 21
-177.783333
  0
LINE
  8
3
 62
     4
  6
CONTINUOUS
 10
-1355.082920
 20
-177.783333
 11
-1357.999141
 21
-172.666949
  0
LINE
  8
3
 62
     4
  6
CONTINUOUS
 10
-1357.999141
 20
-172.666949
 11
-1360.577446
 21
-166.600907
  0
LINE
  8
3
 62
     4
  6
CONTINUOUS
 10
-1360.577446
 20
-166.600907
 11
-1362.764251
 21
-159.711277
  0
LINE
  8
3
 62
     4
  6
CONTINUOUS
 10
-1362.764251
 20
-159.711277
 11
-1364.514106
 21
-152.141246
  0
LINE
  8
3
 62
     4
  6
CONTINUOUS
 10
-1364.514106
 20
-152.141246
 11
-1365.790645
 21
-144.048142
  0
LINE
  8
3
 62
     4
  6
CONTINUOUS
 10
-1365.790645
 20
-144.048142
 11
-1366.567337
 21
-135.600163
  0
LINE
  8
3
 62
     4
  6
CONTINUOUS
 10
-1366.567337
 20
-135.600163
 11
-1366.828040
 21
-126.972883
  0
LINE
  8
3
 62
     4
  6
CONTINUOUS
 10
-1366.567337
 20
-135.600163
 11
-1366.828040
 21
-126.972883
  0
POINT
  8
0
 62
     3
 10
-1427.739862
 20
-39.972883
  0
POINT
  8
0
 62
     3
 10
-1427.739862
 20
-54.472883
  0
POINT
  8
0
 62
     3
 10
-1427.739862
 20
-76.972883
  0
ARC
  8
0
 62
     2
  6
CONTINUOUS
 10
-1526.739862
 20
-29.471285
 40
1.000000
 50
360.000000
 51
450.000000
  0
LINE
  8
0
 62
     2
  6
CONTINUOUS
 10
-1525.739862
 20
-13.471285
 11
-1329.739862
 21
-13.471285
  0
LINE
  8
3
 62
     3
  6
CONTINUOUS
 10
-1272.739862
 20
110.527117
 11
-1272.739862
 21
233.027117
  0
LINE
  8
3
 62
     3
  6
CONTINUOUS
 10
-1272.739862
 20
110.527117
 11
-1267.739862
 21
110.527117
  0
LINE
  8
3
 62
     3
  6
CONTINUOUS
 10
-1272.739862
 20
233.027117
 11
-1332.739862
 21
233.027117
  0
ARC
  8
1
 62
     3
  6
CONTINUOUS
 10
-1334.739862
 20
113.027117
 40
2.000000
 50
-90.000000
 51
0.000000E+00
  0
LINE
  8
3
 62
     3
  6
CONTINUOUS
 10
-1272.739862
 20
113.027117
 11
-1332.739862
 21
113.027117
  0
LINE
  8
3
 62
     3
  6
CONTINUOUS
 10
-1272.739862
 20
235.527117
 11
-1267.739862
 21
235.527117
  0
LINE
  8
3
 62
     3
  6
CONTINUOUS
 10
-1272.739862
 20
235.527117
 11
-1272.739862
 21
233.027117
  0
LINE
  8
3
 62
     3
  6
CONTINUOUS
 10
-1267.739862
 20
235.527117
 11
-1267.739862
 21
110.527117
  0
LINE
  8
1
 62
     3
  6
CONTINUOUS
 10
-1334.739862
 20
235.027117
 11
-1338.739862
 21
235.027117
  0
LINE
  8
1
 62
     3
  6
CONTINUOUS
 10
-1334.739862
 20
111.027117
 11
-1338.739862
 21
111.027117
  0
ARC
  8
1
 62
     3
  6
CONTINUOUS
 10
-1334.739862
 20
233.027117
 40
2.000000
 50
0.000000E+00
 51
90.000000
  0
ARC
  8
1
 62
     3
  6
CONTINUOUS
 10
-1338.739862
 20
238.027117
 40
3.000000
 50
180.000000
 51
270.000000
  0
ARC
  8
1
 62
     3
  6
CONTINUOUS
 10
-1338.739862
 20
108.027117
 40
3.000000
 50
90.000000
 51
180.000000
  0
ARC
  8
0
 62
     3
  6
CONTINUOUS
 10
-1376.739862
 20
248.786486
 40
35.000000
 50
0.000000E+00
 51
17.716492
  0
LINE
  8
0
 62
     3
  6
CONTINUOUS
 10
-1341.739862
 20
248.786486
 11
-1341.739862
 21
238.027117
  0
LINE
  8
0
 62
     2
  6
CONTINUOUS
 10
-1532.739862
 20
-20.471285
 11
-1427.739862
 21
-20.471285
  0
LINE
  8
3
 62
     3
  6
CENTER
 10
-1427.739862
 20
445.501565
 11
-1427.739862
 21
-7.290674
  0
LINE
  8
3
 62
     3
  6
CONTINUOUS
 10
-1505.478884
 20
255.903002
 11
-1427.739862
 21
255.903002
  0
LINE
  8
3
 62
     3
  6
CONTINUOUS
 10
-1488.709846
 20
352.543100
 11
-1427.739862
 21
352.543100
  0
LINE
  8
3
 62
     3
  6
CONTINUOUS
 10
-1502.739862
 20
433.027117
 11
-1427.739862
 21
433.027117
  0
POINT
  8
0
 62
     3
 10
-1427.739862
 20
363.027117
  0
TEXT
  8
0
 62
     6
 10
-1663.166393
 20
1078.812443
 40
35.000000
 50
0.000000E+00
 41
0.73 
  1
４ＳＦ－　　　－　　　　　　０　　　　　－Ｐ
 72
     5
 11
-1026.166393
 21
1078.812443
  0
INSERT
  8
0
  2
G4
 10
0
 20
0
  0
LINE
  8
0
 62
     1
  6
CONTINUOUS
 10
-644.983194
 20
462.125706
 11
-644.983194
 21
371.139775
  0
LINE
  8
0
 62
     2
  6
CONTINUOUS
 10
-1322.739862
 20
-28.471285
 11
-1322.739862
 21
-20.471285
  0
LINE
  8
0
 62
     2
  6
CONTINUOUS
 10
-1329.739862
 20
-31.471285
 11
-1329.739862
 21
-29.471285
  0
ARC
  8
0
 62
     2
  6
CONTINUOUS
 10
-1328.739862
 20
-29.471285
 40
1.000000
 50
90.000000
 51
180.000000
  0
LINE
  8
0
 62
     2
  6
CONTINUOUS
 10
-1322.739862
 20
-20.471285
 11
-1427.739862
 21
-20.471285
  0
LINE
  8
0
 62
     2
  6
CONTINUOUS
 10
-1322.739862
 20
-28.471285
 11
-1427.739862
 21
-28.471285
  0
INSERT
  8
0
  2
G5
 10
0
 20
0
  0
TEXT
  8
0
 62
     6
 10
-1144.933805
 20
1169.451072
 40
32.000000
 50
0.000000E+00
 41
0.86 
  1
ｃ
 72
     5
 11
-1112.933805
 21
1169.451072
  0
INSERT
  8
0
  2
G6
 10
0
 20
0
  0
LINE
  8
0
 62
     1
  6
CONTINUOUS
 10
-654.983194
 20
740.507271
 11
-654.983194
 21
811.139775
  0
INSERT
  8
0
  2
G7
 10
0
 20
0
  0
INSERT
  8
0
  2
G8
 10
0
 20
0
  0
INSERT
  8
0
  2
G9
 10
0
 20
0
  0
INSERT
  8
0
  2
G10
 10
0
 20
0
  0
INSERT
  8
0
  2
G11
 10
0
 20
0
  0
LINE
  8
0
 62
     1
  6
CONTINUOUS
 10
-1060.662948
 20
173.027117
 11
-1180.662948
 21
173.027117
  0
LINE
  8
0
 62
     1
  6
CONTINUOUS
 10
-1190.662948
 20
173.027117
 11
-1173.786954
 21
173.027117
  0
INSERT
  8
0
  2
G12
 10
0
 20
0
  0
ARC
  8
0
 62
     4
  6
CONTINUOUS
 10
-549.983194
 20
527.764522
 40
100.000000
 50
126.038338
 51
143.961662
  0
ARC
  8
3
 62
     3
  6
CONTINUOUS
 10
-549.983194
 20
527.764522
 40
105.000000
 50
170.096801
 51
190.978618
  0
ARC
  8
0
 62
     4
  6
CONTINUOUS
 10
-549.983194
 20
527.764522
 40
100.000000
 50
36.038338
 51
53.961662
  0
ARC
  8
0
 62
     4
  6
CONTINUOUS
 10
-549.983194
 20
527.764522
 40
100.000000
 50
306.038338
 51
323.961662
  0
CIRCLE
  8
3
 62
     4
  6
CONTINUOUS
 10
-549.983194
 20
527.764522
 40
88.000000
  0
LINE
  8
3
 62
     3
  6
CONTINUOUS
 10
-1511.553558
 20
232.780203
 11
-1507.992265
 21
231.325073
  0
LINE
  8
3
 62
     3
  6
CONTINUOUS
 10
-1507.992265
 20
231.325073
 11
-1504.557221
 21
228.595239
  0
LINE
  8
3
 62
     3
  6
CONTINUOUS
 10
-1504.557221
 20
228.595239
 11
-1501.323535
 21
224.650390
  0
LINE
  8
3
 62
     3
  6
CONTINUOUS
 10
-1501.323535
 20
224.650390
 11
-1498.361913
 21
219.576782
  0
LINE
  8
3
 62
     3
  6
CONTINUOUS
 10
-1498.361913
 20
219.576782
 11
-1495.737110
 21
213.485350
  0
LINE
  8
3
 62
     3
  6
CONTINUOUS
 10
-1495.737110
 20
213.485350
 11
-1493.506520
 21
206.509286
  0
LINE
  8
3
 62
     3
  6
CONTINUOUS
 10
-1493.506520
 20
206.509286
 11
-1491.718916
 21
198.801123
  0
LINE
  8
3
 62
     3
  6
CONTINUOUS
 10
-1491.718916
 20
198.801123
 11
-1490.413382
 21
190.529404
  0
LINE
  8
3
 62
     3
  6
CONTINUOUS
 10
-1490.413382
 20
190.529404
 11
-1489.618466
 21
181.874991
  0
LINE
  8
3
 62
     3
  6
CONTINUOUS
 10
-1489.618466
 20
181.874991
 11
-1489.351549
 21
173.027117
  0
LINE
  8
3
 62
     3
  6
CONTINUOUS
 10
-1489.618466
 20
181.874991
 11
-1489.351549
 21
173.027117
  0
ARC
  8
3
 62
     4
  6
CONTINUOUS
 10
-549.983194
 20
527.764522
 40
100.000000
 50
143.109614
 51
216.890386
  0
LINE
  8
3
 62
     4
  6
CONTINUOUS
 10
-641.234125
 20
608.729129
 11
-653.436822
 21
545.826374
  0
ARC
  8
3
 62
     3
  6
CONTINUOUS
 10
-549.983194
 20
527.764522
 40
105.000000
 50
-10.978618
 51
9.903199
  0
ARC
  8
3
 62
     3
  6
CONTINUOUS
 10
-549.983194
 20
527.764522
 40
105.000000
 50
260.096801
 51
279.903199
  0
LINE
  8
3
 62
     4
  6
CONTINUOUS
 10
-641.234125
 20
446.799915
 11
-653.436822
 21
509.702669
  0
LINE
  8
3
 62
     3
  6
CENTER
 10
-481.271437
 20
459.052765
 11
-460.590261
 21
438.371588
  0
LINE
  8
3
 62
     4
  6
CONTINUOUS
 10
-630.947801
 20
436.513591
 11
-568.045047
 21
424.310894
  0
ARC
  8
3
 62
     4
  6
CENTER
 10
-549.983194
 20
527.764522
 40
111.000000
 50
306.265016
 51
322.275712
  0
LINE
  8
3
 62
     3
  6
CENTER
 10
-617.620725
 20
460.126991
 11
-640.132681
 21
437.615034
  0
ARC
  8
3
 62
     4
  6
CENTER
 10
-549.983194
 20
527.764522
 40
111.000000
 50
216.069475
 51
234.182385
  0
ARC
  8
3
 62
     4
  6
CENTER
 10
-549.983194
 20
527.764522
 40
111.000000
 50
124.449115
 51
144.970079
  0
LINE
  8
3
 62
     4
  6
CONTINUOUS
 10
-469.018587
 20
436.513591
 11
-531.921341
 21
424.310894
  0
LINE
  8
3
 62
     4
  6
CONTINUOUS
 10
-569.979672
 20
630.842846
 11
-630.947801
 21
619.015453
  0
LINE
  8
3
 62
     3
  6
CENTER
 10
-617.974422
 20
595.755750
 11
-639.925122
 21
617.706450
  0
LINE
  8
3
 62
     4
  6
CONTINUOUS
 10
-458.732263
 20
446.799915
 11
-446.904870
 21
507.768044
  0
ARC
  8
3
 62
     4
  6
CONTINUOUS
 10
-471.494341
 20
449.275669
 40
13.000000
 50
280.978618
 51
349.021382
  0
ARC
  8
3
 62
     4
  6
CONTINUOUS
 10
-628.472047
 20
449.275669
 40
13.000000
 50
190.978618
 51
259.021382
  0
ARC
  8
3
 62
     4
  6
CONTINUOUS
 10
-628.472047
 20
606.253374
 40
13.000000
 50
100.978618
 51
169.021382
  0
LINE
  8
3
 62
     3
  6
CENTER
 10
-481.997329
 20
595.750386
 11
-460.256635
 21
617.491080
  0
LINE
  8
3
 62
     4
  6
CONTINUOUS
 10
-458.732263
 20
608.729129
 11
-446.529566
 21
545.826374
  0
LINE
  8
3
 62
     4
  6
CONTINUOUS
 10
-469.018587
 20
619.015453
 11
-529.986716
 21
630.842846
  0
ARC
  8
3
 62
     3
  6
CONTINUOUS
 10
-549.983194
 20
527.764522
 40
105.000000
 50
79.021382
 51
100.978618
  0
CIRCLE
  8
3
 62
     3
  6
CONTINUOUS
 10
-549.983194
 20
527.764522
 40
81.000000
  0
ARC
  8
3
 62
     4
  6
CONTINUOUS
 10
-471.494341
 20
606.253374
 40
13.000000
 50
10.978618
 51
79.021382
  0
LINE
  8
3
 62
     3
  6
CENTER
 10
-718.023256
 20
527.764522
 11
-374.052057
 21
527.764522
  0
LINE
  8
3
 62
     3
  6
CENTER
 10
-549.983194
 20
702.049930
 11
-549.983194
 21
412.487978
  0
CIRCLE
  8
3
 62
     4
  6
CONTINUOUS
 10
-628.472047
 20
606.253374
 40
7.000000
  0
CIRCLE
  8
3
 62
     4
  6
CONTINUOUS
 10
-471.494341
 20
606.253374
 40
7.000000
  0
CIRCLE
  8
3
 62
     4
  6
CONTINUOUS
 10
-471.494341
 20
449.275669
 40
7.000000
  0
CIRCLE
  8
3
 62
     4
  6
CONTINUOUS
 10
-628.472047
 20
449.275669
 40
7.000000
  0
ARC
  8
3
 62
     4
  6
CENTER
 10
-549.983194
 20
527.764522
 40
111.000000
 50
37.018997
 51
55.489571
  0
ARC
  8
3
 62
     4
  6
CONTINUOUS
 10
-549.983194
 20
527.764522
 40
100.000000
 50
53.109614
 51
126.890386
  0
ARC
  8
3
 62
     4
  6
CONTINUOUS
 10
-549.983194
 20
527.764522
 40
100.000000
 50
323.109614
 51
396.890386
  0
ARC
  8
3
 62
     4
  6
CONTINUOUS
 10
-549.983194
 20
527.764522
 40
100.000000
 50
233.109614
 51
306.890386
  0
ARC
  8
0
 62
     4
  6
CONTINUOUS
 10
-549.983194
 20
527.764522
 40
100.000000
 50
216.038338
 51
233.961662
  0
INSERT
  8
0
  2
G13
 10
0
 20
0
  0
INSERT
  8
0
  2
G14
 10
0
 20
0
  0
TEXT
  8
0
 62
     6
 10
-1480.183521
 20
1078.910129
 40
35.000000
 50
0.000000E+00
 41
0.86 
  1
Ａ
 72
     5
 11
-1445.183521
 21
1078.910129
  0
TEXT
  8
0
 62
     6
 10
-1359.509580
 20
1079.910129
 40
35.000000
 50
0.000000E+00
 41
0.86 
  1
Ｄ
 72
     5
 11
-1324.509580
 21
1079.910129
  0
TEXT
  8
0
 62
     6
 10
-1398.009580
 20
1144.959535
 40
32.000000
 50
0.000000E+00
 41
0.97 
  1
下部
 72
     5
 11
-1326.009580
 21
1144.959535
  0
TEXT
  8
0
 62
     6
 10
-1518.009580
 20
1144.959535
 40
32.000000
 50
0.000000E+00
 41
0.97 
  1
上部
 72
     5
 11
-1446.009580
 21
1144.959535
  0
TEXT
  8
0
 62
     6
 10
-1201.933805
 20
1169.451072
 40
32.000000
 50
0.000000E+00
 41
0.86 
  1
ｂ
 72
     5
 11
-1169.933805
 21
1169.451072
  0
CIRCLE
  8
0
 62
     6
  6
HIDDEN
 10
-1186.802953
 20
1093.777279
 40
20.000000
  0
TEXT
  8
0
 62
     6
 10
-1194.802953
 20
1077.777279
 40
32.000000
 50
0.000000E+00
 41
0.50 
  1
2
 72
     5
 11
-1178.802953
 21
1077.777279
  0
CIRCLE
  8
0
 62
     6
  6
HIDDEN
 10
-1186.802953
 20
1141.810698
 40
20.000000
  0
TEXT
  8
0
 62
     6
 10
-1194.802953
 20
1125.810698
 40
32.000000
 50
0.000000E+00
 41
0.50 
  1
1
 72
     5
 11
-1178.802953
 21
1125.810698
  0
TEXT
  8
0
 62
     6
 10
-501.793661
 20
956.134541
 40
32.000000
 50
0.000000E+00
 41
0.50 
  1
3
 72
     5
 11
-485.793661
 21
956.134541
  0
TEXT
  8
0
 62
     6
 10
-501.793661
 20
1016.134541
 40
32.000000
 50
0.000000E+00
 41
0.50 
  1
2
 72
     5
 11
-485.793661
 21
1016.134541
  0
TEXT
  8
0
 62
     6
 10
-501.793661
 20
1076.134541
 40
32.000000
 50
0.000000E+00
 41
0.50 
  1
1
 72
     5
 11
-485.793661
 21
1076.134541
  0
TEXT
  8
0
 62
     6
 10
-470.705692
 20
959.530401
 40
32.000000
 50
0.000000E+00
 41
0.74 
  1
：％％ｃ７５枝管
 72
     5
 11
-258.705692
 21
959.530401
  0
TEXT
  8
0
 62
     6
 10
-470.705692
 20
1019.530401
 40
32.000000
 50
0.000000E+00
 41
0.74 
  1
：％％ｃ６５枝管
 72
     5
 11
-258.705692
 21
1019.530401
  0
TEXT
  8
0
 62
     6
 10
-470.705692
 20
1079.530401
 40
32.000000
 50
0.000000E+00
 41
0.74 
  1
：％％ｃ５０枝管
 72
     5
 11
-258.705692
 21
1079.530401
  0
TEXT
  8
0
 62
     6
 10
-568.581501
 20
1132.505821
 40
32.000000
 50
0.000000E+00
 41
0.97 
  1
枝管のタイプ（呼び径）
 72
     5
 11
-172.581501
 21
1132.505821
  0
LINE
  8
0
 62
     3
  6
CONTINUOUS
 10
-459.951336
 20
205.062037
 11
-202.174986
 21
205.062037
  0
INSERT
  8
0
  2
G15
 10
0
 20
0
  0
LINE
  8
3
 62
     3
  6
CONTINUOUS
 10
-1511.095668
 20
113.387137
 11
-1507.590680
 21
114.978260
  0
LINE
  8
3
 62
     3
  6
CONTINUOUS
 10
-1507.590680
 20
114.978260
 11
-1504.217312
 21
117.806573
  0
LINE
  8
3
 62
     3
  6
CONTINUOUS
 10
-1504.217312
 20
117.806573
 11
-1501.047458
 21
121.811796
  0
LINE
  8
3
 62
     3
  6
CONTINUOUS
 10
-1501.047458
 20
121.811796
 11
-1498.148679
 21
126.908567
  0
LINE
  8
3
 62
     3
  6
CONTINUOUS
 10
-1498.148679
 20
126.908567
 11
-1495.582755
 21
132.988258
  0
LINE
  8
3
 62
     3
  6
CONTINUOUS
 10
-1495.582755
 20
132.988258
 11
-1493.404373
 21
139.921294
  0
LINE
  8
3
 62
     3
  6
CONTINUOUS
 10
-1493.404373
 20
139.921294
 11
-1491.659962
 21
147.559912
  0
LINE
  8
3
 62
     3
  6
CONTINUOUS
 10
-1491.659962
 20
147.559912
 11
-1490.386699
 21
155.741310
  0
LINE
  8
3
 62
     3
  6
CONTINUOUS
 10
-1490.386699
 20
155.741310
 11
-1489.611723
 21
164.291118
  0
LINE
  8
3
 62
     3
  6
CONTINUOUS
 10
-1489.611723
 20
164.291118
 11
-1489.351549
 21
173.027117
  0
LINE
  8
3
 62
     3
  6
CONTINUOUS
 10
-1489.611723
 20
164.291118
 11
-1489.351549
 21
173.027117
  0
ARC
  8
1
 62
     3
  6
CONTINUOUS
 10
-1520.739862
 20
113.027117
 40
2.000000
 50
180.000000
 51
270.000000
  0
LINE
  8
1
 62
     3
  6
CONTINUOUS
 10
-1520.739862
 20
235.027117
 11
-1517.239862
 21
235.027117
  0
LINE
  8
1
 62
     3
  6
CONTINUOUS
 10
-1520.739862
 20
111.027117
 11
-1517.239862
 21
111.027117
  0
ARC
  8
1
 62
     3
  6
CONTINUOUS
 10
-1520.739862
 20
233.027117
 40
2.000000
 50
90.000000
 51
180.000000
  0
ARC
  8
1
 62
     3
  6
CONTINUOUS
 10
-1517.239862
 20
238.027117
 40
3.000000
 50
270.000000
 51
360.000000
  0
LINE
  8
0
 62
     1
  6
CONTINUOUS
 10
-1252.263693
 20
690.389268
 11
-1237.258997
 21
690.389268
  0
LINE
  8
0
 62
     1
  6
CONTINUOUS
 10
-1175.176735
 20
690.389268
 11
-1124.485175
 21
690.389268
  0
INSERT
  8
0
  2
G16
 10
0
 20
0
  0
CIRCLE
  8
0
 62
     3
  6
CONTINUOUS
 10
-1427.739862
 20
690.389268
 40
86.000000
  0
INSERT
  8
0
  2
G17
 10
0
 20
0
  0
INSERT
  8
0
  2
G18
 10
0
 20
0
  0
INSERT
  8
0
  2
G19
 10
0
 20
0
  0
ARC
  8
0
 62
     3
  6
CONTINUOUS
 10
-1487.739862
 20
783.389268
 40
2.000000
 50
90.000000
 51
180.000000
  0
LINE
  8
0
 62
     3
  6
CONTINUOUS
 10
-1489.739862
 20
783.389268
 11
-1489.739862
 21
755.389268
  0
ARC
  8
0
 62
     3
  6
CONTINUOUS
 10
-1367.739862
 20
783.389268
 40
2.000000
 50
0.000000E+00
 51
90.000000
  0
LINE
  8
0
 62
     3
  6
CONTINUOUS
 10
-1365.739862
 20
783.389268
 11
-1365.739862
 21
755.389268
  0
LINE
  8
0
 62
     3
  6
CONTINUOUS
 10
-1367.739862
 20
785.389268
 11
-1487.739862
 21
785.389268
  0
ARC
  8
0
 62
     3
  6
CONTINUOUS
 10
-1520.739862
 20
750.389268
 40
2.000000
 50
90.000000
 51
180.000000
  0
LINE
  8
0
 62
     3
  6
CONTINUOUS
 10
-1520.739862
 20
752.389268
 11
-1492.739862
 21
752.389268
  0
ARC
  8
0
 62
     3
  6
CONTINUOUS
 10
-1520.739862
 20
630.389268
 40
2.000000
 50
180.000000
 51
270.000000
  0
LINE
  8
0
 62
     3
  6
CONTINUOUS
 10
-1520.739862
 20
628.389268
 11
-1488.057769
 21
628.389268
  0
TEXT
  8
0
 62
     3
 10
-450.291254
 20
210.395370
 40
32.000000
 50
360.000000
 41
0.87 
  1
Ｃ矢視　（下部）
 72
     5
 11
-194.291254
 21
210.395370
  0
LINE
  8
0
 62
     3
  6
CONTINUOUS
 10
-1522.739862
 20
630.389268
 11
-1522.739862
 21
750.389268
  0
ARC
  8
0
 62
     3
  6
CONTINUOUS
 10
-1362.739862
 20
755.389268
 40
3.000000
 50
180.000000
 51
270.000000
  0
ARC
  8
0
 62
     3
  6
CONTINUOUS
 10
-1492.739862
 20
755.389268
 40
3.000000
 50
-90.000000
 51
0.000000E+00
  0
CIRCLE
  8
0
 62
     3
  6
CONTINUOUS
 10
-1427.739862
 20
690.389268
 40
67.000000
  0
CIRCLE
  8
0
 62
     3
  6
CONTINUOUS
 10
-1427.739862
 20
690.389268
 40
52.000000
  0
ARC
  8
0
 62
     3
  6
CONTINUOUS
 10
-1334.739862
 20
630.389268
 40
2.000000
 50
-90.000000
 51
0.000000E+00
  0
LINE
  8
0
 62
     3
  6
CONTINUOUS
 10
-1334.739862
 20
628.389268
 11
-1367.421954
 21
628.389268
  0
ARC
  8
0
 62
     3
  6
CONTINUOUS
 10
-1334.739862
 20
750.389268
 40
2.000000
 50
0.000000E+00
 51
90.000000
  0
LINE
  8
0
 62
     3
  6
CONTINUOUS
 10
-1334.739862
 20
752.389268
 11
-1362.739862
 21
752.389268
  0
LINE
  8
0
 62
     3
  6
CONTINUOUS
 10
-1332.739862
 20
750.389268
 11
-1332.739862
 21
630.389268
  0
LINE
  8
3
 62
     3
  6
CONTINUOUS
 10
-1272.739862
 20
630.389268
 11
-1332.739862
 21
630.389268
  0
LINE
  8
3
 62
     3
  6
CONTINUOUS
 10
-1267.739862
 20
752.889268
 11
-1267.739862
 21
627.889268
  0
LINE
  8
3
 62
     3
  6
CONTINUOUS
 10
-1272.739862
 20
752.889268
 11
-1272.739862
 21
750.389268
  0
LINE
  8
3
 62
     3
  6
CONTINUOUS
 10
-1272.739862
 20
752.889268
 11
-1267.739862
 21
752.889268
  0
LINE
  8
3
 62
     3
  6
CONTINUOUS
 10
-1272.739862
 20
627.889268
 11
-1267.739862
 21
627.889268
  0
LINE
  8
3
 62
     3
  6
CONTINUOUS
 10
-1272.739862
 20
627.889268
 11
-1272.739862
 21
750.389268
  0
LINE
  8
3
 62
     3
  6
CONTINUOUS
 10
-1272.739862
 20
750.389268
 11
-1332.739862
 21
750.389268
  0
CIRCLE
  8
0
 62
     3
  6
CONTINUOUS
 10
-1427.739862
 20
690.389268
 40
75.000000
  0
LINE
  8
3
 62
     3
  6
CENTER
 10
-1262.263693
 20
690.389268
 11
-1533.933185
 21
690.389268
  0
LINE
  8
3
 62
     3
  6
CENTER
 10
-1427.739862
 20
788.830428
 11
-1427.739862
 21
588.290816
  0
INSERT
  8
0
  2
G20
 10
0
 20
0
  0
ARC
  8
1
 62
     3
  6
CONTINUOUS
 10
-1517.239862
 20
108.027117
 40
3.000000
 50
0.000000E+00
 51
90.000000
  0
TEXT
  8
0
 62
     3
 10
-594.858565
 20
643.604969
 40
32.000000
 50
0.000000E+00
 41
0.86 
  1
ｃ
 72
     5
 11
-562.858565
 21
643.604969
  0
CIRCLE
  8
0
 62
     6
  6
HIDDEN
 10
-1282.802953
 20
1093.777279
 40
20.000000
  0
TEXT
  8
0
 62
     6
 10
-1290.802953
 20
1077.777279
 40
32.000000
 50
0.000000E+00
 41
0.50 
  1
2
 72
     5
 11
-1274.802953
 21
1077.777279
  0
CIRCLE
  8
0
 62
     6
  6
HIDDEN
 10
-1282.802953
 20
1141.810698
 40
20.000000
  0
TEXT
  8
0
 62
     6
 10
-1290.802953
 20
1125.810698
 40
32.000000
 50
0.000000E+00
 41
0.50 
  1
1
 72
     5
 11
-1274.802953
 21
1125.810698
  0
LINE
  8
0
 62
     1
  6
CONTINUOUS
 10
-654.983194
 20
537.764522
 11
-654.983194
 21
709.505988
  0
LINE
  8
0
 62
     1
  6
CONTINUOUS
 10
-763.318357
 20
422.764522
 11
-832.307886
 21
422.764522
  0
TEXT
  8
0
 62
     3
 10
-693.099991
 20
544.694800
 40
32.000000
 50
0.000000E+00
 41
0.86 
  1
ｂ
 72
     5
 11
-661.099991
 21
544.694800
  0
LINE
  8
0
 62
     1
  6
CONTINUOUS
 10
-549.983194
 20
303.139775
 11
-549.983194
 21
403.040677
  0
INSERT
  8
0
  2
G21
 10
0
 20
0
  0
LINE
  8
0
 62
     1
  6
CONTINUOUS
 10
-559.983194
 20
422.764522
 11
-763.318357
 21
422.764522
  0
LINE
  8
0
 62
     1
  6
CONTINUOUS
 10
-444.983194
 20
811.139775
 11
-444.983194
 21
716.582368
  0
LINE
  8
0
 62
     1
  6
CONTINUOUS
 10
-444.983194
 20
537.764522
 11
-444.983194
 21
716.582368
  0
LINE
  8
0
 62
     1
  6
CONTINUOUS
 10
-270.658502
 20
527.764522
 11
-341.661311
 21
527.764522
  0
INSERT
  8
0
  2
G22
 10
0
 20
0
  0
TEXT
  8
0
 62
     3
 10
-438.866397
 20
549.412386
 40
32.000000
 50
0.000000E+00
 41
0.86 
  1
ａ
 72
     5
 11
-406.866397
 21
549.412386
  0
LINE
  8
0
 62
     1
  6
CONTINUOUS
 10
-454.983194
 20
462.125706
 11
-454.983194
 21
371.139775
  0
INSERT
  8
0
  2
G23
 10
0
 20
0
  0
INSERT
  8
0
  2
G24
 10
0
 20
0
  0
LINE
  8
0
 62
     3
  6
CONTINUOUS
 10
-675.417903
 20
465.920290
 11
-764.058531
 21
398.110296
  0
SOLID
  8
0
 62
     3
 10
-693.715639
 20
442.146505
 11
-703.151100
 21
454.480456
 12
-675.417903
 22
465.920290
 13
-675.417903
 23
465.920290
  0
CIRCLE
  8
0
 62
     6
  6
HIDDEN
 10
-1129.802953
 20
1093.777279
 40
20.000000
  0
TEXT
  8
0
 62
     6
 10
-1137.802953
 20
1077.777279
 40
32.000000
 50
0.000000E+00
 41
0.50 
  1
2
 72
     5
 11
-1121.802953
 21
1077.777279
  0
CIRCLE
  8
0
 62
     6
  6
HIDDEN
 10
-1129.802953
 20
1141.810698
 40
20.000000
  0
TEXT
  8
0
 62
     6
 10
-1137.802953
 20
1125.810698
 40
32.000000
 50
0.000000E+00
 41
0.50 
  1
1
 72
     5
 11
-1121.802953
 21
1125.810698
  0
CIRCLE
  8
0
 62
     6
  6
HIDDEN
 10
-1186.802953
 20
1093.777279
 40
20.000000
  0
TEXT
  8
0
 62
     6
 10
-1194.802953
 20
1077.777279
 40
32.000000
 50
0.000000E+00
 41
0.50 
  1
2
 72
     5
 11
-1178.802953
 21
1077.777279
  0
CIRCLE
  8
0
 62
     6
  6
HIDDEN
 10
-1186.802953
 20
1141.810698
 40
20.000000
  0
TEXT
  8
0
 62
     6
 10
-1194.802953
 20
1125.810698
 40
32.000000
 50
0.000000E+00
 41
0.50 
  1
1
 72
     5
 11
-1178.802953
 21
1125.810698
  0
TEXT
  8
0
 62
     6
 10
-1001.412371
 20
1098.485825
 40
35.000000
 50
0.000000E+00
 41
0.60 
  1
240,260,280
 72
     5
 11
-768.912371
 21
1098.485825
  0
INSERT
  8
0
  2
G25
 10
0
 20
0
  0
TEXT
  8
0
 62
     6
 10
-999.551869
 20
1056.370812
 40
35.000000
 50
0.000000E+00
 41
0.60 
  1
300,340,360
 72
     5
 11
-767.051869
 21
1056.370812
  0
TEXT
  8
0
 62
     3
 10
-386.905346
 20
766.880088
 40
32.000000
 50
0.000000E+00
 41
1.02 
  1
受口深さ
 72
     5
 11
-234.905346
 21
766.880088
  0
LINE
  8
0
 62
     3
  6
CONTINUOUS
 10
-369.545234
 20
681.087936
 11
-369.545234
 21
756.737805
  0
SOLID
  8
0
 62
     3
 10
-377.309805
 20
710.065711
 11
-361.780663
 21
710.065711
 12
-369.545234
 22
681.087936
 13
-369.545234
 23
681.087936
  0
INSERT
  8
0
  2
G26
 10
0
 20
0
  0
INSERT
  8
0
  2
G27
 10
0
 20
0
  0
INSERT
  8
0
  2
G28
 10
0
 20
0
  0
LINE
  8
0
 62
     3
  6
CONTINUOUS
 10
-1028.581081
 20
440.359991
 11
-1028.581081
 21
503.197829
  0
SOLID
  8
0
 62
     3
 10
-1036.345652
 20
469.337766
 11
-1020.816510
 21
469.337766
 12
-1028.581081
 22
440.359991
 13
-1028.581081
 23
440.359991
  0
INSERT
  8
0
  2
G29
 10
0
 20
0
  0
INSERT
  8
0
  2
G30
 10
0
 20
0
  0
LINE
  8
0
 62
     3
  6
CONTINUOUS
 10
-702.222911
 20
393.041112
 11
-782.782413
 21
299.822978
  0
SOLID
  8
0
 62
     3
 10
-715.295735
 20
366.039237
 11
-727.045246
 21
376.193214
 12
-702.222911
 22
393.041112
 13
-702.222911
 23
393.041112
  0
LINE
  8
0
 62
     3
  6
CONTINUOUS
 10
-414.669023
 20
844.914139
 11
-394.424807
 21
844.914139
  0
INSERT
  8
0
  2
G31
 10
0
 20
0
  0
LINE
  8
0
 62
     3
  6
CONTINUOUS
 10
-397.743477
 20
393.041112
 11
-317.183975
 21
299.822978
  0
SOLID
  8
0
 62
     3
 10
-372.921142
 20
376.193214
 11
-384.670653
 21
366.039237
 12
-397.743477
 22
393.041112
 13
-397.743477
 23
393.041112
  0
LINE
  8
0
 62
     3
  6
CONTINUOUS
 10
-424.548485
 20
465.920290
 11
-335.907857
 21
398.110296
  0
SOLID
  8
0
 62
     3
 10
-396.815288
 20
454.480456
 11
-406.250749
 21
442.146505
 12
-424.548485
 22
465.920290
 13
-424.548485
 23
465.920290
  0
INSERT
  8
0
  2
G32
 10
0
 20
0
  0
INSERT
  8
0
  2
G33
 10
0
 20
0
  0
INSERT
  8
0
  2
G34
 10
0
 20
0
  0
INSERT
  8
0
  2
G35
 10
0
 20
0
  0
INSERT
  8
0
  2
G36
 10
0
 20
0
  0
INSERT
  8
0
  2
G37
 10
0
 20
0
  0
INSERT
  8
0
  2
G38
 10
0
 20
0
  0
INSERT
  8
0
  2
G39
 10
0
 20
0
  0
CIRCLE
  8
0
 62
     2
  6
HIDDEN
 10
-1427.739862
 20
-126.972883
 40
62.000000
  0
LINE
  8
0
 62
     2
  6
HIDDEN
 10
-1409.823739
 20
-186.473004
 11
-1445.655985
 21
-186.473004
  0
CIRCLE
  8
0
 62
     2
  6
HIDDEN
 10
-1427.739862
 20
-134.472883
 40
47.000000
  0
ARC
  8
0
 62
     2
  6
HIDDEN
 10
-1427.739862
 20
-134.472883
 40
55.000000
 50
289.010880
 51
610.989120
  0
LINE
  8
0
 62
     2
  6
CENTER
 10
-1499.453040
 20
-134.472883
 11
-1361.741640
 21
-134.472883
  0
CIRCLE
  8
0
 62
     2
  6
HIDDEN
 10
-1427.739862
 20
-134.472883
 40
35.000000
  0
INSERT
  8
0
  2
G40
 10
0
 20
0
  0
INSERT
  8
0
  2
G41
 10
0
 20
0
  0
INSERT
  8
0
  2
G42
 10
0
 20
0
  0
INSERT
  8
0
  2
G43
 10
0
 20
0
  0
INSERT
  8
0
  2
G44
 10
0
 20
0
  0
INSERT
  8
0
  2
G45
 10
0
 20
0
  0
INSERT
  8
0
  2
G46
 10
0
 20
0
  0
INSERT
  8
0
  2
G47
 10
0
 20
0
  0
TEXT
  8
0
 62
     3
 10
-888.446385
 20
-905.435816
 40
32.000000
 50
0.000000E+00
 41
0.94 
  1
対応可能Ｐ寸法　２４０～３６０
 72
     5
 11
-362.732077
 21
-905.435816
  0
LINE
  8
0
 62
     2
  6
CONTINUOUS
 10
-955.287581
 20
-844.718354
 11
-175.885661
 21
-844.718354
  0
TEXT
  8
0
 62
     2
 10
-466.779569
 20
-817.414104
 40
30.000000
 50
0.000000E+00
 41
0.61 
  1
925
 72
     5
 11
-411.779569
 21
-817.414104
  0
TEXT
  8
0
 62
     2
 10
-569.578809
 20
-817.414104
 40
30.000000
 50
0.000000E+00
 41
0.61 
  1
905
 72
     5
 11
-514.578809
 21
-817.414104
  0
TEXT
  8
0
 62
     2
 10
-669.031289
 20
-815.686968
 40
30.000000
 50
0.000000E+00
 41
0.61 
  1
885
 72
     5
 11
-614.031289
 21
-815.686968
  0
TEXT
  8
0
 62
     2
 10
-363.270329
 20
-815.686968
 40
30.000000
 50
0.000000E+00
 41
0.61 
  1
965
 72
     5
 11
-308.270329
 21
-815.686968
  0
TEXT
  8
0
 62
     2
 10
-770.950969
 20
-724.246968
 40
30.000000
 50
0.000000E+00
 41
0.61 
  1
790
 72
     5
 11
-715.950969
 21
-724.246968
  0
TEXT
  8
0
 62
     2
 10
-258.817849
 20
-817.414104
 40
30.000000
 50
0.000000E+00
 41
0.61 
  1
985
 72
     5
 11
-203.817849
 21
-817.414104
  0
TEXT
  8
0
 62
     2
 10
-770.950969
 20
-815.686968
 40
30.000000
 50
0.000000E+00
 41
0.61 
  1
865
 72
     5
 11
-715.950969
 21
-815.686968
  0
TEXT
  8
0
 62
     2
 10
-363.509314
 20
-647.803154
 40
30.000000
 50
0.000000E+00
 41
0.61 
  1
340
 72
     5
 11
-308.509314
 21
-647.803154
  0
TEXT
  8
0
 62
     2
 10
-465.429954
 20
-647.803154
 40
30.000000
 50
0.000000E+00
 41
0.61 
  1
300
 72
     5
 11
-410.429954
 21
-647.803154
  0
TEXT
  8
0
 62
     2
 10
-567.350594
 20
-647.803154
 40
30.000000
 50
0.000000E+00
 41
0.61 
  1
280
 72
     5
 11
-512.350594
 21
-647.803154
  0
TEXT
  8
0
 62
     2
 10
-771.189954
 20
-647.803154
 40
30.000000
 50
0.000000E+00
 41
0.61 
  1
240
 72
     5
 11
-716.189954
 21
-647.803154
  0
LINE
  8
0
 62
     2
  6
CONTINUOUS
 10
-389.725981
 20
-600.398354
 11
-389.725981
 21
-844.718354
  0
TEXT
  8
0
 62
     2
 10
-944.759477
 20
-811.372275
 40
30.000000
 50
0.000000E+00
 41
0.72 
  1
Ｌｔ（全長）
 72
     5
 11
-794.759477
 21
-811.372275
  0
LINE
  8
0
 62
     2
  6
CONTINUOUS
 10
-955.287581
 20
-753.278354
 11
-175.885661
 21
-753.278354
  0
TEXT
  8
0
 62
     2
 10
-258.817849
 20
-725.974104
 40
30.000000
 50
0.000000E+00
 41
0.61 
  1
910
 72
     5
 11
-203.817849
 21
-725.974104
  0
LINE
  8
0
 62
     2
  6
CONTINUOUS
 10
-955.287581
 20
-600.398354
 11
-175.885661
 21
-600.398354
  0
TEXT
  8
0
 62
     2
 10
-363.270329
 20
-724.246968
 40
30.000000
 50
0.000000E+00
 41
0.61 
  1
890
 72
     5
 11
-308.270329
 21
-724.246968
  0
LINE
  8
0
 62
     2
  6
CONTINUOUS
 10
-797.406621
 20
-600.398354
 11
-797.406621
 21
-844.718354
  0
LINE
  8
0
 62
     2
  6
CONTINUOUS
 10
-695.486941
 20
-600.398354
 11
-695.486941
 21
-844.718354
  0
LINE
  8
0
 62
     2
  6
CONTINUOUS
 10
-593.567261
 20
-600.398354
 11
-593.567261
 21
-844.718354
  0
LINE
  8
0
 62
     2
  6
CONTINUOUS
 10
-491.646621
 20
-600.398354
 11
-491.646621
 21
-844.718354
  0
LINE
  8
0
 62
     2
  6
CONTINUOUS
 10
-175.885661
 20
-600.398354
 11
-175.885661
 21
-844.718354
  0
LINE
  8
0
 62
     2
  6
CONTINUOUS
 10
-287.806301
 20
-600.398354
 11
-287.806301
 21
-844.718354
  0
TEXT
  8
0
 62
     2
 10
-256.589634
 20
-647.803154
 40
30.000000
 50
0.000000E+00
 41
0.61 
  1
360
 72
     5
 11
-201.589634
 21
-647.803154
  0
LINE
  8
0
 62
     2
  6
CONTINUOUS
 10
-955.287581
 20
-661.838354
 11
-175.885661
 21
-661.838354
  0
TEXT
  8
0
 62
     2
 10
-944.759477
 20
-719.932275
 40
30.000000
 50
0.000000E+00
 41
0.72 
  1
Ｌ（有効長）
 72
     5
 11
-794.759477
 21
-719.932275
  0
LINE
  8
0
 62
     2
  6
CONTINUOUS
 10
-955.287581
 20
-600.398354
 11
-955.287581
 21
-844.718354
  0
LINE
  8
0
 62
     2
  6
CONTINUOUS
 10
-177.458899
 20
-613.635403
 11
-177.458899
 21
-613.635595
  0
TEXT
  8
0
 62
     2
 10
-669.031289
 20
-724.246968
 40
30.000000
 50
0.000000E+00
 41
0.61 
  1
810
 72
     5
 11
-614.031289
 21
-724.246968
  0
TEXT
  8
0
 62
     2
 10
-569.578809
 20
-725.974104
 40
30.000000
 50
0.000000E+00
 41
0.61 
  1
830
 72
     5
 11
-514.578809
 21
-725.974104
  0
TEXT
  8
0
 62
     2
 10
-669.270274
 20
-647.803154
 40
30.000000
 50
0.000000E+00
 41
0.61 
  1
260
 72
     5
 11
-614.270274
 21
-647.803154
  0
TEXT
  8
0
 62
     2
 10
-885.718483
 20
-647.782743
 40
30.000000
 50
0.000000E+00
 41
0.86 
  1
Ｐ
 72
     5
 11
-855.718483
 21
-647.782743
  0
TEXT
  8
0
 62
     2
 10
-466.779569
 20
-725.974104
 40
30.000000
 50
0.000000E+00
 41
0.61 
  1
850
 72
     5
 11
-411.779569
 21
-725.974104
  0
TEXT
  8
0
 62
     2
 10
-251.589634
 20
-546.363154
 40
30.000000
 50
0.000000E+00
 41
0.58 
  1
44
 72
     5
 11
-216.589634
 21
-546.363154
  0
TEXT
  8
0
 62
     2
 10
-363.510274
 20
-546.363154
 40
30.000000
 50
0.000000E+00
 41
0.58 
  1
52
 72
     5
 11
-328.510274
 21
-546.363154
  0
TEXT
  8
0
 62
     2
 10
-462.501526
 20
-363.746137
 40
25.600000
 50
0.000000E+00
 41
0.55 
  1
100
 72
     5
 11
-420.444381
 21
-363.746137
  0
TEXT
  8
0
 62
     2
 10
-479.031820
 20
-325.061429
 40
18.400000
 50
0.000000E+00
 41
0.89 
  1
立管受口
 72
     5
 11
-403.031821
 21
-325.061429
  0
TEXT
  8
0
 62
     2
 10
-251.589634
 20
-423.483154
 40
30.000000
 50
0.000000E+00
 41
0.58 
  1
65
 72
     5
 11
-216.589634
 21
-423.483154
  0
TEXT
  8
0
 62
     2
 10
-363.510274
 20
-423.483154
 40
30.000000
 50
0.000000E+00
 41
0.58 
  1
65
 72
     5
 11
-328.510274
 21
-423.483154
  0
TEXT
  8
0
 62
     2
 10
-455.429954
 20
-423.483154
 40
30.000000
 50
0.000000E+00
 41
0.58 
  1
75
 72
     5
 11
-420.429954
 21
-423.483154
  0
LINE
  8
0
 62
     2
  6
CONTINUOUS
 10
-399.726941
 20
-498.958354
 11
-481.646621
 21
-560.398354
  0
LINE
  8
0
 62
     2
  6
CONTINUOUS
 10
-175.885661
 20
-294.153298
 11
-175.885661
 21
-560.398354
  0
TEXT
  8
0
 62
     2
 10
-592.749477
 20
-542.052275
 40
30.000000
 50
0.000000E+00
 41
0.86 
  1
Ｂ寸法
 72
     5
 11
-502.749477
 21
-542.052275
  0
LINE
  8
0
 62
     2
  6
CONTINUOUS
 10
-604.527581
 20
-498.958354
 11
-175.885661
 21
-498.958354
  0
LINE
  8
0
 62
     2
  6
CONTINUOUS
 10
-399.726941
 20
-335.118322
 11
-175.885661
 21
-335.118322
  0
LINE
  8
0
 62
     2
  6
CONTINUOUS
 10
-604.527581
 20
-376.078354
 11
-175.885661
 21
-376.078354
  0
TEXT
  8
0
 62
     2
 10
-388.512732
 20
-330.204987
 40
30.000000
 50
0.000000E+00
 41
0.72 
  1
下部横枝管サイズ
 72
     5
 11
-188.512732
 21
-330.204987
  0
LINE
  8
0
 62
     2
  6
CONTINUOUS
 10
-481.646621
 20
-295.392178
 11
-481.646621
 21
-560.398354
  0
LINE
  8
0
 62
     2
  6
CONTINUOUS
 10
-399.726941
 20
-295.392178
 11
-399.726941
 21
-560.398354
  0
LINE
  8
0
 62
     2
  6
CONTINUOUS
 10
-399.726941
 20
-437.518354
 11
-481.646621
 21
-498.958354
  0
LINE
  8
0
 62
     2
  6
CONTINUOUS
 10
-287.806301
 20
-335.118514
 11
-287.806301
 21
-560.398354
  0
LINE
  8
0
 62
     2
  6
CONTINUOUS
 10
-604.527581
 20
-560.398354
 11
-175.885661
 21
-560.398354
  0
TEXT
  8
0
 62
     2
 10
-383.464355
 20
-370.283621
 40
30.000000
 50
0.000000E+00
 41
0.63 
  1
65(2)
 72
     5
 11
-288.464355
 21
-370.283621
  0
TEXT
  8
0
 62
     2
 10
-271.543715
 20
-370.283621
 40
30.000000
 50
0.000000E+00
 41
0.63 
  1
50(1)
 72
     5
 11
-176.543715
 21
-370.283621
  0
LINE
  8
0
 62
     2
  6
CONTINUOUS
 10
-604.527581
 20
-335.118322
 11
-604.527581
 21
-560.398354
  0
LINE
  8
0
 62
     2
  6
CONTINUOUS
 10
-604.527581
 20
-437.518354
 11
-175.885661
 21
-437.518354
  0
TEXT
  8
0
 62
     2
 10
-592.749477
 20
-480.612275
 40
30.000000
 50
0.000000E+00
 41
0.86 
  1
Ａ寸法
 72
     5
 11
-502.749477
 21
-480.612275
  0
LINE
  8
0
 62
     2
  6
CONTINUOUS
 10
-604.527581
 20
-335.118322
 11
-604.527581
 21
-294.153298
  0
LINE
  8
0
 62
     2
  6
CONTINUOUS
 10
-604.527581
 20
-294.153298
 11
-175.885661
 21
-294.153298
  0
LINE
  8
0
 62
     2
  6
CONTINUOUS
 10
-205.886621
 20
-335.118322
 11
-205.886621
 21
-335.118514
  0
TEXT
  8
0
 62
     2
 10
-375.738489
 20
-484.923154
 40
30.000000
 50
0.000000E+00
 41
0.61 
  1
110
 72
     5
 11
-320.738489
 21
-484.923154
  0
TEXT
  8
0
 62
     2
 10
-599.958483
 20
-423.462743
 40
30.000000
 50
0.000000E+00
 41
0.86 
  1
受口深さ
 72
     5
 11
-479.958483
 21
-423.462743
  0
LINE
  8
0
 62
     2
  6
CONTINUOUS
 10
-604.527581
 20
-294.153298
 11
-481.646621
 21
-376.078354
  0
TEXT
  8
0
 62
     2
 10
-251.589634
 20
-484.923154
 40
30.000000
 50
0.000000E+00
 41
0.58 
  1
94
 72
     5
 11
-216.589634
 21
-484.923154
  0
ENDSEC
  0
EOF
