  0
SECTION
  2
HEADER
  9
$INSBASE
 10
0
 20
0
  9
$EXTMIN
 10
0
 20
0
  9
$EXTMAX
 10
4200.000000
 20
2970.000000
  9
$LIMMIN
 10
0
 20
0
  9
$LIMMAX
 10
4200.000000
 20
2970.000000
  9
$VIEWCTR
 10
2100.000000
 20
1485.000000
  9
$DIMASZ
 40
30.000000
  9
$DIMDLI
 40
80.000000
  9
$DIMEXE
 40
10.000000
  9
$DIMEXO
 40
10.000000
  9
$DIMTXT
 40
32.000000
  9
$TEXTSIZE
 40
32.000000
  9
$ANGBASE
 50
0.0
  9
$ANGDIR
 70
     0
  9
$ATTMODE
 70
     1
  9
$AUNITS
 70
     1
  9
$AUPREC
 70
     2
  9
$AXISMODE
 70
     0
  9
$AXISUNIT
 10
0.0
 20
0.0
  9
$BLIPMODE
 70
     1
  9
$CECOLOR
 62
   256
  9
$CELTYPE
  6
BYLAYER
  9
$CHAMFERA
 40
0.0
  9
$CHAMFERB
 40
0.0
  9
$CLAYER
  8
0
  9
$COORDS
 70
     0
  9
$DIMALT
 70
     0
  9
$DIMALTD
 70
     2
  9
$DIMALTF
 40
25.4
  9
$DIMDLE
 40
0.0
  9
$DIMLFAC
 40
1.0
  9
$DIMLIM
 70
     0
  9
$DIMRND
 40
0.0
  9
$DIMSCALE
 40
1.0
  9
$DIMSE1
 70
     0
  9
$DIMSE2
 70
     0
  9
$DIMTAD
 70
     1
  9
$DIMTIH
 70
     0
  9
$DIMTM
 40
0.0
  9
$DIMTOH
 70
     0
  9
$DIMTOL
 70
     0
  9
$DIMTP
 40
0.0
  9
$DIMTSZ
 40
0.0
  9
$DIMZIN
 70
     0
  9
$DRAGMODE
 70
     2
  9
$ELEVATION
 40
0.0
  9
$FASTZOOM
 70
     1
  9
$FILLETRAD
 40
0.0
  9
$FILLMODE
 70
     1
  9
$GRIDMODE
 70
     0
  9
$GRIDUNIT
 10
0.0
 20
0.0
  9
$LTSCALE
 40
1.0
  9
$LUNITS
 70
     2
  9
$LUPREC
 70
     2
  9
$MENU
  1
ACAD
  9
$ORTHOMODE
 70
     0
  9
$OSMODE
 70
     0
  9
$PDMODE
 70
     0
  9
$PDSIZE
 40
0.0
  9
$PLINEWID
 40
0.0
  9
$QTEXTMODE
 70
     0
  9
$REGENMODE
 70
     1
  9
$SKETCHINC
 40
0.1
  9
$SKPOLY
 70
     0
  9
$SNAPBASE
 10
0.0
 20
0.0
  9
$SNAPISOPAIR
 70
     0
  9
$SNAPMODE
 70
     0
  9
$SNAPSTYLE
 70
     0
  9
$SNAPUNIT
 10
0.0
 20
0.0
  9
$TEXTSTYLE
  7
KANJI
  9
$THICKNESS
 40
0.0
  9
$TRACEWID
 40
0.05
  9
$VIEWDIR
 10
0.0
 20
0.0
 30
1.0
  9
$VIEWSIZE
 40
0.0
  0
ENDSEC
  0
SECTION
  2
TABLES
  0
TABLE
  2
LTYPE
 70
     9
  0
LTYPE
  2
CONTINUOUS
 70
    64
  3
Solid line
 72
    65
 73
     0
 40
0.0
  0
LTYPE
  2
DASHED
 70
    64
  3
__ __ __ __ __ __ __ __ __ __ __ __ __ __ __
 72
    65
 73
     2
 40
0.75
 49
0.5
 49
-0.25
  0
LTYPE
  2
HIDDEN
 70
    64
  3
_ _ _ _ _ _ _ _ _ _ _ _ _ _ _ _ _ _ _ _ _ _ _
 72
    65
 73
     2
 40
0.375
 49
0.25
 49
-0.125
  0
LTYPE
  2
CENTER
 70
    64
  3
____ _ ____ _ ____ _ ____ _ ____ _ ____ _ ____
 72
    65
 73
     4
 40
2.0
 49
1.25
 49
-0.25
 49
0.25
 49
-0.25
  0
LTYPE
  2
PHANTOM
 70
    64
  3
_____ _ _ _____ _ _ _____ _ _ _____ _ _ ____
 72
    65
 73
     6
 40
2.5
 49
1.25
 49
-0.25
 49
0.25
 49
-0.25
 49
0.25
 49
-0.25
  0
LTYPE
  2
DOT
 70
    64
  3
...............................................
 72
    65
 73
     2
 40
0.25
 49
0.0
 49
-0.25
  0
LTYPE
  2
DASHDOT
 70
    64
  3
__ . __ . __ . __ . __ . __ . __ . __ . __ . __
 72
    65
 73
     4
 40
1.0
 49
0.5
 49
-0.25
 49
0.0
 49
-0.25
  0
LTYPE
  2
BORDER
 70
    64
  3
__ __ . __ __ . __ __ . __ __ . __ __ . __ __
 72
    65
 73
     6
 40
1.75
 49
0.5
 49
-0.25
 49
0.5
 49
-0.25
 49
0.0
 49
-0.25
  0
LTYPE
  2
DIVIDE
 70
    64
  3
__ . . __ . . __ . . __ . . __ . . __ . . __
 72
    65
 73
     6
 40
1.25
 49
0.5
 49
-0.25
 49
0.0
 49
-0.25
 49
0.0
 49
-0.25
  0
ENDTAB
  0
TABLE
  2
LAYER
 70
   100
  0
LAYER
  2
0
 70
     0
 62
     3
  6
CONTINUOUS
  0
LAYER
  2
1
 70
     0
 62
     3
  6
CONTINUOUS
  0
LAYER
  2
2
 70
     0
 62
     3
  6
CONTINUOUS
  0
LAYER
  2
3
 70
     0
 62
     3
  6
CONTINUOUS
  0
LAYER
  2
4
 70
     0
 62
     3
  6
CONTINUOUS
  0
LAYER
  2
5
 70
     0
 62
     3
  6
CONTINUOUS
  0
LAYER
  2
6
 70
     0
 62
     3
  6
CONTINUOUS
  0
LAYER
  2
7
 70
     0
 62
     3
  6
CONTINUOUS
  0
LAYER
  2
8
 70
     0
 62
     3
  6
CONTINUOUS
  0
LAYER
  2
9
 70
     0
 62
     3
  6
CONTINUOUS
  0
LAYER
  2
10
 70
     0
 62
     3
  6
CONTINUOUS
  0
LAYER
  2
11
 70
     0
 62
     3
  6
CONTINUOUS
  0
LAYER
  2
12
 70
     0
 62
     3
  6
CONTINUOUS
  0
LAYER
  2
13
 70
     0
 62
     3
  6
CONTINUOUS
  0
LAYER
  2
14
 70
     0
 62
     3
  6
CONTINUOUS
  0
LAYER
  2
15
 70
     0
 62
     3
  6
CONTINUOUS
  0
LAYER
  2
16
 70
     0
 62
     3
  6
CONTINUOUS
  0
LAYER
  2
17
 70
     0
 62
     3
  6
CONTINUOUS
  0
LAYER
  2
18
 70
     0
 62
     3
  6
CONTINUOUS
  0
LAYER
  2
19
 70
     0
 62
     3
  6
CONTINUOUS
  0
LAYER
  2
20
 70
     0
 62
     3
  6
CONTINUOUS
  0
LAYER
  2
21
 70
     0
 62
     3
  6
CONTINUOUS
  0
LAYER
  2
22
 70
     0
 62
     3
  6
CONTINUOUS
  0
LAYER
  2
23
 70
     0
 62
     3
  6
CONTINUOUS
  0
LAYER
  2
24
 70
     0
 62
     3
  6
CONTINUOUS
  0
LAYER
  2
25
 70
     0
 62
     3
  6
CONTINUOUS
  0
LAYER
  2
26
 70
     0
 62
     3
  6
CONTINUOUS
  0
LAYER
  2
27
 70
     0
 62
     3
  6
CONTINUOUS
  0
LAYER
  2
28
 70
     0
 62
     3
  6
CONTINUOUS
  0
LAYER
  2
29
 70
     0
 62
     3
  6
CONTINUOUS
  0
LAYER
  2
30
 70
     0
 62
     3
  6
CONTINUOUS
  0
LAYER
  2
31
 70
     0
 62
     3
  6
CONTINUOUS
  0
LAYER
  2
32
 70
     0
 62
     3
  6
CONTINUOUS
  0
LAYER
  2
33
 70
     0
 62
     3
  6
CONTINUOUS
  0
LAYER
  2
34
 70
     0
 62
     3
  6
CONTINUOUS
  0
LAYER
  2
35
 70
     0
 62
     3
  6
CONTINUOUS
  0
LAYER
  2
36
 70
     0
 62
     3
  6
CONTINUOUS
  0
LAYER
  2
37
 70
     0
 62
     3
  6
CONTINUOUS
  0
LAYER
  2
38
 70
     0
 62
     3
  6
CONTINUOUS
  0
LAYER
  2
39
 70
     0
 62
     3
  6
CONTINUOUS
  0
LAYER
  2
40
 70
     0
 62
     3
  6
CONTINUOUS
  0
LAYER
  2
41
 70
     0
 62
     3
  6
CONTINUOUS
  0
LAYER
  2
42
 70
     0
 62
     3
  6
CONTINUOUS
  0
LAYER
  2
43
 70
     0
 62
     3
  6
CONTINUOUS
  0
LAYER
  2
44
 70
     0
 62
     3
  6
CONTINUOUS
  0
LAYER
  2
45
 70
     0
 62
     3
  6
CONTINUOUS
  0
LAYER
  2
46
 70
     0
 62
     3
  6
CONTINUOUS
  0
LAYER
  2
47
 70
     0
 62
     3
  6
CONTINUOUS
  0
LAYER
  2
48
 70
     0
 62
     3
  6
CONTINUOUS
  0
LAYER
  2
49
 70
     0
 62
     3
  6
CONTINUOUS
  0
LAYER
  2
50
 70
     0
 62
     3
  6
CONTINUOUS
  0
LAYER
  2
51
 70
     0
 62
     3
  6
CONTINUOUS
  0
LAYER
  2
52
 70
     0
 62
     3
  6
CONTINUOUS
  0
LAYER
  2
53
 70
     0
 62
     3
  6
CONTINUOUS
  0
LAYER
  2
54
 70
     0
 62
     3
  6
CONTINUOUS
  0
LAYER
  2
55
 70
     0
 62
     3
  6
CONTINUOUS
  0
LAYER
  2
56
 70
     0
 62
     3
  6
CONTINUOUS
  0
LAYER
  2
57
 70
     0
 62
     3
  6
CONTINUOUS
  0
LAYER
  2
58
 70
     0
 62
     3
  6
CONTINUOUS
  0
LAYER
  2
59
 70
     0
 62
     3
  6
CONTINUOUS
  0
LAYER
  2
60
 70
     0
 62
     3
  6
CONTINUOUS
  0
LAYER
  2
61
 70
     0
 62
     3
  6
CONTINUOUS
  0
LAYER
  2
62
 70
     0
 62
     3
  6
CONTINUOUS
  0
LAYER
  2
63
 70
     0
 62
     3
  6
CONTINUOUS
  0
LAYER
  2
64
 70
     0
 62
     3
  6
CONTINUOUS
  0
LAYER
  2
65
 70
     0
 62
     3
  6
CONTINUOUS
  0
LAYER
  2
66
 70
     0
 62
     3
  6
CONTINUOUS
  0
LAYER
  2
67
 70
     0
 62
     3
  6
CONTINUOUS
  0
LAYER
  2
68
 70
     0
 62
     3
  6
CONTINUOUS
  0
LAYER
  2
69
 70
     0
 62
     3
  6
CONTINUOUS
  0
LAYER
  2
70
 70
     0
 62
     3
  6
CONTINUOUS
  0
LAYER
  2
71
 70
     0
 62
     3
  6
CONTINUOUS
  0
LAYER
  2
72
 70
     0
 62
     3
  6
CONTINUOUS
  0
LAYER
  2
73
 70
     0
 62
     3
  6
CONTINUOUS
  0
LAYER
  2
74
 70
     0
 62
     3
  6
CONTINUOUS
  0
LAYER
  2
75
 70
     0
 62
     3
  6
CONTINUOUS
  0
LAYER
  2
76
 70
     0
 62
     3
  6
CONTINUOUS
  0
LAYER
  2
77
 70
     0
 62
     3
  6
CONTINUOUS
  0
LAYER
  2
78
 70
     0
 62
     3
  6
CONTINUOUS
  0
LAYER
  2
79
 70
     0
 62
     3
  6
CONTINUOUS
  0
LAYER
  2
80
 70
     0
 62
     3
  6
CONTINUOUS
  0
LAYER
  2
81
 70
     0
 62
     3
  6
CONTINUOUS
  0
LAYER
  2
82
 70
     0
 62
     3
  6
CONTINUOUS
  0
LAYER
  2
83
 70
     0
 62
     3
  6
CONTINUOUS
  0
LAYER
  2
84
 70
     0
 62
     3
  6
CONTINUOUS
  0
LAYER
  2
85
 70
     0
 62
     3
  6
CONTINUOUS
  0
LAYER
  2
86
 70
     0
 62
     3
  6
CONTINUOUS
  0
LAYER
  2
87
 70
     0
 62
     3
  6
CONTINUOUS
  0
LAYER
  2
88
 70
     0
 62
     3
  6
CONTINUOUS
  0
LAYER
  2
89
 70
     0
 62
     3
  6
CONTINUOUS
  0
LAYER
  2
90
 70
     0
 62
     3
  6
CONTINUOUS
  0
LAYER
  2
91
 70
     0
 62
     3
  6
CONTINUOUS
  0
LAYER
  2
92
 70
     0
 62
     3
  6
CONTINUOUS
  0
LAYER
  2
93
 70
     0
 62
     3
  6
CONTINUOUS
  0
LAYER
  2
94
 70
     0
 62
     3
  6
CONTINUOUS
  0
LAYER
  2
95
 70
     0
 62
     3
  6
CONTINUOUS
  0
LAYER
  2
96
 70
     0
 62
     3
  6
CONTINUOUS
  0
LAYER
  2
97
 70
     0
 62
     3
  6
CONTINUOUS
  0
LAYER
  2
98
 70
     0
 62
     3
  6
CONTINUOUS
  0
LAYER
  2
99
 70
     0
 62
     3
  6
CONTINUOUS
  0
ENDTAB
  0
TABLE
  2
STYLE
 70
     2
  0
STYLE
  2
STANDARD
 70
     0
 40
0.0
 41
1.0
 50
0.0
 71
     0
 42
0.2
  3
TXT
  4
BIGFONT
  0
STYLE
  2
KANJI
 70
     0
 40
4.5
 41
1.0
 50
0.0
 71
     0
 42
0.2
  3
TXT
  4
BIGFONT
  0
ENDTAB
  0
TABLE
  2
VIEW
 70
     0
  0
ENDTAB
  0
ENDSEC
  0
SECTION
  2
BLOCKS
  0
BLOCK
  8
0
  2
G0
 70
     0
 10
0
 20
0
  0
POINT
  8
0
 62
     4
 10
270.000000
 20
1315.000000
  0
POINT
  8
0
 62
     4
 10
-1830.000000
 20
1315.000000
  0
ENDBLK
  0
BLOCK
  8
0
  2
G1
 70
     0
 10
0
 20
0
  0
LINE
  8
0
 62
     1
  6
CONTINUOUS
 10
-436.000000
 20
357.375253
 11
-386.000000
 21
357.375253
  0
SOLID
  8
0
 62
     1
 10
-411.851854
 20
363.845729
 11
-411.851854
 21
350.904777
 12
-436.000000
 22
357.375253
 13
-436.000000
 23
357.375253
  0
LINE
  8
0
 62
     1
  6
CONTINUOUS
 10
-550.682081
 20
357.375253
 11
-500.682081
 21
357.375253
  0
SOLID
  8
0
 62
     1
 10
-524.830227
 20
350.904777
 11
-524.830227
 21
363.845729
 12
-500.682081
 22
357.375253
 13
-500.682081
 23
357.375253
  0
TEXT
  8
0
 62
     1
 10
-484.474233
 20
362.708586
 40
32.000000
 50
0.000000E+00
 41
0.56 
  1
65
 72
     5
 11
-448.474233
 21
362.708586
  0
LINE
  8
0
 62
     1
  6
CONTINUOUS
 10
-436.000000
 20
442.500000
 11
-436.000000
 21
347.375253
  0
LINE
  8
0
 62
     1
  6
CONTINUOUS
 10
-500.682081
 20
357.375253
 11
-436.000000
 21
357.375253
  0
ENDBLK
  0
BLOCK
  8
0
  2
G2
 70
     0
 10
0
 20
0
  0
TEXT
  8
0
 62
     1
 10
-855.996281
 20
-90.472883
 40
32.000000
 50
90.000000
 41
0.97 
  1
Ｌｔ
 72
     5
 11
-855.996281
 21
-18.472883
  0
LINE
  8
0
 62
     1
  6
CONTINUOUS
 10
-900.662948
 20
-546.972883
 11
-840.662948
 21
-546.972883
  0
LINE
  8
0
 62
     1
  6
CONTINUOUS
 10
-900.662948
 20
438.027117
 11
-840.662948
 21
438.027117
  0
LINE
  8
0
 62
     1
  6
CONTINUOUS
 10
-850.662948
 20
438.027117
 11
-850.662948
 21
-546.972883
  0
SOLID
  8
0
 62
     1
 10
-844.192472
 20
413.878971
 11
-857.133424
 21
413.878971
 12
-850.662948
 22
438.027117
 13
-850.662948
 23
438.027117
  0
SOLID
  8
0
 62
     1
 10
-857.133424
 20
-522.824738
 11
-844.192472
 21
-522.824738
 12
-850.662948
 22
-546.972883
 13
-850.662948
 23
-546.972883
  0
ENDBLK
  0
BLOCK
  8
0
  2
G3
 70
     0
 10
0
 20
0
  0
TEXT
  8
0
 62
     1
 10
-915.996281
 20
-185.972883
 40
32.000000
 50
90.000000
 41
0.89 
  1
Ｌ（有効長）
 72
     5
 11
-915.996281
 21
10.027117
  0
LINE
  8
0
 62
     1
  6
CONTINUOUS
 10
-960.662948
 20
-546.972883
 11
-900.662948
 21
-546.972883
  0
LINE
  8
0
 62
     1
  6
CONTINUOUS
 10
-910.662948
 20
363.027117
 11
-910.662948
 21
-546.972883
  0
SOLID
  8
0
 62
     1
 10
-904.192472
 20
338.878971
 11
-917.133424
 21
338.878971
 12
-910.662948
 22
363.027117
 13
-910.662948
 23
363.027117
  0
SOLID
  8
0
 62
     1
 10
-917.133424
 20
-522.824738
 11
-904.192472
 21
-522.824738
 12
-910.662948
 22
-546.972883
 13
-910.662948
 23
-546.972883
  0
ENDBLK
  0
BLOCK
  8
0
  2
G4
 70
     0
 10
0
 20
0
  0
TEXT
  8
0
 62
     1
 10
-975.996281
 20
-394.972883
 40
32.000000
 50
90.000000
 41
0.58 
  1
360
 72
     5
 11
-975.996281
 21
-338.972883
  0
LINE
  8
0
 62
     1
  6
CONTINUOUS
 10
-960.662948
 20
-546.972883
 11
-1080.662948
 21
-546.972883
  0
LINE
  8
0
 62
     1
  6
CONTINUOUS
 10
-970.662948
 20
-186.972883
 11
-970.662948
 21
-546.972883
  0
SOLID
  8
0
 62
     1
 10
-964.192472
 20
-211.121029
 11
-977.133424
 21
-211.121029
 12
-970.662948
 22
-186.972883
 13
-970.662948
 23
-186.972883
  0
SOLID
  8
0
 62
     1
 10
-977.133424
 20
-522.824738
 11
-964.192472
 21
-522.824738
 12
-970.662948
 22
-546.972883
 13
-970.662948
 23
-546.972883
  0
ENDBLK
  0
BLOCK
  8
0
  2
G5
 70
     0
 10
0
 20
0
  0
LINE
  8
0
 62
     1
  6
CONTINUOUS
 10
-432.000000
 20
452.500000
 11
-379.675308
 21
452.500000
  0
LINE
  8
0
 62
     1
  6
CONTINUOUS
 10
-432.000000
 20
577.500000
 11
-379.675308
 21
577.500000
  0
LINE
  8
0
 62
     1
  6
CONTINUOUS
 10
-383.675308
 20
577.500000
 11
-383.675308
 21
452.500000
  0
SOLID
  8
0
 62
     1
 10
-375.910737
 20
548.522225
 11
-391.439879
 21
548.522225
 12
-383.675308
 22
577.500000
 13
-383.675308
 23
577.500000
  0
SOLID
  8
0
 62
     1
 10
-391.439879
 20
481.477775
 11
-375.910737
 21
481.477775
 12
-383.675308
 22
452.500000
 13
-383.675308
 23
452.500000
  0
TEXT
  8
0
 62
     1
 10
-385.808641
 20
499.000000
 40
32.000000
 50
90.000000
 41
0.86 
  1
Ａ
 72
     5
 11
-385.808641
 21
531.000000
  0
ENDBLK
  0
BLOCK
  8
0
  2
G6
 70
     0
 10
0
 20
0
  0
TEXT
  8
0
 62
     1
 10
-329.008641
 20
487.000000
 40
32.000000
 50
90.000000
 41
0.58 
  1
210
 72
     5
 11
-329.008641
 21
543.000000
  0
LINE
  8
0
 62
     1
  6
CONTINUOUS
 10
-586.000000
 20
410.000000
 11
-313.675308
 21
410.000000
  0
LINE
  8
0
 62
     1
  6
CONTINUOUS
 10
-586.000000
 20
620.000000
 11
-313.675308
 21
620.000000
  0
LINE
  8
0
 62
     1
  6
CONTINUOUS
 10
-323.675308
 20
620.000000
 11
-323.675308
 21
410.000000
  0
SOLID
  8
0
 62
     1
 10
-317.204832
 20
595.851854
 11
-330.145784
 21
595.851854
 12
-323.675308
 22
620.000000
 13
-323.675308
 23
620.000000
  0
SOLID
  8
0
 62
     1
 10
-330.145784
 20
434.148146
 11
-317.204832
 21
434.148146
 12
-323.675308
 22
410.000000
 13
-323.675308
 23
410.000000
  0
ENDBLK
  0
BLOCK
  8
0
  2
G7
 70
     0
 10
0
 20
0
  0
TEXT
  8
0
 62
     1
 10
-1095.996281
 20
-499.972883
 40
32.000000
 50
90.000000
 41
0.58 
  1
150
 72
     5
 11
-1095.996281
 21
-443.972883
  0
LINE
  8
0
 62
     1
  6
CONTINUOUS
 10
-1264.739862
 20
-546.972883
 11
-1080.662948
 21
-546.972883
  0
LINE
  8
0
 62
     1
  6
CONTINUOUS
 10
-1090.662948
 20
-396.972883
 11
-1090.662948
 21
-546.972883
  0
SOLID
  8
0
 62
     1
 10
-1084.192472
 20
-421.121029
 11
-1097.133424
 21
-421.121029
 12
-1090.662948
 22
-396.972883
 13
-1090.662948
 23
-396.972883
  0
SOLID
  8
0
 62
     1
 10
-1097.133424
 20
-522.824738
 11
-1084.192472
 21
-522.824738
 12
-1090.662948
 22
-546.972883
 13
-1090.662948
 23
-546.972883
  0
ENDBLK
  0
BLOCK
  8
0
  2
G8
 70
     0
 10
0
 20
0
  0
TEXT
  8
0
 62
     1
 10
-1095.996281
 20
-364.972883
 40
32.000000
 50
90.000000
 41
0.58 
  1
120
 72
     5
 11
-1095.996281
 21
-308.972883
  0
LINE
  8
0
 62
     1
  6
CONTINUOUS
 10
-1267.488951
 20
-396.972883
 11
-1080.662948
 21
-396.972883
  0
LINE
  8
0
 62
     1
  6
CONTINUOUS
 10
-1236.990773
 20
-276.972883
 11
-1080.662948
 21
-276.972883
  0
LINE
  8
0
 62
     1
  6
CONTINUOUS
 10
-1090.662948
 20
-276.972883
 11
-1090.662948
 21
-396.972883
  0
SOLID
  8
0
 62
     1
 10
-1084.192472
 20
-301.121029
 11
-1097.133424
 21
-301.121029
 12
-1090.662948
 22
-276.972883
 13
-1090.662948
 23
-276.972883
  0
SOLID
  8
0
 62
     1
 10
-1097.133424
 20
-372.824738
 11
-1084.192472
 21
-372.824738
 12
-1090.662948
 22
-396.972883
 13
-1090.662948
 23
-396.972883
  0
ENDBLK
  0
BLOCK
  8
0
  2
G9
 70
     0
 10
0
 20
0
  0
TEXT
  8
0
 62
     1
 10
-1035.996281
 20
210.027117
 40
32.000000
 50
90.000000
 41
0.58 
  1
250
 72
     5
 11
-1035.996281
 21
266.027117
  0
LINE
  8
0
 62
     1
  6
CONTINUOUS
 10
-1317.739862
 20
363.027117
 11
-1020.662948
 21
363.027117
  0
LINE
  8
0
 62
     1
  6
CONTINUOUS
 10
-1080.662948
 20
113.027117
 11
-1020.662948
 21
113.027117
  0
LINE
  8
0
 62
     1
  6
CONTINUOUS
 10
-1030.662948
 20
113.027117
 11
-1030.662948
 21
363.027117
  0
SOLID
  8
0
 62
     1
 10
-1038.427519
 20
142.004891
 11
-1022.898377
 21
142.004891
 12
-1030.662948
 22
113.027117
 13
-1030.662948
 23
113.027117
  0
SOLID
  8
0
 62
     1
 10
-1022.898377
 20
334.049342
 11
-1038.427519
 21
334.049342
 12
-1030.662948
 22
363.027117
 13
-1030.662948
 23
363.027117
  0
ENDBLK
  0
BLOCK
  8
0
  2
G10
 70
     0
 10
0
 20
0
  0
TEXT
  8
0
 62
     1
 10
-975.996281
 20
-22.972883
 40
32.000000
 50
90.000000
 41
0.86 
  1
Ｐ
 72
     5
 11
-975.996281
 21
9.027117
  0
LINE
  8
0
 62
     1
  6
CONTINUOUS
 10
-960.662948
 20
-186.972883
 11
-1227.474293
 21
-186.972883
  0
LINE
  8
0
 62
     1
  6
CONTINUOUS
 10
-970.662948
 20
-186.972883
 11
-970.662948
 21
173.027117
  0
SOLID
  8
0
 62
     1
 10
-978.427519
 20
-157.995109
 11
-962.898377
 21
-157.995109
 12
-970.662948
 22
-186.972883
 13
-970.662948
 23
-186.972883
  0
SOLID
  8
0
 62
     1
 10
-962.898377
 20
144.049342
 11
-978.427519
 21
144.049342
 12
-970.662948
 22
173.027117
 13
-970.662948
 23
173.027117
  0
ENDBLK
  0
BLOCK
  8
0
  2
G11
 70
     0
 10
0
 20
0
  0
TEXT
  8
0
 62
     1
 10
-915.996281
 20
382.527117
 40
32.000000
 50
90.000000
 41
0.56 
  1
75
 72
     5
 11
-915.996281
 21
418.527117
  0
LINE
  8
0
 62
     1
  6
CONTINUOUS
 10
-900.662948
 20
363.027117
 11
-1030.662948
 21
363.027117
  0
LINE
  8
0
 62
     1
  6
CONTINUOUS
 10
-900.662948
 20
438.027117
 11
-1247.549807
 21
438.027117
  0
LINE
  8
0
 62
     1
  6
CONTINUOUS
 10
-910.662948
 20
438.027117
 11
-910.662948
 21
363.027117
  0
SOLID
  8
0
 62
     1
 10
-904.192472
 20
413.878971
 11
-917.133424
 21
413.878971
 12
-910.662948
 22
438.027117
 13
-910.662948
 23
438.027117
  0
SOLID
  8
0
 62
     1
 10
-917.133424
 20
387.175262
 11
-904.192472
 21
387.175262
 12
-910.662948
 22
363.027117
 13
-910.662948
 23
363.027117
  0
ENDBLK
  0
BLOCK
  8
0
  2
G12
 70
     0
 10
0
 20
0
  0
TEXT
  8
0
 62
     1
 10
-760.095506
 20
639.497527
 40
32.000000
 50
45.000000
 41
0.58 
  1
248
 72
     5
 11
-720.497527
 21
679.095506
  0
LINE
  8
0
 62
     1
  6
CONTINUOUS
 10
-690.752309
 20
434.389827
 11
-831.277589
 21
574.915108
  0
LINE
  8
0
 62
     1
  6
CONTINUOUS
 10
-648.844040
 20
743.206521
 11
-824.206521
 21
567.844040
  0
SOLID
  8
0
 62
     1
 10
-661.344040
 20
721.555886
 11
-670.494675
 21
730.706521
 12
-648.844040
 22
743.206521
 13
-648.844040
 23
743.206521
  0
SOLID
  8
0
 62
     1
 10
-811.706521
 20
589.494675
 11
-802.555886
 21
580.344040
 12
-824.206521
 22
567.844040
 13
-824.206521
 23
567.844040
  0
ENDBLK
  0
BLOCK
  8
0
  2
G13
 70
     0
 10
0
 20
0
  0
TEXT
  8
0
 62
     1
 10
-624.000000
 20
663.708586
 40
32.000000
 50
0.000000E+00
 41
0.58 
  1
210
 72
     5
 11
-568.000000
 21
663.708586
  0
LINE
  8
0
 62
     1
  6
CONTINUOUS
 10
-491.000000
 20
525.000000
 11
-491.000000
 21
668.375253
  0
LINE
  8
0
 62
     1
  6
CONTINUOUS
 10
-701.000000
 20
525.000000
 11
-701.000000
 21
668.375253
  0
LINE
  8
0
 62
     1
  6
CONTINUOUS
 10
-701.000000
 20
658.375253
 11
-491.000000
 21
658.375253
  0
SOLID
  8
0
 62
     1
 10
-676.851854
 20
664.845729
 11
-676.851854
 21
651.904777
 12
-701.000000
 22
658.375253
 13
-701.000000
 23
658.375253
  0
SOLID
  8
0
 62
     1
 10
-515.148146
 20
651.904777
 11
-515.148146
 21
664.845729
 12
-491.000000
 22
658.375253
 13
-491.000000
 23
658.375253
  0
ENDBLK
  0
BLOCK
  8
0
  2
G14
 70
     0
 10
0
 20
0
  0
TEXT
  8
0
 62
     7
 10
-495.384502
 20
757.792816
 40
32.000000
 50
0.000000E+00
 41
0.66 
  1
％％ｃ　　　枝管
 72
     5
 11
-303.384502
 21
757.792816
  0
LINE
  8
0
 62
     3
  6
CONTINUOUS
 10
-495.683569
 20
748.295228
 11
-325.683569
 21
748.295228
  0
LINE
  8
0
 62
     3
  6
CONTINUOUS
 10
-495.683569
 20
740.295228
 11
-325.683569
 21
740.295228
  0
ENDBLK
  0
BLOCK
  8
0
  2
G15
 70
     0
 10
0
 20
0
  0
LINE
  8
0
 62
     3
  6
CONTINUOUS
 10
-1113.043291
 20
-48.975228
 11
-1135.545746
 21
-35.983430
  0
LINE
  8
0
 62
     3
  6
CONTINUOUS
 10
-1128.460760
 20
-75.679068
 11
-1113.043291
 21
-48.975228
  0
TEXT
  8
0
 62
     3
 10
-1140.254043
 20
-108.037285
 40
32.000000
 50
0.000000E+00
 41
0.86 
  1
Ｃ
 72
     5
 11
-1108.254043
 21
-108.037285
  0
LINE
  8
0
 62
     3
  6
CONTINUOUS
 10
-1128.460760
 20
-28.308819
 11
-1128.460760
 21
-75.679068
  0
LINE
  8
0
 62
     3
  6
CONTINUOUS
 10
-1128.460760
 20
-28.308819
 11
-1208.023323
 21
-28.308819
  0
ENDBLK
  0
BLOCK
  8
0
  2
G16
 70
     0
 10
0
 20
0
  0
LINE
  8
0
 62
     1
  6
CONTINUOUS
 10
-436.000000
 20
300.375253
 11
-386.000000
 21
300.375253
  0
SOLID
  8
0
 62
     1
 10
-411.851854
 20
306.845729
 11
-411.851854
 21
293.904777
 12
-436.000000
 22
300.375253
 13
-436.000000
 23
300.375253
  0
LINE
  8
0
 62
     1
  6
CONTINUOUS
 10
-646.000000
 20
300.375253
 11
-596.000000
 21
300.375253
  0
SOLID
  8
0
 62
     1
 10
-620.148146
 20
293.904777
 11
-620.148146
 21
306.845729
 12
-596.000000
 22
300.375253
 13
-596.000000
 23
300.375253
  0
TEXT
  8
0
 62
     1
 10
-544.000000
 20
305.708586
 40
32.000000
 50
0.000000E+00
 41
0.58 
  1
160
 72
     5
 11
-488.000000
 21
305.708586
  0
LINE
  8
0
 62
     1
  6
CONTINUOUS
 10
-596.000000
 20
385.308197
 11
-596.000000
 21
290.375253
  0
LINE
  8
0
 62
     1
  6
CONTINUOUS
 10
-436.000000
 20
347.375253
 11
-436.000000
 21
290.375253
  0
LINE
  8
0
 62
     1
  6
CONTINUOUS
 10
-436.000000
 20
300.375253
 11
-596.000000
 21
300.375253
  0
ENDBLK
  0
BLOCK
  8
0
  2
G17
 70
     0
 10
0
 20
0
  0
TEXT
  8
0
 62
     3
 10
-1090.660217
 20
942.836718
 40
32.000000
 50
0.000000E+00
 41
0.95 
  1
受口深さ　
 72
     5
 11
-914.660217
 21
942.836718
  0
ENDBLK
  0
BLOCK
  8
0
  2
G18
 70
     0
 10
0
 20
0
  0
TEXT
  8
0
 62
     3
 10
-1698.419845
 20
886.225678
 40
32.000000
 50
0.000000E+00
 41
0.95 
  1
受口深さ　
 72
     5
 11
-1522.419845
 21
886.225678
  0
ENDBLK
  0
BLOCK
  8
0
  2
G19
 70
     0
 10
0
 20
0
  0
LINE
  8
0
 62
     3
  6
CONTINUOUS
 10
-455.247112
 20
587.223341
 11
-455.247112
 21
727.223341
  0
SOLID
  8
0
 62
     3
 10
-464.018263
 20
615.912484
 11
-446.475961
 21
615.912484
 12
-455.247112
 22
587.223341
 13
-455.247112
 23
587.223341
  0
ENDBLK
  0
BLOCK
  8
0
  2
G20
 70
     0
 10
0
 20
0
  0
LINE
  8
0
 62
     3
  6
CONTINUOUS
 10
-1128.460760
 20
-28.308819
 11
-1208.023323
 21
-28.308819
  0
LINE
  8
0
 62
     3
  6
CONTINUOUS
 10
-1128.460760
 20
-28.308819
 11
-1128.460760
 21
-75.679068
  0
TEXT
  8
0
 62
     3
 10
-1140.254043
 20
-108.037285
 40
32.000000
 50
0.000000E+00
 41
0.86 
  1
Ｃ
 72
     5
 11
-1108.254043
 21
-108.037285
  0
LINE
  8
0
 62
     3
  6
CONTINUOUS
 10
-1128.460760
 20
-75.679068
 11
-1113.043291
 21
-48.975228
  0
LINE
  8
0
 62
     3
  6
CONTINUOUS
 10
-1113.043291
 20
-48.975228
 11
-1135.545746
 21
-35.983430
  0
ENDBLK
  0
BLOCK
  8
0
  2
G21
 70
     0
 10
0
 20
0
  0
LINE
  8
0
 62
     1
  6
CONTINUOUS
 10
-1090.662948
 20
-186.972883
 11
-1090.662948
 21
-236.972883
  0
SOLID
  8
0
 62
     1
 10
-1084.192472
 20
-211.121029
 11
-1097.133424
 21
-211.121029
 12
-1090.662948
 22
-186.972883
 13
-1090.662948
 23
-186.972883
  0
LINE
  8
0
 62
     1
  6
CONTINUOUS
 10
-1090.662948
 20
-76.972883
 11
-1090.662948
 21
-126.972883
  0
SOLID
  8
0
 62
     1
 10
-1097.133424
 20
-102.824738
 11
-1084.192472
 21
-102.824738
 12
-1090.662948
 22
-126.972883
 13
-1090.662948
 23
-126.972883
  0
TEXT
  8
0
 62
     1
 10
-1095.996281
 20
-172.972883
 40
32.000000
 50
90.000000
 41
0.86 
  1
Ｂ
 72
     5
 11
-1095.996281
 21
-140.972883
  0
LINE
  8
0
 62
     1
  6
CONTINUOUS
 10
-1157.739862
 20
-186.972883
 11
-1080.662948
 21
-186.972883
  0
LINE
  8
0
 62
     1
  6
CONTINUOUS
 10
-1152.801974
 20
-126.972883
 11
-1080.662948
 21
-126.972883
  0
LINE
  8
0
 62
     1
  6
CONTINUOUS
 10
-1090.662948
 20
-126.972883
 11
-1090.662948
 21
-186.972883
  0
ENDBLK
  0
BLOCK
  8
0
  2
G22
 70
     0
 10
0
 20
0
  0
LINE
  8
0
 62
     1
  6
CONTINUOUS
 10
-1232.739862
 20
871.838562
 11
-1167.739862
 21
871.838562
  0
LINE
  8
0
 62
     1
  6
CONTINUOUS
 10
-1232.739862
 20
796.948109
 11
-1232.739862
 21
881.838562
  0
LINE
  8
0
 62
     1
  6
CONTINUOUS
 10
-1167.739862
 20
799.448109
 11
-1167.739862
 21
931.838562
  0
TEXT
  8
0
 62
     1
 10
-1218.239862
 20
877.171895
 40
32.000000
 50
0.000000E+00
 41
0.56 
  1
65
 72
     5
 11
-1182.239862
 21
877.171895
  0
LINE
  8
0
 62
     1
  6
CONTINUOUS
 10
-1282.739862
 20
871.838562
 11
-1232.739862
 21
871.838562
  0
SOLID
  8
0
 62
     1
 10
-1256.888007
 20
865.368086
 11
-1256.888007
 21
878.309038
 12
-1232.739862
 22
871.838562
 13
-1232.739862
 23
871.838562
  0
LINE
  8
0
 62
     1
  6
CONTINUOUS
 10
-1167.739862
 20
871.838562
 11
-1117.739862
 21
871.838562
  0
SOLID
  8
0
 62
     1
 10
-1143.591716
 20
878.309038
 11
-1143.591716
 21
865.368086
 12
-1167.739862
 22
871.838562
 13
-1167.739862
 23
871.838562
  0
ENDBLK
  0
BLOCK
  8
0
  2
G23
 70
     0
 10
0
 20
0
  0
LINE
  8
0
 62
     1
  6
CONTINUOUS
 10
-1094.485175
 20
664.448109
 11
-1094.485175
 21
789.448109
  0
SOLID
  8
0
 62
     1
 10
-1100.955651
 20
688.596254
 11
-1088.014699
 21
688.596254
 12
-1094.485175
 22
664.448109
 13
-1094.485175
 23
664.448109
  0
SOLID
  8
0
 62
     1
 10
-1088.014699
 20
765.299963
 11
-1100.955651
 21
765.299963
 12
-1094.485175
 22
789.448109
 13
-1094.485175
 23
789.448109
  0
LINE
  8
0
 62
     1
  6
CONTINUOUS
 10
-1157.739862
 20
664.448109
 11
-1084.485175
 21
664.448109
  0
LINE
  8
0
 62
     1
  6
CONTINUOUS
 10
-1157.739862
 20
789.448109
 11
-1084.485175
 21
789.448109
  0
TEXT
  8
0
 62
     1
 10
-1099.818508
 20
668.948109
 40
32.000000
 50
90.000000
 41
0.60 
  1
%%c125
 72
     5
 11
-1099.818508
 21
784.948109
  0
ENDBLK
  0
BLOCK
  8
0
  2
G24
 70
     0
 10
0
 20
0
  0
TEXT
  8
0
 62
     1
 10
-1566.327882
 20
668.948109
 40
32.000000
 50
90.000000
 41
0.60 
  1
%%c125
 72
     5
 11
-1566.327882
 21
784.948109
  0
LINE
  8
0
 62
     1
  6
CONTINUOUS
 10
-1497.739862
 20
789.448109
 11
-1570.994549
 21
789.448109
  0
LINE
  8
0
 62
     1
  6
CONTINUOUS
 10
-1497.739862
 20
664.448109
 11
-1570.994549
 21
664.448109
  0
LINE
  8
0
 62
     1
  6
CONTINUOUS
 10
-1560.994549
 20
664.448109
 11
-1560.994549
 21
789.448109
  0
SOLID
  8
0
 62
     1
 10
-1567.465025
 20
688.596254
 11
-1554.524072
 21
688.596254
 12
-1560.994549
 22
664.448109
 13
-1560.994549
 23
664.448109
  0
SOLID
  8
0
 62
     1
 10
-1554.524072
 20
765.299963
 11
-1567.465025
 21
765.299963
 12
-1560.994549
 22
789.448109
 13
-1560.994549
 23
789.448109
  0
ENDBLK
  0
BLOCK
  8
0
  2
G25
 70
     0
 10
0
 20
0
  0
TEXT
  8
0
 62
     3
 10
-977.283774
 20
493.253919
 40
32.000000
 50
0.000000E+00
 41
0.95 
  1
受口深さ　
 72
     5
 11
-801.283774
 21
493.253919
  0
ENDBLK
  0
BLOCK
  8
0
  2
G26
 70
     0
 10
0
 20
0
  0
LINE
  8
0
 62
     1
  6
CONTINUOUS
 10
-1090.662948
 20
110.527117
 11
-1090.662948
 21
19.944416
  0
SOLID
  8
0
 62
     1
 10
-1084.192472
 20
86.378971
 11
-1097.133424
 21
86.378971
 12
-1090.662948
 22
110.527117
 13
-1090.662948
 23
110.527117
  0
TEXT
  8
0
 62
     1
 10
-1095.996281
 20
24.799037
 40
32.000000
 50
90.000000
 41
0.58 
  1
2.5
 72
     5
 11
-1095.996281
 21
80.799037
  0
LINE
  8
0
 62
     1
  6
CONTINUOUS
 10
-1080.662948
 20
110.527117
 11
-1162.739862
 21
110.527117
  0
LINE
  8
0
 62
     1
  6
CONTINUOUS
 10
-1090.662948
 20
110.527117
 11
-1090.662948
 21
113.027117
  0
ENDBLK
  0
BLOCK
  8
0
  2
G27
 70
     0
 10
0
 20
0
  0
LINE
  8
0
 62
     1
  6
CONTINUOUS
 10
-1090.662948
 20
173.027117
 11
-1090.662948
 21
223.027117
  0
SOLID
  8
0
 62
     1
 10
-1098.427519
 20
202.004891
 11
-1082.898377
 21
202.004891
 12
-1090.662948
 22
173.027117
 13
-1090.662948
 23
173.027117
  0
TEXT
  8
0
 62
     1
 10
-1095.996281
 20
125.027117
 40
32.000000
 50
90.000000
 41
0.56 
  1
60
 72
     5
 11
-1095.996281
 21
161.027117
  0
LINE
  8
0
 62
     1
  6
CONTINUOUS
 10
-1151.806156
 20
173.027117
 11
-1080.662948
 21
173.027117
  0
LINE
  8
0
 62
     1
  6
CONTINUOUS
 10
-1162.739862
 20
113.027117
 11
-1080.662948
 21
113.027117
  0
LINE
  8
0
 62
     1
  6
CONTINUOUS
 10
-1090.662948
 20
113.027117
 11
-1090.662948
 21
173.027117
  0
CIRCLE
  8
0
 62
     1
  6
CONTINUOUS
 10
-1090.662948
 20
113.027117
 40
2.500000
  0
CIRCLE
  8
0
 62
     1
  6
CONTINUOUS
 10
-1090.662948
 20
113.027117
 40
1.250000
  0
ENDBLK
  0
BLOCK
  8
0
  2
G28
 70
     0
 10
0
 20
0
  0
LINE
  8
0
 62
     1
  6
CONTINUOUS
 10
-1564.816775
 20
110.527117
 11
-1564.816775
 21
113.027117
  0
LINE
  8
0
 62
     1
  6
CONTINUOUS
 10
-1574.816775
 20
110.527117
 11
-1492.739862
 21
110.527117
  0
TEXT
  8
0
 62
     1
 10
-1570.150108
 20
24.799037
 40
32.000000
 50
90.000000
 41
0.58 
  1
2.5
 72
     5
 11
-1570.150108
 21
80.799037
  0
LINE
  8
0
 62
     1
  6
CONTINUOUS
 10
-1564.816775
 20
110.527117
 11
-1564.816775
 21
19.944416
  0
SOLID
  8
0
 62
     1
 10
-1558.346299
 20
86.378971
 11
-1571.287251
 21
86.378971
 12
-1564.816775
 22
110.527117
 13
-1564.816775
 23
110.527117
  0
ENDBLK
  0
BLOCK
  8
0
  2
G29
 70
     0
 10
0
 20
0
  0
LINE
  8
0
 62
     1
  6
CONTINUOUS
 10
-1564.816775
 20
113.027117
 11
-1564.816775
 21
173.027117
  0
CIRCLE
  8
0
 62
     1
  6
CONTINUOUS
 10
-1564.816775
 20
113.027117
 40
2.500000
  0
CIRCLE
  8
0
 62
     1
  6
CONTINUOUS
 10
-1564.816775
 20
113.027117
 40
1.250000
  0
LINE
  8
0
 62
     1
  6
CONTINUOUS
 10
-1492.739862
 20
113.027117
 11
-1574.816775
 21
113.027117
  0
LINE
  8
0
 62
     1
  6
CONTINUOUS
 10
-1503.673568
 20
173.027117
 11
-1574.816775
 21
173.027117
  0
TEXT
  8
0
 62
     1
 10
-1570.150108
 20
125.027117
 40
32.000000
 50
90.000000
 41
0.56 
  1
60
 72
     5
 11
-1570.150108
 21
161.027117
  0
LINE
  8
0
 62
     1
  6
CONTINUOUS
 10
-1564.816775
 20
173.027117
 11
-1564.816775
 21
223.027117
  0
SOLID
  8
0
 62
     1
 10
-1572.581347
 20
202.004891
 11
-1557.052204
 21
202.004891
 12
-1564.816775
 22
173.027117
 13
-1564.816775
 23
173.027117
  0
ENDBLK
  0
BLOCK
  8
0
  2
G30
 70
     0
 10
0
 20
0
  0
LINE
  8
0
 62
     1
  6
CONTINUOUS
 10
-1487.739862
 20
871.838562
 11
-1537.739862
 21
871.838562
  0
SOLID
  8
0
 62
     1
 10
-1511.888007
 20
865.368086
 11
-1511.888007
 21
878.309038
 12
-1487.739862
 22
871.838562
 13
-1487.739862
 23
871.838562
  0
LINE
  8
0
 62
     1
  6
CONTINUOUS
 10
-1372.739862
 20
871.838562
 11
-1422.739862
 21
871.838562
  0
SOLID
  8
0
 62
     1
 10
-1398.591716
 20
878.309038
 11
-1398.591716
 21
865.368086
 12
-1422.739862
 22
871.838562
 13
-1422.739862
 23
871.838562
  0
TEXT
  8
0
 62
     1
 10
-1473.239862
 20
877.171895
 40
32.000000
 50
360.000000
 41
0.56 
  1
65
 72
     5
 11
-1437.239862
 21
877.171895
  0
LINE
  8
0
 62
     1
  6
CONTINUOUS
 10
-1487.739862
 20
799.448109
 11
-1487.739862
 21
931.838562
  0
LINE
  8
0
 62
     1
  6
CONTINUOUS
 10
-1422.739862
 20
796.948109
 11
-1422.739862
 21
881.838562
  0
LINE
  8
0
 62
     1
  6
CONTINUOUS
 10
-1422.739862
 20
871.838562
 11
-1487.739862
 21
871.838562
  0
ENDBLK
  0
BLOCK
  8
0
  2
G31
 70
     0
 10
0
 20
0
  0
LINE
  8
0
 62
     7
  6
CONTINUOUS
 10
-1402.739862
 20
448.027117
 11
-1402.739862
 21
491.551724
  0
LINE
  8
0
 62
     7
  6
CONTINUOUS
 10
-1252.739862
 20
448.027117
 11
-1252.739862
 21
491.551724
  0
LINE
  8
0
 62
     7
  6
CONTINUOUS
 10
-1402.739862
 20
481.551724
 11
-1252.739862
 21
481.551724
  0
SOLID
  8
0
 62
     7
 10
-1374.050719
 20
490.322875
 11
-1374.050719
 21
472.780573
 12
-1402.739862
 22
481.551724
 13
-1402.739862
 23
481.551724
  0
SOLID
  8
0
 62
     7
 10
-1281.429004
 20
472.780573
 11
-1281.429004
 21
490.322875
 12
-1252.739862
 22
481.551724
 13
-1252.739862
 23
481.551724
  0
TEXT
  8
0
 62
     7
 10
-1385.739862
 20
486.885054
 40
32.000000
 50
0.000000E+00
 41
0.60 
  1
%%c150
 72
     5
 11
-1269.739862
 21
486.885054
  0
ENDBLK
  0
BLOCK
  8
0
  2
G32
 70
     0
 10
0
 20
0
  0
LINE
  8
0
 62
     7
  6
CONTINUOUS
 10
-1413.739862
 20
268.786486
 11
-1413.739862
 21
553.748668
  0
LINE
  8
0
 62
     7
  6
CONTINUOUS
 10
-1241.739862
 20
258.786486
 11
-1241.739862
 21
553.748668
  0
LINE
  8
0
 62
     7
  6
CONTINUOUS
 10
-1413.739862
 20
543.748668
 11
-1241.739862
 21
543.748668
  0
SOLID
  8
0
 62
     7
 10
-1385.050719
 20
552.519819
 11
-1385.050719
 21
534.977516
 12
-1413.739862
 22
543.748668
 13
-1413.739862
 23
543.748668
  0
SOLID
  8
0
 62
     7
 10
-1270.429004
 20
534.977516
 11
-1270.429004
 21
552.519819
 12
-1241.739862
 22
543.748668
 13
-1241.739862
 23
543.748668
  0
TEXT
  8
0
 62
     7
 10
-1385.739862
 20
549.081997
 40
32.000000
 50
0.000000E+00
 41
0.60 
  1
%%c172
 72
     5
 11
-1269.739862
 21
549.081997
  0
ENDBLK
  0
BLOCK
  8
0
  2
G33
 70
     0
 10
0
 20
0
  0
LINE
  8
0
 62
     7
  6
CONTINUOUS
 10
-1382.739862
 20
-556.972883
 11
-1382.739862
 21
-631.607049
  0
LINE
  8
0
 62
     7
  6
CONTINUOUS
 10
-1272.739862
 20
-556.972883
 11
-1272.739862
 21
-631.607049
  0
LINE
  8
0
 62
     7
  6
CONTINUOUS
 10
-1382.739862
 20
-621.607049
 11
-1272.739862
 21
-621.607049
  0
SOLID
  8
0
 62
     7
 10
-1354.050719
 20
-612.835898
 11
-1354.050719
 21
-630.378201
 12
-1382.739862
 22
-621.607049
 13
-1382.739862
 23
-621.607049
  0
SOLID
  8
0
 62
     7
 10
-1301.429004
 20
-630.378201
 11
-1301.429004
 21
-612.835898
 12
-1272.739862
 22
-621.607049
 13
-1272.739862
 23
-621.607049
  0
TEXT
  8
0
 62
     7
 10
-1385.739862
 20
-616.273720
 40
32.000000
 50
0.000000E+00
 41
0.60 
  1
%%c110
 72
     5
 11
-1269.739862
 21
-616.273720
  0
ENDBLK
  0
BLOCK
  8
0
  2
G34
 70
     0
 10
0
 20
0
  0
LINE
  8
0
 62
     7
  6
CONTINUOUS
 10
-1413.739862
 20
-293.100972
 11
-1413.739862
 21
-696.251332
  0
LINE
  8
0
 62
     7
  6
CONTINUOUS
 10
-1241.739862
 20
-283.100972
 11
-1241.739862
 21
-696.251332
  0
LINE
  8
0
 62
     7
  6
CONTINUOUS
 10
-1413.739862
 20
-686.251332
 11
-1241.739862
 21
-686.251332
  0
SOLID
  8
0
 62
     7
 10
-1385.050719
 20
-677.480181
 11
-1385.050719
 21
-695.022484
 12
-1413.739862
 22
-686.251332
 13
-1413.739862
 23
-686.251332
  0
SOLID
  8
0
 62
     7
 10
-1270.429004
 20
-695.022484
 11
-1270.429004
 21
-677.480181
 12
-1241.739862
 22
-686.251332
 13
-1241.739862
 23
-686.251332
  0
TEXT
  8
0
 62
     7
 10
-1385.739862
 20
-680.918003
 40
32.000000
 50
0.000000E+00
 41
0.60 
  1
%%c172
 72
     5
 11
-1269.739862
 21
-680.918003
  0
ENDBLK
  0
BLOCK
  8
0
  2
G35
 70
     0
 10
0
 20
0
  0
LINE
  8
0
 62
     7
  6
CONTINUOUS
 10
-1487.739862
 20
796.752345
 11
-1487.739862
 21
937.361891
  0
LINE
  8
0
 62
     7
  6
CONTINUOUS
 10
-1327.739862
 20
829.367860
 11
-1327.739862
 21
937.361891
  0
LINE
  8
0
 62
     7
  6
CONTINUOUS
 10
-1487.739862
 20
927.361891
 11
-1327.739862
 21
927.361891
  0
SOLID
  8
0
 62
     7
 10
-1459.050719
 20
936.133043
 11
-1459.050719
 21
918.590740
 12
-1487.739862
 22
927.361891
 13
-1487.739862
 23
927.361891
  0
SOLID
  8
0
 62
     7
 10
-1356.429004
 20
918.590740
 11
-1356.429004
 21
936.133043
 12
-1327.739862
 22
927.361891
 13
-1327.739862
 23
927.361891
  0
TEXT
  8
0
 62
     7
 10
-1435.739862
 20
932.695221
 40
32.000000
 50
0.000000E+00
 41
0.58 
  1
160
 72
     5
 11
-1379.739862
 21
932.695221
  0
LINE
  8
0
 62
     7
  6
CONTINUOUS
 10
-1167.739862
 20
796.752345
 11
-1167.739862
 21
937.361891
  0
LINE
  8
0
 62
     7
  6
CONTINUOUS
 10
-1327.739862
 20
927.361891
 11
-1167.739862
 21
927.361891
  0
SOLID
  8
0
 62
     7
 10
-1299.050719
 20
936.133043
 11
-1299.050719
 21
918.590740
 12
-1327.739862
 22
927.361891
 13
-1327.739862
 23
927.361891
  0
SOLID
  8
0
 62
     7
 10
-1196.429004
 20
918.590740
 11
-1196.429004
 21
936.133043
 12
-1167.739862
 22
927.361891
 13
-1167.739862
 23
927.361891
  0
TEXT
  8
0
 62
     7
 10
-1275.739862
 20
932.695221
 40
32.000000
 50
0.000000E+00
 41
0.58 
  1
160
 72
     5
 11
-1219.739862
 21
932.695221
  0
ENDBLK
  0
BLOCK
  8
0
  2
G36
 70
     0
 10
0
 20
0
  0
LINE
  8
0
 62
     7
  6
CONTINUOUS
 10
-1255.739862
 20
629.252345
 11
-1020.662948
 21
629.252345
  0
LINE
  8
0
 62
     7
  6
CONTINUOUS
 10
-1091.219972
 20
724.252345
 11
-1020.662948
 21
724.252345
  0
LINE
  8
0
 62
     7
  6
CONTINUOUS
 10
-1030.662948
 20
629.252345
 11
-1030.662948
 21
724.252345
  0
SOLID
  8
0
 62
     7
 10
-1039.434099
 20
657.941488
 11
-1021.891797
 21
657.941488
 12
-1030.662948
 22
629.252345
 13
-1030.662948
 23
629.252345
  0
SOLID
  8
0
 62
     7
 10
-1021.891797
 20
695.563202
 11
-1039.434099
 21
695.563202
 12
-1030.662948
 22
724.252345
 13
-1030.662948
 23
724.252345
  0
TEXT
  8
0
 62
     7
 10
-1035.996278
 20
658.752345
 40
32.000000
 50
90.000000
 41
0.56 
  1
95
 72
     5
 11
-1035.996278
 21
694.752345
  0
ENDBLK
  0
BLOCK
  8
0
  2
G37
 70
     0
 10
0
 20
0
  0
TEXT
  8
0
 62
     1
 10
-1095.996281
 20
-364.972883
 40
32.000000
 50
90.000000
 41
0.58 
  1
120
 72
     5
 11
-1095.996281
 21
-308.972883
  0
LINE
  8
0
 62
     1
  6
CONTINUOUS
 10
-1267.488951
 20
-396.972883
 11
-1080.662948
 21
-396.972883
  0
LINE
  8
0
 62
     1
  6
CONTINUOUS
 10
-1236.990773
 20
-276.972883
 11
-1080.662948
 21
-276.972883
  0
LINE
  8
0
 62
     1
  6
CONTINUOUS
 10
-1090.662948
 20
-276.972883
 11
-1090.662948
 21
-396.972883
  0
SOLID
  8
0
 62
     1
 10
-1084.192472
 20
-301.121029
 11
-1097.133424
 21
-301.121029
 12
-1090.662948
 22
-276.972883
 13
-1090.662948
 23
-276.972883
  0
SOLID
  8
0
 62
     1
 10
-1097.133424
 20
-372.824738
 11
-1084.192472
 21
-372.824738
 12
-1090.662948
 22
-396.972883
 13
-1090.662948
 23
-396.972883
  0
ENDBLK
  0
BLOCK
  8
0
  2
G38
 70
     0
 10
0
 20
0
  0
TEXT
  8
0
 62
     1
 10
-1095.996281
 20
-499.972883
 40
32.000000
 50
90.000000
 41
0.58 
  1
150
 72
     5
 11
-1095.996281
 21
-443.972883
  0
LINE
  8
0
 62
     1
  6
CONTINUOUS
 10
-1264.739862
 20
-546.972883
 11
-1080.662948
 21
-546.972883
  0
LINE
  8
0
 62
     1
  6
CONTINUOUS
 10
-1090.662948
 20
-396.972883
 11
-1090.662948
 21
-546.972883
  0
SOLID
  8
0
 62
     1
 10
-1084.192472
 20
-421.121029
 11
-1097.133424
 21
-421.121029
 12
-1090.662948
 22
-396.972883
 13
-1090.662948
 23
-396.972883
  0
SOLID
  8
0
 62
     1
 10
-1097.133424
 20
-522.824738
 11
-1084.192472
 21
-522.824738
 12
-1090.662948
 22
-546.972883
 13
-1090.662948
 23
-546.972883
  0
ENDBLK
  0
ENDSEC
  0
SECTION
  2
ENTITIES
  0
INSERT
  8
0
  2
G0
 10
0
 20
0
  0
LINE
  8
3
 62
     3
  6
CONTINUOUS
 10
-1389.466506
 20
178.842737
 11
-1390.024740
 21
187.019623
  0
LINE
  8
3
 62
     3
  6
CONTINUOUS
 10
-1390.024740
 20
187.019623
 11
-1391.036329
 21
194.929317
  0
LINE
  8
3
 62
     3
  6
CONTINUOUS
 10
-1391.036329
 20
194.929317
 11
-1392.481955
 21
202.420778
  0
LINE
  8
3
 62
     3
  6
CONTINUOUS
 10
-1392.481955
 20
202.420778
 11
-1394.334012
 21
209.350956
  0
LINE
  8
3
 62
     3
  6
CONTINUOUS
 10
-1394.334012
 20
209.350956
 11
-1396.557137
 21
215.587514
  0
LINE
  8
3
 62
     3
  6
CONTINUOUS
 10
-1396.557137
 20
215.587514
 11
-1399.108876
 21
221.011363
  0
LINE
  8
3
 62
     3
  6
CONTINUOUS
 10
-1399.108876
 20
221.011363
 11
-1401.940503
 21
225.518932
  0
LINE
  8
3
 62
     3
  6
CONTINUOUS
 10
-1401.940503
 20
225.518932
 11
-1404.997947
 21
229.024148
  0
LINE
  8
3
 62
     3
  6
CONTINUOUS
 10
-1404.997947
 20
229.024148
 11
-1408.222826
 21
231.460076
  0
LINE
  8
3
 62
     3
  6
CONTINUOUS
 10
-1408.222826
 20
231.460076
 11
-1411.553558
 21
232.780203
  0
LINE
  8
3
 62
     3
  6
CONTINUOUS
 10
-1408.222826
 20
231.460076
 11
-1411.553558
 21
232.780203
  0
LINE
  8
3
 62
     3
  6
CONTINUOUS
 10
-1411.095668
 20
113.387137
 11
-1407.820276
 21
114.833664
  0
LINE
  8
3
 62
     3
  6
CONTINUOUS
 10
-1407.820276
 20
114.833664
 11
-1404.655356
 21
117.361380
  0
LINE
  8
3
 62
     3
  6
CONTINUOUS
 10
-1404.655356
 20
117.361380
 11
-1401.659709
 21
120.923324
  0
LINE
  8
3
 62
     3
  6
CONTINUOUS
 10
-1401.659709
 20
120.923324
 11
-1398.888992
 21
125.453317
  0
LINE
  8
3
 62
     3
  6
CONTINUOUS
 10
-1398.888992
 20
125.453317
 11
-1396.394683
 21
130.867195
  0
LINE
  8
3
 62
     3
  6
CONTINUOUS
 10
-1396.394683
 20
130.867195
 11
-1394.223123
 21
137.064373
  0
LINE
  8
3
 62
     3
  6
CONTINUOUS
 10
-1394.223123
 20
137.064373
 11
-1392.414660
 21
143.929711
  0
LINE
  8
3
 62
     3
  6
CONTINUOUS
 10
-1392.414660
 20
143.929711
 11
-1391.002892
 21
151.335657
  0
LINE
  8
3
 62
     3
  6
CONTINUOUS
 10
-1391.002892
 20
151.335657
 11
-1390.014050
 21
159.144613
  0
LINE
  8
3
 62
     3
  6
CONTINUOUS
 10
-1390.014050
 20
159.144613
 11
-1389.466506
 21
167.211496
  0
LINE
  8
3
 62
     3
  6
CONTINUOUS
 10
-1390.014050
 20
159.144613
 11
-1389.466506
 21
167.211496
  0
ARC
  8
1
 62
     3
  6
CONTINUOUS
 10
-1420.739862
 20
113.027117
 40
2.000000
 50
180.000000
 51
270.000000
  0
LINE
  8
1
 62
     3
  6
CONTINUOUS
 10
-1420.739862
 20
235.027117
 11
-1417.239862
 21
235.027117
  0
LINE
  8
1
 62
     3
  6
CONTINUOUS
 10
-1420.739862
 20
111.027117
 11
-1417.239862
 21
111.027117
  0
ARC
  8
1
 62
     3
  6
CONTINUOUS
 10
-1420.739862
 20
233.027117
 40
2.000000
 50
90.000000
 51
180.000000
  0
ARC
  8
1
 62
     3
  6
CONTINUOUS
 10
-1417.239862
 20
238.027117
 40
3.000000
 50
270.000000
 51
360.000000
  0
ARC
  8
1
 62
     3
  6
CONTINUOUS
 10
-1417.239862
 20
108.027117
 40
3.000000
 50
0.000000E+00
 51
90.000000
  0
LINE
  8
3
 62
     4
  6
CONTINUOUS
 10
-1410.539450
 20
-186.482684
 11
-1407.387088
 21
-185.017441
  0
LINE
  8
3
 62
     4
  6
CONTINUOUS
 10
-1407.387088
 20
-185.017441
 11
-1404.338814
 21
-182.601159
  0
LINE
  8
3
 62
     4
  6
CONTINUOUS
 10
-1404.338814
 20
-182.601159
 11
-1401.444572
 21
-179.273430
  0
LINE
  8
3
 62
     4
  6
CONTINUOUS
 10
-1401.444572
 20
-179.273430
 11
-1398.751784
 21
-175.088775
  0
LINE
  8
3
 62
     4
  6
CONTINUOUS
 10
-1398.751784
 20
-175.088775
 11
-1396.304570
 21
-170.115760
  0
LINE
  8
3
 62
     4
  6
CONTINUOUS
 10
-1396.304570
 20
-170.115760
 11
-1394.143026
 21
-164.435866
  0
LINE
  8
3
 62
     4
  6
CONTINUOUS
 10
-1394.143026
 20
-164.435866
 11
-1392.302569
 21
-158.142155
  0
LINE
  8
3
 62
     4
  6
CONTINUOUS
 10
-1392.302569
 20
-158.142155
 11
-1390.813354
 21
-151.337747
  0
LINE
  8
3
 62
     4
  6
CONTINUOUS
 10
-1390.813354
 20
-151.337747
 11
-1389.699782
 21
-144.134130
  0
LINE
  8
3
 62
     4
  6
CONTINUOUS
 10
-1389.699782
 20
-144.134130
 11
-1388.980096
 21
-136.649332
  0
LINE
  8
3
 62
     4
  6
CONTINUOUS
 10
-1389.699782
 20
-144.134130
 11
-1388.980096
 21
-136.649332
  0
ARC
  8
1
 62
     4
  6
CONTINUOUS
 10
-1221.938544
 20
-92.212691
 40
30.639745
 50
117.551999
 51
146.346996
  0
POINT
  8
3
 62
     7
 10
-1241.739862
 20
-66.972883
  0
POINT
  8
3
 62
     4
 10
-1241.739862
 20
-188.972883
  0
ARC
  8
3
 62
     4
  6
CONTINUOUS
 10
-1238.739862
 20
-191.972883
 40
3.000000
 50
90.000000
 51
180.000000
  0
LINE
  8
3
 62
     4
  6
CONTINUOUS
 10
-1234.739862
 20
-188.972883
 11
-1238.739862
 21
-188.972883
  0
INSERT
  8
0
  2
G1
 10
0
 20
0
  0
LINE
  8
0
 62
     7
  6
CONTINUOUS
 10
-1180.260304
 20
279.111644
 11
-1180.260304
 21
237.327305
  0
SOLID
  8
0
 62
     7
 10
-1188.024875
 20
266.305080
 11
-1172.495733
 21
266.305080
 12
-1180.260304
 22
237.327305
 13
-1180.260304
 23
237.327305
  0
ARC
  8
3
 62
     4
  6
CONTINUOUS
 10
-1234.739862
 20
-186.972883
 40
2.000000
 50
270.000000
 51
360.000000
  0
LINE
  8
3
 62
     4
  6
CONTINUOUS
 10
-1232.739862
 20
-186.972883
 11
-1232.739862
 21
-66.972883
  0
ARC
  8
3
 62
     4
  6
CONTINUOUS
 10
-1234.739862
 20
-66.972883
 40
2.000000
 50
0.000000E+00
 51
90.000000
  0
LINE
  8
3
 62
     4
  6
CONTINUOUS
 10
-1394.893237
 20
-81.972883
 11
-1370.389598
 21
-81.972883
  0
LINE
  8
0
 62
     2
  6
CONTINUOUS
 10
-1425.739862
 20
-31.471285
 11
-1425.739862
 21
-29.471285
  0
LINE
  8
0
 62
     2
  6
CONTINUOUS
 10
-1432.739862
 20
-28.471285
 11
-1327.739862
 21
-28.471285
  0
INSERT
  8
0
  2
G2
 10
0
 20
0
  0
INSERT
  8
0
  2
G3
 10
0
 20
0
  0
INSERT
  8
0
  2
G4
 10
0
 20
0
  0
LINE
  8
0
 62
     1
  6
CONTINUOUS
 10
-501.000000
 20
449.361184
 11
-501.000000
 21
353.375253
  0
INSERT
  8
0
  2
G5
 10
0
 20
0
  0
ARC
  8
0
 62
     4
  6
CONTINUOUS
 10
-596.000000
 20
515.000000
 40
100.000000
 50
36.038338
 51
53.961662
  0
LINE
  8
3
 62
     4
  6
CONTINUOUS
 10
-436.000000
 20
577.500000
 11
-436.000000
 21
452.500000
  0
LINE
  8
3
 62
     4
  6
CONTINUOUS
 10
-441.000000
 20
577.500000
 11
-436.000000
 21
577.500000
  0
LINE
  8
3
 62
     4
  6
CONTINUOUS
 10
-441.000000
 20
452.500000
 11
-436.000000
 21
452.500000
  0
LINE
  8
3
 62
     4
  6
CONTINUOUS
 10
-441.000000
 20
452.500000
 11
-441.000000
 21
577.500000
  0
LINE
  8
3
 62
     4
  6
CONTINUOUS
 10
-441.000000
 20
575.000000
 11
-500.682081
 21
575.000000
  0
LINE
  8
3
 62
     4
  6
CONTINUOUS
 10
-441.000000
 20
455.000000
 11
-500.682081
 21
455.000000
  0
ARC
  8
3
 62
     3
  6
CONTINUOUS
 10
-596.000000
 20
515.000000
 40
105.000000
 50
349.021382
 51
369.903199
  0
ARC
  8
0
 62
     4
  6
CONTINUOUS
 10
-596.000000
 20
515.000000
 40
100.000000
 50
126.038338
 51
143.961662
  0
ARC
  8
0
 62
     4
  6
CONTINUOUS
 10
-596.000000
 20
515.000000
 40
100.000000
 50
216.038338
 51
233.961662
  0
CIRCLE
  8
3
 62
     4
  6
CONTINUOUS
 10
-596.000000
 20
515.000000
 40
88.000000
  0
INSERT
  8
0
  2
G6
 10
0
 20
0
  0
LINE
  8
0
 62
     1
  6
CONTINUOUS
 10
-605.861643
 20
700.224125
 11
-655.915108
 21
750.277589
  0
LINE
  8
0
 62
     1
  6
CONTINUOUS
 10
-515.389827
 20
609.752309
 11
-559.022747
 21
653.385229
  0
LINE
  8
0
 62
     1
  6
CONTINUOUS
 10
-573.675308
 20
410.000000
 11
-459.593675
 21
410.000000
  0
ARC
  8
3
 62
     4
  6
CONTINUOUS
 10
-596.000000
 20
515.000000
 40
100.000000
 50
323.109614
 51
396.890386
  0
LINE
  8
3
 62
     4
  6
CONTINUOUS
 10
-504.749069
 20
595.964607
 11
-492.546372
 21
533.061853
  0
TEXT
  8
0
 62
     6
 10
-568.581501
 20
1132.505821
 40
32.000000
 50
0.000000E+00
 41
0.97 
  1
枝管のタイプ（呼び径）
 72
     5
 11
-172.581501
 21
1132.505821
  0
TEXT
  8
0
 62
     6
 10
-470.705692
 20
1079.530401
 40
32.000000
 50
0.000000E+00
 41
0.74 
  1
：％％ｃ５０枝管
 72
     5
 11
-258.705692
 21
1079.530401
  0
TEXT
  8
0
 62
     6
 10
-470.705692
 20
1019.530401
 40
32.000000
 50
0.000000E+00
 41
0.74 
  1
：％％ｃ６５枝管
 72
     5
 11
-258.705692
 21
1019.530401
  0
TEXT
  8
0
 62
     6
 10
-470.705692
 20
959.530401
 40
32.000000
 50
0.000000E+00
 41
0.74 
  1
：％％ｃ７５枝管
 72
     5
 11
-258.705692
 21
959.530401
  0
TEXT
  8
0
 62
     6
 10
-501.793661
 20
1076.134541
 40
32.000000
 50
0.000000E+00
 41
0.50 
  1
1
 72
     5
 11
-485.793661
 21
1076.134541
  0
TEXT
  8
0
 62
     6
 10
-501.793661
 20
1016.134541
 40
32.000000
 50
0.000000E+00
 41
0.50 
  1
2
 72
     5
 11
-485.793661
 21
1016.134541
  0
TEXT
  8
0
 62
     6
 10
-501.793661
 20
956.134541
 40
32.000000
 50
0.000000E+00
 41
0.50 
  1
3
 72
     5
 11
-485.793661
 21
956.134541
  0
INSERT
  8
0
  2
G7
 10
0
 20
0
  0
TEXT
  8
0
 62
     6
 10
-1663.166393
 20
1078.812443
 40
35.000000
 50
0.000000E+00
 41
0.81 
  1
４ＳＦ－　　　－　　　　　　０００－Ｐ
 72
     5
 11
-1047.666393
 21
1078.812443
  0
TEXT
  8
0
 62
     6
 10
-1480.183521
 20
1078.910129
 40
35.000000
 50
0.000000E+00
 41
0.86 
  1
Ｂ
 72
     5
 11
-1445.183521
 21
1078.910129
  0
TEXT
  8
0
 62
     6
 10
-1359.509580
 20
1079.910129
 40
35.000000
 50
0.000000E+00
 41
0.86 
  1
Ａ
 72
     5
 11
-1324.509580
 21
1079.910129
  0
TEXT
  8
0
 62
     6
 10
-1390.009580
 20
1144.959535
 40
32.000000
 50
0.000000E+00
 41
0.97 
  1
下部
 72
     5
 11
-1318.009580
 21
1144.959535
  0
TEXT
  8
0
 62
     6
 10
-1510.009580
 20
1144.959535
 40
32.000000
 50
0.000000E+00
 41
0.97 
  1
上部
 72
     5
 11
-1438.009580
 21
1144.959535
  0
TEXT
  8
0
 62
     6
 10
-1021.051869
 20
1056.370812
 40
35.000000
 50
0.000000E+00
 41
0.60 
  1
300,340,360
 72
     5
 11
-788.551869
 21
1056.370812
  0
TEXT
  8
0
 62
     6
 10
-1022.912371
 20
1098.485825
 40
35.000000
 50
0.000000E+00
 41
0.60 
  1
240,260,280
 72
     5
 11
-790.412371
 21
1098.485825
  0
ARC
  8
3
 62
     3
  6
CONTINUOUS
 10
-596.000000
 20
515.000000
 40
105.000000
 50
170.096801
 51
190.978618
  0
INSERT
  8
0
  2
G8
 10
0
 20
0
  0
INSERT
  8
0
  2
G9
 10
0
 20
0
  0
LINE
  8
0
 62
     1
  6
CONTINUOUS
 10
-960.662948
 20
173.027117
 11
-1080.662948
 21
173.027117
  0
LINE
  8
0
 62
     1
  6
CONTINUOUS
 10
-1090.662948
 20
173.027117
 11
-1073.786954
 21
173.027117
  0
INSERT
  8
0
  2
G10
 10
0
 20
0
  0
ARC
  8
3
 62
     3
  6
CONTINUOUS
 10
-596.000000
 20
515.000000
 40
105.000000
 50
260.096801
 51
279.903199
  0
LINE
  8
3
 62
     4
  6
CONTINUOUS
 10
-504.749069
 20
434.035393
 11
-492.546372
 21
496.938147
  0
INSERT
  8
0
  2
G11
 10
0
 20
0
  0
LINE
  8
3
 62
     3
  6
CENTER
 10
-664.711757
 20
446.288243
 11
-685.392933
 21
425.607067
  0
LINE
  8
3
 62
     4
  6
CONTINUOUS
 10
-515.035393
 20
423.749069
 11
-577.938147
 21
411.546372
  0
ARC
  8
3
 62
     4
  6
CENTER
 10
-596.000000
 20
515.000000
 40
111.000000
 50
217.724288
 51
233.734984
  0
LINE
  8
3
 62
     3
  6
CENTER
 10
-528.362469
 20
447.362469
 11
-505.850513
 21
424.850513
  0
ARC
  8
3
 62
     4
  6
CENTER
 10
-596.000000
 20
515.000000
 40
111.000000
 50
305.817615
 51
323.930525
  0
ARC
  8
3
 62
     4
  6
CENTER
 10
-596.000000
 20
515.000000
 40
111.000000
 50
35.029921
 51
55.550885
  0
LINE
  8
3
 62
     4
  6
CONTINUOUS
 10
-676.964607
 20
423.749069
 11
-614.061853
 21
411.546372
  0
TEXT
  8
0
 62
     6
 10
-1293.933805
 20
1169.451072
 40
32.000000
 50
0.000000E+00
 41
0.86 
  1
ａ
 72
     5
 11
-1261.933805
 21
1169.451072
  0
CIRCLE
  8
0
 62
     6
  6
HIDDEN
 10
-1278.802953
 20
1046.418667
 40
20.000000
  0
TEXT
  8
0
 62
     6
 10
-1286.802953
 20
1030.418667
 40
32.000000
 50
0.000000E+00
 41
0.50 
  1
3
 72
     5
 11
-1270.802953
 21
1030.418667
  0
CIRCLE
  8
0
 62
     6
  6
HIDDEN
 10
-1278.802953
 20
1093.777279
 40
20.000000
  0
TEXT
  8
0
 62
     6
 10
-1286.802953
 20
1077.777279
 40
32.000000
 50
0.000000E+00
 41
0.50 
  1
2
 72
     5
 11
-1270.802953
 21
1077.777279
  0
CIRCLE
  8
0
 62
     6
  6
HIDDEN
 10
-1278.802953
 20
1141.810698
 40
20.000000
  0
LINE
  8
0
 62
     1
  6
CONTINUOUS
 10
-1152.263693
 20
726.948109
 11
-1131.941592
 21
726.948109
  0
LINE
  8
3
 62
     4
  6
CONTINUOUS
 10
-576.003522
 20
618.078324
 11
-515.035393
 21
606.250931
  0
LINE
  8
3
 62
     3
  6
CENTER
 10
-528.008772
 20
582.991228
 11
-506.058072
 21
604.941928
  0
LINE
  8
3
 62
     4
  6
CONTINUOUS
 10
-687.250931
 20
434.035393
 11
-699.078324
 21
495.003522
  0
ARC
  8
3
 62
     4
  6
CONTINUOUS
 10
-674.488853
 20
436.511147
 40
13.000000
 50
190.978618
 51
259.021382
  0
ARC
  8
3
 62
     4
  6
CONTINUOUS
 10
-517.511147
 20
436.511147
 40
13.000000
 50
280.978618
 51
349.021382
  0
ARC
  8
3
 62
     4
  6
CONTINUOUS
 10
-517.511147
 20
593.488853
 40
13.000000
 50
10.978618
 51
79.021382
  0
LINE
  8
3
 62
     3
  6
CENTER
 10
-663.985865
 20
582.985865
 11
-685.726559
 21
604.726559
  0
LINE
  8
3
 62
     4
  6
CONTINUOUS
 10
-687.250931
 20
595.964607
 11
-699.453628
 21
533.061853
  0
LINE
  8
3
 62
     4
  6
CONTINUOUS
 10
-676.964607
 20
606.250931
 11
-615.996478
 21
618.078324
  0
ARC
  8
3
 62
     3
  6
CONTINUOUS
 10
-596.000000
 20
515.000000
 40
105.000000
 50
79.021382
 51
100.978618
  0
CIRCLE
  8
3
 62
     3
  6
CONTINUOUS
 10
-596.000000
 20
515.000000
 40
81.000000
  0
ARC
  8
3
 62
     4
  6
CONTINUOUS
 10
-674.488853
 20
593.488853
 40
13.000000
 50
100.978618
 51
169.021382
  0
LINE
  8
3
 62
     3
  6
CENTER
 10
-430.523832
 20
515.000000
 11
-713.250050
 21
515.000000
  0
LINE
  8
3
 62
     3
  6
CENTER
 10
-596.000000
 20
623.997250
 11
-596.000000
 21
398.580925
  0
CIRCLE
  8
3
 62
     4
  6
CONTINUOUS
 10
-517.511147
 20
593.488853
 40
7.000000
  0
CIRCLE
  8
3
 62
     4
  6
CONTINUOUS
 10
-674.488853
 20
593.488853
 40
7.000000
  0
CIRCLE
  8
3
 62
     4
  6
CONTINUOUS
 10
-674.488853
 20
436.511147
 40
7.000000
  0
CIRCLE
  8
3
 62
     4
  6
CONTINUOUS
 10
-517.511147
 20
436.511147
 40
7.000000
  0
ARC
  8
3
 62
     4
  6
CENTER
 10
-596.000000
 20
515.000000
 40
111.000000
 50
124.510429
 51
142.981003
  0
ARC
  8
3
 62
     4
  6
CONTINUOUS
 10
-596.000000
 20
515.000000
 40
100.000000
 50
53.109614
 51
126.890386
  0
ARC
  8
3
 62
     4
  6
CONTINUOUS
 10
-596.000000
 20
515.000000
 40
100.000000
 50
143.109614
 51
216.890386
  0
ARC
  8
3
 62
     4
  6
CONTINUOUS
 10
-596.000000
 20
515.000000
 40
100.000000
 50
233.109614
 51
306.890386
  0
ARC
  8
0
 62
     4
  6
CONTINUOUS
 10
-596.000000
 20
515.000000
 40
100.000000
 50
306.038338
 51
323.961662
  0
INSERT
  8
0
  2
G12
 10
0
 20
0
  0
INSERT
  8
0
  2
G13
 10
0
 20
0
  0
LINE
  8
0
 62
     3
  6
CONTINUOUS
 10
-439.513856
 20
376.166854
 11
-360.856739
 21
376.166854
  0
SOLID
  8
0
 62
     3
 10
-410.536082
 20
383.931425
 11
-410.536082
 21
368.402283
 12
-439.513856
 22
376.166854
 13
-439.513856
 23
376.166854
  0
TEXT
  8
0
 62
     3
 10
-315.099983
 20
361.701888
 40
32.000000
 50
360.000000
 41
1.02 
  1
受口深さ
 72
     5
 11
-163.099983
 21
361.701888
  0
INSERT
  8
0
  2
G14
 10
0
 20
0
  0
INSERT
  8
0
  2
G15
 10
0
 20
0
  0
TEXT
  8
0
 62
     3
 10
-484.455531
 20
465.013793
 40
32.000000
 50
0.000000E+00
 41
0.86 
  1
ａ
 72
     5
 11
-452.455531
 21
465.013793
  0
INSERT
  8
0
  2
G16
 10
0
 20
0
  0
INSERT
  8
0
  2
G17
 10
0
 20
0
  0
LINE
  8
0
 62
     3
  6
CONTINUOUS
 10
-1178.106547
 20
894.128306
 11
-1084.428755
 21
894.128306
  0
SOLID
  8
0
 62
     3
 10
-1149.128772
 20
901.892877
 11
-1149.128772
 21
886.363734
 12
-1178.106547
 22
894.128306
 13
-1178.106547
 23
894.128306
  0
LINE
  8
0
 62
     3
  6
CONTINUOUS
 10
-1084.428755
 20
894.128306
 11
-1084.428755
 21
931.195058
  0
INSERT
  8
0
  2
G18
 10
0
 20
0
  0
LINE
  8
0
 62
     3
  6
CONTINUOUS
 10
-1481.043004
 20
895.981643
 11
-1553.828626
 21
895.981643
  0
SOLID
  8
0
 62
     3
 10
-1510.020779
 20
888.217072
 11
-1510.020779
 21
903.746214
 12
-1481.043004
 22
895.981643
 13
-1481.043004
 23
895.981643
  0
LINE
  8
3
 62
     3
  6
CONTINUOUS
 10
-1482.739862
 20
786.948109
 11
-1422.739862
 21
786.948109
  0
LINE
  8
3
 62
     3
  6
CONTINUOUS
 10
-1482.739862
 20
666.948109
 11
-1422.739862
 21
666.948109
  0
CIRCLE
  8
0
 62
     3
  6
CONTINUOUS
 10
-1327.739862
 20
173.027117
 40
62.000000
  0
LINE
  8
3
 62
     3
  6
CONTINUOUS
 10
-1482.739862
 20
789.448109
 11
-1482.739862
 21
666.948109
  0
LINE
  8
0
 62
     2
  6
CONTINUOUS
 10
-1425.739862
 20
-31.471285
 11
-1229.739862
 21
-31.471285
  0
LINE
  8
0
 62
     2
  6
CONTINUOUS
 10
-1432.739862
 20
-28.471285
 11
-1432.739862
 21
-20.471285
  0
LINE
  8
0
 62
     2
  6
CONTINUOUS
 10
-1229.739862
 20
-13.471285
 11
-1222.739862
 21
-20.471285
  0
ARC
  8
1
 62
     4
  6
CONTINUOUS
 10
-1234.739862
 20
-186.972883
 40
2.000000
 50
270.000000
 51
360.000000
  0
ARC
  8
1
 62
     4
  6
CONTINUOUS
 10
-1234.739862
 20
-66.972883
 40
2.000000
 50
0.000000E+00
 51
90.000000
  0
LINE
  8
3
 62
     3
  6
CONTINUOUS
 10
-1482.739862
 20
789.448109
 11
-1487.739862
 21
789.448109
  0
TEXT
  8
0
 62
     6
 10
-1286.802953
 20
1125.810698
 40
32.000000
 50
0.000000E+00
 41
0.50 
  1
1
 72
     5
 11
-1270.802953
 21
1125.810698
  0
POINT
  8
0
 62
     3
 10
-1327.739862
 20
363.027117
  0
LINE
  8
3
 62
     3
  6
CONTINUOUS
 10
-1402.739862
 20
433.027117
 11
-1327.739862
 21
433.027117
  0
LINE
  8
3
 62
     3
  6
CONTINUOUS
 10
-1388.709846
 20
352.543100
 11
-1327.739862
 21
352.543100
  0
LINE
  8
3
 62
     3
  6
CONTINUOUS
 10
-1405.478884
 20
255.903002
 11
-1327.739862
 21
255.903002
  0
LINE
  8
3
 62
     3
  6
CENTER
 10
-1327.739862
 20
445.501565
 11
-1327.739862
 21
-7.290674
  0
LINE
  8
1
 62
     4
  6
CONTINUOUS
 10
-1232.739862
 20
-66.972883
 11
-1232.739862
 21
-186.972883
  0
LINE
  8
0
 62
     3
  6
CONTINUOUS
 10
-1241.739862
 20
248.786486
 11
-1241.739862
 21
238.027117
  0
ARC
  8
0
 62
     3
  6
CONTINUOUS
 10
-1276.739862
 20
248.786486
 40
35.000000
 50
0.000000E+00
 51
17.716492
  0
ARC
  8
1
 62
     3
  6
CONTINUOUS
 10
-1238.739862
 20
108.027117
 40
3.000000
 50
90.000000
 51
180.000000
  0
ARC
  8
1
 62
     3
  6
CONTINUOUS
 10
-1238.739862
 20
238.027117
 40
3.000000
 50
180.000000
 51
270.000000
  0
ARC
  8
1
 62
     3
  6
CONTINUOUS
 10
-1234.739862
 20
233.027117
 40
2.000000
 50
0.000000E+00
 51
90.000000
  0
LINE
  8
1
 62
     3
  6
CONTINUOUS
 10
-1234.739862
 20
111.027117
 11
-1238.739862
 21
111.027117
  0
LINE
  8
1
 62
     3
  6
CONTINUOUS
 10
-1234.739862
 20
235.027117
 11
-1238.739862
 21
235.027117
  0
LINE
  8
3
 62
     3
  6
CONTINUOUS
 10
-1167.739862
 20
235.527117
 11
-1167.739862
 21
110.527117
  0
LINE
  8
3
 62
     3
  6
CONTINUOUS
 10
-1172.739862
 20
235.527117
 11
-1172.739862
 21
233.027117
  0
LINE
  8
3
 62
     3
  6
CONTINUOUS
 10
-1172.739862
 20
235.527117
 11
-1167.739862
 21
235.527117
  0
LINE
  8
3
 62
     3
  6
CONTINUOUS
 10
-1172.739862
 20
113.027117
 11
-1232.739862
 21
113.027117
  0
ARC
  8
1
 62
     3
  6
CONTINUOUS
 10
-1234.739862
 20
113.027117
 40
2.000000
 50
270.000000
 51
360.000000
  0
LINE
  8
3
 62
     3
  6
CONTINUOUS
 10
-1172.739862
 20
233.027117
 11
-1232.739862
 21
233.027117
  0
LINE
  8
3
 62
     3
  6
CONTINUOUS
 10
-1172.739862
 20
110.527117
 11
-1167.739862
 21
110.527117
  0
LINE
  8
3
 62
     3
  6
CONTINUOUS
 10
-1172.739862
 20
110.527117
 11
-1172.739862
 21
233.027117
  0
LINE
  8
3
 62
     4
  6
CONTINUOUS
 10
-1172.739862
 20
-64.472883
 11
-1172.739862
 21
-186.972883
  0
LINE
  8
3
 62
     4
  6
CONTINUOUS
 10
-1172.739862
 20
-64.472883
 11
-1167.739862
 21
-64.472883
  0
LINE
  8
3
 62
     4
  6
CONTINUOUS
 10
-1167.739862
 20
-64.472883
 11
-1167.739862
 21
-186.972883
  0
LINE
  8
3
 62
     4
  6
CONTINUOUS
 10
-1172.739862
 20
-66.972883
 11
-1232.739862
 21
-66.972883
  0
LINE
  8
3
 62
     4
  6
CONTINUOUS
 10
-1167.739862
 20
-186.972883
 11
-1232.739862
 21
-186.972883
  0
ARC
  8
3
 62
     4
  6
CONTINUOUS
 10
-1407.739862
 20
-400.844795
 40
25.000000
 50
0.000000E+00
 51
14.708304
  0
LINE
  8
3
 62
     4
  6
CONTINUOUS
 10
-1412.592945
 20
-281.987407
 11
-1383.559088
 21
-394.497342
  0
ARC
  8
3
 62
     4
  6
CONTINUOUS
 10
-1378.739862
 20
-273.100972
 40
35.000000
 50
180.000000
 51
194.708304
  0
LINE
  8
3
 62
     4
  6
CONTINUOUS
 10
-1382.739862
 20
-400.844795
 11
-1382.739862
 21
-544.972883
  0
ARC
  8
3
 62
     4
  6
CONTINUOUS
 10
-1247.739862
 20
-400.844795
 40
25.000000
 50
165.291696
 51
180.000000
  0
LINE
  8
3
 62
     4
  6
CONTINUOUS
 10
-1242.886778
 20
-281.987407
 11
-1271.920636
 21
-394.497342
  0
ARC
  8
3
 62
     4
  6
CONTINUOUS
 10
-1276.739862
 20
-273.100972
 40
35.000000
 50
345.291696
 51
360.000000
  0
LINE
  8
3
 62
     4
  6
CONTINUOUS
 10
-1272.739862
 20
-400.844795
 11
-1272.739862
 21
-544.972883
  0
LINE
  8
3
 62
     4
  6
CONTINUOUS
 10
-1274.739862
 20
-546.972883
 11
-1380.739862
 21
-546.972883
  0
LINE
  8
3
 62
     4
  6
CONTINUOUS
 10
-1377.990773
 20
-396.972883
 11
-1277.488951
 21
-396.972883
  0
LINE
  8
3
 62
     4
  6
CONTINUOUS
 10
-1408.488951
 20
-276.972883
 11
-1246.990773
 21
-276.972883
  0
LINE
  8
3
 62
     4
  6
CONTINUOUS
 10
-1413.739862
 20
-276.972883
 11
-1413.739862
 21
-191.972883
  0
LINE
  8
3
 62
     3
  6
CONTINUOUS
 10
-1482.739862
 20
664.448109
 11
-1487.739862
 21
664.448109
  0
LINE
  8
3
 62
     3
  6
CONTINUOUS
 10
-1482.739862
 20
664.448109
 11
-1482.739862
 21
666.948109
  0
LINE
  8
3
 62
     4
  6
CONTINUOUS
 10
-1234.739862
 20
-56.273521
 11
-1420.739862
 21
-56.273521
  0
LINE
  8
3
 62
     3
  6
CONTINUOUS
 10
-1266.013218
 20
167.211496
 11
-1265.465673
 21
159.144613
  0
LINE
  8
3
 62
     3
  6
CONTINUOUS
 10
-1265.465673
 20
159.144613
 11
-1264.476831
 21
151.335657
  0
LINE
  8
3
 62
     3
  6
CONTINUOUS
 10
-1264.476831
 20
151.335657
 11
-1263.065064
 21
143.929711
  0
LINE
  8
3
 62
     3
  6
CONTINUOUS
 10
-1263.065064
 20
143.929711
 11
-1261.256600
 21
137.064373
  0
LINE
  8
3
 62
     3
  6
CONTINUOUS
 10
-1261.256600
 20
137.064373
 11
-1259.085041
 21
130.867195
  0
LINE
  8
3
 62
     3
  6
CONTINUOUS
 10
-1259.085041
 20
130.867195
 11
-1256.590731
 21
125.453317
  0
LINE
  8
3
 62
     3
  6
CONTINUOUS
 10
-1256.590731
 20
125.453317
 11
-1253.820014
 21
120.923324
  0
LINE
  8
3
 62
     3
  6
CONTINUOUS
 10
-1253.820014
 20
120.923324
 11
-1250.824367
 21
117.361380
  0
LINE
  8
3
 62
     3
  6
CONTINUOUS
 10
-1250.824367
 20
117.361380
 11
-1247.659447
 21
114.833664
  0
LINE
  8
3
 62
     3
  6
CONTINUOUS
 10
-1247.659447
 20
114.833664
 11
-1244.384056
 21
113.387137
  0
LINE
  8
3
 62
     3
  6
CONTINUOUS
 10
-1247.659447
 20
114.833664
 11
-1244.384056
 21
113.387137
  0
LINE
  8
3
 62
     3
  6
CENTER
 10
-1327.739862
 20
628.506949
 11
-1327.739862
 21
822.063624
  0
LINE
  8
3
 62
     3
  6
CENTER
 10
-1162.263693
 20
726.948109
 11
-1493.847882
 21
726.948109
  0
CIRCLE
  8
0
 62
     3
  6
CONTINUOUS
 10
-1327.739862
 20
726.948109
 40
75.000000
  0
CIRCLE
  8
0
 62
     3
  6
CONTINUOUS
 10
-1327.739862
 20
726.948109
 40
86.500000
  0
LINE
  8
3
 62
     3
  6
CONTINUOUS
 10
-1172.739862
 20
666.948109
 11
-1232.739862
 21
666.948109
  0
LINE
  8
3
 62
     3
  6
CONTINUOUS
 10
-1172.739862
 20
789.448109
 11
-1172.739862
 21
666.948109
  0
LINE
  8
3
 62
     3
  6
CONTINUOUS
 10
-1243.926165
 20
232.780203
 11
-1247.256897
 21
231.460076
  0
LINE
  8
3
 62
     3
  6
CONTINUOUS
 10
-1247.256897
 20
231.460076
 11
-1250.481776
 21
229.024148
  0
LINE
  8
3
 62
     3
  6
CONTINUOUS
 10
-1250.481776
 20
229.024148
 11
-1253.539220
 21
225.518932
  0
LINE
  8
3
 62
     3
  6
CONTINUOUS
 10
-1253.539220
 20
225.518932
 11
-1256.370848
 21
221.011363
  0
LINE
  8
3
 62
     3
  6
CONTINUOUS
 10
-1256.370848
 20
221.011363
 11
-1258.922587
 21
215.587514
  0
LINE
  8
3
 62
     3
  6
CONTINUOUS
 10
-1258.922587
 20
215.587514
 11
-1261.145711
 21
209.350956
  0
LINE
  8
3
 62
     3
  6
CONTINUOUS
 10
-1261.145711
 20
209.350956
 11
-1262.997769
 21
202.420778
  0
LINE
  8
3
 62
     3
  6
CONTINUOUS
 10
-1262.997769
 20
202.420778
 11
-1264.443394
 21
194.929317
  0
LINE
  8
3
 62
     3
  6
CONTINUOUS
 10
-1264.443394
 20
194.929317
 11
-1265.454983
 21
187.019623
  0
LINE
  8
3
 62
     3
  6
CONTINUOUS
 10
-1265.454983
 20
187.019623
 11
-1266.013218
 21
178.842737
  0
LINE
  8
3
 62
     3
  6
CONTINUOUS
 10
-1265.454983
 20
187.019623
 11
-1266.013218
 21
178.842737
  0
LINE
  8
0
 62
     3
  6
CONTINUOUS
 10
-455.584082
 20
232.200000
 11
-201.679948
 21
232.200000
  0
TEXT
  8
0
 62
     3
 10
-451.584082
 20
237.533333
 40
32.000000
 50
0.000000E+00
 41
0.87 
  1
Ｃ矢視　（下部）
 72
     5
 11
-195.584082
 21
237.533333
  0
INSERT
  8
0
  2
G19
 10
0
 20
0
  0
ARC
  8
2
 62
     3
  6
CONTINUOUS
 10
-1252.697936
 20
339.400741
 40
15.000000
 50
120.111013
 51
197.716492
  0
LINE
  8
0
 62
     3
  6
CONTINUOUS
 10
-1413.739862
 20
108.027117
 11
-1413.739862
 21
-13.471285
  0
LINE
  8
3
 62
     4
  6
CONTINUOUS
 10
-1241.739862
 20
-273.100972
 11
-1241.739862
 21
-191.972883
  0
LINE
  8
3
 62
     4
  6
CONTINUOUS
 10
-1431.739862
 20
-46.972883
 11
-1223.739862
 21
-46.972883
  0
LINE
  8
3
 62
     4
  6
CONTINUOUS
 10
-1222.739862
 20
-31.972883
 11
-1432.739862
 21
-31.972883
  0
ARC
  8
2
 62
     3
  6
CONTINUOUS
 10
-1402.781787
 20
339.400741
 40
15.000000
 50
342.283508
 51
419.888987
  0
LINE
  8
0
 62
     3
  6
CONTINUOUS
 10
-1266.986545
 20
334.836132
 11
-1243.399774
 21
259.437240
  0
LINE
  8
0
 62
     3
  6
CONTINUOUS
 10
-1388.493178
 20
334.836132
 11
-1412.079949
 21
259.437240
  0
LINE
  8
3
 62
     3
  6
CONTINUOUS
 10
-1266.769878
 20
352.543100
 11
-1327.739862
 21
352.543100
  0
ARC
  8
0
 62
     3
  6
CONTINUOUS
 10
-1378.739862
 20
248.786486
 40
35.000000
 50
162.283508
 51
180.000000
  0
LINE
  8
0
 62
     3
  6
CONTINUOUS
 10
-1413.739862
 20
248.786486
 11
-1413.739862
 21
238.027117
  0
ARC
  8
3
 62
     4
  6
CONTINUOUS
 10
-1380.739862
 20
-544.972883
 40
2.000000
 50
180.000000
 51
270.000000
  0
ARC
  8
3
 62
     4
  6
CONTINUOUS
 10
-1274.739862
 20
-544.972883
 40
2.000000
 50
270.000000
 51
360.000000
  0
LINE
  8
3
 62
     4
  6
CONTINUOUS
 10
-1222.739862
 20
-31.972883
 11
-1222.739862
 21
-46.972883
  0
LINE
  8
3
 62
     4
  6
CONTINUOUS
 10
-1223.739862
 20
-46.972883
 11
-1222.739862
 21
-46.972883
  0
LINE
  8
3
 62
     4
  6
CENTER
 10
-1162.801974
 20
-126.972883
 11
-1431.247146
 21
-126.972883
  0
LINE
  8
3
 62
     3
  6
CENTER
 10
-1406.228714
 20
-55.916452
 11
-1406.228714
 21
-25.425681
  0
LINE
  8
3
 62
     3
  6
CENTER
 10
-1249.251009
 20
-55.916452
 11
-1249.251009
 21
-25.425681
  0
ARC
  8
3
 62
     4
  6
CONTINUOUS
 10
-1223.739862
 20
-48.972883
 40
2.000000
 50
90.000000
 51
180.000000
  0
LINE
  8
3
 62
     4
  6
CONTINUOUS
 10
-1225.739862
 20
-48.972883
 11
-1225.739862
 21
-50.472883
  0
LINE
  8
3
 62
     4
  6
CONTINUOUS
 10
-1260.586486
 20
-81.972883
 11
-1285.090125
 21
-81.972883
  0
ARC
  8
3
 62
     4
  6
CONTINUOUS
 10
-1227.239862
 20
-50.472883
 40
1.500000
 50
270.000000
 51
360.000000
  0
LINE
  8
3
 62
     4
  6
CONTINUOUS
 10
-1227.239862
 20
-51.972883
 11
-1428.239862
 21
-51.972883
  0
LINE
  8
3
 62
     4
  6
CONTINUOUS
 10
-1231.180713
 20
-51.972883
 11
-1234.739862
 21
-56.273521
  0
LINE
  8
3
 62
     4
  6
CONTINUOUS
 10
-1234.739862
 20
-56.273521
 11
-1234.739862
 21
-64.972883
  0
LINE
  8
3
 62
     4
  6
CONTINUOUS
 10
-1420.739862
 20
-56.273521
 11
-1420.739862
 21
-64.972883
  0
LINE
  8
3
 62
     4
  6
CONTINUOUS
 10
-1424.299010
 20
-51.972883
 11
-1420.739862
 21
-56.273521
  0
ARC
  8
3
 62
     4
  6
CONTINUOUS
 10
-1428.239862
 20
-50.472883
 40
1.500000
 50
180.000000
 51
270.000000
  0
LINE
  8
3
 62
     4
  6
CONTINUOUS
 10
-1429.739862
 20
-48.972883
 11
-1429.739862
 21
-50.472883
  0
ARC
  8
3
 62
     4
  6
CONTINUOUS
 10
-1431.739862
 20
-48.972883
 40
2.000000
 50
0.000000E+00
 51
90.000000
  0
LINE
  8
3
 62
     4
  6
CONTINUOUS
 10
-1431.739862
 20
-46.972883
 11
-1432.739862
 21
-46.972883
  0
LINE
  8
3
 62
     4
  6
CONTINUOUS
 10
-1432.739862
 20
-31.972883
 11
-1432.739862
 21
-46.972883
  0
LINE
  8
3
 62
     4
  6
CENTER
 10
-1327.739862
 20
-560.060403
 11
-1327.739862
 21
-319.368262
  0
LINE
  8
0
 62
     2
  6
CONTINUOUS
 10
-1425.739862
 20
-13.471285
 11
-1432.739862
 21
-20.471285
  0
CIRCLE
  8
0
 62
     1
  6
CONTINUOUS
 10
-1327.739862
 20
-126.972883
 40
62.000000
  0
LINE
  8
3
 62
     4
  6
CONTINUOUS
 10
-1388.980096
 20
-117.296435
 11
-1389.288997
 21
-113.534945
  0
LINE
  8
3
 62
     4
  6
CONTINUOUS
 10
-1389.288997
 20
-113.534945
 11
-1389.697702
 21
-109.828306
  0
LINE
  8
3
 62
     4
  6
CONTINUOUS
 10
-1389.697702
 20
-109.828306
 11
-1390.204543
 21
-106.191648
  0
LINE
  8
3
 62
     4
  6
CONTINUOUS
 10
-1390.204543
 20
-106.191648
 11
-1390.807451
 21
-102.639816
  0
LINE
  8
3
 62
     4
  6
CONTINUOUS
 10
-1390.807451
 20
-102.639816
 11
-1391.503965
 21
-99.187307
  0
LINE
  8
3
 62
     4
  6
CONTINUOUS
 10
-1391.503965
 20
-99.187307
 11
-1392.291242
 21
-95.848214
  0
LINE
  8
3
 62
     4
  6
CONTINUOUS
 10
-1392.291242
 20
-95.848214
 11
-1393.166069
 21
-92.636166
  0
LINE
  8
3
 62
     4
  6
CONTINUOUS
 10
-1393.166069
 20
-92.636166
 11
-1394.124874
 21
-89.564275
  0
LINE
  8
3
 62
     4
  6
CONTINUOUS
 10
-1394.124874
 20
-89.564275
 11
-1395.163744
 21
-86.645079
  0
LINE
  8
3
 62
     4
  6
CONTINUOUS
 10
-1395.163744
 20
-86.645079
 11
-1396.278439
 21
-83.890495
  0
LINE
  8
3
 62
     4
  6
CONTINUOUS
 10
-1395.163744
 20
-86.645079
 11
-1396.278439
 21
-83.890495
  0
ARC
  8
3
 62
     4
  6
CONTINUOUS
 10
-1387.868044
 20
-55.024384
 40
28.500781
 50
225.057601
 51
244.512889
  0
POINT
  8
3
 62
     7
 10
-1413.739862
 20
-66.972883
  0
ARC
  8
3
 62
     4
  6
CONTINUOUS
 10
-1267.611679
 20
-55.024384
 40
28.500781
 50
295.487111
 51
314.942399
  0
ARC
  8
1
 62
     4
  6
CONTINUOUS
 10
-1420.739862
 20
-186.972883
 40
2.000000
 50
180.000000
 51
270.000000
  0
ARC
  8
1
 62
     4
  6
CONTINUOUS
 10
-1420.739862
 20
-66.972883
 40
2.000000
 50
90.000000
 51
180.000000
  0
ARC
  8
1
 62
     4
  6
CONTINUOUS
 10
-1416.739862
 20
-191.972883
 40
3.000000
 50
0.000000E+00
 51
90.000000
  0
LINE
  8
1
 62
     4
  6
CONTINUOUS
 10
-1416.739862
 20
-188.972883
 11
-1420.739862
 21
-188.972883
  0
ARC
  8
1
 62
     4
  6
CONTINUOUS
 10
-1433.541179
 20
-92.212691
 40
30.639745
 50
33.671563
 51
62.448001
  0
LINE
  8
1
 62
     4
  6
CONTINUOUS
 10
-1422.739862
 20
-66.972883
 11
-1422.739862
 21
-186.972883
  0
LINE
  8
3
 62
     4
  6
CONTINUOUS
 10
-1259.201285
 20
-83.890495
 11
-1260.315979
 21
-86.645079
  0
LINE
  8
3
 62
     4
  6
CONTINUOUS
 10
-1260.315979
 20
-86.645079
 11
-1261.354850
 21
-89.564275
  0
LINE
  8
3
 62
     4
  6
CONTINUOUS
 10
-1261.354850
 20
-89.564275
 11
-1262.313655
 21
-92.636166
  0
LINE
  8
3
 62
     4
  6
CONTINUOUS
 10
-1262.313655
 20
-92.636166
 11
-1263.188481
 21
-95.848214
  0
LINE
  8
3
 62
     4
  6
CONTINUOUS
 10
-1263.188481
 20
-95.848214
 11
-1263.975758
 21
-99.187307
  0
LINE
  8
3
 62
     4
  6
CONTINUOUS
 10
-1263.975758
 20
-99.187307
 11
-1264.672272
 21
-102.639816
  0
LINE
  8
3
 62
     4
  6
CONTINUOUS
 10
-1264.672272
 20
-102.639816
 11
-1265.275180
 21
-106.191648
  0
LINE
  8
3
 62
     4
  6
CONTINUOUS
 10
-1265.275180
 20
-106.191648
 11
-1265.782021
 21
-109.828306
  0
LINE
  8
3
 62
     4
  6
CONTINUOUS
 10
-1265.782021
 20
-109.828306
 11
-1266.190726
 21
-113.534945
  0
LINE
  8
3
 62
     4
  6
CONTINUOUS
 10
-1266.190726
 20
-113.534945
 11
-1266.499627
 21
-117.296435
  0
LINE
  8
3
 62
     4
  6
CONTINUOUS
 10
-1266.190726
 20
-113.534945
 11
-1266.499627
 21
-117.296435
  0
LINE
  8
3
 62
     4
  6
CONTINUOUS
 10
-1266.499627
 20
-136.649332
 11
-1265.779942
 21
-144.134130
  0
LINE
  8
3
 62
     4
  6
CONTINUOUS
 10
-1265.779942
 20
-144.134130
 11
-1264.666369
 21
-151.337747
  0
LINE
  8
3
 62
     4
  6
CONTINUOUS
 10
-1264.666369
 20
-151.337747
 11
-1263.177154
 21
-158.142155
  0
LINE
  8
3
 62
     4
  6
CONTINUOUS
 10
-1263.177154
 20
-158.142155
 11
-1261.336697
 21
-164.435866
  0
LINE
  8
3
 62
     4
  6
CONTINUOUS
 10
-1261.336697
 20
-164.435866
 11
-1259.175154
 21
-170.115760
  0
LINE
  8
3
 62
     4
  6
CONTINUOUS
 10
-1259.175154
 20
-170.115760
 11
-1256.727940
 21
-175.088775
  0
LINE
  8
3
 62
     4
  6
CONTINUOUS
 10
-1256.727940
 20
-175.088775
 11
-1254.035152
 21
-179.273430
  0
LINE
  8
3
 62
     4
  6
CONTINUOUS
 10
-1254.035152
 20
-179.273430
 11
-1251.140910
 21
-182.601159
  0
LINE
  8
3
 62
     4
  6
CONTINUOUS
 10
-1251.140910
 20
-182.601159
 11
-1248.092635
 21
-185.017441
  0
LINE
  8
3
 62
     4
  6
CONTINUOUS
 10
-1248.092635
 20
-185.017441
 11
-1244.940273
 21
-186.482684
  0
LINE
  8
3
 62
     4
  6
CONTINUOUS
 10
-1248.092635
 20
-185.017441
 11
-1244.940273
 21
-186.482684
  0
POINT
  8
0
 62
     3
 10
-1327.739862
 20
-39.972883
  0
POINT
  8
0
 62
     3
 10
-1327.739862
 20
-54.472883
  0
POINT
  8
0
 62
     3
 10
-1327.739862
 20
-76.972883
  0
ARC
  8
0
 62
     2
  6
CONTINUOUS
 10
-1426.739862
 20
-29.471285
 40
1.000000
 50
360.000000
 51
450.000000
  0
LINE
  8
3
 62
     3
  6
CONTINUOUS
 10
-1250.000839
 20
255.903002
 11
-1327.739862
 21
255.903002
  0
ARC
  8
3
 62
     3
  6
CONTINUOUS
 10
-1250.739862
 20
428.444541
 40
5.000000
 50
113.578178
 51
180.000000
  0
ARC
  8
0
 62
     3
  6
CONTINUOUS
 10
-1276.739862
 20
248.786486
 40
35.000000
 50
0.000000E+00
 51
17.716492
  0
LINE
  8
3
 62
     3
  6
CONTINUOUS
 10
-1252.739862
 20
438.027117
 11
-1252.739862
 21
433.027117
  0
ARC
  8
3
 62
     3
  6
CONTINUOUS
 10
-1404.739862
 20
428.444541
 40
5.000000
 50
360.000000
 51
426.421822
  0
LINE
  8
0
 62
     2
  6
CONTINUOUS
 10
-1425.739862
 20
-13.471285
 11
-1229.739862
 21
-13.471285
  0
LINE
  8
3
 62
     3
  6
CENTER
 10
-1161.806156
 20
173.027117
 11
-1494.360540
 21
173.027117
  0
ARC
  8
3
 62
     3
  6
CONTINUOUS
 10
-1389.739862
 20
361.027117
 40
10.000000
 50
180.000000
 51
238.038250
  0
LINE
  8
3
 62
     3
  6
CONTINUOUS
 10
-1255.739862
 20
428.444541
 11
-1255.739862
 21
361.027117
  0
LINE
  8
3
 62
     3
  6
CONTINUOUS
 10
-1399.739862
 20
428.444541
 11
-1399.739862
 21
361.027117
  0
ARC
  8
3
 62
     3
  6
CONTINUOUS
 10
-1265.739862
 20
361.027117
 40
10.000000
 50
302.527138
 51
360.000000
  0
LINE
  8
3
 62
     3
  6
CONTINUOUS
 10
-1172.739862
 20
789.448109
 11
-1167.739862
 21
789.448109
  0
LINE
  8
3
 62
     3
  6
CONTINUOUS
 10
-1172.739862
 20
664.448109
 11
-1167.739862
 21
664.448109
  0
LINE
  8
3
 62
     3
  6
CONTINUOUS
 10
-1172.739862
 20
664.448109
 11
-1172.739862
 21
666.948109
  0
LINE
  8
3
 62
     3
  6
CONTINUOUS
 10
-1167.739862
 20
664.448109
 11
-1167.739862
 21
789.448109
  0
LINE
  8
3
 62
     3
  6
CONTINUOUS
 10
-1172.739862
 20
786.948109
 11
-1232.739862
 21
786.948109
  0
LINE
  8
0
 62
     3
  6
CONTINUOUS
 10
-1241.739862
 20
108.027117
 11
-1241.739862
 21
-13.471285
  0
LINE
  8
3
 62
     3
  6
CONTINUOUS
 10
-1402.739862
 20
438.027117
 11
-1402.739862
 21
433.027117
  0
LINE
  8
3
 62
     3
  6
CONTINUOUS
 10
-1402.739862
 20
438.027117
 11
-1252.739862
 21
438.027117
  0
LINE
  8
3
 62
     3
  6
CONTINUOUS
 10
-1252.739862
 20
433.027117
 11
-1327.739862
 21
433.027117
  0
LINE
  8
0
 62
     3
  6
CONTINUOUS
 10
-1241.739862
 20
238.027117
 11
-1241.739862
 21
248.786486
  0
LINE
  8
0
 62
     2
  6
CONTINUOUS
 10
-1432.739862
 20
-20.471285
 11
-1327.739862
 21
-20.471285
  0
LINE
  8
0
 62
     2
  6
CONTINUOUS
 10
-1222.739862
 20
-28.471285
 11
-1222.739862
 21
-20.471285
  0
LINE
  8
0
 62
     2
  6
CONTINUOUS
 10
-1229.739862
 20
-31.471285
 11
-1229.739862
 21
-29.471285
  0
ARC
  8
0
 62
     2
  6
CONTINUOUS
 10
-1228.739862
 20
-29.471285
 40
1.000000
 50
90.000000
 51
180.000000
  0
LINE
  8
0
 62
     2
  6
CONTINUOUS
 10
-1222.739862
 20
-20.471285
 11
-1327.739862
 21
-20.471285
  0
LINE
  8
0
 62
     2
  6
CONTINUOUS
 10
-1222.739862
 20
-28.471285
 11
-1327.739862
 21
-28.471285
  0
INSERT
  8
0
  2
G20
 10
0
 20
0
  0
INSERT
  8
0
  2
G21
 10
0
 20
0
  0
LINE
  8
0
 62
     3
  6
CONTINUOUS
 10
-1232.739862
 20
666.948109
 11
-1232.739862
 21
786.948109
  0
LINE
  8
0
 62
     3
  6
CONTINUOUS
 10
-1234.739862
 20
664.948109
 11
-1262.739862
 21
664.948109
  0
ARC
  8
0
 62
     3
  6
CONTINUOUS
 10
-1234.739862
 20
666.948109
 40
2.000000
 50
270.000000
 51
360.000000
  0
LINE
  8
0
 62
     3
  6
CONTINUOUS
 10
-1234.739862
 20
788.948109
 11
-1267.421954
 21
788.948109
  0
ARC
  8
0
 62
     3
  6
CONTINUOUS
 10
-1234.739862
 20
786.948109
 40
2.000000
 50
0.000000E+00
 51
90.000000
  0
CIRCLE
  8
0
 62
     3
  6
CONTINUOUS
 10
-1327.739862
 20
726.948109
 40
52.000000
  0
CIRCLE
  8
0
 62
     3
  6
CONTINUOUS
 10
-1327.739862
 20
726.948109
 40
67.000000
  0
ARC
  8
0
 62
     3
  6
CONTINUOUS
 10
-1392.739862
 20
661.948109
 40
3.000000
 50
0.000000E+00
 51
90.000000
  0
ARC
  8
0
 62
     3
  6
CONTINUOUS
 10
-1262.739862
 20
661.948109
 40
3.000000
 50
90.000000
 51
180.000000
  0
LINE
  8
0
 62
     3
  6
CONTINUOUS
 10
-1422.739862
 20
786.948109
 11
-1422.739862
 21
666.948109
  0
LINE
  8
0
 62
     3
  6
CONTINUOUS
 10
-1420.739862
 20
788.948109
 11
-1388.057769
 21
788.948109
  0
ARC
  8
0
 62
     3
  6
CONTINUOUS
 10
-1420.739862
 20
786.948109
 40
2.000000
 50
90.000000
 51
180.000000
  0
LINE
  8
0
 62
     3
  6
CONTINUOUS
 10
-1420.739862
 20
664.948109
 11
-1392.739862
 21
664.948109
  0
ARC
  8
0
 62
     3
  6
CONTINUOUS
 10
-1420.739862
 20
666.948109
 40
2.000000
 50
180.000000
 51
270.000000
  0
LINE
  8
0
 62
     3
  6
CONTINUOUS
 10
-1267.739862
 20
631.948109
 11
-1387.739862
 21
631.948109
  0
LINE
  8
0
 62
     3
  6
CONTINUOUS
 10
-1265.739862
 20
633.948109
 11
-1265.739862
 21
661.948109
  0
ARC
  8
0
 62
     3
  6
CONTINUOUS
 10
-1267.739862
 20
633.948109
 40
2.000000
 50
270.000000
 51
360.000000
  0
LINE
  8
0
 62
     3
  6
CONTINUOUS
 10
-1389.739862
 20
633.948109
 11
-1389.739862
 21
661.948109
  0
ARC
  8
0
 62
     3
  6
CONTINUOUS
 10
-1387.739862
 20
633.948109
 40
2.000000
 50
180.000000
 51
270.000000
  0
INSERT
  8
0
  2
G22
 10
0
 20
0
  0
INSERT
  8
0
  2
G23
 10
0
 20
0
  0
INSERT
  8
0
  2
G24
 10
0
 20
0
  0
LINE
  8
3
 62
     3
  6
CONTINUOUS
 10
-1487.739862
 20
664.448109
 11
-1487.739862
 21
789.448109
  0
LINE
  8
3
 62
     3
  6
CONTINUOUS
 10
-1487.739862
 20
235.527117
 11
-1487.739862
 21
110.527117
  0
LINE
  8
3
 62
     3
  6
CONTINUOUS
 10
-1482.739862
 20
235.527117
 11
-1482.739862
 21
233.027117
  0
LINE
  8
3
 62
     3
  6
CONTINUOUS
 10
-1482.739862
 20
235.527117
 11
-1487.739862
 21
235.527117
  0
LINE
  8
3
 62
     3
  6
CONTINUOUS
 10
-1482.739862
 20
110.527117
 11
-1487.739862
 21
110.527117
  0
LINE
  8
3
 62
     3
  6
CONTINUOUS
 10
-1482.739862
 20
110.527117
 11
-1482.739862
 21
233.027117
  0
TEXT
  8
0
 62
     7
 10
-1553.593938
 20
287.847523
 40
32.000000
 50
360.000000
 41
0.78 
  1
７５枝管
 72
     5
 11
-1441.593938
 21
287.847523
  0
LINE
  8
0
 62
     7
  6
CONTINUOUS
 10
-1475.219420
 20
279.111644
 11
-1475.219420
 21
237.327305
  0
SOLID
  8
0
 62
     7
 10
-1482.983991
 20
266.305080
 11
-1467.454848
 21
266.305080
 12
-1475.219420
 22
237.327305
 13
-1475.219420
 23
237.327305
  0
LINE
  8
3
 62
     3
  6
CONTINUOUS
 10
-1482.739862
 20
113.027117
 11
-1422.739862
 21
113.027117
  0
LINE
  8
3
 62
     3
  6
CONTINUOUS
 10
-1482.739862
 20
233.027117
 11
-1422.739862
 21
233.027117
  0
TEXT
  8
0
 62
     7
 10
-1213.885785
 20
287.847523
 40
32.000000
 50
0.000000E+00
 41
0.78 
  1
７５枝管
 72
     5
 11
-1101.885785
 21
287.847523
  0
INSERT
  8
0
  2
G25
 10
0
 20
0
  0
LINE
  8
0
 62
     3
  6
CONTINUOUS
 10
-928.581081
 20
483.197829
 11
-928.581081
 21
430.404878
  0
SOLID
  8
0
 62
     3
 10
-936.345652
 20
459.382653
 11
-920.816510
 21
459.382653
 12
-928.581081
 22
430.404878
 13
-928.581081
 23
430.404878
  0
INSERT
  8
0
  2
G26
 10
0
 20
0
  0
INSERT
  8
0
  2
G27
 10
0
 20
0
  0
INSERT
  8
0
  2
G28
 10
0
 20
0
  0
INSERT
  8
0
  2
G29
 10
0
 20
0
  0
TEXT
  8
0
 62
     3
 10
-888.446385
 20
-905.435816
 40
32.000000
 50
0.000000E+00
 41
0.94 
  1
対応可能Ｐ寸法　２４０～３６０
 72
     5
 11
-362.732077
 21
-905.435816
  0
INSERT
  8
0
  2
G30
 10
0
 20
0
  0
INSERT
  8
0
  2
G31
 10
0
 20
0
  0
INSERT
  8
0
  2
G32
 10
0
 20
0
  0
INSERT
  8
0
  2
G33
 10
0
 20
0
  0
INSERT
  8
0
  2
G34
 10
0
 20
0
  0
INSERT
  8
0
  2
G35
 10
0
 20
0
  0
INSERT
  8
0
  2
G36
 10
0
 20
0
  0
LINE
  8
0
 62
     2
  6
CONTINUOUS
 10
-955.287581
 20
-844.718354
 11
-175.885661
 21
-844.718354
  0
TEXT
  8
0
 62
     2
 10
-466.779569
 20
-817.414104
 40
30.000000
 50
0.000000E+00
 41
0.61 
  1
925
 72
     5
 11
-411.779569
 21
-817.414104
  0
TEXT
  8
0
 62
     2
 10
-569.578809
 20
-817.414104
 40
30.000000
 50
0.000000E+00
 41
0.61 
  1
905
 72
     5
 11
-514.578809
 21
-817.414104
  0
TEXT
  8
0
 62
     2
 10
-669.031289
 20
-815.686968
 40
30.000000
 50
0.000000E+00
 41
0.61 
  1
885
 72
     5
 11
-614.031289
 21
-815.686968
  0
TEXT
  8
0
 62
     2
 10
-363.270329
 20
-815.686968
 40
30.000000
 50
0.000000E+00
 41
0.61 
  1
965
 72
     5
 11
-308.270329
 21
-815.686968
  0
TEXT
  8
0
 62
     2
 10
-770.950969
 20
-724.246968
 40
30.000000
 50
0.000000E+00
 41
0.61 
  1
790
 72
     5
 11
-715.950969
 21
-724.246968
  0
TEXT
  8
0
 62
     2
 10
-258.817849
 20
-817.414104
 40
30.000000
 50
0.000000E+00
 41
0.61 
  1
985
 72
     5
 11
-203.817849
 21
-817.414104
  0
TEXT
  8
0
 62
     2
 10
-770.950969
 20
-815.686968
 40
30.000000
 50
0.000000E+00
 41
0.61 
  1
865
 72
     5
 11
-715.950969
 21
-815.686968
  0
TEXT
  8
0
 62
     2
 10
-363.509314
 20
-647.803154
 40
30.000000
 50
0.000000E+00
 41
0.61 
  1
340
 72
     5
 11
-308.509314
 21
-647.803154
  0
TEXT
  8
0
 62
     2
 10
-465.429954
 20
-647.803154
 40
30.000000
 50
0.000000E+00
 41
0.61 
  1
300
 72
     5
 11
-410.429954
 21
-647.803154
  0
TEXT
  8
0
 62
     2
 10
-567.350594
 20
-647.803154
 40
30.000000
 50
0.000000E+00
 41
0.61 
  1
280
 72
     5
 11
-512.350594
 21
-647.803154
  0
TEXT
  8
0
 62
     2
 10
-771.189954
 20
-647.803154
 40
30.000000
 50
0.000000E+00
 41
0.61 
  1
240
 72
     5
 11
-716.189954
 21
-647.803154
  0
LINE
  8
0
 62
     2
  6
CONTINUOUS
 10
-389.725981
 20
-600.398354
 11
-389.725981
 21
-844.718354
  0
TEXT
  8
0
 62
     2
 10
-944.759477
 20
-811.372275
 40
30.000000
 50
0.000000E+00
 41
0.72 
  1
Ｌｔ（全長）
 72
     5
 11
-794.759477
 21
-811.372275
  0
LINE
  8
0
 62
     2
  6
CONTINUOUS
 10
-955.287581
 20
-753.278354
 11
-175.885661
 21
-753.278354
  0
TEXT
  8
0
 62
     2
 10
-258.817849
 20
-725.974104
 40
30.000000
 50
0.000000E+00
 41
0.61 
  1
910
 72
     5
 11
-203.817849
 21
-725.974104
  0
LINE
  8
0
 62
     2
  6
CONTINUOUS
 10
-955.287581
 20
-600.398354
 11
-175.885661
 21
-600.398354
  0
TEXT
  8
0
 62
     2
 10
-363.270329
 20
-724.246968
 40
30.000000
 50
0.000000E+00
 41
0.61 
  1
890
 72
     5
 11
-308.270329
 21
-724.246968
  0
LINE
  8
0
 62
     2
  6
CONTINUOUS
 10
-797.406621
 20
-600.398354
 11
-797.406621
 21
-844.718354
  0
LINE
  8
0
 62
     2
  6
CONTINUOUS
 10
-695.486941
 20
-600.398354
 11
-695.486941
 21
-844.718354
  0
LINE
  8
0
 62
     2
  6
CONTINUOUS
 10
-593.567261
 20
-600.398354
 11
-593.567261
 21
-844.718354
  0
LINE
  8
0
 62
     2
  6
CONTINUOUS
 10
-491.646621
 20
-600.398354
 11
-491.646621
 21
-844.718354
  0
LINE
  8
0
 62
     2
  6
CONTINUOUS
 10
-175.885661
 20
-600.398354
 11
-175.885661
 21
-844.718354
  0
LINE
  8
0
 62
     2
  6
CONTINUOUS
 10
-287.806301
 20
-600.398354
 11
-287.806301
 21
-844.718354
  0
TEXT
  8
0
 62
     2
 10
-256.589634
 20
-647.803154
 40
30.000000
 50
0.000000E+00
 41
0.61 
  1
360
 72
     5
 11
-201.589634
 21
-647.803154
  0
LINE
  8
0
 62
     2
  6
CONTINUOUS
 10
-955.287581
 20
-661.838354
 11
-175.885661
 21
-661.838354
  0
TEXT
  8
0
 62
     2
 10
-944.759477
 20
-719.932275
 40
30.000000
 50
0.000000E+00
 41
0.72 
  1
Ｌ（有効長）
 72
     5
 11
-794.759477
 21
-719.932275
  0
LINE
  8
0
 62
     2
  6
CONTINUOUS
 10
-955.287581
 20
-600.398354
 11
-955.287581
 21
-844.718354
  0
LINE
  8
0
 62
     2
  6
CONTINUOUS
 10
-177.458899
 20
-613.635403
 11
-177.458899
 21
-613.635595
  0
TEXT
  8
0
 62
     2
 10
-669.031289
 20
-724.246968
 40
30.000000
 50
0.000000E+00
 41
0.61 
  1
810
 72
     5
 11
-614.031289
 21
-724.246968
  0
TEXT
  8
0
 62
     2
 10
-569.578809
 20
-725.974104
 40
30.000000
 50
0.000000E+00
 41
0.61 
  1
830
 72
     5
 11
-514.578809
 21
-725.974104
  0
TEXT
  8
0
 62
     2
 10
-669.270274
 20
-647.803154
 40
30.000000
 50
0.000000E+00
 41
0.61 
  1
260
 72
     5
 11
-614.270274
 21
-647.803154
  0
TEXT
  8
0
 62
     2
 10
-885.718483
 20
-647.782743
 40
30.000000
 50
0.000000E+00
 41
0.86 
  1
Ｐ
 72
     5
 11
-855.718483
 21
-647.782743
  0
TEXT
  8
0
 62
     2
 10
-466.779569
 20
-725.974104
 40
30.000000
 50
0.000000E+00
 41
0.61 
  1
850
 72
     5
 11
-411.779569
 21
-725.974104
  0
TEXT
  8
0
 62
     2
 10
-251.589634
 20
-546.363154
 40
30.000000
 50
0.000000E+00
 41
0.58 
  1
44
 72
     5
 11
-216.589634
 21
-546.363154
  0
TEXT
  8
0
 62
     2
 10
-363.510274
 20
-546.363154
 40
30.000000
 50
0.000000E+00
 41
0.58 
  1
52
 72
     5
 11
-328.510274
 21
-546.363154
  0
TEXT
  8
0
 62
     2
 10
-475.429954
 20
-546.363154
 40
30.000000
 50
0.000000E+00
 41
0.58 
  1
60
 72
     5
 11
-440.429954
 21
-546.363154
  0
TEXT
  8
0
 62
     2
 10
-574.421206
 20
-363.746137
 40
25.600000
 50
0.000000E+00
 41
0.55 
  1
100
 72
     5
 11
-532.364061
 21
-363.746137
  0
TEXT
  8
0
 62
     2
 10
-590.951500
 20
-325.061429
 40
18.400000
 50
0.000000E+00
 41
0.89 
  1
立管受口
 72
     5
 11
-514.951501
 21
-325.061429
  0
TEXT
  8
0
 62
     2
 10
-251.589634
 20
-423.483154
 40
30.000000
 50
0.000000E+00
 41
0.58 
  1
65
 72
     5
 11
-216.589634
 21
-423.483154
  0
TEXT
  8
0
 62
     2
 10
-363.510274
 20
-423.483154
 40
30.000000
 50
0.000000E+00
 41
0.58 
  1
65
 72
     5
 11
-328.510274
 21
-423.483154
  0
TEXT
  8
0
 62
     2
 10
-567.349634
 20
-423.483154
 40
30.000000
 50
0.000000E+00
 41
0.58 
  1
75
 72
     5
 11
-532.349634
 21
-423.483154
  0
LINE
  8
0
 62
     2
  6
CONTINUOUS
 10
-511.646621
 20
-498.958354
 11
-593.566301
 21
-560.398354
  0
LINE
  8
0
 62
     2
  6
CONTINUOUS
 10
-175.885661
 20
-294.153298
 11
-175.885661
 21
-560.398354
  0
TEXT
  8
0
 62
     2
 10
-704.669157
 20
-542.052275
 40
30.000000
 50
0.000000E+00
 41
0.86 
  1
Ｂ寸法
 72
     5
 11
-614.669157
 21
-542.052275
  0
LINE
  8
0
 62
     2
  6
CONTINUOUS
 10
-716.447261
 20
-498.958354
 11
-175.885661
 21
-498.958354
  0
LINE
  8
0
 62
     2
  6
CONTINUOUS
 10
-511.646621
 20
-335.118322
 11
-175.885661
 21
-335.118322
  0
LINE
  8
0
 62
     2
  6
CONTINUOUS
 10
-716.447261
 20
-376.078354
 11
-175.885661
 21
-376.078354
  0
TEXT
  8
0
 62
     2
 10
-466.083287
 20
-330.204987
 40
30.000000
 50
0.000000E+00
 41
0.86 
  1
下部横枝管サイズ
 72
     5
 11
-226.083287
 21
-330.204987
  0
LINE
  8
0
 62
     2
  6
CONTINUOUS
 10
-593.566301
 20
-295.392178
 11
-593.566301
 21
-560.398354
  0
LINE
  8
0
 62
     2
  6
CONTINUOUS
 10
-511.646621
 20
-295.392178
 11
-511.646621
 21
-560.398354
  0
LINE
  8
0
 62
     2
  6
CONTINUOUS
 10
-399.726941
 20
-335.118322
 11
-399.726941
 21
-560.398354
  0
LINE
  8
0
 62
     2
  6
CONTINUOUS
 10
-511.646621
 20
-437.518354
 11
-593.566301
 21
-498.958354
  0
LINE
  8
0
 62
     2
  6
CONTINUOUS
 10
-287.806301
 20
-335.118514
 11
-287.806301
 21
-560.398354
  0
LINE
  8
0
 62
     2
  6
CONTINUOUS
 10
-716.447261
 20
-560.398354
 11
-175.885661
 21
-560.398354
  0
TEXT
  8
0
 62
     2
 10
-495.384035
 20
-370.283621
 40
30.000000
 50
0.000000E+00
 41
0.63 
  1
75(3)
 72
     5
 11
-400.384035
 21
-370.283621
  0
TEXT
  8
0
 62
     2
 10
-383.464355
 20
-370.283621
 40
30.000000
 50
0.000000E+00
 41
0.63 
  1
65(2)
 72
     5
 11
-288.464355
 21
-370.283621
  0
TEXT
  8
0
 62
     2
 10
-271.543715
 20
-370.283621
 40
30.000000
 50
0.000000E+00
 41
0.63 
  1
50(1)
 72
     5
 11
-176.543715
 21
-370.283621
  0
LINE
  8
0
 62
     2
  6
CONTINUOUS
 10
-716.447261
 20
-335.118322
 11
-716.447261
 21
-560.398354
  0
LINE
  8
0
 62
     2
  6
CONTINUOUS
 10
-716.447261
 20
-437.518354
 11
-175.885661
 21
-437.518354
  0
TEXT
  8
0
 62
     2
 10
-704.669157
 20
-480.612275
 40
30.000000
 50
0.000000E+00
 41
0.86 
  1
Ａ寸法
 72
     5
 11
-614.669157
 21
-480.612275
  0
LINE
  8
0
 62
     2
  6
CONTINUOUS
 10
-716.447261
 20
-335.118322
 11
-716.447261
 21
-294.153298
  0
LINE
  8
0
 62
     2
  6
CONTINUOUS
 10
-716.447261
 20
-294.153298
 11
-175.885661
 21
-294.153298
  0
LINE
  8
0
 62
     2
  6
CONTINUOUS
 10
-205.886621
 20
-335.118322
 11
-205.886621
 21
-335.118514
  0
TEXT
  8
0
 62
     2
 10
-485.190969
 20
-483.196018
 40
30.000000
 50
0.000000E+00
 41
0.61 
  1
125
 72
     5
 11
-430.190969
 21
-483.196018
  0
TEXT
  8
0
 62
     2
 10
-375.738489
 20
-484.923154
 40
30.000000
 50
0.000000E+00
 41
0.61 
  1
110
 72
     5
 11
-320.738489
 21
-484.923154
  0
TEXT
  8
0
 62
     2
 10
-475.429954
 20
-423.483154
 40
30.000000
 50
0.000000E+00
 41
0.58 
  1
65
 72
     5
 11
-440.429954
 21
-423.483154
  0
TEXT
  8
0
 62
     2
 10
-711.878163
 20
-423.462743
 40
30.000000
 50
0.000000E+00
 41
0.86 
  1
受口深さ
 72
     5
 11
-591.878163
 21
-423.462743
  0
LINE
  8
0
 62
     2
  6
CONTINUOUS
 10
-716.447261
 20
-294.153298
 11
-593.566301
 21
-376.078354
  0
TEXT
  8
0
 62
     2
 10
-251.589634
 20
-484.923154
 40
30.000000
 50
0.000000E+00
 41
0.58 
  1
94
 72
     5
 11
-216.589634
 21
-484.923154
  0
INSERT
  8
0
  2
G37
 10
0
 20
0
  0
INSERT
  8
0
  2
G38
 10
0
 20
0
  0
ENDSEC
  0
EOF
