  0
SECTION
  2
HEADER
  9
$INSBASE
 10
0
 20
0
  9
$EXTMIN
 10
0
 20
0
  9
$EXTMAX
 10
4200.000000
 20
2970.000000
  9
$LIMMIN
 10
0
 20
0
  9
$LIMMAX
 10
4200.000000
 20
2970.000000
  9
$VIEWCTR
 10
2100.000000
 20
1485.000000
  9
$DIMASZ
 40
30.000000
  9
$DIMDLI
 40
80.000000
  9
$DIMEXE
 40
10.000000
  9
$DIMEXO
 40
10.000000
  9
$DIMTXT
 40
32.000000
  9
$TEXTSIZE
 40
32.000000
  9
$ANGBASE
 50
0.0
  9
$ANGDIR
 70
     0
  9
$ATTMODE
 70
     1
  9
$AUNITS
 70
     1
  9
$AUPREC
 70
     2
  9
$AXISMODE
 70
     0
  9
$AXISUNIT
 10
0.0
 20
0.0
  9
$BLIPMODE
 70
     1
  9
$CECOLOR
 62
   256
  9
$CELTYPE
  6
BYLAYER
  9
$CHAMFERA
 40
0.0
  9
$CHAMFERB
 40
0.0
  9
$CLAYER
  8
0
  9
$COORDS
 70
     0
  9
$DIMALT
 70
     0
  9
$DIMALTD
 70
     2
  9
$DIMALTF
 40
25.4
  9
$DIMDLE
 40
0.0
  9
$DIMLFAC
 40
1.0
  9
$DIMLIM
 70
     0
  9
$DIMRND
 40
0.0
  9
$DIMSCALE
 40
1.0
  9
$DIMSE1
 70
     0
  9
$DIMSE2
 70
     0
  9
$DIMTAD
 70
     1
  9
$DIMTIH
 70
     0
  9
$DIMTM
 40
0.0
  9
$DIMTOH
 70
     0
  9
$DIMTOL
 70
     0
  9
$DIMTP
 40
0.0
  9
$DIMTSZ
 40
0.0
  9
$DIMZIN
 70
     0
  9
$DRAGMODE
 70
     2
  9
$ELEVATION
 40
0.0
  9
$FASTZOOM
 70
     1
  9
$FILLETRAD
 40
0.0
  9
$FILLMODE
 70
     1
  9
$GRIDMODE
 70
     0
  9
$GRIDUNIT
 10
0.0
 20
0.0
  9
$LTSCALE
 40
1.0
  9
$LUNITS
 70
     2
  9
$LUPREC
 70
     2
  9
$MENU
  1
ACAD
  9
$ORTHOMODE
 70
     0
  9
$OSMODE
 70
     0
  9
$PDMODE
 70
     0
  9
$PDSIZE
 40
0.0
  9
$PLINEWID
 40
0.0
  9
$QTEXTMODE
 70
     0
  9
$REGENMODE
 70
     1
  9
$SKETCHINC
 40
0.1
  9
$SKPOLY
 70
     0
  9
$SNAPBASE
 10
0.0
 20
0.0
  9
$SNAPISOPAIR
 70
     0
  9
$SNAPMODE
 70
     0
  9
$SNAPSTYLE
 70
     0
  9
$SNAPUNIT
 10
0.0
 20
0.0
  9
$TEXTSTYLE
  7
KANJI
  9
$THICKNESS
 40
0.0
  9
$TRACEWID
 40
0.05
  9
$VIEWDIR
 10
0.0
 20
0.0
 30
1.0
  9
$VIEWSIZE
 40
0.0
  0
ENDSEC
  0
SECTION
  2
TABLES
  0
TABLE
  2
LTYPE
 70
     9
  0
LTYPE
  2
CONTINUOUS
 70
    64
  3
Solid line
 72
    65
 73
     0
 40
0.0
  0
LTYPE
  2
DASHED
 70
    64
  3
__ __ __ __ __ __ __ __ __ __ __ __ __ __ __
 72
    65
 73
     2
 40
0.75
 49
0.5
 49
-0.25
  0
LTYPE
  2
HIDDEN
 70
    64
  3
_ _ _ _ _ _ _ _ _ _ _ _ _ _ _ _ _ _ _ _ _ _ _
 72
    65
 73
     2
 40
0.375
 49
0.25
 49
-0.125
  0
LTYPE
  2
CENTER
 70
    64
  3
____ _ ____ _ ____ _ ____ _ ____ _ ____ _ ____
 72
    65
 73
     4
 40
2.0
 49
1.25
 49
-0.25
 49
0.25
 49
-0.25
  0
LTYPE
  2
PHANTOM
 70
    64
  3
_____ _ _ _____ _ _ _____ _ _ _____ _ _ ____
 72
    65
 73
     6
 40
2.5
 49
1.25
 49
-0.25
 49
0.25
 49
-0.25
 49
0.25
 49
-0.25
  0
LTYPE
  2
DOT
 70
    64
  3
...............................................
 72
    65
 73
     2
 40
0.25
 49
0.0
 49
-0.25
  0
LTYPE
  2
DASHDOT
 70
    64
  3
__ . __ . __ . __ . __ . __ . __ . __ . __ . __
 72
    65
 73
     4
 40
1.0
 49
0.5
 49
-0.25
 49
0.0
 49
-0.25
  0
LTYPE
  2
BORDER
 70
    64
  3
__ __ . __ __ . __ __ . __ __ . __ __ . __ __
 72
    65
 73
     6
 40
1.75
 49
0.5
 49
-0.25
 49
0.5
 49
-0.25
 49
0.0
 49
-0.25
  0
LTYPE
  2
DIVIDE
 70
    64
  3
__ . . __ . . __ . . __ . . __ . . __ . . __
 72
    65
 73
     6
 40
1.25
 49
0.5
 49
-0.25
 49
0.0
 49
-0.25
 49
0.0
 49
-0.25
  0
ENDTAB
  0
TABLE
  2
LAYER
 70
   100
  0
LAYER
  2
0
 70
     0
 62
     3
  6
CONTINUOUS
  0
LAYER
  2
1
 70
     0
 62
     3
  6
CONTINUOUS
  0
LAYER
  2
2
 70
     0
 62
     3
  6
CONTINUOUS
  0
LAYER
  2
3
 70
     0
 62
     3
  6
CONTINUOUS
  0
LAYER
  2
4
 70
     0
 62
     3
  6
CONTINUOUS
  0
LAYER
  2
5
 70
     0
 62
     3
  6
CONTINUOUS
  0
LAYER
  2
6
 70
     0
 62
     3
  6
CONTINUOUS
  0
LAYER
  2
7
 70
     0
 62
     3
  6
CONTINUOUS
  0
LAYER
  2
8
 70
     0
 62
     3
  6
CONTINUOUS
  0
LAYER
  2
9
 70
     0
 62
     3
  6
CONTINUOUS
  0
LAYER
  2
10
 70
     0
 62
     3
  6
CONTINUOUS
  0
LAYER
  2
11
 70
     0
 62
     3
  6
CONTINUOUS
  0
LAYER
  2
12
 70
     0
 62
     3
  6
CONTINUOUS
  0
LAYER
  2
13
 70
     0
 62
     3
  6
CONTINUOUS
  0
LAYER
  2
14
 70
     0
 62
     3
  6
CONTINUOUS
  0
LAYER
  2
15
 70
     0
 62
     3
  6
CONTINUOUS
  0
LAYER
  2
16
 70
     0
 62
     3
  6
CONTINUOUS
  0
LAYER
  2
17
 70
     0
 62
     3
  6
CONTINUOUS
  0
LAYER
  2
18
 70
     0
 62
     3
  6
CONTINUOUS
  0
LAYER
  2
19
 70
     0
 62
     3
  6
CONTINUOUS
  0
LAYER
  2
20
 70
     0
 62
     3
  6
CONTINUOUS
  0
LAYER
  2
21
 70
     0
 62
     3
  6
CONTINUOUS
  0
LAYER
  2
22
 70
     0
 62
     3
  6
CONTINUOUS
  0
LAYER
  2
23
 70
     0
 62
     3
  6
CONTINUOUS
  0
LAYER
  2
24
 70
     0
 62
     3
  6
CONTINUOUS
  0
LAYER
  2
25
 70
     0
 62
     3
  6
CONTINUOUS
  0
LAYER
  2
26
 70
     0
 62
     3
  6
CONTINUOUS
  0
LAYER
  2
27
 70
     0
 62
     3
  6
CONTINUOUS
  0
LAYER
  2
28
 70
     0
 62
     3
  6
CONTINUOUS
  0
LAYER
  2
29
 70
     0
 62
     3
  6
CONTINUOUS
  0
LAYER
  2
30
 70
     0
 62
     3
  6
CONTINUOUS
  0
LAYER
  2
31
 70
     0
 62
     3
  6
CONTINUOUS
  0
LAYER
  2
32
 70
     0
 62
     3
  6
CONTINUOUS
  0
LAYER
  2
33
 70
     0
 62
     3
  6
CONTINUOUS
  0
LAYER
  2
34
 70
     0
 62
     3
  6
CONTINUOUS
  0
LAYER
  2
35
 70
     0
 62
     3
  6
CONTINUOUS
  0
LAYER
  2
36
 70
     0
 62
     3
  6
CONTINUOUS
  0
LAYER
  2
37
 70
     0
 62
     3
  6
CONTINUOUS
  0
LAYER
  2
38
 70
     0
 62
     3
  6
CONTINUOUS
  0
LAYER
  2
39
 70
     0
 62
     3
  6
CONTINUOUS
  0
LAYER
  2
40
 70
     0
 62
     3
  6
CONTINUOUS
  0
LAYER
  2
41
 70
     0
 62
     3
  6
CONTINUOUS
  0
LAYER
  2
42
 70
     0
 62
     3
  6
CONTINUOUS
  0
LAYER
  2
43
 70
     0
 62
     3
  6
CONTINUOUS
  0
LAYER
  2
44
 70
     0
 62
     3
  6
CONTINUOUS
  0
LAYER
  2
45
 70
     0
 62
     3
  6
CONTINUOUS
  0
LAYER
  2
46
 70
     0
 62
     3
  6
CONTINUOUS
  0
LAYER
  2
47
 70
     0
 62
     3
  6
CONTINUOUS
  0
LAYER
  2
48
 70
     0
 62
     3
  6
CONTINUOUS
  0
LAYER
  2
49
 70
     0
 62
     3
  6
CONTINUOUS
  0
LAYER
  2
50
 70
     0
 62
     3
  6
CONTINUOUS
  0
LAYER
  2
51
 70
     0
 62
     3
  6
CONTINUOUS
  0
LAYER
  2
52
 70
     0
 62
     3
  6
CONTINUOUS
  0
LAYER
  2
53
 70
     0
 62
     3
  6
CONTINUOUS
  0
LAYER
  2
54
 70
     0
 62
     3
  6
CONTINUOUS
  0
LAYER
  2
55
 70
     0
 62
     3
  6
CONTINUOUS
  0
LAYER
  2
56
 70
     0
 62
     3
  6
CONTINUOUS
  0
LAYER
  2
57
 70
     0
 62
     3
  6
CONTINUOUS
  0
LAYER
  2
58
 70
     0
 62
     3
  6
CONTINUOUS
  0
LAYER
  2
59
 70
     0
 62
     3
  6
CONTINUOUS
  0
LAYER
  2
60
 70
     0
 62
     3
  6
CONTINUOUS
  0
LAYER
  2
61
 70
     0
 62
     3
  6
CONTINUOUS
  0
LAYER
  2
62
 70
     0
 62
     3
  6
CONTINUOUS
  0
LAYER
  2
63
 70
     0
 62
     3
  6
CONTINUOUS
  0
LAYER
  2
64
 70
     0
 62
     3
  6
CONTINUOUS
  0
LAYER
  2
65
 70
     0
 62
     3
  6
CONTINUOUS
  0
LAYER
  2
66
 70
     0
 62
     3
  6
CONTINUOUS
  0
LAYER
  2
67
 70
     0
 62
     3
  6
CONTINUOUS
  0
LAYER
  2
68
 70
     0
 62
     3
  6
CONTINUOUS
  0
LAYER
  2
69
 70
     0
 62
     3
  6
CONTINUOUS
  0
LAYER
  2
70
 70
     0
 62
     3
  6
CONTINUOUS
  0
LAYER
  2
71
 70
     0
 62
     3
  6
CONTINUOUS
  0
LAYER
  2
72
 70
     0
 62
     3
  6
CONTINUOUS
  0
LAYER
  2
73
 70
     0
 62
     3
  6
CONTINUOUS
  0
LAYER
  2
74
 70
     0
 62
     3
  6
CONTINUOUS
  0
LAYER
  2
75
 70
     0
 62
     3
  6
CONTINUOUS
  0
LAYER
  2
76
 70
     0
 62
     3
  6
CONTINUOUS
  0
LAYER
  2
77
 70
     0
 62
     3
  6
CONTINUOUS
  0
LAYER
  2
78
 70
     0
 62
     3
  6
CONTINUOUS
  0
LAYER
  2
79
 70
     0
 62
     3
  6
CONTINUOUS
  0
LAYER
  2
80
 70
     0
 62
     3
  6
CONTINUOUS
  0
LAYER
  2
81
 70
     0
 62
     3
  6
CONTINUOUS
  0
LAYER
  2
82
 70
     0
 62
     3
  6
CONTINUOUS
  0
LAYER
  2
83
 70
     0
 62
     3
  6
CONTINUOUS
  0
LAYER
  2
84
 70
     0
 62
     3
  6
CONTINUOUS
  0
LAYER
  2
85
 70
     0
 62
     3
  6
CONTINUOUS
  0
LAYER
  2
86
 70
     0
 62
     3
  6
CONTINUOUS
  0
LAYER
  2
87
 70
     0
 62
     3
  6
CONTINUOUS
  0
LAYER
  2
88
 70
     0
 62
     3
  6
CONTINUOUS
  0
LAYER
  2
89
 70
     0
 62
     3
  6
CONTINUOUS
  0
LAYER
  2
90
 70
     0
 62
     3
  6
CONTINUOUS
  0
LAYER
  2
91
 70
     0
 62
     3
  6
CONTINUOUS
  0
LAYER
  2
92
 70
     0
 62
     3
  6
CONTINUOUS
  0
LAYER
  2
93
 70
     0
 62
     3
  6
CONTINUOUS
  0
LAYER
  2
94
 70
     0
 62
     3
  6
CONTINUOUS
  0
LAYER
  2
95
 70
     0
 62
     3
  6
CONTINUOUS
  0
LAYER
  2
96
 70
     0
 62
     3
  6
CONTINUOUS
  0
LAYER
  2
97
 70
     0
 62
     3
  6
CONTINUOUS
  0
LAYER
  2
98
 70
     0
 62
     3
  6
CONTINUOUS
  0
LAYER
  2
99
 70
     0
 62
     3
  6
CONTINUOUS
  0
ENDTAB
  0
TABLE
  2
STYLE
 70
     2
  0
STYLE
  2
STANDARD
 70
     0
 40
0.0
 41
1.0
 50
0.0
 71
     0
 42
0.2
  3
TXT
  4
BIGFONT
  0
STYLE
  2
KANJI
 70
     0
 40
4.5
 41
1.0
 50
0.0
 71
     0
 42
0.2
  3
TXT
  4
BIGFONT
  0
ENDTAB
  0
TABLE
  2
VIEW
 70
     0
  0
ENDTAB
  0
ENDSEC
  0
SECTION
  2
BLOCKS
  0
BLOCK
  8
0
  2
G0
 70
     0
 10
0
 20
0
  0
POINT
  8
0
 62
     4
 10
270.000000
 20
1315.000000
  0
POINT
  8
0
 62
     4
 10
-1830.000000
 20
1315.000000
  0
ENDBLK
  0
BLOCK
  8
0
  2
G1
 70
     0
 10
0
 20
0
  0
TEXT
  8
0
 62
     7
 10
-374.901183
 20
682.466147
 40
32.000000
 50
0.000000E+00
 41
0.66 
  1
％％ｃ　　　枝管
 72
     5
 11
-182.901183
 21
682.466147
  0
LINE
  8
0
 62
     3
  6
CONTINUOUS
 10
-182.602116
 20
672.968559
 11
-344.466358
 21
672.968559
  0
LINE
  8
0
 62
     3
  6
CONTINUOUS
 10
-182.602116
 20
664.968559
 11
-344.466358
 21
664.968559
  0
ENDBLK
  0
BLOCK
  8
0
  2
G2
 70
     0
 10
0
 20
0
  0
LINE
  8
0
 62
     3
  6
CONTINUOUS
 10
-871.688596
 20
410.103695
 11
-709.824354
 21
410.103695
  0
LINE
  8
0
 62
     3
  6
CONTINUOUS
 10
-871.688596
 20
418.103695
 11
-709.824354
 21
418.103695
  0
TEXT
  8
0
 62
     7
 10
-871.389529
 20
427.601282
 40
32.000000
 50
0.000000E+00
 41
0.66 
  1
％％ｃ　　　枝管
 72
     5
 11
-679.389529
 21
427.601282
  0
ENDBLK
  0
BLOCK
  8
0
  2
G3
 70
     0
 10
0
 20
0
  0
LINE
  8
0
 62
     1
  6
CONTINUOUS
 10
-359.983194
 20
320.375253
 11
-309.983194
 21
320.375253
  0
SOLID
  8
0
 62
     1
 10
-335.835048
 20
326.845729
 11
-335.835048
 21
313.904777
 12
-359.983194
 22
320.375253
 13
-359.983194
 23
320.375253
  0
TEXT
  8
0
 62
     1
 10
-467.983194
 20
325.708586
 40
32.000000
 50
0.000000E+00
 41
0.58 
  1
160
 72
     5
 11
-411.983194
 21
325.708586
  0
LINE
  8
0
 62
     1
  6
CONTINUOUS
 10
-519.983194
 20
310.375253
 11
-519.983194
 21
413.292397
  0
LINE
  8
0
 62
     1
  6
CONTINUOUS
 10
-359.983194
 20
367.375253
 11
-359.983194
 21
310.375253
  0
LINE
  8
0
 62
     1
  6
CONTINUOUS
 10
-359.983194
 20
320.375253
 11
-519.983194
 21
320.375253
  0
CIRCLE
  8
0
 62
     1
  6
CONTINUOUS
 10
-519.983194
 20
320.375253
 40
5.000000
  0
CIRCLE
  8
0
 62
     1
  6
CONTINUOUS
 10
-519.983194
 20
320.375253
 40
2.500000
  0
ENDBLK
  0
BLOCK
  8
0
  2
G4
 70
     0
 10
0
 20
0
  0
TEXT
  8
0
 62
     1
 10
-547.983194
 20
683.708586
 40
32.000000
 50
0.000000E+00
 41
0.58 
  1
210
 72
     5
 11
-491.983194
 21
683.708586
  0
LINE
  8
0
 62
     1
  6
CONTINUOUS
 10
-414.983194
 20
545.000000
 11
-414.983194
 21
688.375253
  0
LINE
  8
0
 62
     1
  6
CONTINUOUS
 10
-624.983194
 20
545.000000
 11
-624.983194
 21
688.375253
  0
LINE
  8
0
 62
     1
  6
CONTINUOUS
 10
-624.983194
 20
678.375253
 11
-414.983194
 21
678.375253
  0
SOLID
  8
0
 62
     1
 10
-600.835048
 20
684.845729
 11
-600.835048
 21
671.904777
 12
-624.983194
 22
678.375253
 13
-624.983194
 23
678.375253
  0
SOLID
  8
0
 62
     1
 10
-439.131340
 20
671.904777
 11
-439.131340
 21
684.845729
 12
-414.983194
 22
678.375253
 13
-414.983194
 23
678.375253
  0
ENDBLK
  0
BLOCK
  8
0
  2
G5
 70
     0
 10
0
 20
0
  0
TEXT
  8
0
 62
     1
 10
-252.991835
 20
507.000000
 40
32.000000
 50
90.000000
 41
0.58 
  1
210
 72
     5
 11
-252.991835
 21
563.000000
  0
LINE
  8
0
 62
     1
  6
CONTINUOUS
 10
-509.983194
 20
430.000000
 11
-237.658502
 21
430.000000
  0
LINE
  8
0
 62
     1
  6
CONTINUOUS
 10
-509.983194
 20
640.000000
 11
-237.658502
 21
640.000000
  0
LINE
  8
0
 62
     1
  6
CONTINUOUS
 10
-247.658502
 20
640.000000
 11
-247.658502
 21
430.000000
  0
SOLID
  8
0
 62
     1
 10
-241.188026
 20
615.851854
 11
-254.128978
 21
615.851854
 12
-247.658502
 22
640.000000
 13
-247.658502
 23
640.000000
  0
SOLID
  8
0
 62
     1
 10
-254.128978
 20
454.148146
 11
-241.188026
 21
454.148146
 12
-247.658502
 22
430.000000
 13
-247.658502
 23
430.000000
  0
ENDBLK
  0
BLOCK
  8
0
  2
G6
 70
     0
 10
0
 20
0
  0
TEXT
  8
0
 62
     1
 10
-684.078700
 20
659.497527
 40
32.000000
 50
45.000000
 41
0.58 
  1
248
 72
     5
 11
-644.480721
 21
699.095506
  0
LINE
  8
0
 62
     1
  6
CONTINUOUS
 10
-614.735503
 20
454.389827
 11
-755.260783
 21
594.915108
  0
LINE
  8
0
 62
     1
  6
CONTINUOUS
 10
-572.827234
 20
763.206521
 11
-748.189715
 21
587.844040
  0
SOLID
  8
0
 62
     1
 10
-585.327234
 20
741.555886
 11
-594.477869
 21
750.706521
 12
-572.827234
 22
763.206521
 13
-572.827234
 23
763.206521
  0
SOLID
  8
0
 62
     1
 10
-735.689715
 20
609.494675
 11
-726.539080
 21
600.344040
 12
-748.189715
 22
587.844040
 13
-748.189715
 23
587.844040
  0
ENDBLK
  0
BLOCK
  8
0
  2
G7
 70
     0
 10
0
 20
0
  0
LINE
  8
0
 62
     1
  6
CONTINUOUS
 10
-359.983194
 20
377.375253
 11
-309.983194
 21
377.375253
  0
SOLID
  8
0
 62
     1
 10
-335.835048
 20
383.845729
 11
-335.835048
 21
370.904777
 12
-359.983194
 22
377.375253
 13
-359.983194
 23
377.375253
  0
LINE
  8
0
 62
     1
  6
CONTINUOUS
 10
-474.665275
 20
377.375253
 11
-424.665275
 21
377.375253
  0
SOLID
  8
0
 62
     1
 10
-448.813421
 20
370.904777
 11
-448.813421
 21
383.845729
 12
-424.665275
 22
377.375253
 13
-424.665275
 23
377.375253
  0
TEXT
  8
0
 62
     1
 10
-408.457427
 20
382.708586
 40
32.000000
 50
0.000000E+00
 41
0.56 
  1
65
 72
     5
 11
-372.457427
 21
382.708586
  0
LINE
  8
0
 62
     1
  6
CONTINUOUS
 10
-359.983194
 20
462.500000
 11
-359.983194
 21
367.375253
  0
LINE
  8
0
 62
     1
  6
CONTINUOUS
 10
-424.665275
 20
377.375253
 11
-359.983194
 21
377.375253
  0
ENDBLK
  0
BLOCK
  8
0
  2
G8
 70
     0
 10
0
 20
0
  0
LINE
  8
0
 62
     1
  6
CONTINUOUS
 10
-615.301113
 20
377.375253
 11
-679.983194
 21
377.375253
  0
LINE
  8
0
 62
     1
  6
CONTINUOUS
 10
-679.983194
 20
462.500000
 11
-679.983194
 21
367.375253
  0
TEXT
  8
0
 62
     1
 10
-667.508961
 20
382.708586
 40
32.000000
 50
360.000000
 41
0.56 
  1
65
 72
     5
 11
-631.508961
 21
382.708586
  0
LINE
  8
0
 62
     1
  6
CONTINUOUS
 10
-565.301113
 20
377.375253
 11
-615.301113
 21
377.375253
  0
SOLID
  8
0
 62
     1
 10
-591.152967
 20
383.845729
 11
-591.152967
 21
370.904777
 12
-615.301113
 22
377.375253
 13
-615.301113
 23
377.375253
  0
LINE
  8
0
 62
     1
  6
CONTINUOUS
 10
-679.983194
 20
377.375253
 11
-729.983194
 21
377.375253
  0
SOLID
  8
0
 62
     1
 10
-704.131340
 20
370.904777
 11
-704.131340
 21
383.845729
 12
-679.983194
 22
377.375253
 13
-679.983194
 23
377.375253
  0
ENDBLK
  0
BLOCK
  8
0
  2
G9
 70
     0
 10
0
 20
0
  0
LINE
  8
0
 62
     1
  6
CONTINUOUS
 10
-970.662948
 20
438.027117
 11
-970.662948
 21
363.027117
  0
SOLID
  8
0
 62
     1
 10
-964.192472
 20
413.878971
 11
-977.133424
 21
413.878971
 12
-970.662948
 22
438.027117
 13
-970.662948
 23
438.027117
  0
SOLID
  8
0
 62
     1
 10
-977.133424
 20
387.175262
 11
-964.192472
 21
387.175262
 12
-970.662948
 22
363.027117
 13
-970.662948
 23
363.027117
  0
LINE
  8
0
 62
     1
  6
CONTINUOUS
 10
-960.662948
 20
438.027117
 11
-1307.549807
 21
438.027117
  0
LINE
  8
0
 62
     1
  6
CONTINUOUS
 10
-960.662948
 20
363.027117
 11
-1090.662948
 21
363.027117
  0
TEXT
  8
0
 62
     1
 10
-975.996281
 20
382.527117
 40
32.000000
 50
90.000000
 41
0.56 
  1
75
 72
     5
 11
-975.996281
 21
418.527117
  0
ENDBLK
  0
BLOCK
  8
0
  2
G10
 70
     0
 10
0
 20
0
  0
LINE
  8
0
 62
     1
  6
CONTINUOUS
 10
-679.983194
 20
320.375253
 11
-519.983194
 21
320.375253
  0
LINE
  8
0
 62
     1
  6
CONTINUOUS
 10
-679.983194
 20
367.375253
 11
-679.983194
 21
310.375253
  0
LINE
  8
0
 62
     1
  6
CONTINUOUS
 10
-519.983194
 20
310.375253
 11
-519.983194
 21
413.292397
  0
TEXT
  8
0
 62
     1
 10
-627.983194
 20
325.708586
 40
32.000000
 50
360.000000
 41
0.58 
  1
160
 72
     5
 11
-571.983194
 21
325.708586
  0
LINE
  8
0
 62
     1
  6
CONTINUOUS
 10
-679.983194
 20
320.375253
 11
-729.983194
 21
320.375253
  0
SOLID
  8
0
 62
     1
 10
-704.131340
 20
313.904777
 11
-704.131340
 21
326.845729
 12
-679.983194
 22
320.375253
 13
-679.983194
 23
320.375253
  0
ENDBLK
  0
BLOCK
  8
0
  2
G11
 70
     0
 10
0
 20
0
  0
LINE
  8
0
 62
     1
  6
CONTINUOUS
 10
-1030.662948
 20
-186.972883
 11
-1030.662948
 21
173.027117
  0
SOLID
  8
0
 62
     1
 10
-1038.427519
 20
-157.995109
 11
-1022.898377
 21
-157.995109
 12
-1030.662948
 22
-186.972883
 13
-1030.662948
 23
-186.972883
  0
SOLID
  8
0
 62
     1
 10
-1022.898377
 20
144.049342
 11
-1038.427519
 21
144.049342
 12
-1030.662948
 22
173.027117
 13
-1030.662948
 23
173.027117
  0
LINE
  8
0
 62
     1
  6
CONTINUOUS
 10
-1020.662948
 20
-186.972883
 11
-1140.662948
 21
-186.972883
  0
TEXT
  8
0
 62
     1
 10
-1035.996281
 20
-22.972883
 40
32.000000
 50
90.000000
 41
0.86 
  1
Ｐ
 72
     5
 11
-1035.996281
 21
9.027117
  0
ENDBLK
  0
BLOCK
  8
0
  2
G12
 70
     0
 10
0
 20
0
  0
LINE
  8
0
 62
     1
  6
CONTINUOUS
 10
-1090.662948
 20
113.027117
 11
-1090.662948
 21
363.027117
  0
SOLID
  8
0
 62
     1
 10
-1098.427519
 20
142.004891
 11
-1082.898377
 21
142.004891
 12
-1090.662948
 22
113.027117
 13
-1090.662948
 23
113.027117
  0
SOLID
  8
0
 62
     1
 10
-1082.898377
 20
334.049342
 11
-1098.427519
 21
334.049342
 12
-1090.662948
 22
363.027117
 13
-1090.662948
 23
363.027117
  0
LINE
  8
0
 62
     1
  6
CONTINUOUS
 10
-1140.662948
 20
113.027117
 11
-1080.662948
 21
113.027117
  0
LINE
  8
0
 62
     1
  6
CONTINUOUS
 10
-1377.739862
 20
363.027117
 11
-1080.662948
 21
363.027117
  0
TEXT
  8
0
 62
     1
 10
-1095.996281
 20
210.027117
 40
32.000000
 50
90.000000
 41
0.58 
  1
250
 72
     5
 11
-1095.996281
 21
266.027117
  0
ENDBLK
  0
BLOCK
  8
0
  2
G13
 70
     0
 10
0
 20
0
  0
LINE
  8
0
 62
     1
  6
CONTINUOUS
 10
-1150.662948
 20
-276.972883
 11
-1150.662948
 21
-396.972883
  0
SOLID
  8
0
 62
     1
 10
-1144.192472
 20
-301.121029
 11
-1157.133424
 21
-301.121029
 12
-1150.662948
 22
-276.972883
 13
-1150.662948
 23
-276.972883
  0
SOLID
  8
0
 62
     1
 10
-1157.133424
 20
-372.824738
 11
-1144.192472
 21
-372.824738
 12
-1150.662948
 22
-396.972883
 13
-1150.662948
 23
-396.972883
  0
LINE
  8
0
 62
     1
  6
CONTINUOUS
 10
-1296.990773
 20
-276.972883
 11
-1140.662948
 21
-276.972883
  0
LINE
  8
0
 62
     1
  6
CONTINUOUS
 10
-1327.488951
 20
-396.972883
 11
-1140.662948
 21
-396.972883
  0
TEXT
  8
0
 62
     1
 10
-1155.996281
 20
-364.972883
 40
32.000000
 50
90.000000
 41
0.58 
  1
120
 72
     5
 11
-1155.996281
 21
-308.972883
  0
ENDBLK
  0
BLOCK
  8
0
  2
G14
 70
     0
 10
0
 20
0
  0
TEXT
  8
0
 62
     3
 10
-1037.283774
 20
493.253919
 40
32.000000
 50
0.000000E+00
 41
0.95 
  1
受口深さ　
 72
     5
 11
-861.283774
 21
493.253919
  0
ENDBLK
  0
BLOCK
  8
0
  2
G15
 70
     0
 10
0
 20
0
  0
LINE
  8
0
 62
     1
  6
CONTINUOUS
 10
-1150.662948
 20
-396.972883
 11
-1150.662948
 21
-546.972883
  0
SOLID
  8
0
 62
     1
 10
-1144.192472
 20
-421.121029
 11
-1157.133424
 21
-421.121029
 12
-1150.662948
 22
-396.972883
 13
-1150.662948
 23
-396.972883
  0
SOLID
  8
0
 62
     1
 10
-1157.133424
 20
-522.824738
 11
-1144.192472
 21
-522.824738
 12
-1150.662948
 22
-546.972883
 13
-1150.662948
 23
-546.972883
  0
LINE
  8
0
 62
     1
  6
CONTINUOUS
 10
-1325.239862
 20
-546.972883
 11
-1140.662948
 21
-546.972883
  0
TEXT
  8
0
 62
     1
 10
-1155.996281
 20
-499.972883
 40
32.000000
 50
90.000000
 41
0.58 
  1
150
 72
     5
 11
-1155.996281
 21
-443.972883
  0
ENDBLK
  0
BLOCK
  8
0
  2
G16
 70
     0
 10
0
 20
0
  0
LINE
  8
0
 62
     3
  6
CONTINUOUS
 10
-1188.460760
 20
-28.308819
 11
-1268.023323
 21
-28.308819
  0
LINE
  8
0
 62
     3
  6
CONTINUOUS
 10
-1188.460760
 20
-28.308819
 11
-1188.460760
 21
-75.679068
  0
TEXT
  8
0
 62
     3
 10
-1200.254043
 20
-108.037285
 40
32.000000
 50
0.000000E+00
 41
0.86 
  1
Ｃ
 72
     5
 11
-1168.254043
 21
-108.037285
  0
LINE
  8
0
 62
     3
  6
CONTINUOUS
 10
-1188.460760
 20
-75.679068
 11
-1173.043291
 21
-48.975228
  0
LINE
  8
0
 62
     3
  6
CONTINUOUS
 10
-1173.043291
 20
-48.975228
 11
-1195.545746
 21
-35.983430
  0
ENDBLK
  0
BLOCK
  8
0
  2
G17
 70
     0
 10
0
 20
0
  0
LINE
  8
0
 62
     1
  6
CONTINUOUS
 10
-1030.662948
 20
-186.972883
 11
-1030.662948
 21
-546.972883
  0
SOLID
  8
0
 62
     1
 10
-1024.192472
 20
-211.121029
 11
-1037.133424
 21
-211.121029
 12
-1030.662948
 22
-186.972883
 13
-1030.662948
 23
-186.972883
  0
SOLID
  8
0
 62
     1
 10
-1037.133424
 20
-522.824738
 11
-1024.192472
 21
-522.824738
 12
-1030.662948
 22
-546.972883
 13
-1030.662948
 23
-546.972883
  0
LINE
  8
0
 62
     1
  6
CONTINUOUS
 10
-1020.662948
 20
-546.972883
 11
-1140.662948
 21
-546.972883
  0
TEXT
  8
0
 62
     1
 10
-1035.996281
 20
-394.972883
 40
32.000000
 50
90.000000
 41
0.58 
  1
360
 72
     5
 11
-1035.996281
 21
-338.972883
  0
ENDBLK
  0
BLOCK
  8
0
  2
G18
 70
     0
 10
0
 20
0
  0
LINE
  8
0
 62
     1
  6
CONTINUOUS
 10
-970.662948
 20
363.027117
 11
-970.662948
 21
-546.972883
  0
SOLID
  8
0
 62
     1
 10
-964.192472
 20
338.878971
 11
-977.133424
 21
338.878971
 12
-970.662948
 22
363.027117
 13
-970.662948
 23
363.027117
  0
SOLID
  8
0
 62
     1
 10
-977.133424
 20
-522.824738
 11
-964.192472
 21
-522.824738
 12
-970.662948
 22
-546.972883
 13
-970.662948
 23
-546.972883
  0
LINE
  8
0
 62
     1
  6
CONTINUOUS
 10
-1020.662948
 20
-546.972883
 11
-960.662948
 21
-546.972883
  0
TEXT
  8
0
 62
     1
 10
-975.996281
 20
-185.972883
 40
32.000000
 50
90.000000
 41
0.89 
  1
Ｌ（有効長）
 72
     5
 11
-975.996281
 21
10.027117
  0
ENDBLK
  0
BLOCK
  8
0
  2
G19
 70
     0
 10
0
 20
0
  0
LINE
  8
0
 62
     1
  6
CONTINUOUS
 10
-910.662948
 20
438.027117
 11
-910.662948
 21
-546.972883
  0
SOLID
  8
0
 62
     1
 10
-904.192472
 20
413.878971
 11
-917.133424
 21
413.878971
 12
-910.662948
 22
438.027117
 13
-910.662948
 23
438.027117
  0
SOLID
  8
0
 62
     1
 10
-917.133424
 20
-522.824738
 11
-904.192472
 21
-522.824738
 12
-910.662948
 22
-546.972883
 13
-910.662948
 23
-546.972883
  0
LINE
  8
0
 62
     1
  6
CONTINUOUS
 10
-960.662948
 20
438.027117
 11
-900.662948
 21
438.027117
  0
LINE
  8
0
 62
     1
  6
CONTINUOUS
 10
-960.662948
 20
-546.972883
 11
-900.662948
 21
-546.972883
  0
TEXT
  8
0
 62
     1
 10
-915.996281
 20
-90.472883
 40
32.000000
 50
90.000000
 41
0.97 
  1
Ｌｔ
 72
     5
 11
-915.996281
 21
-18.472883
  0
ENDBLK
  0
BLOCK
  8
0
  2
G20
 70
     0
 10
0
 20
0
  0
LINE
  8
0
 62
     1
  6
CONTINUOUS
 10
-1624.816775
 20
110.527117
 11
-1624.816775
 21
19.944416
  0
SOLID
  8
0
 62
     1
 10
-1618.346299
 20
86.378971
 11
-1631.287251
 21
86.378971
 12
-1624.816775
 22
110.527117
 13
-1624.816775
 23
110.527117
  0
TEXT
  8
0
 62
     1
 10
-1630.150108
 20
24.799037
 40
32.000000
 50
90.000000
 41
0.58 
  1
2.5
 72
     5
 11
-1630.150108
 21
80.799037
  0
LINE
  8
0
 62
     1
  6
CONTINUOUS
 10
-1634.816775
 20
110.527117
 11
-1552.739862
 21
110.527117
  0
LINE
  8
0
 62
     1
  6
CONTINUOUS
 10
-1624.816775
 20
110.527117
 11
-1624.816775
 21
113.027117
  0
ENDBLK
  0
BLOCK
  8
0
  2
G21
 70
     0
 10
0
 20
0
  0
TEXT
  8
0
 62
     3
 10
-831.244162
 20
280.148260
 40
32.000000
 50
0.000000E+00
 41
0.95 
  1
受口深さ　
 72
     5
 11
-655.244162
 21
280.148260
  0
ENDBLK
  0
BLOCK
  8
0
  2
G22
 70
     0
 10
0
 20
0
  0
TEXT
  8
0
 62
     3
 10
-1123.002644
 20
930.140954
 40
32.000000
 50
0.000000E+00
 41
0.95 
  1
受口深さ　
 72
     5
 11
-947.002644
 21
930.140954
  0
ENDBLK
  0
BLOCK
  8
0
  2
G23
 70
     0
 10
0
 20
0
  0
TEXT
  8
0
 62
     3
 10
-1748.419845
 20
873.529914
 40
32.000000
 50
0.000000E+00
 41
0.95 
  1
受口深さ　
 72
     5
 11
-1572.419845
 21
873.529914
  0
ENDBLK
  0
BLOCK
  8
0
  2
G24
 70
     0
 10
0
 20
0
  0
LINE
  8
0
 62
     1
  6
CONTINUOUS
 10
-1547.739862
 20
859.142798
 11
-1597.739862
 21
859.142798
  0
SOLID
  8
0
 62
     1
 10
-1571.888007
 20
852.672322
 11
-1571.888007
 21
865.613275
 12
-1547.739862
 22
859.142798
 13
-1547.739862
 23
859.142798
  0
LINE
  8
0
 62
     1
  6
CONTINUOUS
 10
-1432.739862
 20
859.142798
 11
-1482.739862
 21
859.142798
  0
SOLID
  8
0
 62
     1
 10
-1458.591716
 20
865.613275
 11
-1458.591716
 21
852.672322
 12
-1482.739862
 22
859.142798
 13
-1482.739862
 23
859.142798
  0
TEXT
  8
0
 62
     1
 10
-1533.239862
 20
864.476132
 40
32.000000
 50
360.000000
 41
0.56 
  1
65
 72
     5
 11
-1497.239862
 21
864.476132
  0
LINE
  8
0
 62
     1
  6
CONTINUOUS
 10
-1547.739862
 20
786.752345
 11
-1547.739862
 21
919.142798
  0
LINE
  8
0
 62
     1
  6
CONTINUOUS
 10
-1482.739862
 20
784.252345
 11
-1482.739862
 21
869.142798
  0
LINE
  8
0
 62
     1
  6
CONTINUOUS
 10
-1482.739862
 20
859.142798
 11
-1547.739862
 21
859.142798
  0
ENDBLK
  0
BLOCK
  8
0
  2
G25
 70
     0
 10
0
 20
0
  0
LINE
  8
0
 62
     1
  6
CONTINUOUS
 10
-1292.739862
 20
859.142798
 11
-1227.739862
 21
859.142798
  0
LINE
  8
0
 62
     1
  6
CONTINUOUS
 10
-1292.739862
 20
784.252345
 11
-1292.739862
 21
869.142798
  0
LINE
  8
0
 62
     1
  6
CONTINUOUS
 10
-1227.739862
 20
786.752345
 11
-1227.739862
 21
919.142798
  0
TEXT
  8
0
 62
     1
 10
-1278.239862
 20
864.476132
 40
32.000000
 50
0.000000E+00
 41
0.56 
  1
65
 72
     5
 11
-1242.239862
 21
864.476132
  0
LINE
  8
0
 62
     1
  6
CONTINUOUS
 10
-1342.739862
 20
859.142798
 11
-1292.739862
 21
859.142798
  0
SOLID
  8
0
 62
     1
 10
-1316.888007
 20
852.672322
 11
-1316.888007
 21
865.613275
 12
-1292.739862
 22
859.142798
 13
-1292.739862
 23
859.142798
  0
LINE
  8
0
 62
     1
  6
CONTINUOUS
 10
-1227.739862
 20
859.142798
 11
-1177.739862
 21
859.142798
  0
SOLID
  8
0
 62
     1
 10
-1203.591716
 20
865.613275
 11
-1203.591716
 21
852.672322
 12
-1227.739862
 22
859.142798
 13
-1227.739862
 23
859.142798
  0
ENDBLK
  0
BLOCK
  8
0
  2
G26
 70
     0
 10
0
 20
0
  0
LINE
  8
0
 62
     1
  6
CONTINUOUS
 10
-1154.485175
 20
651.752345
 11
-1154.485175
 21
776.752345
  0
SOLID
  8
0
 62
     1
 10
-1160.955651
 20
675.900491
 11
-1148.014699
 21
675.900491
 12
-1154.485175
 22
651.752345
 13
-1154.485175
 23
651.752345
  0
SOLID
  8
0
 62
     1
 10
-1148.014699
 20
752.604199
 11
-1160.955651
 21
752.604199
 12
-1154.485175
 22
776.752345
 13
-1154.485175
 23
776.752345
  0
LINE
  8
0
 62
     1
  6
CONTINUOUS
 10
-1217.739862
 20
651.752345
 11
-1144.485175
 21
651.752345
  0
LINE
  8
0
 62
     1
  6
CONTINUOUS
 10
-1217.739862
 20
776.752345
 11
-1144.485175
 21
776.752345
  0
TEXT
  8
0
 62
     1
 10
-1159.818508
 20
656.252345
 40
32.000000
 50
90.000000
 41
0.60 
  1
%%c125
 72
     5
 11
-1159.818508
 21
772.252345
  0
ENDBLK
  0
BLOCK
  8
0
  2
G27
 70
     0
 10
0
 20
0
  0
TEXT
  8
0
 62
     1
 10
-1626.327882
 20
656.252345
 40
32.000000
 50
90.000000
 41
0.60 
  1
%%c125
 72
     5
 11
-1626.327882
 21
772.252345
  0
LINE
  8
0
 62
     1
  6
CONTINUOUS
 10
-1557.739862
 20
776.752345
 11
-1630.994549
 21
776.752345
  0
LINE
  8
0
 62
     1
  6
CONTINUOUS
 10
-1557.739862
 20
651.752345
 11
-1630.994549
 21
651.752345
  0
LINE
  8
0
 62
     1
  6
CONTINUOUS
 10
-1620.994549
 20
651.752345
 11
-1620.994549
 21
776.752345
  0
SOLID
  8
0
 62
     1
 10
-1627.465025
 20
675.900491
 11
-1614.524072
 21
675.900491
 12
-1620.994549
 22
651.752345
 13
-1620.994549
 23
651.752345
  0
SOLID
  8
0
 62
     1
 10
-1614.524072
 20
752.604199
 11
-1627.465025
 21
752.604199
 12
-1620.994549
 22
776.752345
 13
-1620.994549
 23
776.752345
  0
ENDBLK
  0
BLOCK
  8
0
  2
G28
 70
     0
 10
0
 20
0
  0
TEXT
  8
0
 62
     3
 10
-376.722226
 20
280.148260
 40
32.000000
 50
0.000000E+00
 41
0.95 
  1
受口深さ　
 72
     5
 11
-200.722226
 21
280.148260
  0
ENDBLK
  0
BLOCK
  8
0
  2
G29
 70
     0
 10
0
 20
0
  0
LINE
  8
0
 62
     1
  6
CONTINUOUS
 10
-1624.816775
 20
173.027117
 11
-1624.816775
 21
223.027117
  0
SOLID
  8
0
 62
     1
 10
-1632.581347
 20
202.004891
 11
-1617.052204
 21
202.004891
 12
-1624.816775
 22
173.027117
 13
-1624.816775
 23
173.027117
  0
TEXT
  8
0
 62
     1
 10
-1630.150108
 20
125.027117
 40
32.000000
 50
90.000000
 41
0.56 
  1
60
 72
     5
 11
-1630.150108
 21
161.027117
  0
LINE
  8
0
 62
     1
  6
CONTINUOUS
 10
-1563.673568
 20
173.027117
 11
-1634.816775
 21
173.027117
  0
LINE
  8
0
 62
     1
  6
CONTINUOUS
 10
-1552.739862
 20
113.027117
 11
-1634.816775
 21
113.027117
  0
LINE
  8
0
 62
     1
  6
CONTINUOUS
 10
-1624.816775
 20
113.027117
 11
-1624.816775
 21
173.027117
  0
CIRCLE
  8
0
 62
     1
  6
CONTINUOUS
 10
-1624.816775
 20
113.027117
 40
2.500000
  0
CIRCLE
  8
0
 62
     1
  6
CONTINUOUS
 10
-1624.816775
 20
113.027117
 40
1.250000
  0
ENDBLK
  0
BLOCK
  8
0
  2
G30
 70
     0
 10
0
 20
0
  0
LINE
  8
0
 62
     1
  6
CONTINUOUS
 10
-1150.662948
 20
110.527117
 11
-1150.662948
 21
113.027117
  0
LINE
  8
0
 62
     1
  6
CONTINUOUS
 10
-1140.662948
 20
110.527117
 11
-1222.739862
 21
110.527117
  0
TEXT
  8
0
 62
     1
 10
-1155.996281
 20
24.799037
 40
32.000000
 50
90.000000
 41
0.58 
  1
2.5
 72
     5
 11
-1155.996281
 21
80.799037
  0
LINE
  8
0
 62
     1
  6
CONTINUOUS
 10
-1150.662948
 20
110.527117
 11
-1150.662948
 21
19.944416
  0
SOLID
  8
0
 62
     1
 10
-1144.192472
 20
86.378971
 11
-1157.133424
 21
86.378971
 12
-1150.662948
 22
110.527117
 13
-1150.662948
 23
110.527117
  0
ENDBLK
  0
BLOCK
  8
0
  2
G31
 70
     0
 10
0
 20
0
  0
LINE
  8
0
 62
     1
  6
CONTINUOUS
 10
-1150.662948
 20
113.027117
 11
-1150.662948
 21
173.027117
  0
CIRCLE
  8
0
 62
     1
  6
CONTINUOUS
 10
-1150.662948
 20
113.027117
 40
2.500000
  0
CIRCLE
  8
0
 62
     1
  6
CONTINUOUS
 10
-1150.662948
 20
113.027117
 40
1.250000
  0
LINE
  8
0
 62
     1
  6
CONTINUOUS
 10
-1222.739862
 20
113.027117
 11
-1140.662948
 21
113.027117
  0
LINE
  8
0
 62
     1
  6
CONTINUOUS
 10
-1211.806156
 20
173.027117
 11
-1140.662948
 21
173.027117
  0
TEXT
  8
0
 62
     1
 10
-1155.996281
 20
125.027117
 40
32.000000
 50
90.000000
 41
0.56 
  1
60
 72
     5
 11
-1155.996281
 21
161.027117
  0
LINE
  8
0
 62
     1
  6
CONTINUOUS
 10
-1150.662948
 20
173.027117
 11
-1150.662948
 21
223.027117
  0
SOLID
  8
0
 62
     1
 10
-1158.427519
 20
202.004891
 11
-1142.898377
 21
202.004891
 12
-1150.662948
 22
173.027117
 13
-1150.662948
 23
173.027117
  0
ENDBLK
  0
BLOCK
  8
0
  2
G32
 70
     0
 10
0
 20
0
  0
LINE
  8
0
 62
     7
  6
CONTINUOUS
 10
-1547.739862
 20
786.752345
 11
-1547.739862
 21
927.361891
  0
LINE
  8
0
 62
     7
  6
CONTINUOUS
 10
-1387.739862
 20
819.367860
 11
-1387.739862
 21
927.361891
  0
LINE
  8
0
 62
     7
  6
CONTINUOUS
 10
-1547.739862
 20
917.361891
 11
-1387.739862
 21
917.361891
  0
SOLID
  8
0
 62
     7
 10
-1519.050719
 20
926.133043
 11
-1519.050719
 21
908.590740
 12
-1547.739862
 22
917.361891
 13
-1547.739862
 23
917.361891
  0
SOLID
  8
0
 62
     7
 10
-1416.429004
 20
908.590740
 11
-1416.429004
 21
926.133043
 12
-1387.739862
 22
917.361891
 13
-1387.739862
 23
917.361891
  0
TEXT
  8
0
 62
     7
 10
-1495.739862
 20
922.695221
 40
32.000000
 50
0.000000E+00
 41
0.58 
  1
160
 72
     5
 11
-1439.739862
 21
922.695221
  0
LINE
  8
0
 62
     7
  6
CONTINUOUS
 10
-1227.739862
 20
786.752345
 11
-1227.739862
 21
927.361891
  0
LINE
  8
0
 62
     7
  6
CONTINUOUS
 10
-1387.739862
 20
917.361891
 11
-1227.739862
 21
917.361891
  0
SOLID
  8
0
 62
     7
 10
-1359.050719
 20
926.133043
 11
-1359.050719
 21
908.590740
 12
-1387.739862
 22
917.361891
 13
-1387.739862
 23
917.361891
  0
SOLID
  8
0
 62
     7
 10
-1256.429004
 20
908.590740
 11
-1256.429004
 21
926.133043
 12
-1227.739862
 22
917.361891
 13
-1227.739862
 23
917.361891
  0
TEXT
  8
0
 62
     7
 10
-1335.739862
 20
922.695221
 40
32.000000
 50
0.000000E+00
 41
0.58 
  1
160
 72
     5
 11
-1279.739862
 21
922.695221
  0
ENDBLK
  0
BLOCK
  8
0
  2
G33
 70
     0
 10
0
 20
0
  0
LINE
  8
0
 62
     7
  6
CONTINUOUS
 10
-1315.739862
 20
619.252345
 11
-1080.662948
 21
619.252345
  0
LINE
  8
0
 62
     7
  6
CONTINUOUS
 10
-1151.219972
 20
714.252345
 11
-1080.662948
 21
714.252345
  0
LINE
  8
0
 62
     7
  6
CONTINUOUS
 10
-1090.662948
 20
619.252345
 11
-1090.662948
 21
714.252345
  0
SOLID
  8
0
 62
     7
 10
-1099.434099
 20
647.941488
 11
-1081.891797
 21
647.941488
 12
-1090.662948
 22
619.252345
 13
-1090.662948
 23
619.252345
  0
SOLID
  8
0
 62
     7
 10
-1081.891797
 20
685.563202
 11
-1099.434099
 21
685.563202
 12
-1090.662948
 22
714.252345
 13
-1090.662948
 23
714.252345
  0
TEXT
  8
0
 62
     7
 10
-1095.996278
 20
648.752345
 40
32.000000
 50
90.000000
 41
0.56 
  1
95
 72
     5
 11
-1095.996278
 21
684.752345
  0
ENDBLK
  0
BLOCK
  8
0
  2
G34
 70
     0
 10
0
 20
0
  0
LINE
  8
0
 62
     7
  6
CONTINUOUS
 10
-1462.739862
 20
448.027117
 11
-1462.739862
 21
491.551724
  0
LINE
  8
0
 62
     7
  6
CONTINUOUS
 10
-1312.739862
 20
448.027117
 11
-1312.739862
 21
491.551724
  0
LINE
  8
0
 62
     7
  6
CONTINUOUS
 10
-1462.739862
 20
481.551724
 11
-1312.739862
 21
481.551724
  0
SOLID
  8
0
 62
     7
 10
-1434.050719
 20
490.322875
 11
-1434.050719
 21
472.780573
 12
-1462.739862
 22
481.551724
 13
-1462.739862
 23
481.551724
  0
SOLID
  8
0
 62
     7
 10
-1341.429004
 20
472.780573
 11
-1341.429004
 21
490.322875
 12
-1312.739862
 22
481.551724
 13
-1312.739862
 23
481.551724
  0
TEXT
  8
0
 62
     7
 10
-1445.739862
 20
486.885054
 40
32.000000
 50
0.000000E+00
 41
0.60 
  1
%%c150
 72
     5
 11
-1329.739862
 21
486.885054
  0
ENDBLK
  0
BLOCK
  8
0
  2
G35
 70
     0
 10
0
 20
0
  0
LINE
  8
0
 62
     7
  6
CONTINUOUS
 10
-1473.739862
 20
268.786486
 11
-1473.739862
 21
553.748668
  0
LINE
  8
0
 62
     7
  6
CONTINUOUS
 10
-1301.739862
 20
258.786486
 11
-1301.739862
 21
553.748668
  0
LINE
  8
0
 62
     7
  6
CONTINUOUS
 10
-1473.739862
 20
543.748668
 11
-1301.739862
 21
543.748668
  0
SOLID
  8
0
 62
     7
 10
-1445.050719
 20
552.519819
 11
-1445.050719
 21
534.977516
 12
-1473.739862
 22
543.748668
 13
-1473.739862
 23
543.748668
  0
SOLID
  8
0
 62
     7
 10
-1330.429004
 20
534.977516
 11
-1330.429004
 21
552.519819
 12
-1301.739862
 22
543.748668
 13
-1301.739862
 23
543.748668
  0
TEXT
  8
0
 62
     7
 10
-1445.739862
 20
549.081997
 40
32.000000
 50
0.000000E+00
 41
0.60 
  1
%%c172
 72
     5
 11
-1329.739862
 21
549.081997
  0
ENDBLK
  0
BLOCK
  8
0
  2
G36
 70
     0
 10
0
 20
0
  0
LINE
  8
0
 62
     7
  6
CONTINUOUS
 10
-1442.739862
 20
-556.972883
 11
-1442.739862
 21
-631.607049
  0
LINE
  8
0
 62
     7
  6
CONTINUOUS
 10
-1332.739862
 20
-556.972883
 11
-1332.739862
 21
-631.607049
  0
LINE
  8
0
 62
     7
  6
CONTINUOUS
 10
-1442.739862
 20
-621.607049
 11
-1332.739862
 21
-621.607049
  0
SOLID
  8
0
 62
     7
 10
-1414.050719
 20
-612.835898
 11
-1414.050719
 21
-630.378201
 12
-1442.739862
 22
-621.607049
 13
-1442.739862
 23
-621.607049
  0
SOLID
  8
0
 62
     7
 10
-1361.429004
 20
-630.378201
 11
-1361.429004
 21
-612.835898
 12
-1332.739862
 22
-621.607049
 13
-1332.739862
 23
-621.607049
  0
TEXT
  8
0
 62
     7
 10
-1445.739862
 20
-616.273720
 40
32.000000
 50
0.000000E+00
 41
0.60 
  1
%%c110
 72
     5
 11
-1329.739862
 21
-616.273720
  0
ENDBLK
  0
BLOCK
  8
0
  2
G37
 70
     0
 10
0
 20
0
  0
LINE
  8
0
 62
     7
  6
CONTINUOUS
 10
-1473.739862
 20
-293.100972
 11
-1473.739862
 21
-696.251332
  0
LINE
  8
0
 62
     7
  6
CONTINUOUS
 10
-1301.739862
 20
-283.100972
 11
-1301.739862
 21
-696.251332
  0
LINE
  8
0
 62
     7
  6
CONTINUOUS
 10
-1473.739862
 20
-686.251332
 11
-1301.739862
 21
-686.251332
  0
SOLID
  8
0
 62
     7
 10
-1445.050719
 20
-677.480181
 11
-1445.050719
 21
-695.022484
 12
-1473.739862
 22
-686.251332
 13
-1473.739862
 23
-686.251332
  0
SOLID
  8
0
 62
     7
 10
-1330.429004
 20
-695.022484
 11
-1330.429004
 21
-677.480181
 12
-1301.739862
 22
-686.251332
 13
-1301.739862
 23
-686.251332
  0
TEXT
  8
0
 62
     7
 10
-1445.739862
 20
-680.918003
 40
32.000000
 50
0.000000E+00
 41
0.60 
  1
%%c172
 72
     5
 11
-1329.739862
 21
-680.918003
  0
ENDBLK
  0
BLOCK
  8
0
  2
G38
 70
     0
 10
0
 20
0
  0
POINT
  8
0
 62
     2
 10
-1474.710036
 20
-128.921581
  0
LINE
  8
0
 62
     2
  6
CENTER
 10
-1557.989865
 20
-135.255985
 11
-1474.710036
 21
-136.921581
  0
LINE
  8
0
 62
     2
  6
CONTINUOUS
 10
-1540.671243
 20
-83.591958
 11
-1482.739862
 21
-84.750586
  0
LINE
  8
0
 62
     2
  6
CONTINUOUS
 10
-1482.756212
 20
-188.272556
 11
-1547.739862
 21
-186.972883
  0
LINE
  8
0
 62
     2
  6
CONTINUOUS
 10
-1540.611255
 20
-80.592558
 11
-1545.610256
 21
-80.492578
  0
LINE
  8
0
 62
     2
  6
CONTINUOUS
 10
-1545.610256
 20
-80.492578
 11
-1547.739862
 21
-186.972883
  0
LINE
  8
0
 62
     2
  6
CONTINUOUS
 10
-1540.611255
 20
-80.592558
 11
-1542.740861
 21
-187.072863
  0
POINT
  8
0
 62
     2
 10
-1546.710036
 20
-135.481581
  0
ENDBLK
  0
BLOCK
  8
0
  2
G39
 70
     0
 10
0
 20
0
  0
LINE
  8
0
 62
     7
  6
CONTINUOUS
 10
-1556.710036
 20
-135.481581
 11
-1606.237065
 21
-135.481581
  0
LINE
  8
0
 62
     7
  6
CONTINUOUS
 10
-1557.739862
 20
-186.972883
 11
-1606.237065
 21
-186.972883
  0
LINE
  8
0
 62
     7
  6
CONTINUOUS
 10
-1596.237065
 20
-135.481581
 11
-1596.237065
 21
-186.972883
  0
LINE
  8
0
 62
     7
  6
CONTINUOUS
 10
-1596.237065
 20
-135.481581
 11
-1596.237065
 21
-85.481581
  0
SOLID
  8
0
 62
     7
 10
-1605.008216
 20
-106.792438
 11
-1587.465914
 21
-106.792438
 12
-1596.237065
 22
-135.481581
 13
-1596.237065
 23
-135.481581
  0
LINE
  8
0
 62
     7
  6
CONTINUOUS
 10
-1596.237065
 20
-186.972883
 11
-1596.237065
 21
-236.972883
  0
SOLID
  8
0
 62
     7
 10
-1587.465914
 20
-215.662026
 11
-1605.008216
 21
-215.662026
 12
-1596.237065
 22
-186.972883
 13
-1596.237065
 23
-186.972883
  0
TEXT
  8
0
 62
     7
 10
-1601.570395
 20
-177.227232
 40
32.000000
 50
90.000000
 41
0.86 
  1
Ｂ
 72
     5
 11
-1601.570395
 21
-145.227232
  0
ENDBLK
  0
BLOCK
  8
0
  2
G40
 70
     0
 10
0
 20
0
  0
LINE
  8
0
 62
     7
  6
CONTINUOUS
 10
-1218.769688
 20
-135.481581
 11
-1140.662948
 21
-135.481581
  0
LINE
  8
0
 62
     7
  6
CONTINUOUS
 10
-1217.739862
 20
-186.972883
 11
-1140.662948
 21
-186.972883
  0
LINE
  8
0
 62
     7
  6
CONTINUOUS
 10
-1150.662948
 20
-135.481581
 11
-1150.662948
 21
-186.972883
  0
LINE
  8
0
 62
     7
  6
CONTINUOUS
 10
-1150.662948
 20
-135.481581
 11
-1150.662948
 21
-85.481581
  0
SOLID
  8
0
 62
     7
 10
-1159.434099
 20
-106.792438
 11
-1141.891797
 21
-106.792438
 12
-1150.662948
 22
-135.481581
 13
-1150.662948
 23
-135.481581
  0
LINE
  8
0
 62
     7
  6
CONTINUOUS
 10
-1150.662948
 20
-186.972883
 11
-1150.662948
 21
-236.972883
  0
SOLID
  8
0
 62
     7
 10
-1141.891797
 20
-215.662026
 11
-1159.434099
 21
-215.662026
 12
-1150.662948
 22
-186.972883
 13
-1150.662948
 23
-186.972883
  0
TEXT
  8
0
 62
     7
 10
-1155.996278
 20
-177.227232
 40
32.000000
 50
90.000000
 41
0.86 
  1
Ｂ
 72
     5
 11
-1155.996278
 21
-145.227232
  0
ENDBLK
  0
BLOCK
  8
0
  2
G41
 70
     0
 10
0
 20
0
  0
POINT
  8
0
 62
     2
 10
-1228.769688
 20
-135.481581
  0
LINE
  8
0
 62
     2
  6
CONTINUOUS
 10
-1234.868468
 20
-80.592558
 11
-1232.738862
 21
-187.072863
  0
LINE
  8
0
 62
     2
  6
CONTINUOUS
 10
-1229.869468
 20
-80.492578
 11
-1227.739862
 21
-186.972883
  0
LINE
  8
0
 62
     2
  6
CONTINUOUS
 10
-1234.868468
 20
-80.592558
 11
-1229.869468
 21
-80.492578
  0
LINE
  8
0
 62
     2
  6
CONTINUOUS
 10
-1292.723512
 20
-188.272556
 11
-1227.739862
 21
-186.972883
  0
LINE
  8
0
 62
     2
  6
CONTINUOUS
 10
-1234.808480
 20
-83.591958
 11
-1292.739862
 21
-84.750586
  0
LINE
  8
0
 62
     2
  6
CENTER
 10
-1217.489859
 20
-135.255985
 11
-1300.769688
 21
-136.921581
  0
POINT
  8
0
 62
     2
 10
-1300.769688
 20
-128.921581
  0
ENDBLK
  0
BLOCK
  8
0
  2
G42
 70
     0
 10
0
 20
0
  0
LINE
  8
0
 62
     2
  6
CONTINUOUS
 10
-614.983194
 20
587.000000
 11
-674.983194
 21
587.000000
  0
LINE
  8
0
 62
     2
  6
CONTINUOUS
 10
-674.983194
 20
483.000000
 11
-614.983194
 21
483.000000
  0
LINE
  8
0
 62
     2
  6
CONTINUOUS
 10
-674.983194
 20
590.000000
 11
-679.983194
 21
590.000000
  0
LINE
  8
0
 62
     2
  6
CONTINUOUS
 10
-674.983194
 20
480.000000
 11
-679.983194
 21
480.000000
  0
LINE
  8
0
 62
     2
  6
CONTINUOUS
 10
-674.983194
 20
480.000000
 11
-674.983194
 21
590.000000
  0
LINE
  8
0
 62
     2
  6
CONTINUOUS
 10
-679.983194
 20
480.000000
 11
-679.983194
 21
590.000000
  0
ENDBLK
  0
BLOCK
  8
0
  2
G43
 70
     0
 10
0
 20
0
  0
LINE
  8
0
 62
     2
  6
CONTINUOUS
 10
-359.983194
 20
480.000000
 11
-359.983194
 21
590.000000
  0
LINE
  8
0
 62
     2
  6
CONTINUOUS
 10
-364.983194
 20
480.000000
 11
-364.983194
 21
590.000000
  0
LINE
  8
0
 62
     2
  6
CONTINUOUS
 10
-364.983194
 20
480.000000
 11
-359.983194
 21
480.000000
  0
LINE
  8
0
 62
     2
  6
CONTINUOUS
 10
-364.983194
 20
590.000000
 11
-359.983194
 21
590.000000
  0
LINE
  8
0
 62
     2
  6
CONTINUOUS
 10
-364.983194
 20
483.000000
 11
-424.983194
 21
483.000000
  0
LINE
  8
0
 62
     2
  6
CONTINUOUS
 10
-424.983194
 20
587.000000
 11
-364.983194
 21
587.000000
  0
ENDBLK
  0
BLOCK
  8
0
  2
G44
 70
     0
 10
0
 20
0
  0
LINE
  8
0
 62
     7
  6
CONTINUOUS
 10
-349.983194
 20
590.000000
 11
-297.658502
 21
590.000000
  0
LINE
  8
0
 62
     7
  6
CONTINUOUS
 10
-349.983194
 20
480.000000
 11
-297.658502
 21
480.000000
  0
LINE
  8
0
 62
     7
  6
CONTINUOUS
 10
-307.658502
 20
590.000000
 11
-307.658502
 21
480.000000
  0
SOLID
  8
0
 62
     7
 10
-298.887351
 20
561.310857
 11
-316.429653
 21
561.310857
 12
-307.658502
 22
590.000000
 13
-307.658502
 23
590.000000
  0
SOLID
  8
0
 62
     7
 10
-316.429653
 20
508.689143
 11
-298.887351
 21
508.689143
 12
-307.658502
 22
480.000000
 13
-307.658502
 23
480.000000
  0
TEXT
  8
0
 62
     7
 10
-312.991832
 20
519.000000
 40
32.000000
 50
90.000000
 41
0.86 
  1
Ａ
 72
     5
 11
-312.991832
 21
551.000000
  0
ENDBLK
  0
BLOCK
  8
0
  2
G45
 70
     0
 10
0
 20
0
  0
LINE
  8
0
 62
     7
  6
CONTINUOUS
 10
-689.983194
 20
590.000000
 11
-742.307886
 21
590.000000
  0
LINE
  8
0
 62
     7
  6
CONTINUOUS
 10
-689.983194
 20
480.000000
 11
-742.307886
 21
480.000000
  0
LINE
  8
0
 62
     7
  6
CONTINUOUS
 10
-732.307886
 20
590.000000
 11
-732.307886
 21
480.000000
  0
SOLID
  8
0
 62
     7
 10
-723.536735
 20
561.310857
 11
-741.079037
 21
561.310857
 12
-732.307886
 22
590.000000
 13
-732.307886
 23
590.000000
  0
SOLID
  8
0
 62
     7
 10
-741.079037
 20
508.689143
 11
-723.536735
 21
508.689143
 12
-732.307886
 22
480.000000
 13
-732.307886
 23
480.000000
  0
TEXT
  8
0
 62
     7
 10
-737.641216
 20
519.000000
 40
32.000000
 50
90.000000
 41
0.86 
  1
Ａ
 72
     5
 11
-737.641216
 21
551.000000
  0
ENDBLK
  0
ENDSEC
  0
SECTION
  2
ENTITIES
  0
LINE
  8
3
 62
     4
  6
CONTINUOUS
 10
-1470.539450
 20
-186.482684
 11
-1467.387088
 21
-185.017441
  0
LINE
  8
3
 62
     4
  6
CONTINUOUS
 10
-1467.387088
 20
-185.017441
 11
-1464.338814
 21
-182.601159
  0
LINE
  8
3
 62
     4
  6
CONTINUOUS
 10
-1464.338814
 20
-182.601159
 11
-1461.444572
 21
-179.273430
  0
LINE
  8
3
 62
     4
  6
CONTINUOUS
 10
-1461.444572
 20
-179.273430
 11
-1458.751784
 21
-175.088775
  0
LINE
  8
3
 62
     4
  6
CONTINUOUS
 10
-1458.751784
 20
-175.088775
 11
-1456.304570
 21
-170.115760
  0
LINE
  8
3
 62
     4
  6
CONTINUOUS
 10
-1456.304570
 20
-170.115760
 11
-1454.143026
 21
-164.435866
  0
LINE
  8
3
 62
     4
  6
CONTINUOUS
 10
-1454.143026
 20
-164.435866
 11
-1452.302569
 21
-158.142155
  0
LINE
  8
3
 62
     4
  6
CONTINUOUS
 10
-1452.302569
 20
-158.142155
 11
-1450.813354
 21
-151.337747
  0
LINE
  8
3
 62
     4
  6
CONTINUOUS
 10
-1450.813354
 20
-151.337747
 11
-1449.699782
 21
-144.134130
  0
LINE
  8
3
 62
     4
  6
CONTINUOUS
 10
-1449.699782
 20
-144.134130
 11
-1448.980096
 21
-136.649332
  0
LINE
  8
3
 62
     4
  6
CONTINUOUS
 10
-1449.699782
 20
-144.134130
 11
-1448.980096
 21
-136.649332
  0
ARC
  8
1
 62
     4
  6
CONTINUOUS
 10
-1281.938544
 20
-92.212691
 40
30.639745
 50
117.551999
 51
146.346996
  0
POINT
  8
3
 62
     7
 10
-1301.739862
 20
-66.972883
  0
POINT
  8
3
 62
     4
 10
-1301.739862
 20
-188.972883
  0
ARC
  8
3
 62
     4
  6
CONTINUOUS
 10
-1298.739862
 20
-191.972883
 40
3.000000
 50
90.000000
 51
180.000000
  0
LINE
  8
3
 62
     4
  6
CONTINUOUS
 10
-1294.739862
 20
-188.972883
 11
-1298.739862
 21
-188.972883
  0
ARC
  8
3
 62
     4
  6
CONTINUOUS
 10
-1294.739862
 20
-186.972883
 40
2.000000
 50
-90.000000
 51
0.000000E+00
  0
LINE
  8
3
 62
     4
  6
CONTINUOUS
 10
-1292.739862
 20
-186.972883
 11
-1292.739862
 21
-66.972883
  0
ARC
  8
3
 62
     4
  6
CONTINUOUS
 10
-1294.739862
 20
-66.972883
 40
2.000000
 50
0.000000E+00
 51
90.000000
  0
LINE
  8
3
 62
     4
  6
CONTINUOUS
 10
-1454.893237
 20
-81.972883
 11
-1430.389598
 21
-81.972883
  0
LINE
  8
0
 62
     2
  6
CONTINUOUS
 10
-1485.739862
 20
-31.471285
 11
-1485.739862
 21
-29.471285
  0
LINE
  8
0
 62
     2
  6
CONTINUOUS
 10
-1492.739862
 20
-28.471285
 11
-1387.739862
 21
-28.471285
  0
LINE
  8
0
 62
     2
  6
CONTINUOUS
 10
-1485.739862
 20
-31.471285
 11
-1289.739862
 21
-31.471285
  0
LINE
  8
0
 62
     2
  6
CONTINUOUS
 10
-1492.739862
 20
-28.471285
 11
-1492.739862
 21
-20.471285
  0
LINE
  8
0
 62
     3
  6
CONTINUOUS
 10
-1301.739862
 20
238.027117
 11
-1301.739862
 21
248.786486
  0
LINE
  8
3
 62
     3
  6
CONTINUOUS
 10
-1312.739862
 20
433.027117
 11
-1387.739862
 21
433.027117
  0
LINE
  8
3
 62
     3
  6
CONTINUOUS
 10
-1462.739862
 20
438.027117
 11
-1312.739862
 21
438.027117
  0
LINE
  8
3
 62
     3
  6
CONTINUOUS
 10
-1462.739862
 20
438.027117
 11
-1462.739862
 21
433.027117
  0
LINE
  8
0
 62
     3
  6
CONTINUOUS
 10
-1301.739862
 20
108.027117
 11
-1301.739862
 21
-13.471285
  0
ARC
  8
3
 62
     3
  6
CONTINUOUS
 10
-1325.739862
 20
361.027117
 40
10.000000
 50
-57.472862
 51
0.000000E+00
  0
LINE
  8
3
 62
     3
  6
CONTINUOUS
 10
-1459.739862
 20
428.444541
 11
-1459.739862
 21
361.027117
  0
LINE
  8
3
 62
     3
  6
CONTINUOUS
 10
-1315.739862
 20
428.444541
 11
-1315.739862
 21
361.027117
  0
ARC
  8
3
 62
     3
  6
CONTINUOUS
 10
-1449.739862
 20
361.027117
 40
10.000000
 50
180.000000
 51
238.038250
  0
LINE
  8
3
 62
     3
  6
CENTER
 10
-1221.806156
 20
173.027117
 11
-1559.508986
 21
173.027117
  0
LINE
  8
0
 62
     2
  6
CONTINUOUS
 10
-1289.739862
 20
-13.471285
 11
-1282.739862
 21
-20.471285
  0
ARC
  8
3
 62
     3
  6
CONTINUOUS
 10
-1464.739862
 20
428.444541
 40
5.000000
 50
0.000000E+00
 51
66.421822
  0
LINE
  8
3
 62
     3
  6
CONTINUOUS
 10
-1312.739862
 20
438.027117
 11
-1312.739862
 21
433.027117
  0
ARC
  8
0
 62
     3
  6
CONTINUOUS
 10
-1336.739862
 20
248.786486
 40
35.000000
 50
0.000000E+00
 51
17.716492
  0
ARC
  8
3
 62
     3
  6
CONTINUOUS
 10
-1310.739862
 20
428.444541
 40
5.000000
 50
113.578178
 51
180.000000
  0
LINE
  8
3
 62
     3
  6
CONTINUOUS
 10
-1310.000839
 20
255.903002
 11
-1387.739862
 21
255.903002
  0
ARC
  8
1
 62
     4
  6
CONTINUOUS
 10
-1294.739862
 20
-186.972883
 40
2.000000
 50
-90.000000
 51
0.000000E+00
  0
ARC
  8
1
 62
     4
  6
CONTINUOUS
 10
-1294.739862
 20
-66.972883
 40
2.000000
 50
0.000000E+00
 51
90.000000
  0
LINE
  8
1
 62
     4
  6
CONTINUOUS
 10
-1292.739862
 20
-66.972883
 11
-1292.739862
 21
-186.972883
  0
ARC
  8
3
 62
     4
  6
CONTINUOUS
 10
-1467.739862
 20
-400.844795
 40
25.000000
 50
0.000000E+00
 51
14.708304
  0
LINE
  8
3
 62
     4
  6
CONTINUOUS
 10
-1472.592945
 20
-281.987407
 11
-1443.559088
 21
-394.497342
  0
ARC
  8
3
 62
     4
  6
CONTINUOUS
 10
-1438.739862
 20
-273.100972
 40
35.000000
 50
180.000000
 51
194.708304
  0
LINE
  8
3
 62
     4
  6
CONTINUOUS
 10
-1442.739862
 20
-400.844795
 11
-1442.739862
 21
-544.972883
  0
ARC
  8
3
 62
     4
  6
CONTINUOUS
 10
-1307.739862
 20
-400.844795
 40
25.000000
 50
165.291696
 51
180.000000
  0
LINE
  8
3
 62
     4
  6
CONTINUOUS
 10
-1302.886778
 20
-281.987407
 11
-1331.920636
 21
-394.497342
  0
ARC
  8
3
 62
     4
  6
CONTINUOUS
 10
-1336.739862
 20
-273.100972
 40
35.000000
 50
-14.708304
 51
0.000000E+00
  0
LINE
  8
3
 62
     4
  6
CONTINUOUS
 10
-1332.739862
 20
-400.844795
 11
-1332.739862
 21
-544.972883
  0
LINE
  8
3
 62
     4
  6
CONTINUOUS
 10
-1334.739862
 20
-546.972883
 11
-1440.739862
 21
-546.972883
  0
LINE
  8
3
 62
     4
  6
CONTINUOUS
 10
-1437.990773
 20
-396.972883
 11
-1337.488951
 21
-396.972883
  0
LINE
  8
3
 62
     4
  6
CONTINUOUS
 10
-1468.488951
 20
-276.972883
 11
-1306.990773
 21
-276.972883
  0
LINE
  8
3
 62
     4
  6
CONTINUOUS
 10
-1473.739862
 20
-276.972883
 11
-1473.739862
 21
-191.972883
  0
LINE
  8
3
 62
     4
  6
CONTINUOUS
 10
-1294.739862
 20
-56.273521
 11
-1480.739862
 21
-56.273521
  0
LINE
  8
3
 62
     4
  6
CONTINUOUS
 10
-1301.739862
 20
-273.100972
 11
-1301.739862
 21
-191.972883
  0
LINE
  8
3
 62
     4
  6
CONTINUOUS
 10
-1491.739862
 20
-46.972883
 11
-1283.739862
 21
-46.972883
  0
LINE
  8
3
 62
     4
  6
CONTINUOUS
 10
-1282.739862
 20
-31.972883
 11
-1492.739862
 21
-31.972883
  0
ARC
  8
3
 62
     4
  6
CONTINUOUS
 10
-1440.739862
 20
-544.972883
 40
2.000000
 50
180.000000
 51
270.000000
  0
ARC
  8
3
 62
     4
  6
CONTINUOUS
 10
-1334.739862
 20
-544.972883
 40
2.000000
 50
-90.000000
 51
0.000000E+00
  0
LINE
  8
3
 62
     4
  6
CONTINUOUS
 10
-1282.739862
 20
-31.972883
 11
-1282.739862
 21
-46.972883
  0
LINE
  8
3
 62
     4
  6
CONTINUOUS
 10
-1283.739862
 20
-46.972883
 11
-1282.739862
 21
-46.972883
  0
LINE
  8
3
 62
     3
  6
CENTER
 10
-1466.228714
 20
-55.916452
 11
-1466.228714
 21
-25.425681
  0
LINE
  8
3
 62
     3
  6
CENTER
 10
-1309.251009
 20
-55.916452
 11
-1309.251009
 21
-25.425681
  0
ARC
  8
3
 62
     4
  6
CONTINUOUS
 10
-1283.739862
 20
-48.972883
 40
2.000000
 50
90.000000
 51
180.000000
  0
LINE
  8
3
 62
     4
  6
CONTINUOUS
 10
-1285.739862
 20
-48.972883
 11
-1285.739862
 21
-50.472883
  0
LINE
  8
3
 62
     4
  6
CONTINUOUS
 10
-1320.586486
 20
-81.972883
 11
-1345.090125
 21
-81.972883
  0
ARC
  8
3
 62
     4
  6
CONTINUOUS
 10
-1287.239862
 20
-50.472883
 40
1.500000
 50
-90.000000
 51
0.000000E+00
  0
LINE
  8
3
 62
     4
  6
CONTINUOUS
 10
-1287.239862
 20
-51.972883
 11
-1488.239862
 21
-51.972883
  0
LINE
  8
3
 62
     4
  6
CONTINUOUS
 10
-1291.180713
 20
-51.972883
 11
-1294.739862
 21
-56.273521
  0
LINE
  8
3
 62
     4
  6
CONTINUOUS
 10
-1294.739862
 20
-56.273521
 11
-1294.739862
 21
-64.972883
  0
LINE
  8
3
 62
     4
  6
CONTINUOUS
 10
-1480.739862
 20
-56.273521
 11
-1480.739862
 21
-64.972883
  0
LINE
  8
3
 62
     4
  6
CONTINUOUS
 10
-1484.299010
 20
-51.972883
 11
-1480.739862
 21
-56.273521
  0
ARC
  8
3
 62
     4
  6
CONTINUOUS
 10
-1488.239862
 20
-50.472883
 40
1.500000
 50
180.000000
 51
270.000000
  0
LINE
  8
3
 62
     4
  6
CONTINUOUS
 10
-1489.739862
 20
-48.972883
 11
-1489.739862
 21
-50.472883
  0
ARC
  8
3
 62
     4
  6
CONTINUOUS
 10
-1491.739862
 20
-48.972883
 40
2.000000
 50
0.000000E+00
 51
90.000000
  0
LINE
  8
3
 62
     4
  6
CONTINUOUS
 10
-1491.739862
 20
-46.972883
 11
-1492.739862
 21
-46.972883
  0
LINE
  8
3
 62
     4
  6
CONTINUOUS
 10
-1492.739862
 20
-31.972883
 11
-1492.739862
 21
-46.972883
  0
LINE
  8
0
 62
     3
  6
CONTINUOUS
 10
-1473.739862
 20
248.786486
 11
-1473.739862
 21
238.027117
  0
ARC
  8
0
 62
     3
  6
CONTINUOUS
 10
-1438.739862
 20
248.786486
 40
35.000000
 50
162.283508
 51
180.000000
  0
LINE
  8
3
 62
     3
  6
CONTINUOUS
 10
-1326.769878
 20
352.543100
 11
-1387.739862
 21
352.543100
  0
LINE
  8
0
 62
     3
  6
CONTINUOUS
 10
-1448.493178
 20
334.836132
 11
-1472.079949
 21
259.437240
  0
LINE
  8
0
 62
     3
  6
CONTINUOUS
 10
-1326.986545
 20
334.836132
 11
-1303.399774
 21
259.437240
  0
ARC
  8
2
 62
     3
  6
CONTINUOUS
 10
-1462.781787
 20
339.400741
 40
15.000000
 50
-17.716492
 51
59.888987
  0
LINE
  8
3
 62
     4
  6
CENTER
 10
-1387.739862
 20
-319.368262
 11
-1387.739862
 21
-7.290674
  0
LINE
  8
3
 62
     4
  6
CENTER
 10
-1387.739862
 20
-560.060403
 11
-1387.739862
 21
-319.368262
  0
LINE
  8
0
 62
     2
  6
CONTINUOUS
 10
-1485.739862
 20
-13.471285
 11
-1492.739862
 21
-20.471285
  0
LINE
  8
0
 62
     3
  6
CONTINUOUS
 10
-1473.739862
 20
108.027117
 11
-1473.739862
 21
-13.471285
  0
ARC
  8
2
 62
     3
  6
CONTINUOUS
 10
-1312.697936
 20
339.400741
 40
15.000000
 50
120.111013
 51
197.716492
  0
LINE
  8
3
 62
     3
  6
CONTINUOUS
 10
-1304.384056
 20
113.387137
 11
-1308.017657
 21
115.061817
  0
LINE
  8
3
 62
     3
  6
CONTINUOUS
 10
-1308.017657
 20
115.061817
 11
-1311.506711
 21
118.065583
  0
LINE
  8
3
 62
     3
  6
CONTINUOUS
 10
-1311.506711
 20
118.065583
 11
-1314.771216
 21
122.329561
  0
LINE
  8
3
 62
     3
  6
CONTINUOUS
 10
-1314.771216
 20
122.329561
 11
-1317.736321
 21
127.755983
  0
LINE
  8
3
 62
     3
  6
CONTINUOUS
 10
-1317.736321
 20
127.755983
 11
-1320.334039
 21
134.220426
  0
LINE
  8
3
 62
     3
  6
CONTINUOUS
 10
-1320.334039
 20
134.220426
 11
-1322.504807
 21
141.574668
  0
LINE
  8
3
 62
     3
  6
CONTINUOUS
 10
-1322.504807
 20
141.574668
 11
-1324.198851
 21
149.650083
  0
LINE
  8
3
 62
     3
  6
CONTINUOUS
 10
-1324.198851
 20
149.650083
 11
-1325.377328
 21
158.261509
  0
LINE
  8
3
 62
     3
  6
CONTINUOUS
 10
-1325.377328
 20
158.261509
 11
-1326.013218
 21
167.211496
  0
LINE
  8
3
 62
     3
  6
CONTINUOUS
 10
-1325.377328
 20
158.261509
 11
-1326.013218
 21
167.211496
  0
INSERT
  8
0
  2
G0
 10
0
 20
0
  0
LINE
  8
3
 62
     3
  6
CONTINUOUS
 10
-1303.926165
 20
232.780203
 11
-1307.621593
 21
231.243850
  0
LINE
  8
3
 62
     3
  6
CONTINUOUS
 10
-1307.621593
 20
231.243850
 11
-1311.177791
 21
228.335574
  0
LINE
  8
3
 62
     3
  6
CONTINUOUS
 10
-1311.177791
 20
228.335574
 11
-1314.510956
 21
224.123910
  0
LINE
  8
3
 62
     3
  6
CONTINUOUS
 10
-1314.510956
 20
224.123910
 11
-1317.542539
 21
218.708111
  0
LINE
  8
3
 62
     3
  6
CONTINUOUS
 10
-1317.542539
 20
218.708111
 11
-1320.201098
 21
212.215803
  0
LINE
  8
3
 62
     3
  6
CONTINUOUS
 10
-1320.201098
 20
212.215803
 11
-1322.423983
 21
204.799983
  0
LINE
  8
3
 62
     3
  6
CONTINUOUS
 10
-1322.423983
 20
204.799983
 11
-1324.158808
 21
196.635411
  0
LINE
  8
3
 62
     3
  6
CONTINUOUS
 10
-1324.158808
 20
196.635411
 11
-1325.364693
 21
187.914490
  0
LINE
  8
3
 62
     3
  6
CONTINUOUS
 10
-1325.364693
 20
187.914490
 11
-1326.013218
 21
178.842737
  0
LINE
  8
3
 62
     3
  6
CONTINUOUS
 10
-1325.364693
 20
187.914490
 11
-1326.013218
 21
178.842737
  0
LINE
  8
0
 62
     7
  6
CONTINUOUS
 10
-1240.260304
 20
279.111644
 11
-1240.260304
 21
237.327305
  0
SOLID
  8
0
 62
     7
 10
-1248.024875
 20
266.305080
 11
-1232.495733
 21
266.305080
 12
-1240.260304
 22
237.327305
 13
-1240.260304
 23
237.327305
  0
CIRCLE
  8
0
 62
     1
  6
CONTINUOUS
 10
-1387.739862
 20
-126.972883
 40
62.000000
  0
TEXT
  8
0
 62
     6
 10
-1298.933805
 20
1149.451072
 40
32.000000
 50
0.000000E+00
 41
0.86 
  1
ａ
 72
     5
 11
-1266.933805
 21
1149.451072
  0
LINE
  8
0
 62
     3
  6
CONTINUOUS
 10
-393.783784
 20
592.962162
 11
-346.567689
 21
679.837727
  0
SOLID
  8
0
 62
     3
 10
-386.768364
 20
622.130362
 11
-373.124152
 21
614.714855
 12
-393.783784
 22
592.962162
 13
-393.783784
 23
592.962162
  0
INSERT
  8
0
  2
G1
 10
0
 20
0
  0
LINE
  8
0
 62
     3
  6
CONTINUOUS
 10
-655.894923
 20
473.988239
 11
-708.380132
 21
440.869230
  0
SOLID
  8
0
 62
     3
 10
-676.257952
 20
451.957646
 11
-684.545120
 21
465.090700
 12
-655.894923
 22
473.988239
 13
-655.894923
 23
473.988239
  0
LINE
  8
0
 62
     3
  6
CONTINUOUS
 10
-759.309126
 20
399.006739
 11
-759.309126
 21
322.494023
  0
TEXT
  8
0
 62
     7
 10
-1278.603372
 20
286.390527
 40
32.000000
 50
0.000000E+00
 41
0.78 
  1
７５枝管
 72
     5
 11
-1166.603372
 21
286.390527
  0
LINE
  8
3
 62
     4
  6
CONTINUOUS
 10
-1456.278439
 20
-83.890495
 11
-1455.163744
 21
-86.645079
  0
LINE
  8
3
 62
     4
  6
CONTINUOUS
 10
-1455.163744
 20
-86.645079
 11
-1454.124874
 21
-89.564275
  0
LINE
  8
3
 62
     4
  6
CONTINUOUS
 10
-1454.124874
 20
-89.564275
 11
-1453.166069
 21
-92.636166
  0
LINE
  8
3
 62
     4
  6
CONTINUOUS
 10
-1453.166069
 20
-92.636166
 11
-1452.291242
 21
-95.848214
  0
LINE
  8
3
 62
     4
  6
CONTINUOUS
 10
-1452.291242
 20
-95.848214
 11
-1451.503965
 21
-99.187307
  0
LINE
  8
3
 62
     4
  6
CONTINUOUS
 10
-1451.503965
 20
-99.187307
 11
-1450.807451
 21
-102.639816
  0
LINE
  8
3
 62
     4
  6
CONTINUOUS
 10
-1450.807451
 20
-102.639816
 11
-1450.204543
 21
-106.191648
  0
LINE
  8
3
 62
     4
  6
CONTINUOUS
 10
-1450.204543
 20
-106.191648
 11
-1449.697702
 21
-109.828306
  0
LINE
  8
3
 62
     4
  6
CONTINUOUS
 10
-1449.697702
 20
-109.828306
 11
-1449.288997
 21
-113.534945
  0
LINE
  8
3
 62
     4
  6
CONTINUOUS
 10
-1449.288997
 20
-113.534945
 11
-1448.980096
 21
-117.296435
  0
LINE
  8
3
 62
     4
  6
CONTINUOUS
 10
-1449.288997
 20
-113.534945
 11
-1448.980096
 21
-117.296435
  0
ARC
  8
3
 62
     4
  6
CONTINUOUS
 10
-1447.868044
 20
-55.024384
 40
28.500781
 50
225.057601
 51
244.512889
  0
POINT
  8
3
 62
     7
 10
-1473.739862
 20
-66.972883
  0
ARC
  8
3
 62
     4
  6
CONTINUOUS
 10
-1327.611679
 20
-55.024384
 40
28.500781
 50
295.487111
 51
314.942399
  0
ARC
  8
1
 62
     4
  6
CONTINUOUS
 10
-1480.739862
 20
-186.972883
 40
2.000000
 50
180.000000
 51
270.000000
  0
ARC
  8
1
 62
     4
  6
CONTINUOUS
 10
-1480.739862
 20
-66.972883
 40
2.000000
 50
90.000000
 51
180.000000
  0
ARC
  8
1
 62
     4
  6
CONTINUOUS
 10
-1476.739862
 20
-191.972883
 40
3.000000
 50
0.000000E+00
 51
90.000000
  0
LINE
  8
1
 62
     4
  6
CONTINUOUS
 10
-1476.739862
 20
-188.972883
 11
-1480.739862
 21
-188.972883
  0
ARC
  8
1
 62
     4
  6
CONTINUOUS
 10
-1493.541179
 20
-92.212691
 40
30.639745
 50
33.671563
 51
62.448001
  0
LINE
  8
1
 62
     4
  6
CONTINUOUS
 10
-1482.739862
 20
-66.972883
 11
-1482.739862
 21
-186.972883
  0
LINE
  8
3
 62
     4
  6
CONTINUOUS
 10
-1319.201285
 20
-83.890495
 11
-1320.315979
 21
-86.645079
  0
LINE
  8
3
 62
     4
  6
CONTINUOUS
 10
-1320.315979
 20
-86.645079
 11
-1321.354850
 21
-89.564275
  0
LINE
  8
3
 62
     4
  6
CONTINUOUS
 10
-1321.354850
 20
-89.564275
 11
-1322.313655
 21
-92.636166
  0
LINE
  8
3
 62
     4
  6
CONTINUOUS
 10
-1322.313655
 20
-92.636166
 11
-1323.188481
 21
-95.848214
  0
LINE
  8
3
 62
     4
  6
CONTINUOUS
 10
-1323.188481
 20
-95.848214
 11
-1323.975758
 21
-99.187307
  0
LINE
  8
3
 62
     4
  6
CONTINUOUS
 10
-1323.975758
 20
-99.187307
 11
-1324.672272
 21
-102.639816
  0
LINE
  8
3
 62
     4
  6
CONTINUOUS
 10
-1324.672272
 20
-102.639816
 11
-1325.275180
 21
-106.191648
  0
LINE
  8
3
 62
     4
  6
CONTINUOUS
 10
-1325.275180
 20
-106.191648
 11
-1325.782021
 21
-109.828306
  0
LINE
  8
3
 62
     4
  6
CONTINUOUS
 10
-1325.782021
 20
-109.828306
 11
-1326.190726
 21
-113.534945
  0
LINE
  8
3
 62
     4
  6
CONTINUOUS
 10
-1326.190726
 20
-113.534945
 11
-1326.499627
 21
-117.296435
  0
LINE
  8
3
 62
     4
  6
CONTINUOUS
 10
-1326.190726
 20
-113.534945
 11
-1326.499627
 21
-117.296435
  0
LINE
  8
3
 62
     4
  6
CONTINUOUS
 10
-1304.940273
 20
-186.482684
 11
-1308.092635
 21
-185.017441
  0
LINE
  8
3
 62
     4
  6
CONTINUOUS
 10
-1308.092635
 20
-185.017441
 11
-1311.140910
 21
-182.601159
  0
LINE
  8
3
 62
     4
  6
CONTINUOUS
 10
-1311.140910
 20
-182.601159
 11
-1314.035152
 21
-179.273430
  0
LINE
  8
3
 62
     4
  6
CONTINUOUS
 10
-1314.035152
 20
-179.273430
 11
-1316.727940
 21
-175.088775
  0
LINE
  8
3
 62
     4
  6
CONTINUOUS
 10
-1316.727940
 20
-175.088775
 11
-1319.175154
 21
-170.115760
  0
LINE
  8
3
 62
     4
  6
CONTINUOUS
 10
-1319.175154
 20
-170.115760
 11
-1321.336697
 21
-164.435866
  0
LINE
  8
3
 62
     4
  6
CONTINUOUS
 10
-1321.336697
 20
-164.435866
 11
-1323.177154
 21
-158.142155
  0
LINE
  8
3
 62
     4
  6
CONTINUOUS
 10
-1323.177154
 20
-158.142155
 11
-1324.666369
 21
-151.337747
  0
LINE
  8
3
 62
     4
  6
CONTINUOUS
 10
-1324.666369
 20
-151.337747
 11
-1325.779942
 21
-144.134130
  0
LINE
  8
3
 62
     4
  6
CONTINUOUS
 10
-1325.779942
 20
-144.134130
 11
-1326.499627
 21
-136.649332
  0
LINE
  8
3
 62
     4
  6
CONTINUOUS
 10
-1325.779942
 20
-144.134130
 11
-1326.499627
 21
-136.649332
  0
POINT
  8
0
 62
     3
 10
-1387.739862
 20
-39.972883
  0
POINT
  8
0
 62
     3
 10
-1387.739862
 20
-54.472883
  0
POINT
  8
0
 62
     3
 10
-1387.739862
 20
-76.972883
  0
ARC
  8
0
 62
     2
  6
CONTINUOUS
 10
-1486.739862
 20
-29.471285
 40
1.000000
 50
360.000000
 51
450.000000
  0
LINE
  8
0
 62
     2
  6
CONTINUOUS
 10
-1485.739862
 20
-13.471285
 11
-1289.739862
 21
-13.471285
  0
LINE
  8
3
 62
     3
  6
CONTINUOUS
 10
-1232.739862
 20
110.527117
 11
-1232.739862
 21
233.027117
  0
LINE
  8
3
 62
     3
  6
CONTINUOUS
 10
-1232.739862
 20
110.527117
 11
-1227.739862
 21
110.527117
  0
LINE
  8
3
 62
     3
  6
CONTINUOUS
 10
-1232.739862
 20
233.027117
 11
-1292.739862
 21
233.027117
  0
ARC
  8
1
 62
     3
  6
CONTINUOUS
 10
-1294.739862
 20
113.027117
 40
2.000000
 50
-90.000000
 51
0.000000E+00
  0
LINE
  8
3
 62
     3
  6
CONTINUOUS
 10
-1232.739862
 20
113.027117
 11
-1292.739862
 21
113.027117
  0
LINE
  8
3
 62
     3
  6
CONTINUOUS
 10
-1232.739862
 20
235.527117
 11
-1227.739862
 21
235.527117
  0
LINE
  8
3
 62
     3
  6
CONTINUOUS
 10
-1232.739862
 20
235.527117
 11
-1232.739862
 21
233.027117
  0
LINE
  8
3
 62
     3
  6
CONTINUOUS
 10
-1227.739862
 20
235.527117
 11
-1227.739862
 21
110.527117
  0
LINE
  8
1
 62
     3
  6
CONTINUOUS
 10
-1294.739862
 20
235.027117
 11
-1298.739862
 21
235.027117
  0
LINE
  8
1
 62
     3
  6
CONTINUOUS
 10
-1294.739862
 20
111.027117
 11
-1298.739862
 21
111.027117
  0
ARC
  8
1
 62
     3
  6
CONTINUOUS
 10
-1294.739862
 20
233.027117
 40
2.000000
 50
0.000000E+00
 51
90.000000
  0
ARC
  8
1
 62
     3
  6
CONTINUOUS
 10
-1298.739862
 20
238.027117
 40
3.000000
 50
180.000000
 51
270.000000
  0
ARC
  8
1
 62
     3
  6
CONTINUOUS
 10
-1298.739862
 20
108.027117
 40
3.000000
 50
90.000000
 51
180.000000
  0
ARC
  8
0
 62
     3
  6
CONTINUOUS
 10
-1336.739862
 20
248.786486
 40
35.000000
 50
0.000000E+00
 51
17.716492
  0
LINE
  8
0
 62
     3
  6
CONTINUOUS
 10
-1301.739862
 20
248.786486
 11
-1301.739862
 21
238.027117
  0
LINE
  8
0
 62
     2
  6
CONTINUOUS
 10
-1492.739862
 20
-20.471285
 11
-1387.739862
 21
-20.471285
  0
LINE
  8
3
 62
     3
  6
CENTER
 10
-1387.739862
 20
445.501565
 11
-1387.739862
 21
-7.290674
  0
LINE
  8
3
 62
     3
  6
CONTINUOUS
 10
-1465.478884
 20
255.903002
 11
-1387.739862
 21
255.903002
  0
LINE
  8
3
 62
     3
  6
CONTINUOUS
 10
-1448.709846
 20
352.543100
 11
-1387.739862
 21
352.543100
  0
LINE
  8
3
 62
     3
  6
CONTINUOUS
 10
-1462.739862
 20
433.027117
 11
-1387.739862
 21
433.027117
  0
POINT
  8
0
 62
     3
 10
-1387.739862
 20
363.027117
  0
TEXT
  8
0
 62
     6
 10
-1663.166393
 20
1058.812443
 40
35.000000
 50
0.000000E+00
 41
0.77 
  1
４ＳＦ－　　　－　　　　　　０　　０－Ｐ
 72
     5
 11
-1047.666393
 21
1058.812443
  0
LINE
  8
0
 62
     2
  6
CONTINUOUS
 10
-1282.739862
 20
-28.471285
 11
-1282.739862
 21
-20.471285
  0
LINE
  8
0
 62
     2
  6
CONTINUOUS
 10
-1289.739862
 20
-31.471285
 11
-1289.739862
 21
-29.471285
  0
ARC
  8
0
 62
     2
  6
CONTINUOUS
 10
-1288.739862
 20
-29.471285
 40
1.000000
 50
90.000000
 51
180.000000
  0
LINE
  8
0
 62
     2
  6
CONTINUOUS
 10
-1282.739862
 20
-20.471285
 11
-1387.739862
 21
-20.471285
  0
LINE
  8
0
 62
     2
  6
CONTINUOUS
 10
-1282.739862
 20
-28.471285
 11
-1387.739862
 21
-28.471285
  0
INSERT
  8
0
  2
G2
 10
0
 20
0
  0
INSERT
  8
0
  2
G3
 10
0
 20
0
  0
LINE
  8
0
 62
     1
  6
CONTINUOUS
 10
-439.373021
 20
629.752309
 11
-483.005941
 21
673.385229
  0
LINE
  8
0
 62
     1
  6
CONTINUOUS
 10
-529.844837
 20
720.224125
 11
-579.898302
 21
770.277589
  0
INSERT
  8
0
  2
G4
 10
0
 20
0
  0
INSERT
  8
0
  2
G5
 10
0
 20
0
  0
INSERT
  8
0
  2
G6
 10
0
 20
0
  0
LINE
  8
0
 62
     1
  6
CONTINUOUS
 10
-424.983194
 20
469.361184
 11
-424.983194
 21
373.375253
  0
ARC
  8
0
 62
     4
  6
CONTINUOUS
 10
-519.983194
 20
535.000000
 40
100.000000
 50
126.038338
 51
143.961662
  0
ARC
  8
3
 62
     3
  6
CONTINUOUS
 10
-519.983194
 20
535.000000
 40
105.000000
 50
170.096801
 51
190.978618
  0
ARC
  8
0
 62
     4
  6
CONTINUOUS
 10
-519.983194
 20
535.000000
 40
100.000000
 50
36.038338
 51
53.961662
  0
ARC
  8
0
 62
     4
  6
CONTINUOUS
 10
-519.983194
 20
535.000000
 40
100.000000
 50
306.038338
 51
323.961662
  0
CIRCLE
  8
3
 62
     4
  6
CONTINUOUS
 10
-519.983194
 20
535.000000
 40
88.000000
  0
INSERT
  8
0
  2
G7
 10
0
 20
0
  0
ARC
  8
3
 62
     4
  6
CONTINUOUS
 10
-519.983194
 20
535.000000
 40
100.000000
 50
143.109614
 51
216.890386
  0
LINE
  8
3
 62
     4
  6
CONTINUOUS
 10
-611.234125
 20
615.964607
 11
-623.436822
 21
553.061853
  0
ARC
  8
3
 62
     3
  6
CONTINUOUS
 10
-519.983194
 20
535.000000
 40
105.000000
 50
-10.978618
 51
9.903199
  0
ARC
  8
3
 62
     3
  6
CONTINUOUS
 10
-519.983194
 20
535.000000
 40
105.000000
 50
260.096801
 51
279.903199
  0
LINE
  8
3
 62
     4
  6
CONTINUOUS
 10
-611.234125
 20
454.035393
 11
-623.436822
 21
516.938147
  0
LINE
  8
3
 62
     3
  6
CENTER
 10
-451.271437
 20
466.288243
 11
-430.590261
 21
445.607067
  0
LINE
  8
3
 62
     4
  6
CONTINUOUS
 10
-600.947801
 20
443.749069
 11
-538.045047
 21
431.546372
  0
ARC
  8
3
 62
     4
  6
CENTER
 10
-519.983194
 20
535.000000
 40
111.000000
 50
306.265016
 51
322.275712
  0
LINE
  8
3
 62
     3
  6
CENTER
 10
-587.620725
 20
467.362469
 11
-610.132681
 21
444.850513
  0
ARC
  8
3
 62
     4
  6
CENTER
 10
-519.983194
 20
535.000000
 40
111.000000
 50
216.069475
 51
234.182385
  0
ARC
  8
3
 62
     4
  6
CENTER
 10
-519.983194
 20
535.000000
 40
111.000000
 50
124.449115
 51
144.970079
  0
LINE
  8
3
 62
     4
  6
CONTINUOUS
 10
-439.018587
 20
443.749069
 11
-501.921341
 21
431.546372
  0
LINE
  8
3
 62
     4
  6
CONTINUOUS
 10
-539.979672
 20
638.078324
 11
-600.947801
 21
626.250931
  0
LINE
  8
3
 62
     3
  6
CENTER
 10
-587.974422
 20
602.991228
 11
-609.925122
 21
624.941928
  0
LINE
  8
3
 62
     4
  6
CONTINUOUS
 10
-428.732263
 20
454.035393
 11
-416.904870
 21
515.003522
  0
ARC
  8
3
 62
     4
  6
CONTINUOUS
 10
-441.494341
 20
456.511147
 40
13.000000
 50
280.978618
 51
349.021382
  0
ARC
  8
3
 62
     4
  6
CONTINUOUS
 10
-598.472047
 20
456.511147
 40
13.000000
 50
190.978618
 51
259.021382
  0
ARC
  8
3
 62
     4
  6
CONTINUOUS
 10
-598.472047
 20
613.488853
 40
13.000000
 50
100.978618
 51
169.021382
  0
LINE
  8
3
 62
     3
  6
CENTER
 10
-451.997329
 20
602.985865
 11
-430.256635
 21
624.726559
  0
LINE
  8
3
 62
     4
  6
CONTINUOUS
 10
-428.732263
 20
615.964607
 11
-416.529566
 21
553.061853
  0
LINE
  8
3
 62
     4
  6
CONTINUOUS
 10
-439.018587
 20
626.250931
 11
-499.986716
 21
638.078324
  0
ARC
  8
3
 62
     3
  6
CONTINUOUS
 10
-519.983194
 20
535.000000
 40
105.000000
 50
79.021382
 51
100.978618
  0
CIRCLE
  8
3
 62
     3
  6
CONTINUOUS
 10
-519.983194
 20
535.000000
 40
81.000000
  0
ARC
  8
3
 62
     4
  6
CONTINUOUS
 10
-441.494341
 20
613.488853
 40
13.000000
 50
10.978618
 51
79.021382
  0
LINE
  8
3
 62
     3
  6
CENTER
 10
-685.459362
 20
535.000000
 11
-353.499357
 21
535.000000
  0
LINE
  8
3
 62
     3
  6
CENTER
 10
-519.983194
 20
643.997250
 11
-519.983194
 21
418.580925
  0
CIRCLE
  8
3
 62
     4
  6
CONTINUOUS
 10
-598.472047
 20
613.488853
 40
7.000000
  0
CIRCLE
  8
3
 62
     4
  6
CONTINUOUS
 10
-441.494341
 20
613.488853
 40
7.000000
  0
CIRCLE
  8
3
 62
     4
  6
CONTINUOUS
 10
-441.494341
 20
456.511147
 40
7.000000
  0
CIRCLE
  8
3
 62
     4
  6
CONTINUOUS
 10
-598.472047
 20
456.511147
 40
7.000000
  0
ARC
  8
3
 62
     4
  6
CENTER
 10
-519.983194
 20
535.000000
 40
111.000000
 50
37.018997
 51
55.489571
  0
ARC
  8
3
 62
     4
  6
CONTINUOUS
 10
-519.983194
 20
535.000000
 40
100.000000
 50
53.109614
 51
126.890386
  0
ARC
  8
3
 62
     4
  6
CONTINUOUS
 10
-519.983194
 20
535.000000
 40
100.000000
 50
323.109614
 51
396.890386
  0
ARC
  8
3
 62
     4
  6
CONTINUOUS
 10
-519.983194
 20
535.000000
 40
100.000000
 50
233.109614
 51
306.890386
  0
ARC
  8
0
 62
     4
  6
CONTINUOUS
 10
-519.983194
 20
535.000000
 40
100.000000
 50
216.038338
 51
233.961662
  0
TEXT
  8
0
 62
     6
 10
-1480.183521
 20
1058.910129
 40
35.000000
 50
0.000000E+00
 41
0.86 
  1
Ｂ
 72
     5
 11
-1445.183521
 21
1058.910129
  0
TEXT
  8
0
 62
     6
 10
-1359.509580
 20
1059.910129
 40
35.000000
 50
0.000000E+00
 41
0.86 
  1
Ｂ
 72
     5
 11
-1324.509580
 21
1059.910129
  0
TEXT
  8
0
 62
     6
 10
-1388.009580
 20
1124.959535
 40
32.000000
 50
0.000000E+00
 41
0.97 
  1
下部
 72
     5
 11
-1316.009580
 21
1124.959535
  0
TEXT
  8
0
 62
     6
 10
-1508.009580
 20
1124.959535
 40
32.000000
 50
0.000000E+00
 41
0.97 
  1
上部
 72
     5
 11
-1436.009580
 21
1124.959535
  0
TEXT
  8
0
 62
     6
 10
-1208.933805
 20
1149.451072
 40
32.000000
 50
0.000000E+00
 41
0.86 
  1
ｂ
 72
     5
 11
-1176.933805
 21
1149.451072
  0
CIRCLE
  8
0
 62
     6
  6
HIDDEN
 10
-1193.802953
 20
1073.777279
 40
20.000000
  0
TEXT
  8
0
 62
     6
 10
-1201.802953
 20
1057.777279
 40
32.000000
 50
0.000000E+00
 41
0.50 
  1
2
 72
     5
 11
-1185.802953
 21
1057.777279
  0
CIRCLE
  8
0
 62
     6
  6
HIDDEN
 10
-1193.802953
 20
1121.810698
 40
20.000000
  0
TEXT
  8
0
 62
     6
 10
-1201.802953
 20
1105.810698
 40
32.000000
 50
0.000000E+00
 41
0.50 
  1
1
 72
     5
 11
-1185.802953
 21
1105.810698
  0
TEXT
  8
0
 62
     6
 10
-501.793661
 20
926.134541
 40
32.000000
 50
0.000000E+00
 41
0.50 
  1
3
 72
     5
 11
-485.793661
 21
926.134541
  0
TEXT
  8
0
 62
     6
 10
-501.793661
 20
986.134541
 40
32.000000
 50
0.000000E+00
 41
0.50 
  1
2
 72
     5
 11
-485.793661
 21
986.134541
  0
TEXT
  8
0
 62
     6
 10
-501.793661
 20
1046.134541
 40
32.000000
 50
0.000000E+00
 41
0.50 
  1
1
 72
     5
 11
-485.793661
 21
1046.134541
  0
TEXT
  8
0
 62
     6
 10
-470.705692
 20
929.530401
 40
32.000000
 50
0.000000E+00
 41
0.74 
  1
：％％ｃ７５枝管
 72
     5
 11
-258.705692
 21
929.530401
  0
TEXT
  8
0
 62
     6
 10
-470.705692
 20
989.530401
 40
32.000000
 50
0.000000E+00
 41
0.74 
  1
：％％ｃ６５枝管
 72
     5
 11
-258.705692
 21
989.530401
  0
TEXT
  8
0
 62
     6
 10
-470.705692
 20
1049.530401
 40
32.000000
 50
0.000000E+00
 41
0.74 
  1
：％％ｃ５０枝管
 72
     5
 11
-258.705692
 21
1049.530401
  0
TEXT
  8
0
 62
     6
 10
-568.581501
 20
1102.505821
 40
32.000000
 50
0.000000E+00
 41
0.97 
  1
枝管のタイプ（呼び径）
 72
     5
 11
-172.581501
 21
1102.505821
  0
LINE
  8
0
 62
     1
  6
CONTINUOUS
 10
-614.983194
 20
469.361184
 11
-614.983194
 21
373.375253
  0
LINE
  8
0
 62
     3
  6
CONTINUOUS
 10
-203.887389
 20
183.328298
 11
-476.227506
 21
183.328298
  0
CIRCLE
  8
0
 62
     3
  6
CONTINUOUS
 10
-1387.739862
 20
173.027117
 40
62.000000
  0
INSERT
  8
0
  2
G8
 10
0
 20
0
  0
INSERT
  8
0
  2
G9
 10
0
 20
0
  0
INSERT
  8
0
  2
G10
 10
0
 20
0
  0
INSERT
  8
0
  2
G11
 10
0
 20
0
  0
LINE
  8
0
 62
     1
  6
CONTINUOUS
 10
-1150.662948
 20
173.027117
 11
-1133.786954
 21
173.027117
  0
LINE
  8
0
 62
     1
  6
CONTINUOUS
 10
-1020.662948
 20
173.027117
 11
-1150.662948
 21
173.027117
  0
INSERT
  8
0
  2
G12
 10
0
 20
0
  0
TEXT
  8
0
 62
     3
 10
-463.887389
 20
188.661631
 40
32.000000
 50
360.000000
 41
0.87 
  1
Ｃ矢視　（下部）
 72
     5
 11
-207.887389
 21
188.661631
  0
INSERT
  8
0
  2
G13
 10
0
 20
0
  0
INSERT
  8
0
  2
G14
 10
0
 20
0
  0
LINE
  8
0
 62
     3
  6
CONTINUOUS
 10
-988.581081
 20
483.197829
 11
-988.581081
 21
430.404878
  0
SOLID
  8
0
 62
     3
 10
-996.345652
 20
459.382653
 11
-980.816510
 21
459.382653
 12
-988.581081
 22
430.404878
 13
-988.581081
 23
430.404878
  0
TEXT
  8
0
 62
     6
 10
-1021.051869
 20
1036.370812
 40
35.000000
 50
0.000000E+00
 41
0.60 
  1
300,340,360
 72
     5
 11
-788.551869
 21
1036.370812
  0
TEXT
  8
0
 62
     6
 10
-1022.912371
 20
1078.485825
 40
35.000000
 50
0.000000E+00
 41
0.60 
  1
240,260,280
 72
     5
 11
-790.412371
 21
1078.485825
  0
TEXT
  8
0
 62
     3
 10
-663.099991
 20
548.667592
 40
32.000000
 50
0.000000E+00
 41
0.86 
  1
ｂ
 72
     5
 11
-631.099991
 21
548.667592
  0
INSERT
  8
0
  2
G15
 10
0
 20
0
  0
INSERT
  8
0
  2
G16
 10
0
 20
0
  0
INSERT
  8
0
  2
G17
 10
0
 20
0
  0
INSERT
  8
0
  2
G18
 10
0
 20
0
  0
INSERT
  8
0
  2
G19
 10
0
 20
0
  0
INSERT
  8
0
  2
G20
 10
0
 20
0
  0
LINE
  8
0
 62
     1
  6
CONTINUOUS
 10
-1212.263693
 20
714.252345
 11
-1191.941592
 21
714.252345
  0
INSERT
  8
0
  2
G21
 10
0
 20
0
  0
CIRCLE
  8
0
 62
     6
  6
HIDDEN
 10
-1283.802953
 20
1073.777279
 40
20.000000
  0
TEXT
  8
0
 62
     6
 10
-1291.802953
 20
1057.777279
 40
32.000000
 50
0.000000E+00
 41
0.50 
  1
2
 72
     5
 11
-1275.802953
 21
1057.777279
  0
CIRCLE
  8
0
 62
     6
  6
HIDDEN
 10
-1283.802953
 20
1121.810698
 40
20.000000
  0
TEXT
  8
0
 62
     6
 10
-1291.802953
 20
1105.810698
 40
32.000000
 50
0.000000E+00
 41
0.50 
  1
1
 72
     5
 11
-1275.802953
 21
1105.810698
  0
TEXT
  8
0
 62
     3
 10
-408.866397
 20
548.667592
 40
32.000000
 50
360.000000
 41
0.86 
  1
ａ
 72
     5
 11
-376.866397
 21
548.667592
  0
INSERT
  8
0
  2
G22
 10
0
 20
0
  0
LINE
  8
0
 62
     3
  6
CONTINUOUS
 10
-1238.106547
 20
881.432542
 11
-1144.428755
 21
881.432542
  0
SOLID
  8
0
 62
     3
 10
-1209.128772
 20
889.197113
 11
-1209.128772
 21
873.667970
 12
-1238.106547
 22
881.432542
 13
-1238.106547
 23
881.432542
  0
LINE
  8
0
 62
     3
  6
CONTINUOUS
 10
-1144.428755
 20
881.432542
 11
-1144.428755
 21
918.499294
  0
ARC
  8
1
 62
     3
  6
CONTINUOUS
 10
-1477.239862
 20
108.027117
 40
3.000000
 50
0.000000E+00
 51
90.000000
  0
ARC
  8
1
 62
     3
  6
CONTINUOUS
 10
-1477.239862
 20
238.027117
 40
3.000000
 50
270.000000
 51
360.000000
  0
ARC
  8
1
 62
     3
  6
CONTINUOUS
 10
-1480.739862
 20
233.027117
 40
2.000000
 50
90.000000
 51
180.000000
  0
LINE
  8
1
 62
     3
  6
CONTINUOUS
 10
-1480.739862
 20
111.027117
 11
-1477.239862
 21
111.027117
  0
LINE
  8
1
 62
     3
  6
CONTINUOUS
 10
-1480.739862
 20
235.027117
 11
-1477.239862
 21
235.027117
  0
ARC
  8
1
 62
     3
  6
CONTINUOUS
 10
-1480.739862
 20
113.027117
 40
2.000000
 50
180.000000
 51
270.000000
  0
LINE
  8
3
 62
     3
  6
CONTINUOUS
 10
-1471.095668
 20
113.387137
 11
-1467.820276
 21
114.833664
  0
LINE
  8
3
 62
     3
  6
CONTINUOUS
 10
-1467.820276
 20
114.833664
 11
-1464.655356
 21
117.361380
  0
LINE
  8
3
 62
     3
  6
CONTINUOUS
 10
-1464.655356
 20
117.361380
 11
-1461.659709
 21
120.923324
  0
LINE
  8
3
 62
     3
  6
CONTINUOUS
 10
-1461.659709
 20
120.923324
 11
-1458.888992
 21
125.453317
  0
LINE
  8
3
 62
     3
  6
CONTINUOUS
 10
-1458.888992
 20
125.453317
 11
-1456.394683
 21
130.867195
  0
LINE
  8
3
 62
     3
  6
CONTINUOUS
 10
-1456.394683
 20
130.867195
 11
-1454.223123
 21
137.064373
  0
LINE
  8
3
 62
     3
  6
CONTINUOUS
 10
-1454.223123
 20
137.064373
 11
-1452.414660
 21
143.929711
  0
LINE
  8
3
 62
     3
  6
CONTINUOUS
 10
-1452.414660
 20
143.929711
 11
-1451.002892
 21
151.335657
  0
LINE
  8
3
 62
     3
  6
CONTINUOUS
 10
-1451.002892
 20
151.335657
 11
-1450.014050
 21
159.144613
  0
LINE
  8
3
 62
     3
  6
CONTINUOUS
 10
-1450.014050
 20
159.144613
 11
-1449.466506
 21
167.211496
  0
LINE
  8
3
 62
     3
  6
CONTINUOUS
 10
-1450.014050
 20
159.144613
 11
-1449.466506
 21
167.211496
  0
LINE
  8
3
 62
     3
  6
CONTINUOUS
 10
-1471.553558
 20
232.780203
 11
-1468.222826
 21
231.460076
  0
LINE
  8
3
 62
     3
  6
CONTINUOUS
 10
-1468.222826
 20
231.460076
 11
-1464.997947
 21
229.024148
  0
LINE
  8
3
 62
     3
  6
CONTINUOUS
 10
-1464.997947
 20
229.024148
 11
-1461.940503
 21
225.518932
  0
LINE
  8
3
 62
     3
  6
CONTINUOUS
 10
-1461.940503
 20
225.518932
 11
-1459.108876
 21
221.011363
  0
LINE
  8
3
 62
     3
  6
CONTINUOUS
 10
-1459.108876
 20
221.011363
 11
-1456.557137
 21
215.587514
  0
LINE
  8
3
 62
     3
  6
CONTINUOUS
 10
-1456.557137
 20
215.587514
 11
-1454.334012
 21
209.350956
  0
LINE
  8
3
 62
     3
  6
CONTINUOUS
 10
-1454.334012
 20
209.350956
 11
-1452.481955
 21
202.420778
  0
LINE
  8
3
 62
     3
  6
CONTINUOUS
 10
-1452.481955
 20
202.420778
 11
-1451.036329
 21
194.929317
  0
LINE
  8
3
 62
     3
  6
CONTINUOUS
 10
-1451.036329
 20
194.929317
 11
-1450.024740
 21
187.019623
  0
LINE
  8
3
 62
     3
  6
CONTINUOUS
 10
-1450.024740
 20
187.019623
 11
-1449.466506
 21
178.842737
  0
LINE
  8
3
 62
     3
  6
CONTINUOUS
 10
-1450.024740
 20
187.019623
 11
-1449.466506
 21
178.842737
  0
INSERT
  8
0
  2
G23
 10
0
 20
0
  0
LINE
  8
0
 62
     3
  6
CONTINUOUS
 10
-1541.043004
 20
883.285879
 11
-1603.828626
 21
883.285879
  0
SOLID
  8
0
 62
     3
 10
-1570.020779
 20
875.521308
 11
-1570.020779
 21
891.050451
 12
-1541.043004
 22
883.285879
 13
-1541.043004
 23
883.285879
  0
LINE
  8
3
 62
     3
  6
CONTINUOUS
 10
-1542.739862
 20
774.252345
 11
-1482.739862
 21
774.252345
  0
LINE
  8
3
 62
     3
  6
CONTINUOUS
 10
-1542.739862
 20
654.252345
 11
-1482.739862
 21
654.252345
  0
INSERT
  8
0
  2
G24
 10
0
 20
0
  0
LINE
  8
3
 62
     3
  6
CONTINUOUS
 10
-1542.739862
 20
776.752345
 11
-1542.739862
 21
654.252345
  0
LINE
  8
3
 62
     3
  6
CONTINUOUS
 10
-1542.739862
 20
776.752345
 11
-1547.739862
 21
776.752345
  0
LINE
  8
3
 62
     3
  6
CONTINUOUS
 10
-1542.739862
 20
651.752345
 11
-1547.739862
 21
651.752345
  0
LINE
  8
3
 62
     3
  6
CONTINUOUS
 10
-1542.739862
 20
651.752345
 11
-1542.739862
 21
654.252345
  0
LINE
  8
3
 62
     3
  6
CENTER
 10
-1387.739862
 20
615.811185
 11
-1387.739862
 21
809.367860
  0
LINE
  8
3
 62
     3
  6
CENTER
 10
-1222.263693
 20
714.252345
 11
-1553.847882
 21
714.252345
  0
CIRCLE
  8
0
 62
     3
  6
CONTINUOUS
 10
-1387.739862
 20
714.252345
 40
75.000000
  0
CIRCLE
  8
0
 62
     3
  6
CONTINUOUS
 10
-1387.739862
 20
714.252345
 40
86.500000
  0
LINE
  8
3
 62
     3
  6
CONTINUOUS
 10
-1232.739862
 20
654.252345
 11
-1292.739862
 21
654.252345
  0
LINE
  8
3
 62
     3
  6
CONTINUOUS
 10
-1232.739862
 20
776.752345
 11
-1232.739862
 21
654.252345
  0
LINE
  8
3
 62
     3
  6
CONTINUOUS
 10
-1232.739862
 20
776.752345
 11
-1227.739862
 21
776.752345
  0
LINE
  8
3
 62
     3
  6
CONTINUOUS
 10
-1232.739862
 20
651.752345
 11
-1227.739862
 21
651.752345
  0
LINE
  8
3
 62
     3
  6
CONTINUOUS
 10
-1232.739862
 20
651.752345
 11
-1232.739862
 21
654.252345
  0
LINE
  8
3
 62
     3
  6
CONTINUOUS
 10
-1227.739862
 20
651.752345
 11
-1227.739862
 21
776.752345
  0
LINE
  8
3
 62
     3
  6
CONTINUOUS
 10
-1232.739862
 20
774.252345
 11
-1292.739862
 21
774.252345
  0
LINE
  8
0
 62
     3
  6
CONTINUOUS
 10
-1292.739862
 20
654.252345
 11
-1292.739862
 21
774.252345
  0
LINE
  8
0
 62
     3
  6
CONTINUOUS
 10
-1294.739862
 20
652.252345
 11
-1322.739862
 21
652.252345
  0
ARC
  8
0
 62
     3
  6
CONTINUOUS
 10
-1294.739862
 20
654.252345
 40
2.000000
 50
-90.000000
 51
0.000000E+00
  0
LINE
  8
0
 62
     3
  6
CONTINUOUS
 10
-1294.739862
 20
776.252345
 11
-1327.421954
 21
776.252345
  0
ARC
  8
0
 62
     3
  6
CONTINUOUS
 10
-1294.739862
 20
774.252345
 40
2.000000
 50
0.000000E+00
 51
90.000000
  0
CIRCLE
  8
0
 62
     3
  6
CONTINUOUS
 10
-1387.739862
 20
714.252345
 40
52.000000
  0
CIRCLE
  8
0
 62
     3
  6
CONTINUOUS
 10
-1387.739862
 20
714.252345
 40
67.000000
  0
ARC
  8
0
 62
     3
  6
CONTINUOUS
 10
-1452.739862
 20
649.252345
 40
3.000000
 50
0.000000E+00
 51
90.000000
  0
ARC
  8
0
 62
     3
  6
CONTINUOUS
 10
-1322.739862
 20
649.252345
 40
3.000000
 50
90.000000
 51
180.000000
  0
LINE
  8
0
 62
     3
  6
CONTINUOUS
 10
-1482.739862
 20
774.252345
 11
-1482.739862
 21
654.252345
  0
LINE
  8
0
 62
     3
  6
CONTINUOUS
 10
-1480.739862
 20
776.252345
 11
-1448.057769
 21
776.252345
  0
ARC
  8
0
 62
     3
  6
CONTINUOUS
 10
-1480.739862
 20
774.252345
 40
2.000000
 50
90.000000
 51
180.000000
  0
LINE
  8
0
 62
     3
  6
CONTINUOUS
 10
-1480.739862
 20
652.252345
 11
-1452.739862
 21
652.252345
  0
ARC
  8
0
 62
     3
  6
CONTINUOUS
 10
-1480.739862
 20
654.252345
 40
2.000000
 50
180.000000
 51
270.000000
  0
LINE
  8
0
 62
     3
  6
CONTINUOUS
 10
-1327.739862
 20
619.252345
 11
-1447.739862
 21
619.252345
  0
LINE
  8
0
 62
     3
  6
CONTINUOUS
 10
-1325.739862
 20
621.252345
 11
-1325.739862
 21
649.252345
  0
ARC
  8
0
 62
     3
  6
CONTINUOUS
 10
-1327.739862
 20
621.252345
 40
2.000000
 50
270.000000
 51
360.000000
  0
LINE
  8
0
 62
     3
  6
CONTINUOUS
 10
-1449.739862
 20
621.252345
 11
-1449.739862
 21
649.252345
  0
ARC
  8
0
 62
     3
  6
CONTINUOUS
 10
-1447.739862
 20
621.252345
 40
2.000000
 50
180.000000
 51
270.000000
  0
INSERT
  8
0
  2
G25
 10
0
 20
0
  0
INSERT
  8
0
  2
G26
 10
0
 20
0
  0
INSERT
  8
0
  2
G27
 10
0
 20
0
  0
LINE
  8
3
 62
     3
  6
CONTINUOUS
 10
-1547.739862
 20
651.752345
 11
-1547.739862
 21
776.752345
  0
LINE
  8
0
 62
     7
  6
CONTINUOUS
 10
-1535.219420
 20
279.111644
 11
-1535.219420
 21
237.327305
  0
SOLID
  8
0
 62
     7
 10
-1542.983991
 20
266.305080
 11
-1527.454848
 21
266.305080
 12
-1535.219420
 22
237.327305
 13
-1535.219420
 23
237.327305
  0
TEXT
  8
0
 62
     7
 10
-1613.593938
 20
286.390527
 40
32.000000
 50
360.000000
 41
0.78 
  1
７５枝管
 72
     5
 11
-1501.593938
 21
286.390527
  0
LINE
  8
3
 62
     3
  6
CONTINUOUS
 10
-1542.739862
 20
110.527117
 11
-1542.739862
 21
233.027117
  0
LINE
  8
3
 62
     3
  6
CONTINUOUS
 10
-1542.739862
 20
110.527117
 11
-1547.739862
 21
110.527117
  0
LINE
  8
3
 62
     3
  6
CONTINUOUS
 10
-1542.739862
 20
235.527117
 11
-1547.739862
 21
235.527117
  0
LINE
  8
3
 62
     3
  6
CONTINUOUS
 10
-1542.739862
 20
235.527117
 11
-1542.739862
 21
233.027117
  0
LINE
  8
3
 62
     3
  6
CONTINUOUS
 10
-1547.739862
 20
235.527117
 11
-1547.739862
 21
110.527117
  0
LINE
  8
3
 62
     3
  6
CONTINUOUS
 10
-1542.739862
 20
113.027117
 11
-1482.739862
 21
113.027117
  0
LINE
  8
3
 62
     3
  6
CONTINUOUS
 10
-1542.739862
 20
233.027117
 11
-1482.739862
 21
233.027117
  0
LINE
  8
0
 62
     3
  6
CONTINUOUS
 10
-671.850128
 20
399.006739
 11
-759.309126
 21
399.006739
  0
SOLID
  8
0
 62
     3
 10
-700.827903
 20
391.242168
 11
-700.827903
 21
406.771311
 12
-671.850128
 22
399.006739
 13
-671.850128
 23
399.006739
  0
INSERT
  8
0
  2
G28
 10
0
 20
0
  0
LINE
  8
0
 62
     3
  6
CONTINUOUS
 10
-280.657262
 20
399.006739
 11
-280.657262
 21
322.494023
  0
LINE
  8
0
 62
     3
  6
CONTINUOUS
 10
-368.116260
 20
399.006739
 11
-280.657262
 21
399.006739
  0
SOLID
  8
0
 62
     3
 10
-339.138485
 20
406.771311
 11
-339.138485
 21
391.242168
 12
-368.116260
 22
399.006739
 13
-368.116260
 23
399.006739
  0
INSERT
  8
0
  2
G29
 10
0
 20
0
  0
INSERT
  8
0
  2
G30
 10
0
 20
0
  0
INSERT
  8
0
  2
G31
 10
0
 20
0
  0
TEXT
  8
0
 62
     3
 10
-888.446385
 20
-905.435816
 40
32.000000
 50
0.000000E+00
 41
0.94 
  1
対応可能Ｐ寸法　２４０～３６０
 72
     5
 11
-362.732077
 21
-905.435816
  0
LINE
  8
0
 62
     2
  6
CONTINUOUS
 10
-955.287581
 20
-844.718354
 11
-175.885661
 21
-844.718354
  0
TEXT
  8
0
 62
     2
 10
-466.779569
 20
-817.414104
 40
30.000000
 50
0.000000E+00
 41
0.61 
  1
925
 72
     5
 11
-411.779569
 21
-817.414104
  0
TEXT
  8
0
 62
     2
 10
-569.578809
 20
-817.414104
 40
30.000000
 50
0.000000E+00
 41
0.61 
  1
905
 72
     5
 11
-514.578809
 21
-817.414104
  0
TEXT
  8
0
 62
     2
 10
-669.031289
 20
-815.686968
 40
30.000000
 50
0.000000E+00
 41
0.61 
  1
885
 72
     5
 11
-614.031289
 21
-815.686968
  0
TEXT
  8
0
 62
     2
 10
-363.270329
 20
-815.686968
 40
30.000000
 50
0.000000E+00
 41
0.61 
  1
965
 72
     5
 11
-308.270329
 21
-815.686968
  0
TEXT
  8
0
 62
     2
 10
-770.950969
 20
-724.246968
 40
30.000000
 50
0.000000E+00
 41
0.61 
  1
790
 72
     5
 11
-715.950969
 21
-724.246968
  0
TEXT
  8
0
 62
     2
 10
-258.817849
 20
-817.414104
 40
30.000000
 50
0.000000E+00
 41
0.61 
  1
985
 72
     5
 11
-203.817849
 21
-817.414104
  0
TEXT
  8
0
 62
     2
 10
-770.950969
 20
-815.686968
 40
30.000000
 50
0.000000E+00
 41
0.61 
  1
865
 72
     5
 11
-715.950969
 21
-815.686968
  0
TEXT
  8
0
 62
     2
 10
-363.509314
 20
-647.803154
 40
30.000000
 50
0.000000E+00
 41
0.61 
  1
340
 72
     5
 11
-308.509314
 21
-647.803154
  0
TEXT
  8
0
 62
     2
 10
-465.429954
 20
-647.803154
 40
30.000000
 50
0.000000E+00
 41
0.61 
  1
300
 72
     5
 11
-410.429954
 21
-647.803154
  0
TEXT
  8
0
 62
     2
 10
-567.350594
 20
-647.803154
 40
30.000000
 50
0.000000E+00
 41
0.61 
  1
280
 72
     5
 11
-512.350594
 21
-647.803154
  0
TEXT
  8
0
 62
     2
 10
-771.189954
 20
-647.803154
 40
30.000000
 50
0.000000E+00
 41
0.61 
  1
240
 72
     5
 11
-716.189954
 21
-647.803154
  0
LINE
  8
0
 62
     2
  6
CONTINUOUS
 10
-389.725981
 20
-600.398354
 11
-389.725981
 21
-844.718354
  0
TEXT
  8
0
 62
     2
 10
-944.759477
 20
-811.372275
 40
30.000000
 50
0.000000E+00
 41
0.72 
  1
Ｌｔ（全長）
 72
     5
 11
-794.759477
 21
-811.372275
  0
LINE
  8
0
 62
     2
  6
CONTINUOUS
 10
-955.287581
 20
-753.278354
 11
-175.885661
 21
-753.278354
  0
TEXT
  8
0
 62
     2
 10
-258.817849
 20
-725.974104
 40
30.000000
 50
0.000000E+00
 41
0.61 
  1
910
 72
     5
 11
-203.817849
 21
-725.974104
  0
LINE
  8
0
 62
     2
  6
CONTINUOUS
 10
-955.287581
 20
-600.398354
 11
-175.885661
 21
-600.398354
  0
TEXT
  8
0
 62
     2
 10
-363.270329
 20
-724.246968
 40
30.000000
 50
0.000000E+00
 41
0.61 
  1
890
 72
     5
 11
-308.270329
 21
-724.246968
  0
LINE
  8
0
 62
     2
  6
CONTINUOUS
 10
-797.406621
 20
-600.398354
 11
-797.406621
 21
-844.718354
  0
LINE
  8
0
 62
     2
  6
CONTINUOUS
 10
-695.486941
 20
-600.398354
 11
-695.486941
 21
-844.718354
  0
LINE
  8
0
 62
     2
  6
CONTINUOUS
 10
-593.567261
 20
-600.398354
 11
-593.567261
 21
-844.718354
  0
LINE
  8
0
 62
     2
  6
CONTINUOUS
 10
-491.646621
 20
-600.398354
 11
-491.646621
 21
-844.718354
  0
LINE
  8
0
 62
     2
  6
CONTINUOUS
 10
-175.885661
 20
-600.398354
 11
-175.885661
 21
-844.718354
  0
LINE
  8
0
 62
     2
  6
CONTINUOUS
 10
-287.806301
 20
-600.398354
 11
-287.806301
 21
-844.718354
  0
TEXT
  8
0
 62
     2
 10
-256.589634
 20
-647.803154
 40
30.000000
 50
0.000000E+00
 41
0.61 
  1
360
 72
     5
 11
-201.589634
 21
-647.803154
  0
LINE
  8
0
 62
     2
  6
CONTINUOUS
 10
-955.287581
 20
-661.838354
 11
-175.885661
 21
-661.838354
  0
TEXT
  8
0
 62
     2
 10
-944.759477
 20
-719.932275
 40
30.000000
 50
0.000000E+00
 41
0.72 
  1
Ｌ（有効長）
 72
     5
 11
-794.759477
 21
-719.932275
  0
LINE
  8
0
 62
     2
  6
CONTINUOUS
 10
-955.287581
 20
-600.398354
 11
-955.287581
 21
-844.718354
  0
LINE
  8
0
 62
     2
  6
CONTINUOUS
 10
-177.458899
 20
-613.635403
 11
-177.458899
 21
-613.635595
  0
TEXT
  8
0
 62
     2
 10
-669.031289
 20
-724.246968
 40
30.000000
 50
0.000000E+00
 41
0.61 
  1
810
 72
     5
 11
-614.031289
 21
-724.246968
  0
TEXT
  8
0
 62
     2
 10
-569.578809
 20
-725.974104
 40
30.000000
 50
0.000000E+00
 41
0.61 
  1
830
 72
     5
 11
-514.578809
 21
-725.974104
  0
TEXT
  8
0
 62
     2
 10
-669.270274
 20
-647.803154
 40
30.000000
 50
0.000000E+00
 41
0.61 
  1
260
 72
     5
 11
-614.270274
 21
-647.803154
  0
TEXT
  8
0
 62
     2
 10
-885.718483
 20
-647.782743
 40
30.000000
 50
0.000000E+00
 41
0.86 
  1
Ｐ
 72
     5
 11
-855.718483
 21
-647.782743
  0
TEXT
  8
0
 62
     2
 10
-466.779569
 20
-725.974104
 40
30.000000
 50
0.000000E+00
 41
0.61 
  1
850
 72
     5
 11
-411.779569
 21
-725.974104
  0
TEXT
  8
0
 62
     2
 10
-251.589634
 20
-546.363154
 40
30.000000
 50
0.000000E+00
 41
0.58 
  1
44
 72
     5
 11
-216.589634
 21
-546.363154
  0
TEXT
  8
0
 62
     2
 10
-363.510274
 20
-546.363154
 40
30.000000
 50
0.000000E+00
 41
0.58 
  1
52
 72
     5
 11
-328.510274
 21
-546.363154
  0
TEXT
  8
0
 62
     2
 10
-462.501526
 20
-363.746137
 40
25.600000
 50
0.000000E+00
 41
0.55 
  1
100
 72
     5
 11
-420.444381
 21
-363.746137
  0
TEXT
  8
0
 62
     2
 10
-479.031820
 20
-325.061429
 40
18.400000
 50
0.000000E+00
 41
0.89 
  1
立管受口
 72
     5
 11
-403.031821
 21
-325.061429
  0
TEXT
  8
0
 62
     2
 10
-251.589634
 20
-423.483154
 40
30.000000
 50
0.000000E+00
 41
0.58 
  1
65
 72
     5
 11
-216.589634
 21
-423.483154
  0
TEXT
  8
0
 62
     2
 10
-363.510274
 20
-423.483154
 40
30.000000
 50
0.000000E+00
 41
0.58 
  1
65
 72
     5
 11
-328.510274
 21
-423.483154
  0
TEXT
  8
0
 62
     2
 10
-455.429954
 20
-423.483154
 40
30.000000
 50
0.000000E+00
 41
0.58 
  1
75
 72
     5
 11
-420.429954
 21
-423.483154
  0
LINE
  8
0
 62
     2
  6
CONTINUOUS
 10
-399.726941
 20
-498.958354
 11
-481.646621
 21
-560.398354
  0
LINE
  8
0
 62
     2
  6
CONTINUOUS
 10
-175.885661
 20
-294.153298
 11
-175.885661
 21
-560.398354
  0
TEXT
  8
0
 62
     2
 10
-592.749477
 20
-542.052275
 40
30.000000
 50
0.000000E+00
 41
0.86 
  1
Ｂ寸法
 72
     5
 11
-502.749477
 21
-542.052275
  0
LINE
  8
0
 62
     2
  6
CONTINUOUS
 10
-604.527581
 20
-498.958354
 11
-175.885661
 21
-498.958354
  0
LINE
  8
0
 62
     2
  6
CONTINUOUS
 10
-399.726941
 20
-335.118322
 11
-175.885661
 21
-335.118322
  0
LINE
  8
0
 62
     2
  6
CONTINUOUS
 10
-604.527581
 20
-376.078354
 11
-175.885661
 21
-376.078354
  0
TEXT
  8
0
 62
     2
 10
-388.512732
 20
-330.204987
 40
30.000000
 50
0.000000E+00
 41
0.72 
  1
下部横枝管サイズ
 72
     5
 11
-188.512732
 21
-330.204987
  0
LINE
  8
0
 62
     2
  6
CONTINUOUS
 10
-481.646621
 20
-295.392178
 11
-481.646621
 21
-560.398354
  0
LINE
  8
0
 62
     2
  6
CONTINUOUS
 10
-399.726941
 20
-295.392178
 11
-399.726941
 21
-560.398354
  0
LINE
  8
0
 62
     2
  6
CONTINUOUS
 10
-399.726941
 20
-437.518354
 11
-481.646621
 21
-498.958354
  0
LINE
  8
0
 62
     2
  6
CONTINUOUS
 10
-287.806301
 20
-335.118514
 11
-287.806301
 21
-560.398354
  0
LINE
  8
0
 62
     2
  6
CONTINUOUS
 10
-604.527581
 20
-560.398354
 11
-175.885661
 21
-560.398354
  0
TEXT
  8
0
 62
     2
 10
-383.464355
 20
-370.283621
 40
30.000000
 50
0.000000E+00
 41
0.63 
  1
65(2)
 72
     5
 11
-288.464355
 21
-370.283621
  0
TEXT
  8
0
 62
     2
 10
-271.543715
 20
-370.283621
 40
30.000000
 50
0.000000E+00
 41
0.63 
  1
50(1)
 72
     5
 11
-176.543715
 21
-370.283621
  0
LINE
  8
0
 62
     2
  6
CONTINUOUS
 10
-604.527581
 20
-335.118322
 11
-604.527581
 21
-560.398354
  0
LINE
  8
0
 62
     2
  6
CONTINUOUS
 10
-604.527581
 20
-437.518354
 11
-175.885661
 21
-437.518354
  0
TEXT
  8
0
 62
     2
 10
-592.749477
 20
-480.612275
 40
30.000000
 50
0.000000E+00
 41
0.86 
  1
Ａ寸法
 72
     5
 11
-502.749477
 21
-480.612275
  0
LINE
  8
0
 62
     2
  6
CONTINUOUS
 10
-604.527581
 20
-335.118322
 11
-604.527581
 21
-294.153298
  0
LINE
  8
0
 62
     2
  6
CONTINUOUS
 10
-604.527581
 20
-294.153298
 11
-175.885661
 21
-294.153298
  0
LINE
  8
0
 62
     2
  6
CONTINUOUS
 10
-205.886621
 20
-335.118322
 11
-205.886621
 21
-335.118514
  0
TEXT
  8
0
 62
     2
 10
-375.738489
 20
-484.923154
 40
30.000000
 50
0.000000E+00
 41
0.61 
  1
110
 72
     5
 11
-320.738489
 21
-484.923154
  0
TEXT
  8
0
 62
     2
 10
-599.958483
 20
-423.462743
 40
30.000000
 50
0.000000E+00
 41
0.86 
  1
受口深さ
 72
     5
 11
-479.958483
 21
-423.462743
  0
LINE
  8
0
 62
     2
  6
CONTINUOUS
 10
-604.527581
 20
-294.153298
 11
-481.646621
 21
-376.078354
  0
TEXT
  8
0
 62
     2
 10
-251.589634
 20
-484.923154
 40
30.000000
 50
0.000000E+00
 41
0.58 
  1
94
 72
     5
 11
-216.589634
 21
-484.923154
  0
INSERT
  8
0
  2
G32
 10
0
 20
0
  0
INSERT
  8
0
  2
G33
 10
0
 20
0
  0
INSERT
  8
0
  2
G34
 10
0
 20
0
  0
INSERT
  8
0
  2
G35
 10
0
 20
0
  0
INSERT
  8
0
  2
G36
 10
0
 20
0
  0
INSERT
  8
0
  2
G37
 10
0
 20
0
  0
LINE
  8
3
 62
     4
  6
CENTER
 10
-1460.410364
 20
-126.972883
 11
-1313.240828
 21
-126.972883
  0
INSERT
  8
0
  2
G38
 10
0
 20
0
  0
INSERT
  8
0
  2
G39
 10
0
 20
0
  0
INSERT
  8
0
  2
G40
 10
0
 20
0
  0
INSERT
  8
0
  2
G41
 10
0
 20
0
  0
INSERT
  8
0
  2
G42
 10
0
 20
0
  0
INSERT
  8
0
  2
G43
 10
0
 20
0
  0
INSERT
  8
0
  2
G44
 10
0
 20
0
  0
INSERT
  8
0
  2
G45
 10
0
 20
0
  0
ENDSEC
  0
EOF
