  0
SECTION
  2
HEADER
  9
$INSBASE
 10
0
 20
0
  9
$EXTMIN
 10
0
 20
0
  9
$EXTMAX
 10
4200.000000
 20
2970.000000
  9
$LIMMIN
 10
0
 20
0
  9
$LIMMAX
 10
4200.000000
 20
2970.000000
  9
$VIEWCTR
 10
2100.000000
 20
1485.000000
  9
$DIMASZ
 40
30.000000
  9
$DIMDLI
 40
80.000000
  9
$DIMEXE
 40
10.000000
  9
$DIMEXO
 40
10.000000
  9
$DIMTXT
 40
32.000000
  9
$TEXTSIZE
 40
32.000000
  9
$ANGBASE
 50
0.0
  9
$ANGDIR
 70
     0
  9
$ATTMODE
 70
     1
  9
$AUNITS
 70
     1
  9
$AUPREC
 70
     2
  9
$AXISMODE
 70
     0
  9
$AXISUNIT
 10
0.0
 20
0.0
  9
$BLIPMODE
 70
     1
  9
$CECOLOR
 62
   256
  9
$CELTYPE
  6
BYLAYER
  9
$CHAMFERA
 40
0.0
  9
$CHAMFERB
 40
0.0
  9
$CLAYER
  8
0
  9
$COORDS
 70
     0
  9
$DIMALT
 70
     0
  9
$DIMALTD
 70
     2
  9
$DIMALTF
 40
25.4
  9
$DIMDLE
 40
0.0
  9
$DIMLFAC
 40
1.0
  9
$DIMLIM
 70
     0
  9
$DIMRND
 40
0.0
  9
$DIMSCALE
 40
1.0
  9
$DIMSE1
 70
     0
  9
$DIMSE2
 70
     0
  9
$DIMTAD
 70
     1
  9
$DIMTIH
 70
     0
  9
$DIMTM
 40
0.0
  9
$DIMTOH
 70
     0
  9
$DIMTOL
 70
     0
  9
$DIMTP
 40
0.0
  9
$DIMTSZ
 40
0.0
  9
$DIMZIN
 70
     0
  9
$DRAGMODE
 70
     2
  9
$ELEVATION
 40
0.0
  9
$FASTZOOM
 70
     1
  9
$FILLETRAD
 40
0.0
  9
$FILLMODE
 70
     1
  9
$GRIDMODE
 70
     0
  9
$GRIDUNIT
 10
0.0
 20
0.0
  9
$LTSCALE
 40
1.0
  9
$LUNITS
 70
     2
  9
$LUPREC
 70
     2
  9
$MENU
  1
ACAD
  9
$ORTHOMODE
 70
     0
  9
$OSMODE
 70
     0
  9
$PDMODE
 70
     0
  9
$PDSIZE
 40
0.0
  9
$PLINEWID
 40
0.0
  9
$QTEXTMODE
 70
     0
  9
$REGENMODE
 70
     1
  9
$SKETCHINC
 40
0.1
  9
$SKPOLY
 70
     0
  9
$SNAPBASE
 10
0.0
 20
0.0
  9
$SNAPISOPAIR
 70
     0
  9
$SNAPMODE
 70
     0
  9
$SNAPSTYLE
 70
     0
  9
$SNAPUNIT
 10
0.0
 20
0.0
  9
$TEXTSTYLE
  7
KANJI
  9
$THICKNESS
 40
0.0
  9
$TRACEWID
 40
0.05
  9
$VIEWDIR
 10
0.0
 20
0.0
 30
1.0
  9
$VIEWSIZE
 40
0.0
  0
ENDSEC
  0
SECTION
  2
TABLES
  0
TABLE
  2
LTYPE
 70
     9
  0
LTYPE
  2
CONTINUOUS
 70
    64
  3
Solid line
 72
    65
 73
     0
 40
0.0
  0
LTYPE
  2
DASHED
 70
    64
  3
__ __ __ __ __ __ __ __ __ __ __ __ __ __ __
 72
    65
 73
     2
 40
0.75
 49
0.5
 49
-0.25
  0
LTYPE
  2
HIDDEN
 70
    64
  3
_ _ _ _ _ _ _ _ _ _ _ _ _ _ _ _ _ _ _ _ _ _ _
 72
    65
 73
     2
 40
0.375
 49
0.25
 49
-0.125
  0
LTYPE
  2
CENTER
 70
    64
  3
____ _ ____ _ ____ _ ____ _ ____ _ ____ _ ____
 72
    65
 73
     4
 40
2.0
 49
1.25
 49
-0.25
 49
0.25
 49
-0.25
  0
LTYPE
  2
PHANTOM
 70
    64
  3
_____ _ _ _____ _ _ _____ _ _ _____ _ _ ____
 72
    65
 73
     6
 40
2.5
 49
1.25
 49
-0.25
 49
0.25
 49
-0.25
 49
0.25
 49
-0.25
  0
LTYPE
  2
DOT
 70
    64
  3
...............................................
 72
    65
 73
     2
 40
0.25
 49
0.0
 49
-0.25
  0
LTYPE
  2
DASHDOT
 70
    64
  3
__ . __ . __ . __ . __ . __ . __ . __ . __ . __
 72
    65
 73
     4
 40
1.0
 49
0.5
 49
-0.25
 49
0.0
 49
-0.25
  0
LTYPE
  2
BORDER
 70
    64
  3
__ __ . __ __ . __ __ . __ __ . __ __ . __ __
 72
    65
 73
     6
 40
1.75
 49
0.5
 49
-0.25
 49
0.5
 49
-0.25
 49
0.0
 49
-0.25
  0
LTYPE
  2
DIVIDE
 70
    64
  3
__ . . __ . . __ . . __ . . __ . . __ . . __
 72
    65
 73
     6
 40
1.25
 49
0.5
 49
-0.25
 49
0.0
 49
-0.25
 49
0.0
 49
-0.25
  0
ENDTAB
  0
TABLE
  2
LAYER
 70
   100
  0
LAYER
  2
0
 70
     0
 62
     3
  6
CONTINUOUS
  0
LAYER
  2
1
 70
     0
 62
     3
  6
CONTINUOUS
  0
LAYER
  2
2
 70
     0
 62
     3
  6
CONTINUOUS
  0
LAYER
  2
3
 70
     0
 62
     3
  6
CONTINUOUS
  0
LAYER
  2
4
 70
     0
 62
     3
  6
CONTINUOUS
  0
LAYER
  2
5
 70
     0
 62
     3
  6
CONTINUOUS
  0
LAYER
  2
6
 70
     0
 62
     3
  6
CONTINUOUS
  0
LAYER
  2
7
 70
     0
 62
     3
  6
CONTINUOUS
  0
LAYER
  2
8
 70
     0
 62
     3
  6
CONTINUOUS
  0
LAYER
  2
9
 70
     0
 62
     3
  6
CONTINUOUS
  0
LAYER
  2
10
 70
     0
 62
     3
  6
CONTINUOUS
  0
LAYER
  2
11
 70
     0
 62
     3
  6
CONTINUOUS
  0
LAYER
  2
12
 70
     0
 62
     3
  6
CONTINUOUS
  0
LAYER
  2
13
 70
     0
 62
     3
  6
CONTINUOUS
  0
LAYER
  2
14
 70
     0
 62
     3
  6
CONTINUOUS
  0
LAYER
  2
15
 70
     0
 62
     3
  6
CONTINUOUS
  0
LAYER
  2
16
 70
     0
 62
     3
  6
CONTINUOUS
  0
LAYER
  2
17
 70
     0
 62
     3
  6
CONTINUOUS
  0
LAYER
  2
18
 70
     0
 62
     3
  6
CONTINUOUS
  0
LAYER
  2
19
 70
     0
 62
     3
  6
CONTINUOUS
  0
LAYER
  2
20
 70
     0
 62
     3
  6
CONTINUOUS
  0
LAYER
  2
21
 70
     0
 62
     3
  6
CONTINUOUS
  0
LAYER
  2
22
 70
     0
 62
     3
  6
CONTINUOUS
  0
LAYER
  2
23
 70
     0
 62
     3
  6
CONTINUOUS
  0
LAYER
  2
24
 70
     0
 62
     3
  6
CONTINUOUS
  0
LAYER
  2
25
 70
     0
 62
     3
  6
CONTINUOUS
  0
LAYER
  2
26
 70
     0
 62
     3
  6
CONTINUOUS
  0
LAYER
  2
27
 70
     0
 62
     3
  6
CONTINUOUS
  0
LAYER
  2
28
 70
     0
 62
     3
  6
CONTINUOUS
  0
LAYER
  2
29
 70
     0
 62
     3
  6
CONTINUOUS
  0
LAYER
  2
30
 70
     0
 62
     3
  6
CONTINUOUS
  0
LAYER
  2
31
 70
     0
 62
     3
  6
CONTINUOUS
  0
LAYER
  2
32
 70
     0
 62
     3
  6
CONTINUOUS
  0
LAYER
  2
33
 70
     0
 62
     3
  6
CONTINUOUS
  0
LAYER
  2
34
 70
     0
 62
     3
  6
CONTINUOUS
  0
LAYER
  2
35
 70
     0
 62
     3
  6
CONTINUOUS
  0
LAYER
  2
36
 70
     0
 62
     3
  6
CONTINUOUS
  0
LAYER
  2
37
 70
     0
 62
     3
  6
CONTINUOUS
  0
LAYER
  2
38
 70
     0
 62
     3
  6
CONTINUOUS
  0
LAYER
  2
39
 70
     0
 62
     3
  6
CONTINUOUS
  0
LAYER
  2
40
 70
     0
 62
     3
  6
CONTINUOUS
  0
LAYER
  2
41
 70
     0
 62
     3
  6
CONTINUOUS
  0
LAYER
  2
42
 70
     0
 62
     3
  6
CONTINUOUS
  0
LAYER
  2
43
 70
     0
 62
     3
  6
CONTINUOUS
  0
LAYER
  2
44
 70
     0
 62
     3
  6
CONTINUOUS
  0
LAYER
  2
45
 70
     0
 62
     3
  6
CONTINUOUS
  0
LAYER
  2
46
 70
     0
 62
     3
  6
CONTINUOUS
  0
LAYER
  2
47
 70
     0
 62
     3
  6
CONTINUOUS
  0
LAYER
  2
48
 70
     0
 62
     3
  6
CONTINUOUS
  0
LAYER
  2
49
 70
     0
 62
     3
  6
CONTINUOUS
  0
LAYER
  2
50
 70
     0
 62
     3
  6
CONTINUOUS
  0
LAYER
  2
51
 70
     0
 62
     3
  6
CONTINUOUS
  0
LAYER
  2
52
 70
     0
 62
     3
  6
CONTINUOUS
  0
LAYER
  2
53
 70
     0
 62
     3
  6
CONTINUOUS
  0
LAYER
  2
54
 70
     0
 62
     3
  6
CONTINUOUS
  0
LAYER
  2
55
 70
     0
 62
     3
  6
CONTINUOUS
  0
LAYER
  2
56
 70
     0
 62
     3
  6
CONTINUOUS
  0
LAYER
  2
57
 70
     0
 62
     3
  6
CONTINUOUS
  0
LAYER
  2
58
 70
     0
 62
     3
  6
CONTINUOUS
  0
LAYER
  2
59
 70
     0
 62
     3
  6
CONTINUOUS
  0
LAYER
  2
60
 70
     0
 62
     3
  6
CONTINUOUS
  0
LAYER
  2
61
 70
     0
 62
     3
  6
CONTINUOUS
  0
LAYER
  2
62
 70
     0
 62
     3
  6
CONTINUOUS
  0
LAYER
  2
63
 70
     0
 62
     3
  6
CONTINUOUS
  0
LAYER
  2
64
 70
     0
 62
     3
  6
CONTINUOUS
  0
LAYER
  2
65
 70
     0
 62
     3
  6
CONTINUOUS
  0
LAYER
  2
66
 70
     0
 62
     3
  6
CONTINUOUS
  0
LAYER
  2
67
 70
     0
 62
     3
  6
CONTINUOUS
  0
LAYER
  2
68
 70
     0
 62
     3
  6
CONTINUOUS
  0
LAYER
  2
69
 70
     0
 62
     3
  6
CONTINUOUS
  0
LAYER
  2
70
 70
     0
 62
     3
  6
CONTINUOUS
  0
LAYER
  2
71
 70
     0
 62
     3
  6
CONTINUOUS
  0
LAYER
  2
72
 70
     0
 62
     3
  6
CONTINUOUS
  0
LAYER
  2
73
 70
     0
 62
     3
  6
CONTINUOUS
  0
LAYER
  2
74
 70
     0
 62
     3
  6
CONTINUOUS
  0
LAYER
  2
75
 70
     0
 62
     3
  6
CONTINUOUS
  0
LAYER
  2
76
 70
     0
 62
     3
  6
CONTINUOUS
  0
LAYER
  2
77
 70
     0
 62
     3
  6
CONTINUOUS
  0
LAYER
  2
78
 70
     0
 62
     3
  6
CONTINUOUS
  0
LAYER
  2
79
 70
     0
 62
     3
  6
CONTINUOUS
  0
LAYER
  2
80
 70
     0
 62
     3
  6
CONTINUOUS
  0
LAYER
  2
81
 70
     0
 62
     3
  6
CONTINUOUS
  0
LAYER
  2
82
 70
     0
 62
     3
  6
CONTINUOUS
  0
LAYER
  2
83
 70
     0
 62
     3
  6
CONTINUOUS
  0
LAYER
  2
84
 70
     0
 62
     3
  6
CONTINUOUS
  0
LAYER
  2
85
 70
     0
 62
     3
  6
CONTINUOUS
  0
LAYER
  2
86
 70
     0
 62
     3
  6
CONTINUOUS
  0
LAYER
  2
87
 70
     0
 62
     3
  6
CONTINUOUS
  0
LAYER
  2
88
 70
     0
 62
     3
  6
CONTINUOUS
  0
LAYER
  2
89
 70
     0
 62
     3
  6
CONTINUOUS
  0
LAYER
  2
90
 70
     0
 62
     3
  6
CONTINUOUS
  0
LAYER
  2
91
 70
     0
 62
     3
  6
CONTINUOUS
  0
LAYER
  2
92
 70
     0
 62
     3
  6
CONTINUOUS
  0
LAYER
  2
93
 70
     0
 62
     3
  6
CONTINUOUS
  0
LAYER
  2
94
 70
     0
 62
     3
  6
CONTINUOUS
  0
LAYER
  2
95
 70
     0
 62
     3
  6
CONTINUOUS
  0
LAYER
  2
96
 70
     0
 62
     3
  6
CONTINUOUS
  0
LAYER
  2
97
 70
     0
 62
     3
  6
CONTINUOUS
  0
LAYER
  2
98
 70
     0
 62
     3
  6
CONTINUOUS
  0
LAYER
  2
99
 70
     0
 62
     3
  6
CONTINUOUS
  0
ENDTAB
  0
TABLE
  2
STYLE
 70
     2
  0
STYLE
  2
STANDARD
 70
     0
 40
0.0
 41
1.0
 50
0.0
 71
     0
 42
0.2
  3
TXT
  4
BIGFONT
  0
STYLE
  2
KANJI
 70
     0
 40
4.5
 41
1.0
 50
0.0
 71
     0
 42
0.2
  3
TXT
  4
BIGFONT
  0
ENDTAB
  0
TABLE
  2
VIEW
 70
     0
  0
ENDTAB
  0
ENDSEC
  0
SECTION
  2
BLOCKS
  0
BLOCK
  8
0
  2
G0
 70
     0
 10
0
 20
0
  0
POINT
  8
0
 62
     4
 10
270.000000
 20
1315.000000
  0
POINT
  8
0
 62
     4
 10
-1830.000000
 20
1315.000000
  0
ENDBLK
  0
BLOCK
  8
0
  2
G1
 70
     0
 10
0
 20
0
  0
LINE
  8
0
 62
     3
  6
CONTINUOUS
 10
-1163.043291
 20
-48.975228
 11
-1185.545746
 21
-35.983430
  0
LINE
  8
0
 62
     3
  6
CONTINUOUS
 10
-1178.460760
 20
-75.679068
 11
-1163.043291
 21
-48.975228
  0
TEXT
  8
0
 62
     3
 10
-1190.254043
 20
-108.037285
 40
32.000000
 50
0.000000E+00
 41
0.86 
  1
Ｃ
 72
     5
 11
-1158.254043
 21
-108.037285
  0
LINE
  8
0
 62
     3
  6
CONTINUOUS
 10
-1178.460760
 20
-28.308819
 11
-1178.460760
 21
-75.679068
  0
LINE
  8
0
 62
     3
  6
CONTINUOUS
 10
-1178.460760
 20
-28.308819
 11
-1258.023323
 21
-28.308819
  0
ENDBLK
  0
BLOCK
  8
0
  2
G2
 70
     0
 10
0
 20
0
  0
LINE
  8
0
 62
     3
  6
CONTINUOUS
 10
-389.369384
 20
284.844608
 11
-368.645700
 21
284.844608
  0
TEXT
  8
0
 62
     3
 10
-446.654365
 20
305.004642
 40
32.000000
 50
0.000000E+00
 41
0.50 
  1
 
 72
     5
 11
-430.654365
 21
305.004642
  0
LINE
  8
0
 62
     3
  6
CONTINUOUS
 10
-493.830231
 20
414.915212
 11
-389.369384
 21
284.844608
  0
SOLID
  8
0
 62
     3
 10
-469.027161
 20
398.038965
 11
-482.704631
 21
387.054468
 12
-493.830231
 22
414.915212
 13
-493.830231
 23
414.915212
  0
ENDBLK
  0
BLOCK
  8
0
  2
G3
 70
     0
 10
0
 20
0
  0
LINE
  8
0
 62
     3
  6
CONTINUOUS
 10
-431.996149
 20
484.499615
 11
-384.820282
 21
369.255712
  0
SOLID
  8
0
 62
     3
 10
-413.010096
 20
461.271834
 11
-429.244808
 21
454.626046
 12
-431.996149
 22
484.499615
 13
-431.996149
 23
484.499615
  0
TEXT
  8
0
 62
     3
 10
-384.820282
 20
374.589045
 40
32.000000
 50
0.000000E+00
 41
0.50 
  1
 
 72
     5
 11
-368.820282
 21
374.589045
  0
LINE
  8
0
 62
     3
  6
CONTINUOUS
 10
-384.820282
 20
369.255712
 11
-364.096598
 21
369.255712
  0
ENDBLK
  0
BLOCK
  8
0
  2
G4
 70
     0
 10
0
 20
0
  0
LINE
  8
0
 62
     1
  6
CONTINUOUS
 10
-460.682081
 20
687.624747
 11
-396.000000
 21
687.624747
  0
LINE
  8
0
 62
     1
  6
CONTINUOUS
 10
-396.000000
 20
617.500000
 11
-396.000000
 21
702.624747
  0
TEXT
  8
0
 62
     1
 10
-444.474233
 20
692.958080
 40
32.000000
 50
0.000000E+00
 41
0.56 
  1
65
 72
     5
 11
-408.474233
 21
692.958080
  0
LINE
  8
0
 62
     1
  6
CONTINUOUS
 10
-460.682081
 20
687.624747
 11
-499.766806
 21
687.624747
  0
SOLID
  8
0
 62
     1
 10
-484.830227
 20
681.154271
 11
-484.830227
 21
694.095223
 12
-460.682081
 22
687.624747
 13
-460.682081
 23
687.624747
  0
LINE
  8
0
 62
     1
  6
CONTINUOUS
 10
-396.000000
 20
687.624747
 11
-353.820860
 21
687.624747
  0
SOLID
  8
0
 62
     1
 10
-371.851854
 20
694.095223
 11
-371.851854
 21
681.154271
 12
-396.000000
 22
687.624747
 13
-396.000000
 23
687.624747
  0
ENDBLK
  0
BLOCK
  8
0
  2
G5
 70
     0
 10
0
 20
0
  0
LINE
  8
0
 62
     3
  6
CONTINUOUS
 10
-344.493734
 20
714.151548
 11
-399.678552
 21
714.151548
  0
SOLID
  8
0
 62
     3
 10
-370.700777
 20
721.916119
 11
-370.700777
 21
706.386977
 12
-399.678552
 22
714.151548
 13
-399.678552
 23
714.151548
  0
ENDBLK
  0
BLOCK
  8
0
  2
G6
 70
     0
 10
0
 20
0
  0
LINE
  8
0
 62
     1
  6
CONTINUOUS
 10
-661.000000
 20
271.624747
 11
-451.000000
 21
271.624747
  0
SOLID
  8
0
 62
     1
 10
-636.851854
 20
278.095223
 11
-636.851854
 21
265.154271
 12
-661.000000
 22
271.624747
 13
-661.000000
 23
271.624747
  0
SOLID
  8
0
 62
     1
 10
-475.148146
 20
265.154271
 11
-475.148146
 21
278.095223
 12
-451.000000
 22
271.624747
 13
-451.000000
 23
271.624747
  0
LINE
  8
0
 62
     1
  6
CONTINUOUS
 10
-661.000000
 20
535.000000
 11
-661.000000
 21
261.624747
  0
LINE
  8
0
 62
     1
  6
CONTINUOUS
 10
-451.000000
 20
535.000000
 11
-451.000000
 21
261.624747
  0
TEXT
  8
0
 62
     1
 10
-584.000000
 20
276.958080
 40
32.000000
 50
0.000000E+00
 41
0.58 
  1
210
 72
     5
 11
-528.000000
 21
276.958080
  0
ENDBLK
  0
BLOCK
  8
0
  2
G7
 70
     0
 10
0
 20
0
  0
LINE
  8
0
 62
     1
  6
CONTINUOUS
 10
-713.624747
 20
449.682081
 11
-713.624747
 21
385.000000
  0
LINE
  8
0
 62
     1
  6
CONTINUOUS
 10
-626.000000
 20
449.682081
 11
-723.624747
 21
449.682081
  0
LINE
  8
0
 62
     1
  6
CONTINUOUS
 10
-628.500000
 20
385.000000
 11
-723.624747
 21
385.000000
  0
TEXT
  8
0
 62
     1
 10
-718.958080
 20
399.341041
 40
32.000000
 50
90.000000
 41
0.56 
  1
65
 72
     5
 11
-718.958080
 21
435.341041
  0
LINE
  8
0
 62
     1
  6
CONTINUOUS
 10
-713.624747
 20
499.682081
 11
-713.624747
 21
449.682081
  0
SOLID
  8
0
 62
     1
 10
-720.095223
 20
473.830227
 11
-707.154271
 21
473.830227
 12
-713.624747
 22
449.682081
 13
-713.624747
 23
449.682081
  0
LINE
  8
0
 62
     1
  6
CONTINUOUS
 10
-713.624747
 20
385.000000
 11
-713.624747
 21
335.000000
  0
SOLID
  8
0
 62
     1
 10
-707.154271
 20
360.851854
 11
-720.095223
 21
360.851854
 12
-713.624747
 22
385.000000
 13
-713.624747
 23
385.000000
  0
ENDBLK
  0
BLOCK
  8
0
  2
G8
 70
     0
 10
0
 20
0
  0
LINE
  8
0
 62
     1
  6
CONTINUOUS
 10
-396.000000
 20
749.624747
 11
-556.000000
 21
749.624747
  0
LINE
  8
0
 62
     1
  6
CONTINUOUS
 10
-396.000000
 20
702.624747
 11
-396.000000
 21
759.624747
  0
TEXT
  8
0
 62
     1
 10
-504.000000
 20
754.958080
 40
32.000000
 50
0.000000E+00
 41
0.58 
  1
160
 72
     5
 11
-448.000000
 21
754.958080
  0
LINE
  8
0
 62
     1
  6
CONTINUOUS
 10
-396.000000
 20
749.624747
 11
-346.000000
 21
749.624747
  0
SOLID
  8
0
 62
     1
 10
-371.851854
 20
756.095223
 11
-371.851854
 21
743.154271
 12
-396.000000
 22
749.624747
 13
-396.000000
 23
749.624747
  0
LINE
  8
0
 62
     1
  6
CONTINUOUS
 10
-606.000000
 20
749.624747
 11
-556.000000
 21
749.624747
  0
SOLID
  8
0
 62
     1
 10
-580.148146
 20
743.154271
 11
-580.148146
 21
756.095223
 12
-556.000000
 22
749.624747
 13
-556.000000
 23
749.624747
  0
ENDBLK
  0
BLOCK
  8
0
  2
G9
 70
     0
 10
0
 20
0
  0
LINE
  8
0
 62
     3
  6
CONTINUOUS
 10
-360.672899
 20
258.573752
 11
-198.808656
 21
258.573752
  0
LINE
  8
0
 62
     3
  6
CONTINUOUS
 10
-360.672899
 20
266.573752
 11
-198.808656
 21
266.573752
  0
TEXT
  8
0
 62
     7
 10
-360.373832
 20
276.071339
 40
32.000000
 50
0.000000E+00
 41
0.66 
  1
％％ｃ　　　枝管
 72
     5
 11
-168.373832
 21
276.071339
  0
ENDBLK
  0
BLOCK
  8
0
  2
G10
 70
     0
 10
0
 20
0
  0
TEXT
  8
0
 62
     3
 10
-1027.283774
 20
493.253919
 40
32.000000
 50
0.000000E+00
 41
0.95 
  1
受口深さ　
 72
     5
 11
-851.283774
 21
493.253919
  0
ENDBLK
  0
BLOCK
  8
0
  2
G11
 70
     0
 10
0
 20
0
  0
LINE
  8
0
 62
     1
  6
CONTINUOUS
 10
-960.662948
 20
438.027117
 11
-960.662948
 21
363.027117
  0
SOLID
  8
0
 62
     1
 10
-954.192472
 20
413.878971
 11
-967.133424
 21
413.878971
 12
-960.662948
 22
438.027117
 13
-960.662948
 23
438.027117
  0
SOLID
  8
0
 62
     1
 10
-967.133424
 20
387.175262
 11
-954.192472
 21
387.175262
 12
-960.662948
 22
363.027117
 13
-960.662948
 23
363.027117
  0
LINE
  8
0
 62
     1
  6
CONTINUOUS
 10
-950.662948
 20
438.027117
 11
-1297.549807
 21
438.027117
  0
LINE
  8
0
 62
     1
  6
CONTINUOUS
 10
-950.662948
 20
363.027117
 11
-1080.662948
 21
363.027117
  0
TEXT
  8
0
 62
     1
 10
-965.996281
 20
382.527117
 40
32.000000
 50
90.000000
 41
0.56 
  1
75
 72
     5
 11
-965.996281
 21
418.527117
  0
ENDBLK
  0
BLOCK
  8
0
  2
G12
 70
     0
 10
0
 20
0
  0
LINE
  8
0
 62
     1
  6
CONTINUOUS
 10
-1020.662948
 20
-186.972883
 11
-1020.662948
 21
173.027117
  0
SOLID
  8
0
 62
     1
 10
-1028.427519
 20
-157.995109
 11
-1012.898377
 21
-157.995109
 12
-1020.662948
 22
-186.972883
 13
-1020.662948
 23
-186.972883
  0
SOLID
  8
0
 62
     1
 10
-1012.898377
 20
144.049342
 11
-1028.427519
 21
144.049342
 12
-1020.662948
 22
173.027117
 13
-1020.662948
 23
173.027117
  0
LINE
  8
0
 62
     1
  6
CONTINUOUS
 10
-1010.662948
 20
-186.972883
 11
-1130.662948
 21
-186.972883
  0
TEXT
  8
0
 62
     1
 10
-1025.996281
 20
-22.972883
 40
32.000000
 50
90.000000
 41
0.86 
  1
Ｐ
 72
     5
 11
-1025.996281
 21
9.027117
  0
ENDBLK
  0
BLOCK
  8
0
  2
G13
 70
     0
 10
0
 20
0
  0
LINE
  8
0
 62
     1
  6
CONTINUOUS
 10
-1080.662948
 20
113.027117
 11
-1080.662948
 21
363.027117
  0
SOLID
  8
0
 62
     1
 10
-1088.427519
 20
142.004891
 11
-1072.898377
 21
142.004891
 12
-1080.662948
 22
113.027117
 13
-1080.662948
 23
113.027117
  0
SOLID
  8
0
 62
     1
 10
-1072.898377
 20
334.049342
 11
-1088.427519
 21
334.049342
 12
-1080.662948
 22
363.027117
 13
-1080.662948
 23
363.027117
  0
LINE
  8
0
 62
     1
  6
CONTINUOUS
 10
-1130.662948
 20
113.027117
 11
-1070.662948
 21
113.027117
  0
LINE
  8
0
 62
     1
  6
CONTINUOUS
 10
-1367.739862
 20
363.027117
 11
-1070.662948
 21
363.027117
  0
TEXT
  8
0
 62
     1
 10
-1085.996281
 20
160.027117
 40
32.000000
 50
90.000000
 41
0.61 
  1
250(280)
 72
     5
 11
-1085.996281
 21
316.027117
  0
ENDBLK
  0
BLOCK
  8
0
  2
G14
 70
     0
 10
0
 20
0
  0
LINE
  8
0
 62
     1
  6
CONTINUOUS
 10
-1140.662948
 20
-276.972883
 11
-1140.662948
 21
-396.972883
  0
SOLID
  8
0
 62
     1
 10
-1134.192472
 20
-301.121029
 11
-1147.133424
 21
-301.121029
 12
-1140.662948
 22
-276.972883
 13
-1140.662948
 23
-276.972883
  0
SOLID
  8
0
 62
     1
 10
-1147.133424
 20
-372.824738
 11
-1134.192472
 21
-372.824738
 12
-1140.662948
 22
-396.972883
 13
-1140.662948
 23
-396.972883
  0
LINE
  8
0
 62
     1
  6
CONTINUOUS
 10
-1286.990773
 20
-276.972883
 11
-1130.662948
 21
-276.972883
  0
LINE
  8
0
 62
     1
  6
CONTINUOUS
 10
-1317.488951
 20
-396.972883
 11
-1130.662948
 21
-396.972883
  0
TEXT
  8
0
 62
     1
 10
-1145.996281
 20
-364.972883
 40
32.000000
 50
90.000000
 41
0.58 
  1
120
 72
     5
 11
-1145.996281
 21
-308.972883
  0
ENDBLK
  0
BLOCK
  8
0
  2
G15
 70
     0
 10
0
 20
0
  0
LINE
  8
0
 62
     1
  6
CONTINUOUS
 10
-1140.662948
 20
-396.972883
 11
-1140.662948
 21
-546.972883
  0
SOLID
  8
0
 62
     1
 10
-1134.192472
 20
-421.121029
 11
-1147.133424
 21
-421.121029
 12
-1140.662948
 22
-396.972883
 13
-1140.662948
 23
-396.972883
  0
SOLID
  8
0
 62
     1
 10
-1147.133424
 20
-522.824738
 11
-1134.192472
 21
-522.824738
 12
-1140.662948
 22
-546.972883
 13
-1140.662948
 23
-546.972883
  0
LINE
  8
0
 62
     1
  6
CONTINUOUS
 10
-1314.739862
 20
-546.972883
 11
-1130.662948
 21
-546.972883
  0
TEXT
  8
0
 62
     1
 10
-1145.996281
 20
-499.972883
 40
32.000000
 50
90.000000
 41
0.58 
  1
150
 72
     5
 11
-1145.996281
 21
-443.972883
  0
ENDBLK
  0
BLOCK
  8
0
  2
G16
 70
     0
 10
0
 20
0
  0
LINE
  8
0
 62
     1
  6
CONTINUOUS
 10
-1020.662948
 20
-186.972883
 11
-1020.662948
 21
-546.972883
  0
SOLID
  8
0
 62
     1
 10
-1014.192472
 20
-211.121029
 11
-1027.133424
 21
-211.121029
 12
-1020.662948
 22
-186.972883
 13
-1020.662948
 23
-186.972883
  0
SOLID
  8
0
 62
     1
 10
-1027.133424
 20
-522.824738
 11
-1014.192472
 21
-522.824738
 12
-1020.662948
 22
-546.972883
 13
-1020.662948
 23
-546.972883
  0
LINE
  8
0
 62
     1
  6
CONTINUOUS
 10
-1010.662948
 20
-546.972883
 11
-1130.662948
 21
-546.972883
  0
TEXT
  8
0
 62
     1
 10
-1025.996281
 20
-394.972883
 40
32.000000
 50
90.000000
 41
0.58 
  1
360
 72
     5
 11
-1025.996281
 21
-338.972883
  0
ENDBLK
  0
BLOCK
  8
0
  2
G17
 70
     0
 10
0
 20
0
  0
LINE
  8
0
 62
     1
  6
CONTINUOUS
 10
-960.662948
 20
363.027117
 11
-960.662948
 21
-546.972883
  0
SOLID
  8
0
 62
     1
 10
-954.192472
 20
338.878971
 11
-967.133424
 21
338.878971
 12
-960.662948
 22
363.027117
 13
-960.662948
 23
363.027117
  0
SOLID
  8
0
 62
     1
 10
-967.133424
 20
-522.824738
 11
-954.192472
 21
-522.824738
 12
-960.662948
 22
-546.972883
 13
-960.662948
 23
-546.972883
  0
LINE
  8
0
 62
     1
  6
CONTINUOUS
 10
-1010.662948
 20
-546.972883
 11
-950.662948
 21
-546.972883
  0
TEXT
  8
0
 62
     1
 10
-965.996281
 20
-185.972883
 40
32.000000
 50
90.000000
 41
0.89 
  1
Ｌ（有効長）
 72
     5
 11
-965.996281
 21
10.027117
  0
ENDBLK
  0
BLOCK
  8
0
  2
G18
 70
     0
 10
0
 20
0
  0
LINE
  8
0
 62
     1
  6
CONTINUOUS
 10
-900.662948
 20
438.027117
 11
-900.662948
 21
-546.972883
  0
SOLID
  8
0
 62
     1
 10
-894.192472
 20
413.878971
 11
-907.133424
 21
413.878971
 12
-900.662948
 22
438.027117
 13
-900.662948
 23
438.027117
  0
SOLID
  8
0
 62
     1
 10
-907.133424
 20
-522.824738
 11
-894.192472
 21
-522.824738
 12
-900.662948
 22
-546.972883
 13
-900.662948
 23
-546.972883
  0
LINE
  8
0
 62
     1
  6
CONTINUOUS
 10
-950.662948
 20
438.027117
 11
-890.662948
 21
438.027117
  0
LINE
  8
0
 62
     1
  6
CONTINUOUS
 10
-950.662948
 20
-546.972883
 11
-890.662948
 21
-546.972883
  0
TEXT
  8
0
 62
     1
 10
-905.996281
 20
-90.472883
 40
32.000000
 50
90.000000
 41
0.97 
  1
Ｌｔ
 72
     5
 11
-905.996281
 21
-18.472883
  0
ENDBLK
  0
BLOCK
  8
0
  2
G19
 70
     0
 10
0
 20
0
  0
LINE
  8
0
 62
     1
  6
CONTINUOUS
 10
-1614.816775
 20
173.027117
 11
-1614.816775
 21
223.027117
  0
SOLID
  8
0
 62
     1
 10
-1622.581347
 20
202.004891
 11
-1607.052204
 21
202.004891
 12
-1614.816775
 22
173.027117
 13
-1614.816775
 23
173.027117
  0
TEXT
  8
0
 62
     1
 10
-1620.150108
 20
125.027117
 40
32.000000
 50
90.000000
 41
0.56 
  1
60
 72
     5
 11
-1620.150108
 21
161.027117
  0
LINE
  8
0
 62
     1
  6
CONTINUOUS
 10
-1553.673568
 20
173.027117
 11
-1624.816775
 21
173.027117
  0
LINE
  8
0
 62
     1
  6
CONTINUOUS
 10
-1542.739862
 20
113.027117
 11
-1624.816775
 21
113.027117
  0
LINE
  8
0
 62
     1
  6
CONTINUOUS
 10
-1614.816775
 20
113.027117
 11
-1614.816775
 21
173.027117
  0
CIRCLE
  8
0
 62
     1
  6
CONTINUOUS
 10
-1614.816775
 20
113.027117
 40
2.500000
  0
CIRCLE
  8
0
 62
     1
  6
CONTINUOUS
 10
-1614.816775
 20
113.027117
 40
1.250000
  0
ENDBLK
  0
BLOCK
  8
0
  2
G20
 70
     0
 10
0
 20
0
  0
TEXT
  8
0
 62
     3
 10
-1143.002644
 20
942.836718
 40
32.000000
 50
0.000000E+00
 41
0.95 
  1
受口深さ　
 72
     5
 11
-967.002644
 21
942.836718
  0
ENDBLK
  0
BLOCK
  8
0
  2
G21
 70
     0
 10
0
 20
0
  0
TEXT
  8
0
 62
     3
 10
-1748.419845
 20
886.225678
 40
32.000000
 50
0.000000E+00
 41
0.95 
  1
受口深さ　
 72
     5
 11
-1572.419845
 21
886.225678
  0
ENDBLK
  0
BLOCK
  8
0
  2
G22
 70
     0
 10
0
 20
0
  0
TEXT
  8
0
 62
     3
 10
-336.704880
 20
700.321326
 40
32.000000
 50
0.000000E+00
 41
1.02 
  1
受口深さ
 72
     5
 11
-184.704880
 21
700.321326
  0
ENDBLK
  0
BLOCK
  8
0
  2
G23
 70
     0
 10
0
 20
0
  0
LINE
  8
0
 62
     1
  6
CONTINUOUS
 10
-1537.739862
 20
871.838562
 11
-1587.739862
 21
871.838562
  0
SOLID
  8
0
 62
     1
 10
-1561.888007
 20
865.368086
 11
-1561.888007
 21
878.309038
 12
-1537.739862
 22
871.838562
 13
-1537.739862
 23
871.838562
  0
LINE
  8
0
 62
     1
  6
CONTINUOUS
 10
-1422.739862
 20
871.838562
 11
-1472.739862
 21
871.838562
  0
SOLID
  8
0
 62
     1
 10
-1448.591716
 20
878.309038
 11
-1448.591716
 21
865.368086
 12
-1472.739862
 22
871.838562
 13
-1472.739862
 23
871.838562
  0
TEXT
  8
0
 62
     1
 10
-1523.239862
 20
877.171895
 40
32.000000
 50
360.000000
 41
0.56 
  1
65
 72
     5
 11
-1487.239862
 21
877.171895
  0
LINE
  8
0
 62
     1
  6
CONTINUOUS
 10
-1537.739862
 20
799.448109
 11
-1537.739862
 21
931.838562
  0
LINE
  8
0
 62
     1
  6
CONTINUOUS
 10
-1472.739862
 20
796.948109
 11
-1472.739862
 21
881.838562
  0
LINE
  8
0
 62
     1
  6
CONTINUOUS
 10
-1472.739862
 20
871.838562
 11
-1537.739862
 21
871.838562
  0
ENDBLK
  0
BLOCK
  8
0
  2
G24
 70
     0
 10
0
 20
0
  0
LINE
  8
0
 62
     1
  6
CONTINUOUS
 10
-1614.816775
 20
110.527117
 11
-1614.816775
 21
19.944416
  0
SOLID
  8
0
 62
     1
 10
-1608.346299
 20
86.378971
 11
-1621.287251
 21
86.378971
 12
-1614.816775
 22
110.527117
 13
-1614.816775
 23
110.527117
  0
TEXT
  8
0
 62
     1
 10
-1620.150108
 20
24.799037
 40
32.000000
 50
90.000000
 41
0.58 
  1
2.5
 72
     5
 11
-1620.150108
 21
80.799037
  0
LINE
  8
0
 62
     1
  6
CONTINUOUS
 10
-1624.816775
 20
110.527117
 11
-1542.739862
 21
110.527117
  0
LINE
  8
0
 62
     1
  6
CONTINUOUS
 10
-1614.816775
 20
110.527117
 11
-1614.816775
 21
113.027117
  0
ENDBLK
  0
BLOCK
  8
0
  2
G25
 70
     0
 10
0
 20
0
  0
LINE
  8
0
 62
     1
  6
CONTINUOUS
 10
-1140.662948
 20
110.527117
 11
-1140.662948
 21
113.027117
  0
LINE
  8
0
 62
     1
  6
CONTINUOUS
 10
-1130.662948
 20
110.527117
 11
-1212.739862
 21
110.527117
  0
TEXT
  8
0
 62
     1
 10
-1145.996281
 20
24.799037
 40
32.000000
 50
90.000000
 41
0.58 
  1
2.5
 72
     5
 11
-1145.996281
 21
80.799037
  0
LINE
  8
0
 62
     1
  6
CONTINUOUS
 10
-1140.662948
 20
110.527117
 11
-1140.662948
 21
19.944416
  0
SOLID
  8
0
 62
     1
 10
-1134.192472
 20
86.378971
 11
-1147.133424
 21
86.378971
 12
-1140.662948
 22
110.527117
 13
-1140.662948
 23
110.527117
  0
ENDBLK
  0
BLOCK
  8
0
  2
G26
 70
     0
 10
0
 20
0
  0
LINE
  8
0
 62
     1
  6
CONTINUOUS
 10
-1282.739862
 20
871.838562
 11
-1217.739862
 21
871.838562
  0
LINE
  8
0
 62
     1
  6
CONTINUOUS
 10
-1282.739862
 20
796.948109
 11
-1282.739862
 21
881.838562
  0
LINE
  8
0
 62
     1
  6
CONTINUOUS
 10
-1217.739862
 20
799.448109
 11
-1217.739862
 21
931.838562
  0
TEXT
  8
0
 62
     1
 10
-1268.239862
 20
877.171895
 40
32.000000
 50
0.000000E+00
 41
0.56 
  1
65
 72
     5
 11
-1232.239862
 21
877.171895
  0
LINE
  8
0
 62
     1
  6
CONTINUOUS
 10
-1332.739862
 20
871.838562
 11
-1282.739862
 21
871.838562
  0
SOLID
  8
0
 62
     1
 10
-1306.888007
 20
865.368086
 11
-1306.888007
 21
878.309038
 12
-1282.739862
 22
871.838562
 13
-1282.739862
 23
871.838562
  0
LINE
  8
0
 62
     1
  6
CONTINUOUS
 10
-1217.739862
 20
871.838562
 11
-1167.739862
 21
871.838562
  0
SOLID
  8
0
 62
     1
 10
-1193.591716
 20
878.309038
 11
-1193.591716
 21
865.368086
 12
-1217.739862
 22
871.838562
 13
-1217.739862
 23
871.838562
  0
ENDBLK
  0
BLOCK
  8
0
  2
G27
 70
     0
 10
0
 20
0
  0
LINE
  8
0
 62
     1
  6
CONTINUOUS
 10
-1144.485175
 20
664.448109
 11
-1144.485175
 21
789.448109
  0
SOLID
  8
0
 62
     1
 10
-1150.955651
 20
688.596254
 11
-1138.014699
 21
688.596254
 12
-1144.485175
 22
664.448109
 13
-1144.485175
 23
664.448109
  0
SOLID
  8
0
 62
     1
 10
-1138.014699
 20
765.299963
 11
-1150.955651
 21
765.299963
 12
-1144.485175
 22
789.448109
 13
-1144.485175
 23
789.448109
  0
LINE
  8
0
 62
     1
  6
CONTINUOUS
 10
-1207.739862
 20
664.448109
 11
-1134.485175
 21
664.448109
  0
LINE
  8
0
 62
     1
  6
CONTINUOUS
 10
-1207.739862
 20
789.448109
 11
-1134.485175
 21
789.448109
  0
TEXT
  8
0
 62
     1
 10
-1149.818508
 20
668.948109
 40
32.000000
 50
90.000000
 41
0.60 
  1
%%c125
 72
     5
 11
-1149.818508
 21
784.948109
  0
ENDBLK
  0
BLOCK
  8
0
  2
G28
 70
     0
 10
0
 20
0
  0
TEXT
  8
0
 62
     1
 10
-1616.327882
 20
668.948109
 40
32.000000
 50
90.000000
 41
0.60 
  1
%%c125
 72
     5
 11
-1616.327882
 21
784.948109
  0
LINE
  8
0
 62
     1
  6
CONTINUOUS
 10
-1547.739862
 20
789.448109
 11
-1620.994549
 21
789.448109
  0
LINE
  8
0
 62
     1
  6
CONTINUOUS
 10
-1547.739862
 20
664.448109
 11
-1620.994549
 21
664.448109
  0
LINE
  8
0
 62
     1
  6
CONTINUOUS
 10
-1610.994549
 20
664.448109
 11
-1610.994549
 21
789.448109
  0
SOLID
  8
0
 62
     1
 10
-1617.465025
 20
688.596254
 11
-1604.524072
 21
688.596254
 12
-1610.994549
 22
664.448109
 13
-1610.994549
 23
664.448109
  0
SOLID
  8
0
 62
     1
 10
-1604.524072
 20
765.299963
 11
-1617.465025
 21
765.299963
 12
-1610.994549
 22
789.448109
 13
-1610.994549
 23
789.448109
  0
ENDBLK
  0
BLOCK
  8
0
  2
G29
 70
     0
 10
0
 20
0
  0
LINE
  8
0
 62
     1
  6
CONTINUOUS
 10
-1140.662948
 20
113.027117
 11
-1140.662948
 21
173.027117
  0
CIRCLE
  8
0
 62
     1
  6
CONTINUOUS
 10
-1140.662948
 20
113.027117
 40
2.500000
  0
CIRCLE
  8
0
 62
     1
  6
CONTINUOUS
 10
-1140.662948
 20
113.027117
 40
1.250000
  0
LINE
  8
0
 62
     1
  6
CONTINUOUS
 10
-1212.739862
 20
113.027117
 11
-1130.662948
 21
113.027117
  0
LINE
  8
0
 62
     1
  6
CONTINUOUS
 10
-1201.806156
 20
173.027117
 11
-1130.662948
 21
173.027117
  0
TEXT
  8
0
 62
     1
 10
-1145.996281
 20
125.027117
 40
32.000000
 50
90.000000
 41
0.56 
  1
60
 72
     5
 11
-1145.996281
 21
161.027117
  0
LINE
  8
0
 62
     1
  6
CONTINUOUS
 10
-1140.662948
 20
173.027117
 11
-1140.662948
 21
223.027117
  0
SOLID
  8
0
 62
     1
 10
-1148.427519
 20
202.004891
 11
-1132.898377
 21
202.004891
 12
-1140.662948
 22
173.027117
 13
-1140.662948
 23
173.027117
  0
ENDBLK
  0
BLOCK
  8
0
  2
G30
 70
     0
 10
0
 20
0
  0
TEXT
  8
0
 62
     3
 10
-812.899817
 20
272.988469
 40
32.000000
 50
0.000000E+00
 41
0.95 
  1
受口深さ　
 72
     5
 11
-636.899817
 21
272.988469
  0
ENDBLK
  0
BLOCK
  8
0
  2
G31
 70
     0
 10
0
 20
0
  0
LINE
  8
0
 62
     1
  6
CONTINUOUS
 10
-770.624747
 20
545.000000
 11
-770.624747
 21
385.000000
  0
LINE
  8
0
 62
     1
  6
CONTINUOUS
 10
-689.008451
 20
545.000000
 11
-780.624747
 21
545.000000
  0
LINE
  8
0
 62
     1
  6
CONTINUOUS
 10
-628.500000
 20
385.000000
 11
-780.624747
 21
385.000000
  0
TEXT
  8
0
 62
     1
 10
-775.958080
 20
437.000000
 40
32.000000
 50
90.000000
 41
0.58 
  1
160
 72
     5
 11
-775.958080
 21
493.000000
  0
LINE
  8
0
 62
     1
  6
CONTINUOUS
 10
-770.624747
 20
595.000000
 11
-770.624747
 21
545.000000
  0
SOLID
  8
0
 62
     1
 10
-777.095223
 20
569.148146
 11
-764.154271
 21
569.148146
 12
-770.624747
 22
545.000000
 13
-770.624747
 23
545.000000
  0
LINE
  8
0
 62
     1
  6
CONTINUOUS
 10
-770.624747
 20
385.000000
 11
-770.624747
 21
335.000000
  0
SOLID
  8
0
 62
     1
 10
-764.154271
 20
360.851854
 11
-777.095223
 21
360.851854
 12
-770.624747
 22
385.000000
 13
-770.624747
 23
385.000000
  0
ENDBLK
  0
BLOCK
  8
0
  2
G32
 70
     0
 10
0
 20
0
  0
TEXT
  8
0
 62
     1
 10
-743.048404
 20
692.450424
 40
32.000000
 50
45.000000
 41
0.58 
  1
248
 72
     5
 11
-703.450424
 21
732.048404
  0
LINE
  8
0
 62
     1
  6
CONTINUOUS
 10
-475.389827
 20
639.752309
 11
-638.868005
 21
803.230486
  0
LINE
  8
0
 62
     1
  6
CONTINUOUS
 10
-650.752309
 20
464.389827
 11
-814.230486
 21
627.868005
  0
LINE
  8
0
 62
     1
  6
CONTINUOUS
 10
-807.159419
 20
620.796937
 11
-631.796937
 21
796.159419
  0
SOLID
  8
0
 62
     1
 10
-794.659419
 20
642.447572
 11
-785.508783
 21
633.296937
 12
-807.159419
 22
620.796937
 13
-807.159419
 23
620.796937
  0
SOLID
  8
0
 62
     1
 10
-644.296937
 20
774.508783
 11
-653.447572
 21
783.659419
 12
-631.796937
 22
796.159419
 13
-631.796937
 23
796.159419
  0
ENDBLK
  0
BLOCK
  8
0
  2
G33
 70
     0
 10
0
 20
0
  0
LINE
  8
0
 62
     1
  6
CONTINUOUS
 10
-283.675308
 20
440.000000
 11
-283.675308
 21
650.000000
  0
SOLID
  8
0
 62
     1
 10
-290.145784
 20
464.148146
 11
-277.204832
 21
464.148146
 12
-283.675308
 22
440.000000
 13
-283.675308
 23
440.000000
  0
SOLID
  8
0
 62
     1
 10
-277.204832
 20
625.851854
 11
-290.145784
 21
625.851854
 12
-283.675308
 22
650.000000
 13
-283.675308
 23
650.000000
  0
LINE
  8
0
 62
     1
  6
CONTINUOUS
 10
-546.000000
 20
440.000000
 11
-273.675308
 21
440.000000
  0
LINE
  8
0
 62
     1
  6
CONTINUOUS
 10
-546.000000
 20
650.000000
 11
-273.675308
 21
650.000000
  0
TEXT
  8
0
 62
     1
 10
-289.008641
 20
517.000000
 40
32.000000
 50
90.000000
 41
0.58 
  1
210
 72
     5
 11
-289.008641
 21
573.000000
  0
ENDBLK
  0
BLOCK
  8
0
  2
G34
 70
     0
 10
0
 20
0
  0
TEXT
  8
0
 62
     7
 10
-360.373832
 20
356.071339
 40
32.000000
 50
0.000000E+00
 41
0.66 
  1
％％ｃ　　　枝管
 72
     5
 11
-168.373832
 21
356.071339
  0
LINE
  8
0
 62
     3
  6
CONTINUOUS
 10
-360.672899
 20
346.573752
 11
-198.808656
 21
346.573752
  0
LINE
  8
0
 62
     3
  6
CONTINUOUS
 10
-360.672899
 20
338.573752
 11
-198.808656
 21
338.573752
  0
ENDBLK
  0
BLOCK
  8
0
  2
G35
 70
     0
 10
0
 20
0
  0
POINT
  8
0
 62
     2
 10
-1290.769688
 20
-128.921581
  0
LINE
  8
0
 62
     2
  6
CENTER
 10
-1207.489859
 20
-135.255985
 11
-1290.769688
 21
-136.921581
  0
LINE
  8
0
 62
     2
  6
CONTINUOUS
 10
-1224.808480
 20
-83.591958
 11
-1282.739862
 21
-84.750586
  0
LINE
  8
0
 62
     2
  6
CONTINUOUS
 10
-1282.723512
 20
-188.272556
 11
-1217.739862
 21
-186.972883
  0
LINE
  8
0
 62
     2
  6
CONTINUOUS
 10
-1224.868468
 20
-80.592558
 11
-1219.869468
 21
-80.492578
  0
LINE
  8
0
 62
     2
  6
CONTINUOUS
 10
-1219.869468
 20
-80.492578
 11
-1217.739862
 21
-186.972883
  0
LINE
  8
0
 62
     2
  6
CONTINUOUS
 10
-1224.868468
 20
-80.592558
 11
-1222.738862
 21
-187.072863
  0
POINT
  8
0
 62
     2
 10
-1218.769688
 20
-135.481581
  0
ENDBLK
  0
BLOCK
  8
0
  2
G36
 70
     0
 10
0
 20
0
  0
CIRCLE
  8
0
 62
     1
  6
CONTINUOUS
 10
-1377.739862
 20
-126.972883
 40
62.000000
  0
LINE
  8
0
 62
     2
  6
CONTINUOUS
 10
-1359.823739
 20
-186.473004
 11
-1395.655985
 21
-186.473004
  0
CIRCLE
  8
0
 62
     2
  6
CONTINUOUS
 10
-1377.739862
 20
-134.472883
 40
47.000000
  0
ARC
  8
0
 62
     2
  6
CONTINUOUS
 10
-1377.739862
 20
-134.472883
 40
55.000000
 50
289.010880
 51
610.989120
  0
LINE
  8
0
 62
     2
  6
CENTER
 10
-1449.453040
 20
-134.472883
 11
-1311.741640
 21
-134.472883
  0
CIRCLE
  8
0
 62
     2
  6
CONTINUOUS
 10
-1377.739862
 20
-134.472883
 40
35.000000
  0
ENDBLK
  0
BLOCK
  8
0
  2
G37
 70
     0
 10
0
 20
0
  0
LINE
  8
0
 62
     7
  6
CONTINUOUS
 10
-1459.453040
 20
-134.472883
 11
-1531.546367
 21
-134.472883
  0
LINE
  8
0
 62
     7
  6
CONTINUOUS
 10
-1405.655985
 20
-186.473004
 11
-1531.546367
 21
-186.473004
  0
LINE
  8
0
 62
     7
  6
CONTINUOUS
 10
-1521.546367
 20
-134.472883
 11
-1521.546367
 21
-186.473004
  0
LINE
  8
0
 62
     7
  6
CONTINUOUS
 10
-1521.546367
 20
-134.472883
 11
-1521.546367
 21
-84.472883
  0
SOLID
  8
0
 62
     7
 10
-1530.317518
 20
-105.783741
 11
-1512.775216
 21
-105.783741
 12
-1521.546367
 22
-134.472883
 13
-1521.546367
 23
-134.472883
  0
LINE
  8
0
 62
     7
  6
CONTINUOUS
 10
-1521.546367
 20
-186.473004
 11
-1521.546367
 21
-236.473004
  0
SOLID
  8
0
 62
     7
 10
-1512.775216
 20
-215.162147
 11
-1530.317518
 21
-215.162147
 12
-1521.546367
 22
-186.473004
 13
-1521.546367
 23
-186.473004
  0
TEXT
  8
0
 62
     7
 10
-1526.879697
 20
-176.472944
 40
32.000000
 50
90.000000
 41
0.86 
  1
Ｂ
 72
     5
 11
-1526.879697
 21
-144.472944
  0
ENDBLK
  0
BLOCK
  8
0
  2
G38
 70
     0
 10
0
 20
0
  0
LINE
  8
0
 62
     7
  6
CONTINUOUS
 10
-1208.769688
 20
-135.481581
 11
-1130.662948
 21
-135.481581
  0
LINE
  8
0
 62
     7
  6
CONTINUOUS
 10
-1207.739862
 20
-186.972883
 11
-1130.662948
 21
-186.972883
  0
LINE
  8
0
 62
     7
  6
CONTINUOUS
 10
-1140.662948
 20
-135.481581
 11
-1140.662948
 21
-186.972883
  0
LINE
  8
0
 62
     7
  6
CONTINUOUS
 10
-1140.662948
 20
-135.481581
 11
-1140.662948
 21
-85.481581
  0
SOLID
  8
0
 62
     7
 10
-1149.434099
 20
-106.792438
 11
-1131.891797
 21
-106.792438
 12
-1140.662948
 22
-135.481581
 13
-1140.662948
 23
-135.481581
  0
LINE
  8
0
 62
     7
  6
CONTINUOUS
 10
-1140.662948
 20
-186.972883
 11
-1140.662948
 21
-236.972883
  0
SOLID
  8
0
 62
     7
 10
-1131.891797
 20
-215.662026
 11
-1149.434099
 21
-215.662026
 12
-1140.662948
 22
-186.972883
 13
-1140.662948
 23
-186.972883
  0
TEXT
  8
0
 62
     7
 10
-1145.996278
 20
-177.227232
 40
32.000000
 50
90.000000
 41
0.86 
  1
Ｂ
 72
     5
 11
-1145.996278
 21
-145.227232
  0
ENDBLK
  0
BLOCK
  8
0
  2
G39
 70
     0
 10
0
 20
0
  0
LINE
  8
0
 62
     7
  6
CONTINUOUS
 10
-1537.739862
 20
799.448109
 11
-1537.739862
 21
940.057655
  0
LINE
  8
0
 62
     7
  6
CONTINUOUS
 10
-1377.739862
 20
832.063624
 11
-1377.739862
 21
940.057655
  0
LINE
  8
0
 62
     7
  6
CONTINUOUS
 10
-1537.739862
 20
930.057655
 11
-1377.739862
 21
930.057655
  0
SOLID
  8
0
 62
     7
 10
-1509.050719
 20
938.828806
 11
-1509.050719
 21
921.286504
 12
-1537.739862
 22
930.057655
 13
-1537.739862
 23
930.057655
  0
SOLID
  8
0
 62
     7
 10
-1406.429004
 20
921.286504
 11
-1406.429004
 21
938.828806
 12
-1377.739862
 22
930.057655
 13
-1377.739862
 23
930.057655
  0
TEXT
  8
0
 62
     7
 10
-1485.739862
 20
935.390985
 40
32.000000
 50
0.000000E+00
 41
0.58 
  1
160
 72
     5
 11
-1429.739862
 21
935.390985
  0
LINE
  8
0
 62
     7
  6
CONTINUOUS
 10
-1217.739862
 20
799.448109
 11
-1217.739862
 21
940.057655
  0
LINE
  8
0
 62
     7
  6
CONTINUOUS
 10
-1377.739862
 20
930.057655
 11
-1217.739862
 21
930.057655
  0
SOLID
  8
0
 62
     7
 10
-1349.050719
 20
938.828806
 11
-1349.050719
 21
921.286504
 12
-1377.739862
 22
930.057655
 13
-1377.739862
 23
930.057655
  0
SOLID
  8
0
 62
     7
 10
-1246.429004
 20
921.286504
 11
-1246.429004
 21
938.828806
 12
-1217.739862
 22
930.057655
 13
-1217.739862
 23
930.057655
  0
TEXT
  8
0
 62
     7
 10
-1325.739862
 20
935.390985
 40
32.000000
 50
0.000000E+00
 41
0.58 
  1
160
 72
     5
 11
-1269.739862
 21
935.390985
  0
ENDBLK
  0
BLOCK
  8
0
  2
G40
 70
     0
 10
0
 20
0
  0
LINE
  8
0
 62
     7
  6
CONTINUOUS
 10
-1305.739862
 20
631.948109
 11
-1070.662948
 21
631.948109
  0
LINE
  8
0
 62
     7
  6
CONTINUOUS
 10
-1141.219972
 20
726.948109
 11
-1070.662948
 21
726.948109
  0
LINE
  8
0
 62
     7
  6
CONTINUOUS
 10
-1080.662948
 20
631.948109
 11
-1080.662948
 21
726.948109
  0
SOLID
  8
0
 62
     7
 10
-1089.434099
 20
660.637251
 11
-1071.891797
 21
660.637251
 12
-1080.662948
 22
631.948109
 13
-1080.662948
 23
631.948109
  0
SOLID
  8
0
 62
     7
 10
-1071.891797
 20
698.258966
 11
-1089.434099
 21
698.258966
 12
-1080.662948
 22
726.948109
 13
-1080.662948
 23
726.948109
  0
TEXT
  8
0
 62
     7
 10
-1085.996278
 20
661.448109
 40
32.000000
 50
90.000000
 41
0.56 
  1
95
 72
     5
 11
-1085.996278
 21
697.448109
  0
ENDBLK
  0
BLOCK
  8
0
  2
G41
 70
     0
 10
0
 20
0
  0
LINE
  8
0
 62
     7
  6
CONTINUOUS
 10
-1452.739862
 20
448.027117
 11
-1452.739862
 21
491.551724
  0
LINE
  8
0
 62
     7
  6
CONTINUOUS
 10
-1302.739862
 20
448.027117
 11
-1302.739862
 21
491.551724
  0
LINE
  8
0
 62
     7
  6
CONTINUOUS
 10
-1452.739862
 20
481.551724
 11
-1302.739862
 21
481.551724
  0
SOLID
  8
0
 62
     7
 10
-1424.050719
 20
490.322875
 11
-1424.050719
 21
472.780573
 12
-1452.739862
 22
481.551724
 13
-1452.739862
 23
481.551724
  0
SOLID
  8
0
 62
     7
 10
-1331.429004
 20
472.780573
 11
-1331.429004
 21
490.322875
 12
-1302.739862
 22
481.551724
 13
-1302.739862
 23
481.551724
  0
TEXT
  8
0
 62
     7
 10
-1435.739862
 20
486.885054
 40
32.000000
 50
0.000000E+00
 41
0.60 
  1
%%c150
 72
     5
 11
-1319.739862
 21
486.885054
  0
ENDBLK
  0
BLOCK
  8
0
  2
G42
 70
     0
 10
0
 20
0
  0
LINE
  8
0
 62
     7
  6
CONTINUOUS
 10
-1463.739862
 20
268.786486
 11
-1463.739862
 21
553.748668
  0
LINE
  8
0
 62
     7
  6
CONTINUOUS
 10
-1291.739862
 20
258.786486
 11
-1291.739862
 21
553.748668
  0
LINE
  8
0
 62
     7
  6
CONTINUOUS
 10
-1463.739862
 20
543.748668
 11
-1291.739862
 21
543.748668
  0
SOLID
  8
0
 62
     7
 10
-1435.050719
 20
552.519819
 11
-1435.050719
 21
534.977516
 12
-1463.739862
 22
543.748668
 13
-1463.739862
 23
543.748668
  0
SOLID
  8
0
 62
     7
 10
-1320.429004
 20
534.977516
 11
-1320.429004
 21
552.519819
 12
-1291.739862
 22
543.748668
 13
-1291.739862
 23
543.748668
  0
TEXT
  8
0
 62
     7
 10
-1435.739862
 20
549.081997
 40
32.000000
 50
0.000000E+00
 41
0.60 
  1
%%c172
 72
     5
 11
-1319.739862
 21
549.081997
  0
ENDBLK
  0
BLOCK
  8
0
  2
G43
 70
     0
 10
0
 20
0
  0
LINE
  8
0
 62
     7
  6
CONTINUOUS
 10
-1432.739862
 20
-556.972883
 11
-1432.739862
 21
-631.607049
  0
LINE
  8
0
 62
     7
  6
CONTINUOUS
 10
-1322.739862
 20
-556.972883
 11
-1322.739862
 21
-631.607049
  0
LINE
  8
0
 62
     7
  6
CONTINUOUS
 10
-1432.739862
 20
-621.607049
 11
-1322.739862
 21
-621.607049
  0
SOLID
  8
0
 62
     7
 10
-1404.050719
 20
-612.835898
 11
-1404.050719
 21
-630.378201
 12
-1432.739862
 22
-621.607049
 13
-1432.739862
 23
-621.607049
  0
SOLID
  8
0
 62
     7
 10
-1351.429004
 20
-630.378201
 11
-1351.429004
 21
-612.835898
 12
-1322.739862
 22
-621.607049
 13
-1322.739862
 23
-621.607049
  0
TEXT
  8
0
 62
     7
 10
-1435.739862
 20
-616.273720
 40
32.000000
 50
0.000000E+00
 41
0.60 
  1
%%c110
 72
     5
 11
-1319.739862
 21
-616.273720
  0
ENDBLK
  0
BLOCK
  8
0
  2
G44
 70
     0
 10
0
 20
0
  0
LINE
  8
0
 62
     7
  6
CONTINUOUS
 10
-1463.739862
 20
-293.100972
 11
-1463.739862
 21
-696.251332
  0
LINE
  8
0
 62
     7
  6
CONTINUOUS
 10
-1291.739862
 20
-283.100972
 11
-1291.739862
 21
-696.251332
  0
LINE
  8
0
 62
     7
  6
CONTINUOUS
 10
-1463.739862
 20
-686.251332
 11
-1291.739862
 21
-686.251332
  0
SOLID
  8
0
 62
     7
 10
-1435.050719
 20
-677.480181
 11
-1435.050719
 21
-695.022484
 12
-1463.739862
 22
-686.251332
 13
-1463.739862
 23
-686.251332
  0
SOLID
  8
0
 62
     7
 10
-1320.429004
 20
-695.022484
 11
-1320.429004
 21
-677.480181
 12
-1291.739862
 22
-686.251332
 13
-1291.739862
 23
-686.251332
  0
TEXT
  8
0
 62
     7
 10
-1435.739862
 20
-680.918003
 40
32.000000
 50
0.000000E+00
 41
0.60 
  1
%%c172
 72
     5
 11
-1319.739862
 21
-680.918003
  0
ENDBLK
  0
BLOCK
  8
0
  2
G45
 70
     0
 10
0
 20
0
  0
LINE
  8
0
 62
     2
  6
CONTINUOUS
 10
-461.000000
 20
597.000000
 11
-401.000000
 21
597.000000
  0
LINE
  8
0
 62
     2
  6
CONTINUOUS
 10
-401.000000
 20
493.000000
 11
-461.000000
 21
493.000000
  0
LINE
  8
0
 62
     2
  6
CONTINUOUS
 10
-401.000000
 20
600.000000
 11
-396.000000
 21
600.000000
  0
LINE
  8
0
 62
     2
  6
CONTINUOUS
 10
-401.000000
 20
490.000000
 11
-396.000000
 21
490.000000
  0
LINE
  8
0
 62
     2
  6
CONTINUOUS
 10
-401.000000
 20
490.000000
 11
-401.000000
 21
600.000000
  0
LINE
  8
0
 62
     2
  6
CONTINUOUS
 10
-396.000000
 20
490.000000
 11
-396.000000
 21
600.000000
  0
ENDBLK
  0
BLOCK
  8
0
  2
G46
 70
     0
 10
0
 20
0
  0
LINE
  8
0
 62
     2
  6
CONTINUOUS
 10
-501.000000
 20
390.000000
 11
-501.000000
 21
385.000000
  0
LINE
  8
0
 62
     2
  6
CONTINUOUS
 10
-611.000000
 20
390.000000
 11
-611.000000
 21
385.000000
  0
LINE
  8
0
 62
     2
  6
CONTINUOUS
 10
-504.034602
 20
390.000000
 11
-504.430290
 21
446.979167
  0
LINE
  8
0
 62
     2
  6
CONTINUOUS
 10
-607.965398
 20
390.000000
 11
-607.569710
 21
446.979167
  0
LINE
  8
0
 62
     2
  6
CONTINUOUS
 10
-611.000000
 20
390.000000
 11
-501.000000
 21
390.000000
  0
LINE
  8
0
 62
     2
  6
CONTINUOUS
 10
-501.000000
 20
385.000000
 11
-611.000000
 21
385.000000
  0
ENDBLK
  0
BLOCK
  8
0
  2
G47
 70
     0
 10
0
 20
0
  0
LINE
  8
0
 62
     7
  6
CONTINUOUS
 10
-611.000000
 20
375.000000
 11
-611.000000
 21
323.019379
  0
LINE
  8
0
 62
     7
  6
CONTINUOUS
 10
-501.000000
 20
375.000000
 11
-501.000000
 21
323.019379
  0
LINE
  8
0
 62
     7
  6
CONTINUOUS
 10
-611.000000
 20
333.019379
 11
-501.000000
 21
333.019379
  0
SOLID
  8
0
 62
     7
 10
-582.310857
 20
341.790530
 11
-582.310857
 21
324.248228
 12
-611.000000
 22
333.019379
 13
-611.000000
 23
333.019379
  0
SOLID
  8
0
 62
     7
 10
-529.689143
 20
324.248228
 11
-529.689143
 21
341.790530
 12
-501.000000
 22
333.019379
 13
-501.000000
 23
333.019379
  0
TEXT
  8
0
 62
     7
 10
-572.000000
 20
338.352709
 40
32.000000
 50
0.000000E+00
 41
0.86 
  1
Ａ
 72
     5
 11
-540.000000
 21
338.352709
  0
ENDBLK
  0
BLOCK
  8
0
  2
G48
 70
     0
 10
0
 20
0
  0
LINE
  8
0
 62
     7
  6
CONTINUOUS
 10
-386.000000
 20
600.000000
 11
-333.675308
 21
600.000000
  0
LINE
  8
0
 62
     7
  6
CONTINUOUS
 10
-386.000000
 20
490.000000
 11
-333.675308
 21
490.000000
  0
LINE
  8
0
 62
     7
  6
CONTINUOUS
 10
-343.675308
 20
600.000000
 11
-343.675308
 21
490.000000
  0
SOLID
  8
0
 62
     7
 10
-334.904157
 20
571.310857
 11
-352.446459
 21
571.310857
 12
-343.675308
 22
600.000000
 13
-343.675308
 23
600.000000
  0
SOLID
  8
0
 62
     7
 10
-352.446459
 20
518.689143
 11
-334.904157
 21
518.689143
 12
-343.675308
 22
490.000000
 13
-343.675308
 23
490.000000
  0
TEXT
  8
0
 62
     7
 10
-349.008638
 20
529.000000
 40
32.000000
 50
90.000000
 41
0.86 
  1
Ａ
 72
     5
 11
-349.008638
 21
561.000000
  0
ENDBLK
  0
ENDSEC
  0
SECTION
  2
ENTITIES
  0
LINE
  8
3
 62
     4
  6
CONTINUOUS
 10
-1460.539450
 20
-186.482684
 11
-1457.470568
 21
-185.069332
  0
LINE
  8
3
 62
     4
  6
CONTINUOUS
 10
-1457.470568
 20
-185.069332
 11
-1454.498973
 21
-182.754439
  0
LINE
  8
3
 62
     4
  6
CONTINUOUS
 10
-1454.498973
 20
-182.754439
 11
-1451.670777
 21
-179.573927
  0
LINE
  8
3
 62
     4
  6
CONTINUOUS
 10
-1451.670777
 20
-179.573927
 11
-1449.029870
 21
-175.577153
  0
LINE
  8
3
 62
     4
  6
CONTINUOUS
 10
-1449.029870
 20
-175.577153
 11
-1446.617233
 21
-170.826137
  0
LINE
  8
3
 62
     4
  6
CONTINUOUS
 10
-1446.617233
 20
-170.826137
 11
-1444.470304
 21
-165.394607
  0
LINE
  8
3
 62
     4
  6
CONTINUOUS
 10
-1444.470304
 20
-165.394607
 11
-1442.622401
 21
-159.366849
  0
LINE
  8
3
 62
     4
  6
CONTINUOUS
 10
-1442.622401
 20
-159.366849
 11
-1441.102198
 21
-152.836401
  0
LINE
  8
3
 62
     4
  6
CONTINUOUS
 10
-1441.102198
 20
-152.836401
 11
-1439.933286
 21
-145.904603
  0
LINE
  8
3
 62
     4
  6
CONTINUOUS
 10
-1439.933286
 20
-145.904603
 11
-1439.133805
 21
-138.679022
  0
LINE
  8
3
 62
     4
  6
CONTINUOUS
 10
-1439.933286
 20
-145.904603
 11
-1439.133805
 21
-138.679022
  0
ARC
  8
1
 62
     4
  6
CONTINUOUS
 10
-1271.938544
 20
-92.212691
 40
30.639745
 50
117.551999
 51
146.346996
  0
POINT
  8
3
 62
     7
 10
-1291.739862
 20
-66.972883
  0
POINT
  8
3
 62
     4
 10
-1291.739862
 20
-188.972883
  0
ARC
  8
3
 62
     4
  6
CONTINUOUS
 10
-1288.739862
 20
-191.972883
 40
3.000000
 50
90.000000
 51
180.000000
  0
LINE
  8
3
 62
     4
  6
CONTINUOUS
 10
-1284.739862
 20
-188.972883
 11
-1288.739862
 21
-188.972883
  0
ARC
  8
3
 62
     4
  6
CONTINUOUS
 10
-1284.739862
 20
-186.972883
 40
2.000000
 50
-90.000000
 51
0.000000E+00
  0
LINE
  8
3
 62
     4
  6
CONTINUOUS
 10
-1282.739862
 20
-186.972883
 11
-1282.739862
 21
-66.972883
  0
ARC
  8
3
 62
     4
  6
CONTINUOUS
 10
-1284.739862
 20
-66.972883
 40
2.000000
 50
0.000000E+00
 51
90.000000
  0
LINE
  8
3
 62
     4
  6
CONTINUOUS
 10
-1444.893237
 20
-81.972883
 11
-1420.389598
 21
-81.972883
  0
LINE
  8
0
 62
     2
  6
CONTINUOUS
 10
-1475.739862
 20
-31.471285
 11
-1475.739862
 21
-29.471285
  0
LINE
  8
0
 62
     2
  6
CONTINUOUS
 10
-1482.739862
 20
-28.471285
 11
-1377.739862
 21
-28.471285
  0
LINE
  8
0
 62
     2
  6
CONTINUOUS
 10
-1475.739862
 20
-31.471285
 11
-1279.739862
 21
-31.471285
  0
LINE
  8
0
 62
     2
  6
CONTINUOUS
 10
-1482.739862
 20
-28.471285
 11
-1482.739862
 21
-20.471285
  0
LINE
  8
0
 62
     3
  6
CONTINUOUS
 10
-1291.739862
 20
238.027117
 11
-1291.739862
 21
248.786486
  0
LINE
  8
3
 62
     3
  6
CONTINUOUS
 10
-1302.739862
 20
433.027117
 11
-1377.739862
 21
433.027117
  0
LINE
  8
3
 62
     3
  6
CONTINUOUS
 10
-1452.739862
 20
438.027117
 11
-1302.739862
 21
438.027117
  0
LINE
  8
3
 62
     3
  6
CONTINUOUS
 10
-1452.739862
 20
438.027117
 11
-1452.739862
 21
433.027117
  0
LINE
  8
0
 62
     3
  6
CONTINUOUS
 10
-1291.739862
 20
108.027117
 11
-1291.739862
 21
-13.471285
  0
ARC
  8
3
 62
     3
  6
CONTINUOUS
 10
-1315.739862
 20
361.027117
 40
10.000000
 50
-57.472862
 51
0.000000E+00
  0
LINE
  8
3
 62
     3
  6
CONTINUOUS
 10
-1449.739862
 20
428.444541
 11
-1449.739862
 21
361.027117
  0
LINE
  8
3
 62
     3
  6
CONTINUOUS
 10
-1305.739862
 20
428.444541
 11
-1305.739862
 21
361.027117
  0
ARC
  8
3
 62
     3
  6
CONTINUOUS
 10
-1439.739862
 20
361.027117
 40
10.000000
 50
180.000000
 51
238.038250
  0
LINE
  8
3
 62
     3
  6
CENTER
 10
-1211.806156
 20
173.027117
 11
-1547.824134
 21
173.027117
  0
LINE
  8
0
 62
     2
  6
CONTINUOUS
 10
-1279.739862
 20
-13.471285
 11
-1272.739862
 21
-20.471285
  0
ARC
  8
3
 62
     3
  6
CONTINUOUS
 10
-1454.739862
 20
428.444541
 40
5.000000
 50
0.000000E+00
 51
66.421822
  0
LINE
  8
3
 62
     3
  6
CONTINUOUS
 10
-1302.739862
 20
438.027117
 11
-1302.739862
 21
433.027117
  0
ARC
  8
0
 62
     3
  6
CONTINUOUS
 10
-1326.739862
 20
248.786486
 40
35.000000
 50
0.000000E+00
 51
17.716492
  0
ARC
  8
3
 62
     3
  6
CONTINUOUS
 10
-1300.739862
 20
428.444541
 40
5.000000
 50
113.578178
 51
180.000000
  0
LINE
  8
3
 62
     3
  6
CONTINUOUS
 10
-1300.000839
 20
255.903002
 11
-1377.739862
 21
255.903002
  0
ARC
  8
1
 62
     4
  6
CONTINUOUS
 10
-1284.739862
 20
-186.972883
 40
2.000000
 50
-90.000000
 51
0.000000E+00
  0
ARC
  8
1
 62
     4
  6
CONTINUOUS
 10
-1284.739862
 20
-66.972883
 40
2.000000
 50
0.000000E+00
 51
90.000000
  0
LINE
  8
1
 62
     4
  6
CONTINUOUS
 10
-1282.739862
 20
-66.972883
 11
-1282.739862
 21
-186.972883
  0
ARC
  8
3
 62
     4
  6
CONTINUOUS
 10
-1457.739862
 20
-400.844795
 40
25.000000
 50
0.000000E+00
 51
14.708304
  0
LINE
  8
3
 62
     4
  6
CONTINUOUS
 10
-1462.592945
 20
-281.987407
 11
-1433.559088
 21
-394.497342
  0
ARC
  8
3
 62
     4
  6
CONTINUOUS
 10
-1428.739862
 20
-273.100972
 40
35.000000
 50
180.000000
 51
194.708304
  0
LINE
  8
3
 62
     4
  6
CONTINUOUS
 10
-1432.739862
 20
-400.844795
 11
-1432.739862
 21
-544.972883
  0
ARC
  8
3
 62
     4
  6
CONTINUOUS
 10
-1297.739862
 20
-400.844795
 40
25.000000
 50
165.291696
 51
180.000000
  0
LINE
  8
3
 62
     4
  6
CONTINUOUS
 10
-1292.886778
 20
-281.987407
 11
-1321.920636
 21
-394.497342
  0
ARC
  8
3
 62
     4
  6
CONTINUOUS
 10
-1326.739862
 20
-273.100972
 40
35.000000
 50
-14.708304
 51
0.000000E+00
  0
LINE
  8
3
 62
     4
  6
CONTINUOUS
 10
-1322.739862
 20
-400.844795
 11
-1322.739862
 21
-544.972883
  0
LINE
  8
3
 62
     4
  6
CONTINUOUS
 10
-1324.739862
 20
-546.972883
 11
-1430.739862
 21
-546.972883
  0
LINE
  8
3
 62
     4
  6
CONTINUOUS
 10
-1427.990773
 20
-396.972883
 11
-1327.488951
 21
-396.972883
  0
LINE
  8
3
 62
     4
  6
CONTINUOUS
 10
-1458.488951
 20
-276.972883
 11
-1296.990773
 21
-276.972883
  0
LINE
  8
3
 62
     4
  6
CONTINUOUS
 10
-1463.739862
 20
-276.972883
 11
-1463.739862
 21
-191.972883
  0
LINE
  8
3
 62
     4
  6
CONTINUOUS
 10
-1284.739862
 20
-56.273521
 11
-1470.739862
 21
-56.273521
  0
LINE
  8
3
 62
     4
  6
CONTINUOUS
 10
-1291.739862
 20
-273.100972
 11
-1291.739862
 21
-191.972883
  0
LINE
  8
3
 62
     4
  6
CONTINUOUS
 10
-1481.739862
 20
-46.972883
 11
-1273.739862
 21
-46.972883
  0
LINE
  8
3
 62
     4
  6
CONTINUOUS
 10
-1272.739862
 20
-31.972883
 11
-1482.739862
 21
-31.972883
  0
ARC
  8
3
 62
     4
  6
CONTINUOUS
 10
-1430.739862
 20
-544.972883
 40
2.000000
 50
180.000000
 51
270.000000
  0
ARC
  8
3
 62
     4
  6
CONTINUOUS
 10
-1324.739862
 20
-544.972883
 40
2.000000
 50
-90.000000
 51
0.000000E+00
  0
LINE
  8
3
 62
     4
  6
CONTINUOUS
 10
-1272.739862
 20
-31.972883
 11
-1272.739862
 21
-46.972883
  0
LINE
  8
3
 62
     4
  6
CONTINUOUS
 10
-1273.739862
 20
-46.972883
 11
-1272.739862
 21
-46.972883
  0
LINE
  8
3
 62
     3
  6
CENTER
 10
-1456.228714
 20
-55.916452
 11
-1456.228714
 21
-25.425681
  0
LINE
  8
3
 62
     3
  6
CENTER
 10
-1299.251009
 20
-55.916452
 11
-1299.251009
 21
-25.425681
  0
ARC
  8
3
 62
     4
  6
CONTINUOUS
 10
-1273.739862
 20
-48.972883
 40
2.000000
 50
90.000000
 51
180.000000
  0
LINE
  8
3
 62
     4
  6
CONTINUOUS
 10
-1275.739862
 20
-48.972883
 11
-1275.739862
 21
-50.472883
  0
LINE
  8
3
 62
     4
  6
CONTINUOUS
 10
-1310.586486
 20
-81.972883
 11
-1335.090125
 21
-81.972883
  0
ARC
  8
3
 62
     4
  6
CONTINUOUS
 10
-1277.239862
 20
-50.472883
 40
1.500000
 50
-90.000000
 51
0.000000E+00
  0
LINE
  8
3
 62
     4
  6
CONTINUOUS
 10
-1277.239862
 20
-51.972883
 11
-1478.239862
 21
-51.972883
  0
LINE
  8
3
 62
     4
  6
CONTINUOUS
 10
-1281.180713
 20
-51.972883
 11
-1284.739862
 21
-56.273521
  0
LINE
  8
3
 62
     4
  6
CONTINUOUS
 10
-1284.739862
 20
-56.273521
 11
-1284.739862
 21
-64.972883
  0
LINE
  8
3
 62
     4
  6
CONTINUOUS
 10
-1470.739862
 20
-56.273521
 11
-1470.739862
 21
-64.972883
  0
LINE
  8
3
 62
     4
  6
CONTINUOUS
 10
-1474.299010
 20
-51.972883
 11
-1470.739862
 21
-56.273521
  0
ARC
  8
3
 62
     4
  6
CONTINUOUS
 10
-1478.239862
 20
-50.472883
 40
1.500000
 50
180.000000
 51
270.000000
  0
LINE
  8
3
 62
     4
  6
CONTINUOUS
 10
-1479.739862
 20
-48.972883
 11
-1479.739862
 21
-50.472883
  0
ARC
  8
3
 62
     4
  6
CONTINUOUS
 10
-1481.739862
 20
-48.972883
 40
2.000000
 50
0.000000E+00
 51
90.000000
  0
LINE
  8
3
 62
     4
  6
CONTINUOUS
 10
-1481.739862
 20
-46.972883
 11
-1482.739862
 21
-46.972883
  0
LINE
  8
3
 62
     4
  6
CONTINUOUS
 10
-1482.739862
 20
-31.972883
 11
-1482.739862
 21
-46.972883
  0
LINE
  8
0
 62
     3
  6
CONTINUOUS
 10
-1463.739862
 20
248.786486
 11
-1463.739862
 21
238.027117
  0
ARC
  8
0
 62
     3
  6
CONTINUOUS
 10
-1428.739862
 20
248.786486
 40
35.000000
 50
162.283508
 51
180.000000
  0
LINE
  8
3
 62
     3
  6
CONTINUOUS
 10
-1316.769878
 20
352.543100
 11
-1377.739862
 21
352.543100
  0
LINE
  8
0
 62
     3
  6
CONTINUOUS
 10
-1438.493178
 20
334.836132
 11
-1462.079949
 21
259.437240
  0
LINE
  8
0
 62
     3
  6
CONTINUOUS
 10
-1316.986545
 20
334.836132
 11
-1293.399774
 21
259.437240
  0
ARC
  8
2
 62
     3
  6
CONTINUOUS
 10
-1452.781787
 20
339.400741
 40
15.000000
 50
-17.716492
 51
59.888987
  0
LINE
  8
3
 62
     4
  6
CENTER
 10
-1377.739862
 20
-319.368262
 11
-1377.739862
 21
-7.290674
  0
LINE
  8
3
 62
     4
  6
CENTER
 10
-1377.739862
 20
-560.060403
 11
-1377.739862
 21
-319.368262
  0
LINE
  8
0
 62
     2
  6
CONTINUOUS
 10
-1475.739862
 20
-13.471285
 11
-1482.739862
 21
-20.471285
  0
LINE
  8
0
 62
     3
  6
CONTINUOUS
 10
-1463.739862
 20
108.027117
 11
-1463.739862
 21
-13.471285
  0
ARC
  8
2
 62
     3
  6
CONTINUOUS
 10
-1302.697936
 20
339.400741
 40
15.000000
 50
120.111013
 51
197.716492
  0
LINE
  8
3
 62
     3
  6
CONTINUOUS
 10
-1294.384056
 20
113.387137
 11
-1298.017657
 21
115.061817
  0
LINE
  8
3
 62
     3
  6
CONTINUOUS
 10
-1298.017657
 20
115.061817
 11
-1301.506711
 21
118.065583
  0
LINE
  8
3
 62
     3
  6
CONTINUOUS
 10
-1301.506711
 20
118.065583
 11
-1304.771216
 21
122.329561
  0
LINE
  8
3
 62
     3
  6
CONTINUOUS
 10
-1304.771216
 20
122.329561
 11
-1307.736321
 21
127.755983
  0
LINE
  8
3
 62
     3
  6
CONTINUOUS
 10
-1307.736321
 20
127.755983
 11
-1310.334039
 21
134.220426
  0
LINE
  8
3
 62
     3
  6
CONTINUOUS
 10
-1310.334039
 20
134.220426
 11
-1312.504807
 21
141.574668
  0
LINE
  8
3
 62
     3
  6
CONTINUOUS
 10
-1312.504807
 20
141.574668
 11
-1314.198851
 21
149.650083
  0
LINE
  8
3
 62
     3
  6
CONTINUOUS
 10
-1314.198851
 20
149.650083
 11
-1315.377328
 21
158.261509
  0
LINE
  8
3
 62
     3
  6
CONTINUOUS
 10
-1315.377328
 20
158.261509
 11
-1316.013218
 21
167.211496
  0
LINE
  8
3
 62
     3
  6
CONTINUOUS
 10
-1315.377328
 20
158.261509
 11
-1316.013218
 21
167.211496
  0
INSERT
  8
0
  2
G0
 10
0
 20
0
  0
LINE
  8
3
 62
     3
  6
CONTINUOUS
 10
-1293.926165
 20
232.780203
 11
-1297.621593
 21
231.243850
  0
LINE
  8
3
 62
     3
  6
CONTINUOUS
 10
-1297.621593
 20
231.243850
 11
-1301.177791
 21
228.335574
  0
LINE
  8
3
 62
     3
  6
CONTINUOUS
 10
-1301.177791
 20
228.335574
 11
-1304.510956
 21
224.123910
  0
LINE
  8
3
 62
     3
  6
CONTINUOUS
 10
-1304.510956
 20
224.123910
 11
-1307.542539
 21
218.708111
  0
LINE
  8
3
 62
     3
  6
CONTINUOUS
 10
-1307.542539
 20
218.708111
 11
-1310.201098
 21
212.215803
  0
LINE
  8
3
 62
     3
  6
CONTINUOUS
 10
-1310.201098
 20
212.215803
 11
-1312.423983
 21
204.799983
  0
LINE
  8
3
 62
     3
  6
CONTINUOUS
 10
-1312.423983
 20
204.799983
 11
-1314.158808
 21
196.635411
  0
LINE
  8
3
 62
     3
  6
CONTINUOUS
 10
-1314.158808
 20
196.635411
 11
-1315.364693
 21
187.914490
  0
LINE
  8
3
 62
     3
  6
CONTINUOUS
 10
-1315.364693
 20
187.914490
 11
-1316.013218
 21
178.842737
  0
LINE
  8
3
 62
     3
  6
CONTINUOUS
 10
-1315.364693
 20
187.914490
 11
-1316.013218
 21
178.842737
  0
LINE
  8
0
 62
     7
  6
CONTINUOUS
 10
-1230.260304
 20
279.111644
 11
-1230.260304
 21
237.327305
  0
SOLID
  8
0
 62
     7
 10
-1238.024875
 20
266.305080
 11
-1222.495733
 21
266.305080
 12
-1230.260304
 22
237.327305
 13
-1230.260304
 23
237.327305
  0
INSERT
  8
0
  2
G1
 10
0
 20
0
  0
TEXT
  8
0
 62
     6
 10
-1298.933805
 20
1169.451072
 40
32.000000
 50
0.000000E+00
 41
0.86 
  1
ａ
 72
     5
 11
-1266.933805
 21
1169.451072
  0
INSERT
  8
0
  2
G2
 10
0
 20
0
  0
INSERT
  8
0
  2
G3
 10
0
 20
0
  0
LINE
  8
0
 62
     3
  6
CONTINUOUS
 10
-736.954429
 20
390.484852
 11
-736.954429
 21
309.958537
  0
SOLID
  8
0
 62
     3
 10
-729.189857
 20
361.507078
 11
-744.719000
 21
361.507078
 12
-736.954429
 22
390.484852
 13
-736.954429
 23
390.484852
  0
TEXT
  8
0
 62
     7
 10
-1268.603372
 20
286.390527
 40
32.000000
 50
0.000000E+00
 41
0.78 
  1
７５枝管
 72
     5
 11
-1156.603372
 21
286.390527
  0
LINE
  8
3
 62
     4
  6
CONTINUOUS
 10
-1446.278439
 20
-83.890495
 11
-1445.108535
 21
-86.791012
  0
LINE
  8
3
 62
     4
  6
CONTINUOUS
 10
-1445.108535
 20
-86.791012
 11
-1444.022686
 21
-89.872809
  0
LINE
  8
3
 62
     4
  6
CONTINUOUS
 10
-1444.022686
 20
-89.872809
 11
-1443.025791
 21
-93.121981
  0
LINE
  8
3
 62
     4
  6
CONTINUOUS
 10
-1443.025791
 20
-93.121981
 11
-1442.122346
 21
-96.523870
  0
LINE
  8
3
 62
     4
  6
CONTINUOUS
 10
-1442.122346
 20
-96.523870
 11
-1441.316427
 21
-100.063128
  0
LINE
  8
3
 62
     4
  6
CONTINUOUS
 10
-1441.316427
 20
-100.063128
 11
-1440.611671
 21
-103.723789
  0
LINE
  8
3
 62
     4
  6
CONTINUOUS
 10
-1440.611671
 20
-103.723789
 11
-1440.011257
 21
-107.489336
  0
LINE
  8
3
 62
     4
  6
CONTINUOUS
 10
-1440.011257
 20
-107.489336
 11
-1439.517893
 21
-111.342783
  0
LINE
  8
3
 62
     4
  6
CONTINUOUS
 10
-1439.517893
 20
-111.342783
 11
-1439.133805
 21
-115.266745
  0
LINE
  8
3
 62
     4
  6
CONTINUOUS
 10
-1439.517893
 20
-111.342783
 11
-1439.133805
 21
-115.266745
  0
ARC
  8
3
 62
     4
  6
CONTINUOUS
 10
-1437.868044
 20
-55.024384
 40
28.500781
 50
225.057601
 51
244.512889
  0
POINT
  8
3
 62
     7
 10
-1463.739862
 20
-66.972883
  0
ARC
  8
3
 62
     4
  6
CONTINUOUS
 10
-1317.611679
 20
-55.024384
 40
28.500781
 50
295.487111
 51
314.942399
  0
ARC
  8
1
 62
     4
  6
CONTINUOUS
 10
-1470.739862
 20
-186.972883
 40
2.000000
 50
180.000000
 51
270.000000
  0
ARC
  8
1
 62
     4
  6
CONTINUOUS
 10
-1470.739862
 20
-66.972883
 40
2.000000
 50
90.000000
 51
180.000000
  0
ARC
  8
1
 62
     4
  6
CONTINUOUS
 10
-1466.739862
 20
-191.972883
 40
3.000000
 50
0.000000E+00
 51
90.000000
  0
LINE
  8
1
 62
     4
  6
CONTINUOUS
 10
-1466.739862
 20
-188.972883
 11
-1470.739862
 21
-188.972883
  0
ARC
  8
1
 62
     4
  6
CONTINUOUS
 10
-1483.541179
 20
-92.212691
 40
30.639745
 50
33.671563
 51
62.448001
  0
LINE
  8
1
 62
     4
  6
CONTINUOUS
 10
-1472.739862
 20
-66.972883
 11
-1472.739862
 21
-186.972883
  0
LINE
  8
3
 62
     4
  6
CONTINUOUS
 10
-1309.201285
 20
-83.890495
 11
-1310.257896
 21
-86.492581
  0
LINE
  8
3
 62
     4
  6
CONTINUOUS
 10
-1310.257896
 20
-86.492581
 11
-1311.246832
 21
-89.242603
  0
LINE
  8
3
 62
     4
  6
CONTINUOUS
 10
-1311.246832
 20
-89.242603
 11
-1312.164480
 21
-92.130513
  0
LINE
  8
3
 62
     4
  6
CONTINUOUS
 10
-1312.164480
 20
-92.130513
 11
-1313.007484
 21
-95.145756
  0
LINE
  8
3
 62
     4
  6
CONTINUOUS
 10
-1313.007484
 20
-95.145756
 11
-1313.772766
 21
-98.277312
  0
LINE
  8
3
 62
     4
  6
CONTINUOUS
 10
-1313.772766
 20
-98.277312
 11
-1314.457527
 21
-101.513737
  0
LINE
  8
3
 62
     4
  6
CONTINUOUS
 10
-1314.457527
 20
-101.513737
 11
-1315.059265
 21
-104.843204
  0
LINE
  8
3
 62
     4
  6
CONTINUOUS
 10
-1315.059265
 20
-104.843204
 11
-1315.575782
 21
-108.253545
  0
LINE
  8
3
 62
     4
  6
CONTINUOUS
 10
-1315.575782
 20
-108.253545
 11
-1316.005189
 21
-111.732296
  0
LINE
  8
3
 62
     4
  6
CONTINUOUS
 10
-1316.005189
 20
-111.732296
 11
-1316.345918
 21
-115.266745
  0
LINE
  8
3
 62
     4
  6
CONTINUOUS
 10
-1316.005189
 20
-111.732296
 11
-1316.345918
 21
-115.266745
  0
LINE
  8
3
 62
     4
  6
CONTINUOUS
 10
-1294.940273
 20
-186.482684
 11
-1298.009156
 21
-185.069332
  0
LINE
  8
3
 62
     4
  6
CONTINUOUS
 10
-1298.009156
 20
-185.069332
 11
-1300.980751
 21
-182.754439
  0
LINE
  8
3
 62
     4
  6
CONTINUOUS
 10
-1300.980751
 20
-182.754439
 11
-1303.808946
 21
-179.573927
  0
LINE
  8
3
 62
     4
  6
CONTINUOUS
 10
-1303.808946
 20
-179.573927
 11
-1306.449853
 21
-175.577153
  0
LINE
  8
3
 62
     4
  6
CONTINUOUS
 10
-1306.449853
 20
-175.577153
 11
-1308.862491
 21
-170.826137
  0
LINE
  8
3
 62
     4
  6
CONTINUOUS
 10
-1308.862491
 20
-170.826137
 11
-1311.009419
 21
-165.394607
  0
LINE
  8
3
 62
     4
  6
CONTINUOUS
 10
-1311.009419
 20
-165.394607
 11
-1312.857323
 21
-159.366849
  0
LINE
  8
3
 62
     4
  6
CONTINUOUS
 10
-1312.857323
 20
-159.366849
 11
-1314.377525
 21
-152.836401
  0
LINE
  8
3
 62
     4
  6
CONTINUOUS
 10
-1314.377525
 20
-152.836401
 11
-1315.546437
 21
-145.904603
  0
LINE
  8
3
 62
     4
  6
CONTINUOUS
 10
-1315.546437
 20
-145.904603
 11
-1316.345918
 21
-138.679022
  0
LINE
  8
3
 62
     4
  6
CONTINUOUS
 10
-1315.546437
 20
-145.904603
 11
-1316.345918
 21
-138.679022
  0
POINT
  8
0
 62
     3
 10
-1377.739862
 20
-39.972883
  0
POINT
  8
0
 62
     3
 10
-1377.739862
 20
-54.472883
  0
POINT
  8
0
 62
     3
 10
-1377.739862
 20
-76.972883
  0
ARC
  8
0
 62
     2
  6
CONTINUOUS
 10
-1476.739862
 20
-29.471285
 40
1.000000
 50
360.000000
 51
450.000000
  0
LINE
  8
0
 62
     2
  6
CONTINUOUS
 10
-1475.739862
 20
-13.471285
 11
-1279.739862
 21
-13.471285
  0
LINE
  8
3
 62
     3
  6
CONTINUOUS
 10
-1222.739862
 20
110.527117
 11
-1222.739862
 21
233.027117
  0
LINE
  8
3
 62
     3
  6
CONTINUOUS
 10
-1222.739862
 20
110.527117
 11
-1217.739862
 21
110.527117
  0
LINE
  8
3
 62
     3
  6
CONTINUOUS
 10
-1222.739862
 20
233.027117
 11
-1282.739862
 21
233.027117
  0
ARC
  8
1
 62
     3
  6
CONTINUOUS
 10
-1284.739862
 20
113.027117
 40
2.000000
 50
-90.000000
 51
0.000000E+00
  0
LINE
  8
3
 62
     3
  6
CONTINUOUS
 10
-1222.739862
 20
113.027117
 11
-1282.739862
 21
113.027117
  0
LINE
  8
3
 62
     3
  6
CONTINUOUS
 10
-1222.739862
 20
235.527117
 11
-1217.739862
 21
235.527117
  0
LINE
  8
3
 62
     3
  6
CONTINUOUS
 10
-1222.739862
 20
235.527117
 11
-1222.739862
 21
233.027117
  0
LINE
  8
3
 62
     3
  6
CONTINUOUS
 10
-1217.739862
 20
235.527117
 11
-1217.739862
 21
110.527117
  0
LINE
  8
1
 62
     3
  6
CONTINUOUS
 10
-1284.739862
 20
235.027117
 11
-1288.739862
 21
235.027117
  0
LINE
  8
1
 62
     3
  6
CONTINUOUS
 10
-1284.739862
 20
111.027117
 11
-1288.739862
 21
111.027117
  0
ARC
  8
1
 62
     3
  6
CONTINUOUS
 10
-1284.739862
 20
233.027117
 40
2.000000
 50
0.000000E+00
 51
90.000000
  0
ARC
  8
1
 62
     3
  6
CONTINUOUS
 10
-1288.739862
 20
238.027117
 40
3.000000
 50
180.000000
 51
270.000000
  0
ARC
  8
1
 62
     3
  6
CONTINUOUS
 10
-1288.739862
 20
108.027117
 40
3.000000
 50
90.000000
 51
180.000000
  0
ARC
  8
0
 62
     3
  6
CONTINUOUS
 10
-1326.739862
 20
248.786486
 40
35.000000
 50
0.000000E+00
 51
17.716492
  0
LINE
  8
0
 62
     3
  6
CONTINUOUS
 10
-1291.739862
 20
248.786486
 11
-1291.739862
 21
238.027117
  0
LINE
  8
0
 62
     2
  6
CONTINUOUS
 10
-1482.739862
 20
-20.471285
 11
-1377.739862
 21
-20.471285
  0
LINE
  8
3
 62
     3
  6
CENTER
 10
-1377.739862
 20
445.501565
 11
-1377.739862
 21
-7.290674
  0
LINE
  8
3
 62
     3
  6
CONTINUOUS
 10
-1455.478884
 20
255.903002
 11
-1377.739862
 21
255.903002
  0
LINE
  8
3
 62
     3
  6
CONTINUOUS
 10
-1438.709846
 20
352.543100
 11
-1377.739862
 21
352.543100
  0
LINE
  8
3
 62
     3
  6
CONTINUOUS
 10
-1452.739862
 20
433.027117
 11
-1377.739862
 21
433.027117
  0
POINT
  8
0
 62
     3
 10
-1377.739862
 20
363.027117
  0
TEXT
  8
0
 62
     6
 10
-1663.166393
 20
1078.812443
 40
35.000000
 50
0.000000E+00
 41
0.76 
  1
４ＳＦ－　　　－　　　　　　　　　００－Ｐ
 72
     5
 11
-1026.166393
 21
1078.812443
  0
INSERT
  8
0
  2
G4
 10
0
 20
0
  0
LINE
  8
0
 62
     1
  6
CONTINUOUS
 10
-461.000000
 20
610.638816
 11
-461.000000
 21
691.624747
  0
LINE
  8
0
 62
     2
  6
CONTINUOUS
 10
-1272.739862
 20
-28.471285
 11
-1272.739862
 21
-20.471285
  0
LINE
  8
0
 62
     2
  6
CONTINUOUS
 10
-1279.739862
 20
-31.471285
 11
-1279.739862
 21
-29.471285
  0
ARC
  8
0
 62
     2
  6
CONTINUOUS
 10
-1278.739862
 20
-29.471285
 40
1.000000
 50
90.000000
 51
180.000000
  0
LINE
  8
0
 62
     2
  6
CONTINUOUS
 10
-1272.739862
 20
-20.471285
 11
-1377.739862
 21
-20.471285
  0
LINE
  8
0
 62
     2
  6
CONTINUOUS
 10
-1272.739862
 20
-28.471285
 11
-1377.739862
 21
-28.471285
  0
INSERT
  8
0
  2
G5
 10
0
 20
0
  0
INSERT
  8
0
  2
G6
 10
0
 20
0
  0
INSERT
  8
0
  2
G7
 10
0
 20
0
  0
INSERT
  8
0
  2
G8
 10
0
 20
0
  0
INSERT
  8
0
  2
G9
 10
0
 20
0
  0
INSERT
  8
0
  2
G10
 10
0
 20
0
  0
LINE
  8
0
 62
     3
  6
CONTINUOUS
 10
-978.581081
 20
483.197829
 11
-978.581081
 21
430.404878
  0
SOLID
  8
0
 62
     3
 10
-986.345652
 20
459.382653
 11
-970.816510
 21
459.382653
 12
-978.581081
 22
430.404878
 13
-978.581081
 23
430.404878
  0
ARC
  8
0
 62
     4
  6
CONTINUOUS
 10
-556.000000
 20
545.000000
 40
100.000000
 50
126.038338
 51
143.961662
  0
ARC
  8
3
 62
     3
  6
CONTINUOUS
 10
-556.000000
 20
545.000000
 40
105.000000
 50
170.096801
 51
190.978618
  0
ARC
  8
0
 62
     4
  6
CONTINUOUS
 10
-556.000000
 20
545.000000
 40
100.000000
 50
36.038338
 51
53.961662
  0
ARC
  8
0
 62
     4
  6
CONTINUOUS
 10
-556.000000
 20
545.000000
 40
100.000000
 50
306.038338
 51
323.961662
  0
CIRCLE
  8
3
 62
     4
  6
CONTINUOUS
 10
-556.000000
 20
545.000000
 40
88.000000
  0
LINE
  8
3
 62
     3
  6
CONTINUOUS
 10
-1461.553558
 20
232.780203
 11
-1458.222826
 21
231.460076
  0
LINE
  8
3
 62
     3
  6
CONTINUOUS
 10
-1458.222826
 20
231.460076
 11
-1454.997947
 21
229.024148
  0
LINE
  8
3
 62
     3
  6
CONTINUOUS
 10
-1454.997947
 20
229.024148
 11
-1451.940503
 21
225.518932
  0
LINE
  8
3
 62
     3
  6
CONTINUOUS
 10
-1451.940503
 20
225.518932
 11
-1449.108876
 21
221.011363
  0
LINE
  8
3
 62
     3
  6
CONTINUOUS
 10
-1449.108876
 20
221.011363
 11
-1446.557137
 21
215.587514
  0
LINE
  8
3
 62
     3
  6
CONTINUOUS
 10
-1446.557137
 20
215.587514
 11
-1444.334012
 21
209.350956
  0
LINE
  8
3
 62
     3
  6
CONTINUOUS
 10
-1444.334012
 20
209.350956
 11
-1442.481955
 21
202.420778
  0
LINE
  8
3
 62
     3
  6
CONTINUOUS
 10
-1442.481955
 20
202.420778
 11
-1441.036329
 21
194.929317
  0
LINE
  8
3
 62
     3
  6
CONTINUOUS
 10
-1441.036329
 20
194.929317
 11
-1440.024740
 21
187.019623
  0
LINE
  8
3
 62
     3
  6
CONTINUOUS
 10
-1440.024740
 20
187.019623
 11
-1439.466506
 21
178.842737
  0
LINE
  8
3
 62
     3
  6
CONTINUOUS
 10
-1440.024740
 20
187.019623
 11
-1439.466506
 21
178.842737
  0
ARC
  8
3
 62
     4
  6
CONTINUOUS
 10
-556.000000
 20
545.000000
 40
100.000000
 50
143.109614
 51
216.890386
  0
LINE
  8
3
 62
     4
  6
CONTINUOUS
 10
-647.250931
 20
625.964607
 11
-659.453628
 21
563.061853
  0
ARC
  8
3
 62
     3
  6
CONTINUOUS
 10
-556.000000
 20
545.000000
 40
105.000000
 50
-10.978618
 51
9.903199
  0
ARC
  8
3
 62
     3
  6
CONTINUOUS
 10
-556.000000
 20
545.000000
 40
105.000000
 50
260.096801
 51
279.903199
  0
LINE
  8
3
 62
     4
  6
CONTINUOUS
 10
-647.250931
 20
464.035393
 11
-659.453628
 21
526.938147
  0
LINE
  8
3
 62
     3
  6
CENTER
 10
-487.288243
 20
476.288243
 11
-466.607067
 21
455.607067
  0
LINE
  8
3
 62
     4
  6
CONTINUOUS
 10
-636.964607
 20
453.749069
 11
-574.061853
 21
441.546372
  0
ARC
  8
3
 62
     4
  6
CENTER
 10
-556.000000
 20
545.000000
 40
111.000000
 50
306.265016
 51
322.275712
  0
LINE
  8
3
 62
     3
  6
CENTER
 10
-623.637531
 20
477.362469
 11
-646.149487
 21
454.850513
  0
ARC
  8
3
 62
     4
  6
CENTER
 10
-556.000000
 20
545.000000
 40
111.000000
 50
216.069475
 51
234.182385
  0
ARC
  8
3
 62
     4
  6
CENTER
 10
-556.000000
 20
545.000000
 40
111.000000
 50
124.449115
 51
144.970079
  0
LINE
  8
3
 62
     4
  6
CONTINUOUS
 10
-475.035393
 20
453.749069
 11
-537.938147
 21
441.546372
  0
LINE
  8
3
 62
     4
  6
CONTINUOUS
 10
-575.996478
 20
648.078324
 11
-636.964607
 21
636.250931
  0
LINE
  8
3
 62
     3
  6
CENTER
 10
-623.991228
 20
612.991228
 11
-645.941928
 21
634.941928
  0
LINE
  8
3
 62
     4
  6
CONTINUOUS
 10
-464.749069
 20
464.035393
 11
-452.921676
 21
525.003522
  0
ARC
  8
3
 62
     4
  6
CONTINUOUS
 10
-477.511147
 20
466.511147
 40
13.000000
 50
280.978618
 51
349.021382
  0
ARC
  8
3
 62
     4
  6
CONTINUOUS
 10
-634.488853
 20
466.511147
 40
13.000000
 50
190.978618
 51
259.021382
  0
ARC
  8
3
 62
     4
  6
CONTINUOUS
 10
-634.488853
 20
623.488853
 40
13.000000
 50
100.978618
 51
169.021382
  0
LINE
  8
3
 62
     3
  6
CENTER
 10
-488.014135
 20
612.985865
 11
-466.273441
 21
634.726559
  0
LINE
  8
3
 62
     4
  6
CONTINUOUS
 10
-464.749069
 20
625.964607
 11
-452.546372
 21
563.061853
  0
LINE
  8
3
 62
     4
  6
CONTINUOUS
 10
-475.035393
 20
636.250931
 11
-536.003522
 21
648.078324
  0
ARC
  8
3
 62
     3
  6
CONTINUOUS
 10
-556.000000
 20
545.000000
 40
105.000000
 50
79.021382
 51
100.978618
  0
CIRCLE
  8
3
 62
     3
  6
CONTINUOUS
 10
-556.000000
 20
545.000000
 40
81.000000
  0
ARC
  8
3
 62
     4
  6
CONTINUOUS
 10
-477.511147
 20
623.488853
 40
13.000000
 50
10.978618
 51
79.021382
  0
LINE
  8
3
 62
     3
  6
CENTER
 10
-387.959938
 20
545.000000
 11
-675.895985
 21
545.000000
  0
LINE
  8
3
 62
     3
  6
CENTER
 10
-556.000000
 20
370.714592
 11
-556.000000
 21
658.766137
  0
CIRCLE
  8
3
 62
     4
  6
CONTINUOUS
 10
-634.488853
 20
623.488853
 40
7.000000
  0
CIRCLE
  8
3
 62
     4
  6
CONTINUOUS
 10
-477.511147
 20
623.488853
 40
7.000000
  0
CIRCLE
  8
3
 62
     4
  6
CONTINUOUS
 10
-477.511147
 20
466.511147
 40
7.000000
  0
CIRCLE
  8
3
 62
     4
  6
CONTINUOUS
 10
-634.488853
 20
466.511147
 40
7.000000
  0
ARC
  8
3
 62
     4
  6
CENTER
 10
-556.000000
 20
545.000000
 40
111.000000
 50
37.018997
 51
55.489571
  0
ARC
  8
3
 62
     4
  6
CONTINUOUS
 10
-556.000000
 20
545.000000
 40
100.000000
 50
53.109614
 51
126.890386
  0
ARC
  8
3
 62
     4
  6
CONTINUOUS
 10
-556.000000
 20
545.000000
 40
100.000000
 50
323.109614
 51
396.890386
  0
ARC
  8
3
 62
     4
  6
CONTINUOUS
 10
-556.000000
 20
545.000000
 40
100.000000
 50
233.109614
 51
306.890386
  0
ARC
  8
0
 62
     4
  6
CONTINUOUS
 10
-556.000000
 20
545.000000
 40
100.000000
 50
216.038338
 51
233.961662
  0
TEXT
  8
0
 62
     6
 10
-1480.183521
 20
1078.910129
 40
35.000000
 50
0.000000E+00
 41
0.86 
  1
Ｂ
 72
     5
 11
-1445.183521
 21
1078.910129
  0
TEXT
  8
0
 62
     6
 10
-1359.509580
 20
1079.910129
 40
35.000000
 50
0.000000E+00
 41
0.86 
  1
Ｃ
 72
     5
 11
-1324.509580
 21
1079.910129
  0
TEXT
  8
0
 62
     6
 10
-1388.009580
 20
1144.959535
 40
32.000000
 50
0.000000E+00
 41
0.97 
  1
下部
 72
     5
 11
-1316.009580
 21
1144.959535
  0
TEXT
  8
0
 62
     6
 10
-1508.009580
 20
1144.959535
 40
32.000000
 50
0.000000E+00
 41
0.97 
  1
上部
 72
     5
 11
-1436.009580
 21
1144.959535
  0
INSERT
  8
0
  2
G11
 10
0
 20
0
  0
INSERT
  8
0
  2
G12
 10
0
 20
0
  0
LINE
  8
0
 62
     1
  6
CONTINUOUS
 10
-1140.662948
 20
173.027117
 11
-1123.786954
 21
173.027117
  0
LINE
  8
0
 62
     1
  6
CONTINUOUS
 10
-1010.662948
 20
173.027117
 11
-1066.259640
 21
173.027117
  0
INSERT
  8
0
  2
G13
 10
0
 20
0
  0
INSERT
  8
0
  2
G14
 10
0
 20
0
  0
INSERT
  8
0
  2
G15
 10
0
 20
0
  0
INSERT
  8
0
  2
G16
 10
0
 20
0
  0
INSERT
  8
0
  2
G17
 10
0
 20
0
  0
INSERT
  8
0
  2
G18
 10
0
 20
0
  0
INSERT
  8
0
  2
G19
 10
0
 20
0
  0
LINE
  8
0
 62
     1
  6
CONTINUOUS
 10
-1202.263693
 20
726.948109
 11
-1181.941592
 21
726.948109
  0
LINE
  8
0
 62
     1
  6
CONTINUOUS
 10
-1135.439666
 20
726.948109
 11
-1070.662948
 21
726.948109
  0
INSERT
  8
0
  2
G20
 10
0
 20
0
  0
LINE
  8
0
 62
     3
  6
CONTINUOUS
 10
-1228.106547
 20
894.128306
 11
-1134.428755
 21
894.128306
  0
SOLID
  8
0
 62
     3
 10
-1199.128772
 20
901.892877
 11
-1199.128772
 21
886.363734
 12
-1228.106547
 22
894.128306
 13
-1228.106547
 23
894.128306
  0
LINE
  8
0
 62
     3
  6
CONTINUOUS
 10
-1134.428755
 20
894.128306
 11
-1134.428755
 21
931.195058
  0
INSERT
  8
0
  2
G21
 10
0
 20
0
  0
LINE
  8
0
 62
     3
  6
CONTINUOUS
 10
-1531.043004
 20
895.981643
 11
-1603.828626
 21
895.981643
  0
SOLID
  8
0
 62
     3
 10
-1560.020779
 20
888.217072
 11
-1560.020779
 21
903.746214
 12
-1531.043004
 22
895.981643
 13
-1531.043004
 23
895.981643
  0
LINE
  8
3
 62
     3
  6
CONTINUOUS
 10
-1532.739862
 20
786.948109
 11
-1472.739862
 21
786.948109
  0
LINE
  8
3
 62
     3
  6
CONTINUOUS
 10
-1532.739862
 20
666.948109
 11
-1472.739862
 21
666.948109
  0
INSERT
  8
0
  2
G22
 10
0
 20
0
  0
TEXT
  8
0
 62
     6
 10
-1238.933805
 20
1169.451072
 40
32.000000
 50
0.000000E+00
 41
0.86 
  1
ｂ
 72
     5
 11
-1206.933805
 21
1169.451072
  0
CIRCLE
  8
0
 62
     6
  6
HIDDEN
 10
-1223.802953
 20
1093.777279
 40
20.000000
  0
TEXT
  8
0
 62
     6
 10
-1231.802953
 20
1077.777279
 40
32.000000
 50
0.000000E+00
 41
0.50 
  1
2
 72
     5
 11
-1215.802953
 21
1077.777279
  0
CIRCLE
  8
0
 62
     6
  6
HIDDEN
 10
-1223.802953
 20
1141.810698
 40
20.000000
  0
TEXT
  8
0
 62
     6
 10
-1231.802953
 20
1125.810698
 40
32.000000
 50
0.000000E+00
 41
0.50 
  1
1
 72
     5
 11
-1215.802953
 21
1125.810698
  0
TEXT
  8
0
 62
     6
 10
-501.793661
 20
936.134541
 40
32.000000
 50
0.000000E+00
 41
0.50 
  1
3
 72
     5
 11
-485.793661
 21
936.134541
  0
INSERT
  8
0
  2
G23
 10
0
 20
0
  0
TEXT
  8
0
 62
     6
 10
-501.793661
 20
996.134541
 40
32.000000
 50
0.000000E+00
 41
0.50 
  1
2
 72
     5
 11
-485.793661
 21
996.134541
  0
TEXT
  8
0
 62
     6
 10
-501.793661
 20
1056.134541
 40
32.000000
 50
0.000000E+00
 41
0.50 
  1
1
 72
     5
 11
-485.793661
 21
1056.134541
  0
TEXT
  8
0
 62
     6
 10
-470.705692
 20
939.530401
 40
32.000000
 50
0.000000E+00
 41
0.74 
  1
：％％ｃ７５枝管
 72
     5
 11
-258.705692
 21
939.530401
  0
TEXT
  8
0
 62
     6
 10
-470.705692
 20
999.530401
 40
32.000000
 50
0.000000E+00
 41
0.74 
  1
：％％ｃ６５枝管
 72
     5
 11
-258.705692
 21
999.530401
  0
TEXT
  8
0
 62
     6
 10
-470.705692
 20
1059.530401
 40
32.000000
 50
0.000000E+00
 41
0.74 
  1
：％％ｃ５０枝管
 72
     5
 11
-258.705692
 21
1059.530401
  0
TEXT
  8
0
 62
     6
 10
-568.581501
 20
1112.505821
 40
32.000000
 50
0.000000E+00
 41
0.97 
  1
枝管のタイプ（呼び径）
 72
     5
 11
-172.581501
 21
1112.505821
  0
LINE
  8
3
 62
     3
  6
CONTINUOUS
 10
-1532.739862
 20
789.448109
 11
-1532.739862
 21
666.948109
  0
LINE
  8
3
 62
     3
  6
CONTINUOUS
 10
-1532.739862
 20
789.448109
 11
-1537.739862
 21
789.448109
  0
LINE
  8
3
 62
     3
  6
CONTINUOUS
 10
-1532.739862
 20
664.448109
 11
-1537.739862
 21
664.448109
  0
LINE
  8
3
 62
     3
  6
CONTINUOUS
 10
-1532.739862
 20
664.448109
 11
-1532.739862
 21
666.948109
  0
LINE
  8
3
 62
     3
  6
CENTER
 10
-1377.739862
 20
628.506949
 11
-1377.739862
 21
822.063624
  0
LINE
  8
3
 62
     3
  6
CENTER
 10
-1212.263693
 20
726.948109
 11
-1543.847882
 21
726.948109
  0
CIRCLE
  8
0
 62
     3
  6
CONTINUOUS
 10
-1377.739862
 20
726.948109
 40
75.000000
  0
CIRCLE
  8
0
 62
     3
  6
CONTINUOUS
 10
-1377.739862
 20
726.948109
 40
86.500000
  0
LINE
  8
3
 62
     3
  6
CONTINUOUS
 10
-1222.739862
 20
666.948109
 11
-1282.739862
 21
666.948109
  0
LINE
  8
3
 62
     3
  6
CONTINUOUS
 10
-1222.739862
 20
789.448109
 11
-1222.739862
 21
666.948109
  0
LINE
  8
3
 62
     3
  6
CONTINUOUS
 10
-1222.739862
 20
789.448109
 11
-1217.739862
 21
789.448109
  0
LINE
  8
3
 62
     3
  6
CONTINUOUS
 10
-1222.739862
 20
664.448109
 11
-1217.739862
 21
664.448109
  0
LINE
  8
3
 62
     3
  6
CONTINUOUS
 10
-1222.739862
 20
664.448109
 11
-1222.739862
 21
666.948109
  0
LINE
  8
3
 62
     3
  6
CONTINUOUS
 10
-1217.739862
 20
664.448109
 11
-1217.739862
 21
789.448109
  0
LINE
  8
3
 62
     3
  6
CONTINUOUS
 10
-1222.739862
 20
786.948109
 11
-1282.739862
 21
786.948109
  0
LINE
  8
0
 62
     3
  6
CONTINUOUS
 10
-1282.739862
 20
666.948109
 11
-1282.739862
 21
786.948109
  0
LINE
  8
0
 62
     3
  6
CONTINUOUS
 10
-1284.739862
 20
664.948109
 11
-1312.739862
 21
664.948109
  0
ARC
  8
0
 62
     3
  6
CONTINUOUS
 10
-1284.739862
 20
666.948109
 40
2.000000
 50
-90.000000
 51
0.000000E+00
  0
LINE
  8
0
 62
     3
  6
CONTINUOUS
 10
-1284.739862
 20
788.948109
 11
-1317.421954
 21
788.948109
  0
ARC
  8
0
 62
     3
  6
CONTINUOUS
 10
-1284.739862
 20
786.948109
 40
2.000000
 50
0.000000E+00
 51
90.000000
  0
CIRCLE
  8
0
 62
     3
  6
CONTINUOUS
 10
-1377.739862
 20
726.948109
 40
52.000000
  0
CIRCLE
  8
0
 62
     3
  6
CONTINUOUS
 10
-1377.739862
 20
726.948109
 40
67.000000
  0
ARC
  8
0
 62
     3
  6
CONTINUOUS
 10
-1442.739862
 20
661.948109
 40
3.000000
 50
0.000000E+00
 51
90.000000
  0
LINE
  8
0
 62
     3
  6
CONTINUOUS
 10
-188.618848
 20
180.320586
 11
-447.977833
 21
180.320586
  0
ARC
  8
0
 62
     3
  6
CONTINUOUS
 10
-1312.739862
 20
661.948109
 40
3.000000
 50
90.000000
 51
180.000000
  0
LINE
  8
0
 62
     3
  6
CONTINUOUS
 10
-1472.739862
 20
786.948109
 11
-1472.739862
 21
666.948109
  0
LINE
  8
0
 62
     3
  6
CONTINUOUS
 10
-1470.739862
 20
788.948109
 11
-1438.057769
 21
788.948109
  0
ARC
  8
0
 62
     3
  6
CONTINUOUS
 10
-1470.739862
 20
786.948109
 40
2.000000
 50
90.000000
 51
180.000000
  0
LINE
  8
0
 62
     3
  6
CONTINUOUS
 10
-1470.739862
 20
664.948109
 11
-1442.739862
 21
664.948109
  0
ARC
  8
0
 62
     3
  6
CONTINUOUS
 10
-1470.739862
 20
666.948109
 40
2.000000
 50
180.000000
 51
270.000000
  0
LINE
  8
0
 62
     3
  6
CONTINUOUS
 10
-1317.739862
 20
631.948109
 11
-1437.739862
 21
631.948109
  0
INSERT
  8
0
  2
G24
 10
0
 20
0
  0
INSERT
  8
0
  2
G25
 10
0
 20
0
  0
LINE
  8
0
 62
     3
  6
CONTINUOUS
 10
-1315.739862
 20
633.948109
 11
-1315.739862
 21
661.948109
  0
ARC
  8
0
 62
     3
  6
CONTINUOUS
 10
-1317.739862
 20
633.948109
 40
2.000000
 50
270.000000
 51
360.000000
  0
LINE
  8
0
 62
     3
  6
CONTINUOUS
 10
-1439.739862
 20
633.948109
 11
-1439.739862
 21
661.948109
  0
ARC
  8
0
 62
     3
  6
CONTINUOUS
 10
-1437.739862
 20
633.948109
 40
2.000000
 50
180.000000
 51
270.000000
  0
INSERT
  8
0
  2
G26
 10
0
 20
0
  0
INSERT
  8
0
  2
G27
 10
0
 20
0
  0
INSERT
  8
0
  2
G28
 10
0
 20
0
  0
LINE
  8
3
 62
     3
  6
CONTINUOUS
 10
-1537.739862
 20
664.448109
 11
-1537.739862
 21
789.448109
  0
LINE
  8
3
 62
     3
  6
CONTINUOUS
 10
-1461.095668
 20
113.387137
 11
-1457.820276
 21
114.833664
  0
LINE
  8
3
 62
     3
  6
CONTINUOUS
 10
-1457.820276
 20
114.833664
 11
-1454.655356
 21
117.361380
  0
LINE
  8
3
 62
     3
  6
CONTINUOUS
 10
-1454.655356
 20
117.361380
 11
-1451.659709
 21
120.923324
  0
LINE
  8
3
 62
     3
  6
CONTINUOUS
 10
-1451.659709
 20
120.923324
 11
-1448.888992
 21
125.453317
  0
LINE
  8
3
 62
     3
  6
CONTINUOUS
 10
-1448.888992
 20
125.453317
 11
-1446.394683
 21
130.867195
  0
LINE
  8
3
 62
     3
  6
CONTINUOUS
 10
-1446.394683
 20
130.867195
 11
-1444.223123
 21
137.064373
  0
LINE
  8
3
 62
     3
  6
CONTINUOUS
 10
-1444.223123
 20
137.064373
 11
-1442.414660
 21
143.929711
  0
LINE
  8
3
 62
     3
  6
CONTINUOUS
 10
-1442.414660
 20
143.929711
 11
-1441.002892
 21
151.335657
  0
LINE
  8
3
 62
     3
  6
CONTINUOUS
 10
-1441.002892
 20
151.335657
 11
-1440.014050
 21
159.144613
  0
LINE
  8
3
 62
     3
  6
CONTINUOUS
 10
-1440.014050
 20
159.144613
 11
-1439.466506
 21
167.211496
  0
LINE
  8
3
 62
     3
  6
CONTINUOUS
 10
-1440.014050
 20
159.144613
 11
-1439.466506
 21
167.211496
  0
ARC
  8
1
 62
     3
  6
CONTINUOUS
 10
-1470.739862
 20
113.027117
 40
2.000000
 50
180.000000
 51
270.000000
  0
LINE
  8
1
 62
     3
  6
CONTINUOUS
 10
-1470.739862
 20
235.027117
 11
-1467.239862
 21
235.027117
  0
LINE
  8
1
 62
     3
  6
CONTINUOUS
 10
-1470.739862
 20
111.027117
 11
-1467.239862
 21
111.027117
  0
ARC
  8
1
 62
     3
  6
CONTINUOUS
 10
-1470.739862
 20
233.027117
 40
2.000000
 50
90.000000
 51
180.000000
  0
INSERT
  8
0
  2
G29
 10
0
 20
0
  0
ARC
  8
1
 62
     3
  6
CONTINUOUS
 10
-1467.239862
 20
238.027117
 40
3.000000
 50
270.000000
 51
360.000000
  0
TEXT
  8
0
 62
     6
 10
-999.551869
 20
1056.370812
 40
35.000000
 50
0.000000E+00
 41
0.60 
  1
300,340,360
 72
     5
 11
-767.051869
 21
1056.370812
  0
TEXT
  8
0
 62
     3
 10
-448.618848
 20
185.653919
 40
32.000000
 50
360.000000
 41
0.87 
  1
Ｃ矢視　（下部）
 72
     5
 11
-192.618848
 21
185.653919
  0
TEXT
  8
0
 62
     6
 10
-1001.412371
 20
1098.485825
 40
35.000000
 50
0.000000E+00
 41
0.60 
  1
240,260,280
 72
     5
 11
-768.912371
 21
1098.485825
  0
ARC
  8
1
 62
     3
  6
CONTINUOUS
 10
-1467.239862
 20
108.027117
 40
3.000000
 50
0.000000E+00
 51
90.000000
  0
TEXT
  8
0
 62
     3
 10
-600.875371
 20
397.159553
 40
32.000000
 50
0.000000E+00
 41
0.86 
  1
ｂ
 72
     5
 11
-568.875371
 21
397.159553
  0
INSERT
  8
0
  2
G30
 10
0
 20
0
  0
CIRCLE
  8
0
 62
     6
  6
HIDDEN
 10
-1283.802953
 20
1093.777279
 40
20.000000
  0
TEXT
  8
0
 62
     6
 10
-1291.802953
 20
1077.777279
 40
32.000000
 50
0.000000E+00
 41
0.50 
  1
2
 72
     5
 11
-1275.802953
 21
1077.777279
  0
CIRCLE
  8
0
 62
     6
  6
HIDDEN
 10
-1283.802953
 20
1141.810698
 40
20.000000
  0
TEXT
  8
0
 62
     6
 10
-1291.802953
 20
1125.810698
 40
32.000000
 50
0.000000E+00
 41
0.50 
  1
1
 72
     5
 11
-1275.802953
 21
1125.810698
  0
TEXT
  8
0
 62
     3
 10
-444.883203
 20
566.647865
 40
32.000000
 50
0.000000E+00
 41
0.86 
  1
ａ
 72
     5
 11
-412.883203
 21
566.647865
  0
LINE
  8
0
 62
     1
  6
CONTINUOUS
 10
-556.000000
 20
759.624747
 11
-556.000000
 21
658.766137
  0
INSERT
  8
0
  2
G31
 10
0
 20
0
  0
INSERT
  8
0
  2
G32
 10
0
 20
0
  0
INSERT
  8
0
  2
G33
 10
0
 20
0
  0
LINE
  8
0
 62
     7
  6
CONTINUOUS
 10
-1525.219420
 20
279.111644
 11
-1525.219420
 21
237.327305
  0
SOLID
  8
0
 62
     7
 10
-1532.983991
 20
266.305080
 11
-1517.454848
 21
266.305080
 12
-1525.219420
 22
237.327305
 13
-1525.219420
 23
237.327305
  0
TEXT
  8
0
 62
     7
 10
-1603.593938
 20
291.108114
 40
32.000000
 50
360.000000
 41
0.78 
  1
７５枝管
 72
     5
 11
-1491.593938
 21
291.108114
  0
LINE
  8
3
 62
     3
  6
CONTINUOUS
 10
-1532.739862
 20
110.527117
 11
-1532.739862
 21
233.027117
  0
LINE
  8
3
 62
     3
  6
CONTINUOUS
 10
-1532.739862
 20
110.527117
 11
-1537.739862
 21
110.527117
  0
LINE
  8
3
 62
     3
  6
CONTINUOUS
 10
-1532.739862
 20
235.527117
 11
-1537.739862
 21
235.527117
  0
LINE
  8
3
 62
     3
  6
CONTINUOUS
 10
-1532.739862
 20
235.527117
 11
-1532.739862
 21
233.027117
  0
LINE
  8
3
 62
     3
  6
CONTINUOUS
 10
-1537.739862
 20
235.527117
 11
-1537.739862
 21
110.527117
  0
LINE
  8
3
 62
     3
  6
CONTINUOUS
 10
-1532.739862
 20
113.027117
 11
-1472.739862
 21
113.027117
  0
LINE
  8
3
 62
     3
  6
CONTINUOUS
 10
-1532.739862
 20
233.027117
 11
-1472.739862
 21
233.027117
  0
CIRCLE
  8
0
 62
     3
  6
CONTINUOUS
 10
-1377.739862
 20
173.027117
 40
62.000000
  0
INSERT
  8
0
  2
G34
 10
0
 20
0
  0
INSERT
  8
0
  2
G35
 10
0
 20
0
  0
INSERT
  8
0
  2
G36
 10
0
 20
0
  0
INSERT
  8
0
  2
G37
 10
0
 20
0
  0
INSERT
  8
0
  2
G38
 10
0
 20
0
  0
INSERT
  8
0
  2
G39
 10
0
 20
0
  0
INSERT
  8
0
  2
G40
 10
0
 20
0
  0
INSERT
  8
0
  2
G41
 10
0
 20
0
  0
INSERT
  8
0
  2
G42
 10
0
 20
0
  0
INSERT
  8
0
  2
G43
 10
0
 20
0
  0
INSERT
  8
0
  2
G44
 10
0
 20
0
  0
INSERT
  8
0
  2
G45
 10
0
 20
0
  0
INSERT
  8
0
  2
G46
 10
0
 20
0
  0
INSERT
  8
0
  2
G47
 10
0
 20
0
  0
INSERT
  8
0
  2
G48
 10
0
 20
0
  0
TEXT
  8
0
 62
     3
 10
-888.446385
 20
-905.435816
 40
32.000000
 50
0.000000E+00
 41
0.94 
  1
対応可能Ｐ寸法　２４０～３６０
 72
     5
 11
-362.732077
 21
-905.435816
  0
LINE
  8
0
 62
     2
  6
CONTINUOUS
 10
-955.287581
 20
-844.718354
 11
-175.885661
 21
-844.718354
  0
TEXT
  8
0
 62
     2
 10
-466.779569
 20
-817.414104
 40
30.000000
 50
0.000000E+00
 41
0.61 
  1
925
 72
     5
 11
-411.779569
 21
-817.414104
  0
TEXT
  8
0
 62
     2
 10
-569.578809
 20
-817.414104
 40
30.000000
 50
0.000000E+00
 41
0.61 
  1
905
 72
     5
 11
-514.578809
 21
-817.414104
  0
TEXT
  8
0
 62
     2
 10
-669.031289
 20
-815.686968
 40
30.000000
 50
0.000000E+00
 41
0.61 
  1
885
 72
     5
 11
-614.031289
 21
-815.686968
  0
TEXT
  8
0
 62
     2
 10
-363.270329
 20
-815.686968
 40
30.000000
 50
0.000000E+00
 41
0.61 
  1
965
 72
     5
 11
-308.270329
 21
-815.686968
  0
TEXT
  8
0
 62
     2
 10
-770.950969
 20
-724.246968
 40
30.000000
 50
0.000000E+00
 41
0.61 
  1
790
 72
     5
 11
-715.950969
 21
-724.246968
  0
TEXT
  8
0
 62
     2
 10
-258.817849
 20
-817.414104
 40
30.000000
 50
0.000000E+00
 41
0.61 
  1
985
 72
     5
 11
-203.817849
 21
-817.414104
  0
TEXT
  8
0
 62
     2
 10
-770.950969
 20
-815.686968
 40
30.000000
 50
0.000000E+00
 41
0.61 
  1
865
 72
     5
 11
-715.950969
 21
-815.686968
  0
TEXT
  8
0
 62
     2
 10
-363.509314
 20
-647.803154
 40
30.000000
 50
0.000000E+00
 41
0.61 
  1
340
 72
     5
 11
-308.509314
 21
-647.803154
  0
TEXT
  8
0
 62
     2
 10
-465.429954
 20
-647.803154
 40
30.000000
 50
0.000000E+00
 41
0.61 
  1
300
 72
     5
 11
-410.429954
 21
-647.803154
  0
TEXT
  8
0
 62
     2
 10
-567.350594
 20
-647.803154
 40
30.000000
 50
0.000000E+00
 41
0.61 
  1
280
 72
     5
 11
-512.350594
 21
-647.803154
  0
TEXT
  8
0
 62
     2
 10
-771.189954
 20
-647.803154
 40
30.000000
 50
0.000000E+00
 41
0.61 
  1
240
 72
     5
 11
-716.189954
 21
-647.803154
  0
LINE
  8
0
 62
     2
  6
CONTINUOUS
 10
-389.725981
 20
-600.398354
 11
-389.725981
 21
-844.718354
  0
TEXT
  8
0
 62
     2
 10
-944.759477
 20
-811.372275
 40
30.000000
 50
0.000000E+00
 41
0.72 
  1
Ｌｔ（全長）
 72
     5
 11
-794.759477
 21
-811.372275
  0
LINE
  8
0
 62
     2
  6
CONTINUOUS
 10
-955.287581
 20
-753.278354
 11
-175.885661
 21
-753.278354
  0
TEXT
  8
0
 62
     2
 10
-258.817849
 20
-725.974104
 40
30.000000
 50
0.000000E+00
 41
0.61 
  1
910
 72
     5
 11
-203.817849
 21
-725.974104
  0
LINE
  8
0
 62
     2
  6
CONTINUOUS
 10
-955.287581
 20
-600.398354
 11
-175.885661
 21
-600.398354
  0
TEXT
  8
0
 62
     2
 10
-363.270329
 20
-724.246968
 40
30.000000
 50
0.000000E+00
 41
0.61 
  1
890
 72
     5
 11
-308.270329
 21
-724.246968
  0
LINE
  8
0
 62
     2
  6
CONTINUOUS
 10
-797.406621
 20
-600.398354
 11
-797.406621
 21
-844.718354
  0
LINE
  8
0
 62
     2
  6
CONTINUOUS
 10
-695.486941
 20
-600.398354
 11
-695.486941
 21
-844.718354
  0
LINE
  8
0
 62
     2
  6
CONTINUOUS
 10
-593.567261
 20
-600.398354
 11
-593.567261
 21
-844.718354
  0
LINE
  8
0
 62
     2
  6
CONTINUOUS
 10
-491.646621
 20
-600.398354
 11
-491.646621
 21
-844.718354
  0
LINE
  8
0
 62
     2
  6
CONTINUOUS
 10
-175.885661
 20
-600.398354
 11
-175.885661
 21
-844.718354
  0
LINE
  8
0
 62
     2
  6
CONTINUOUS
 10
-287.806301
 20
-600.398354
 11
-287.806301
 21
-844.718354
  0
TEXT
  8
0
 62
     2
 10
-256.589634
 20
-647.803154
 40
30.000000
 50
0.000000E+00
 41
0.61 
  1
360
 72
     5
 11
-201.589634
 21
-647.803154
  0
LINE
  8
0
 62
     2
  6
CONTINUOUS
 10
-955.287581
 20
-661.838354
 11
-175.885661
 21
-661.838354
  0
TEXT
  8
0
 62
     2
 10
-944.759477
 20
-719.932275
 40
30.000000
 50
0.000000E+00
 41
0.72 
  1
Ｌ（有効長）
 72
     5
 11
-794.759477
 21
-719.932275
  0
LINE
  8
0
 62
     2
  6
CONTINUOUS
 10
-955.287581
 20
-600.398354
 11
-955.287581
 21
-844.718354
  0
LINE
  8
0
 62
     2
  6
CONTINUOUS
 10
-177.458899
 20
-613.635403
 11
-177.458899
 21
-613.635595
  0
TEXT
  8
0
 62
     2
 10
-669.031289
 20
-724.246968
 40
30.000000
 50
0.000000E+00
 41
0.61 
  1
810
 72
     5
 11
-614.031289
 21
-724.246968
  0
TEXT
  8
0
 62
     2
 10
-569.578809
 20
-725.974104
 40
30.000000
 50
0.000000E+00
 41
0.61 
  1
830
 72
     5
 11
-514.578809
 21
-725.974104
  0
TEXT
  8
0
 62
     2
 10
-669.270274
 20
-647.803154
 40
30.000000
 50
0.000000E+00
 41
0.61 
  1
260
 72
     5
 11
-614.270274
 21
-647.803154
  0
TEXT
  8
0
 62
     2
 10
-885.718483
 20
-647.782743
 40
30.000000
 50
0.000000E+00
 41
0.86 
  1
Ｐ
 72
     5
 11
-855.718483
 21
-647.782743
  0
TEXT
  8
0
 62
     2
 10
-466.779569
 20
-725.974104
 40
30.000000
 50
0.000000E+00
 41
0.61 
  1
850
 72
     5
 11
-411.779569
 21
-725.974104
  0
TEXT
  8
0
 62
     2
 10
-251.589634
 20
-546.363154
 40
30.000000
 50
0.000000E+00
 41
0.58 
  1
44
 72
     5
 11
-216.589634
 21
-546.363154
  0
TEXT
  8
0
 62
     2
 10
-363.510274
 20
-546.363154
 40
30.000000
 50
0.000000E+00
 41
0.58 
  1
52
 72
     5
 11
-328.510274
 21
-546.363154
  0
TEXT
  8
0
 62
     2
 10
-462.501526
 20
-363.746137
 40
25.600000
 50
0.000000E+00
 41
0.55 
  1
100
 72
     5
 11
-420.444381
 21
-363.746137
  0
TEXT
  8
0
 62
     2
 10
-479.031820
 20
-325.061429
 40
18.400000
 50
0.000000E+00
 41
0.89 
  1
立管受口
 72
     5
 11
-403.031821
 21
-325.061429
  0
TEXT
  8
0
 62
     2
 10
-251.589634
 20
-423.483154
 40
30.000000
 50
0.000000E+00
 41
0.58 
  1
65
 72
     5
 11
-216.589634
 21
-423.483154
  0
TEXT
  8
0
 62
     2
 10
-363.510274
 20
-423.483154
 40
30.000000
 50
0.000000E+00
 41
0.58 
  1
65
 72
     5
 11
-328.510274
 21
-423.483154
  0
TEXT
  8
0
 62
     2
 10
-455.429954
 20
-423.483154
 40
30.000000
 50
0.000000E+00
 41
0.58 
  1
75
 72
     5
 11
-420.429954
 21
-423.483154
  0
LINE
  8
0
 62
     2
  6
CONTINUOUS
 10
-399.726941
 20
-498.958354
 11
-481.646621
 21
-560.398354
  0
LINE
  8
0
 62
     2
  6
CONTINUOUS
 10
-175.885661
 20
-294.153298
 11
-175.885661
 21
-560.398354
  0
TEXT
  8
0
 62
     2
 10
-592.749477
 20
-542.052275
 40
30.000000
 50
0.000000E+00
 41
0.86 
  1
Ｂ寸法
 72
     5
 11
-502.749477
 21
-542.052275
  0
LINE
  8
0
 62
     2
  6
CONTINUOUS
 10
-604.527581
 20
-498.958354
 11
-175.885661
 21
-498.958354
  0
LINE
  8
0
 62
     2
  6
CONTINUOUS
 10
-399.726941
 20
-335.118322
 11
-175.885661
 21
-335.118322
  0
LINE
  8
0
 62
     2
  6
CONTINUOUS
 10
-604.527581
 20
-376.078354
 11
-175.885661
 21
-376.078354
  0
TEXT
  8
0
 62
     2
 10
-388.512732
 20
-330.204987
 40
30.000000
 50
0.000000E+00
 41
0.72 
  1
下部横枝管サイズ
 72
     5
 11
-188.512732
 21
-330.204987
  0
LINE
  8
0
 62
     2
  6
CONTINUOUS
 10
-481.646621
 20
-295.392178
 11
-481.646621
 21
-560.398354
  0
LINE
  8
0
 62
     2
  6
CONTINUOUS
 10
-399.726941
 20
-295.392178
 11
-399.726941
 21
-560.398354
  0
LINE
  8
0
 62
     2
  6
CONTINUOUS
 10
-399.726941
 20
-437.518354
 11
-481.646621
 21
-498.958354
  0
LINE
  8
0
 62
     2
  6
CONTINUOUS
 10
-287.806301
 20
-335.118514
 11
-287.806301
 21
-560.398354
  0
LINE
  8
0
 62
     2
  6
CONTINUOUS
 10
-604.527581
 20
-560.398354
 11
-175.885661
 21
-560.398354
  0
TEXT
  8
0
 62
     2
 10
-383.464355
 20
-370.283621
 40
30.000000
 50
0.000000E+00
 41
0.63 
  1
65(2)
 72
     5
 11
-288.464355
 21
-370.283621
  0
TEXT
  8
0
 62
     2
 10
-271.543715
 20
-370.283621
 40
30.000000
 50
0.000000E+00
 41
0.63 
  1
50(1)
 72
     5
 11
-176.543715
 21
-370.283621
  0
LINE
  8
0
 62
     2
  6
CONTINUOUS
 10
-604.527581
 20
-335.118322
 11
-604.527581
 21
-560.398354
  0
LINE
  8
0
 62
     2
  6
CONTINUOUS
 10
-604.527581
 20
-437.518354
 11
-175.885661
 21
-437.518354
  0
TEXT
  8
0
 62
     2
 10
-592.749477
 20
-480.612275
 40
30.000000
 50
0.000000E+00
 41
0.86 
  1
Ａ寸法
 72
     5
 11
-502.749477
 21
-480.612275
  0
LINE
  8
0
 62
     2
  6
CONTINUOUS
 10
-604.527581
 20
-335.118322
 11
-604.527581
 21
-294.153298
  0
LINE
  8
0
 62
     2
  6
CONTINUOUS
 10
-604.527581
 20
-294.153298
 11
-175.885661
 21
-294.153298
  0
LINE
  8
0
 62
     2
  6
CONTINUOUS
 10
-205.886621
 20
-335.118322
 11
-205.886621
 21
-335.118514
  0
TEXT
  8
0
 62
     2
 10
-375.738489
 20
-484.923154
 40
30.000000
 50
0.000000E+00
 41
0.61 
  1
110
 72
     5
 11
-320.738489
 21
-484.923154
  0
TEXT
  8
0
 62
     2
 10
-599.958483
 20
-423.462743
 40
30.000000
 50
0.000000E+00
 41
0.86 
  1
受口深さ
 72
     5
 11
-479.958483
 21
-423.462743
  0
LINE
  8
0
 62
     2
  6
CONTINUOUS
 10
-604.527581
 20
-294.153298
 11
-481.646621
 21
-376.078354
  0
TEXT
  8
0
 62
     2
 10
-251.589634
 20
-484.923154
 40
30.000000
 50
0.000000E+00
 41
0.58 
  1
94
 72
     5
 11
-216.589634
 21
-484.923154
  0
ENDSEC
  0
EOF
