  0
SECTION
  2
HEADER
  9
$INSBASE
 10
0
 20
0
  9
$EXTMIN
 10
0
 20
0
  9
$EXTMAX
 10
4200.000000
 20
2970.000000
  9
$LIMMIN
 10
0
 20
0
  9
$LIMMAX
 10
4200.000000
 20
2970.000000
  9
$VIEWCTR
 10
2100.000000
 20
1485.000000
  9
$DIMASZ
 40
20.000000
  9
$DIMDLI
 40
80.000000
  9
$DIMEXE
 40
10.000000
  9
$DIMEXO
 40
10.000000
  9
$DIMTXT
 40
32.000000
  9
$TEXTSIZE
 40
32.000000
  9
$ANGBASE
 50
0.0
  9
$ANGDIR
 70
     0
  9
$ATTMODE
 70
     1
  9
$AUNITS
 70
     1
  9
$AUPREC
 70
     2
  9
$AXISMODE
 70
     0
  9
$AXISUNIT
 10
0.0
 20
0.0
  9
$BLIPMODE
 70
     1
  9
$CECOLOR
 62
   256
  9
$CELTYPE
  6
BYLAYER
  9
$CHAMFERA
 40
0.0
  9
$CHAMFERB
 40
0.0
  9
$CLAYER
  8
0
  9
$COORDS
 70
     0
  9
$DIMALT
 70
     0
  9
$DIMALTD
 70
     2
  9
$DIMALTF
 40
25.4
  9
$DIMDLE
 40
0.0
  9
$DIMLFAC
 40
1.0
  9
$DIMLIM
 70
     0
  9
$DIMRND
 40
0.0
  9
$DIMSCALE
 40
1.0
  9
$DIMSE1
 70
     0
  9
$DIMSE2
 70
     0
  9
$DIMTAD
 70
     1
  9
$DIMTIH
 70
     0
  9
$DIMTM
 40
0.0
  9
$DIMTOH
 70
     0
  9
$DIMTOL
 70
     0
  9
$DIMTP
 40
0.0
  9
$DIMTSZ
 40
0.0
  9
$DIMZIN
 70
     0
  9
$DRAGMODE
 70
     2
  9
$ELEVATION
 40
0.0
  9
$FASTZOOM
 70
     1
  9
$FILLETRAD
 40
0.0
  9
$FILLMODE
 70
     1
  9
$GRIDMODE
 70
     0
  9
$GRIDUNIT
 10
0.0
 20
0.0
  9
$LTSCALE
 40
1.0
  9
$LUNITS
 70
     2
  9
$LUPREC
 70
     2
  9
$MENU
  1
ACAD
  9
$ORTHOMODE
 70
     0
  9
$OSMODE
 70
     0
  9
$PDMODE
 70
     0
  9
$PDSIZE
 40
0.0
  9
$PLINEWID
 40
0.0
  9
$QTEXTMODE
 70
     0
  9
$REGENMODE
 70
     1
  9
$SKETCHINC
 40
0.1
  9
$SKPOLY
 70
     0
  9
$SNAPBASE
 10
0.0
 20
0.0
  9
$SNAPISOPAIR
 70
     0
  9
$SNAPMODE
 70
     0
  9
$SNAPSTYLE
 70
     0
  9
$SNAPUNIT
 10
0.0
 20
0.0
  9
$TEXTSTYLE
  7
KANJI
  9
$THICKNESS
 40
0.0
  9
$TRACEWID
 40
0.05
  9
$VIEWDIR
 10
0.0
 20
0.0
 30
1.0
  9
$VIEWSIZE
 40
0.0
  0
ENDSEC
  0
SECTION
  2
TABLES
  0
TABLE
  2
LTYPE
 70
     9
  0
LTYPE
  2
CONTINUOUS
 70
    64
  3
Solid line
 72
    65
 73
     0
 40
0.0
  0
LTYPE
  2
DASHED
 70
    64
  3
__ __ __ __ __ __ __ __ __ __ __ __ __ __ __
 72
    65
 73
     2
 40
0.75
 49
0.5
 49
-0.25
  0
LTYPE
  2
HIDDEN
 70
    64
  3
_ _ _ _ _ _ _ _ _ _ _ _ _ _ _ _ _ _ _ _ _ _ _
 72
    65
 73
     2
 40
0.375
 49
0.25
 49
-0.125
  0
LTYPE
  2
CENTER
 70
    64
  3
____ _ ____ _ ____ _ ____ _ ____ _ ____ _ ____
 72
    65
 73
     4
 40
2.0
 49
1.25
 49
-0.25
 49
0.25
 49
-0.25
  0
LTYPE
  2
PHANTOM
 70
    64
  3
_____ _ _ _____ _ _ _____ _ _ _____ _ _ ____
 72
    65
 73
     6
 40
2.5
 49
1.25
 49
-0.25
 49
0.25
 49
-0.25
 49
0.25
 49
-0.25
  0
LTYPE
  2
DOT
 70
    64
  3
...............................................
 72
    65
 73
     2
 40
0.25
 49
0.0
 49
-0.25
  0
LTYPE
  2
DASHDOT
 70
    64
  3
__ . __ . __ . __ . __ . __ . __ . __ . __ . __
 72
    65
 73
     4
 40
1.0
 49
0.5
 49
-0.25
 49
0.0
 49
-0.25
  0
LTYPE
  2
BORDER
 70
    64
  3
__ __ . __ __ . __ __ . __ __ . __ __ . __ __
 72
    65
 73
     6
 40
1.75
 49
0.5
 49
-0.25
 49
0.5
 49
-0.25
 49
0.0
 49
-0.25
  0
LTYPE
  2
DIVIDE
 70
    64
  3
__ . . __ . . __ . . __ . . __ . . __ . . __
 72
    65
 73
     6
 40
1.25
 49
0.5
 49
-0.25
 49
0.0
 49
-0.25
 49
0.0
 49
-0.25
  0
ENDTAB
  0
TABLE
  2
LAYER
 70
   100
  0
LAYER
  2
0
 70
     0
 62
     3
  6
CONTINUOUS
  0
LAYER
  2
1
 70
     0
 62
     3
  6
CONTINUOUS
  0
LAYER
  2
2
 70
     0
 62
     3
  6
CONTINUOUS
  0
LAYER
  2
3
 70
     0
 62
     3
  6
CONTINUOUS
  0
LAYER
  2
4
 70
     0
 62
     3
  6
CONTINUOUS
  0
LAYER
  2
5
 70
     0
 62
     3
  6
CONTINUOUS
  0
LAYER
  2
6
 70
     0
 62
     3
  6
CONTINUOUS
  0
LAYER
  2
7
 70
     0
 62
     3
  6
CONTINUOUS
  0
LAYER
  2
8
 70
     0
 62
     3
  6
CONTINUOUS
  0
LAYER
  2
9
 70
     0
 62
     3
  6
CONTINUOUS
  0
LAYER
  2
10
 70
     0
 62
     3
  6
CONTINUOUS
  0
LAYER
  2
11
 70
     0
 62
     3
  6
CONTINUOUS
  0
LAYER
  2
12
 70
     0
 62
     3
  6
CONTINUOUS
  0
LAYER
  2
13
 70
     0
 62
     3
  6
CONTINUOUS
  0
LAYER
  2
14
 70
     0
 62
     3
  6
CONTINUOUS
  0
LAYER
  2
15
 70
     0
 62
     3
  6
CONTINUOUS
  0
LAYER
  2
16
 70
     0
 62
     3
  6
CONTINUOUS
  0
LAYER
  2
17
 70
     0
 62
     3
  6
CONTINUOUS
  0
LAYER
  2
18
 70
     0
 62
     3
  6
CONTINUOUS
  0
LAYER
  2
19
 70
     0
 62
     3
  6
CONTINUOUS
  0
LAYER
  2
20
 70
     0
 62
     3
  6
CONTINUOUS
  0
LAYER
  2
21
 70
     0
 62
     3
  6
CONTINUOUS
  0
LAYER
  2
22
 70
     0
 62
     3
  6
CONTINUOUS
  0
LAYER
  2
23
 70
     0
 62
     3
  6
CONTINUOUS
  0
LAYER
  2
24
 70
     0
 62
     3
  6
CONTINUOUS
  0
LAYER
  2
25
 70
     0
 62
     3
  6
CONTINUOUS
  0
LAYER
  2
26
 70
     0
 62
     3
  6
CONTINUOUS
  0
LAYER
  2
27
 70
     0
 62
     3
  6
CONTINUOUS
  0
LAYER
  2
28
 70
     0
 62
     3
  6
CONTINUOUS
  0
LAYER
  2
29
 70
     0
 62
     3
  6
CONTINUOUS
  0
LAYER
  2
30
 70
     0
 62
     3
  6
CONTINUOUS
  0
LAYER
  2
31
 70
     0
 62
     3
  6
CONTINUOUS
  0
LAYER
  2
32
 70
     0
 62
     3
  6
CONTINUOUS
  0
LAYER
  2
33
 70
     0
 62
     3
  6
CONTINUOUS
  0
LAYER
  2
34
 70
     0
 62
     3
  6
CONTINUOUS
  0
LAYER
  2
35
 70
     0
 62
     3
  6
CONTINUOUS
  0
LAYER
  2
36
 70
     0
 62
     3
  6
CONTINUOUS
  0
LAYER
  2
37
 70
     0
 62
     3
  6
CONTINUOUS
  0
LAYER
  2
38
 70
     0
 62
     3
  6
CONTINUOUS
  0
LAYER
  2
39
 70
     0
 62
     3
  6
CONTINUOUS
  0
LAYER
  2
40
 70
     0
 62
     3
  6
CONTINUOUS
  0
LAYER
  2
41
 70
     0
 62
     3
  6
CONTINUOUS
  0
LAYER
  2
42
 70
     0
 62
     3
  6
CONTINUOUS
  0
LAYER
  2
43
 70
     0
 62
     3
  6
CONTINUOUS
  0
LAYER
  2
44
 70
     0
 62
     3
  6
CONTINUOUS
  0
LAYER
  2
45
 70
     0
 62
     3
  6
CONTINUOUS
  0
LAYER
  2
46
 70
     0
 62
     3
  6
CONTINUOUS
  0
LAYER
  2
47
 70
     0
 62
     3
  6
CONTINUOUS
  0
LAYER
  2
48
 70
     0
 62
     3
  6
CONTINUOUS
  0
LAYER
  2
49
 70
     0
 62
     3
  6
CONTINUOUS
  0
LAYER
  2
50
 70
     0
 62
     3
  6
CONTINUOUS
  0
LAYER
  2
51
 70
     0
 62
     3
  6
CONTINUOUS
  0
LAYER
  2
52
 70
     0
 62
     3
  6
CONTINUOUS
  0
LAYER
  2
53
 70
     0
 62
     3
  6
CONTINUOUS
  0
LAYER
  2
54
 70
     0
 62
     3
  6
CONTINUOUS
  0
LAYER
  2
55
 70
     0
 62
     3
  6
CONTINUOUS
  0
LAYER
  2
56
 70
     0
 62
     3
  6
CONTINUOUS
  0
LAYER
  2
57
 70
     0
 62
     3
  6
CONTINUOUS
  0
LAYER
  2
58
 70
     0
 62
     3
  6
CONTINUOUS
  0
LAYER
  2
59
 70
     0
 62
     3
  6
CONTINUOUS
  0
LAYER
  2
60
 70
     0
 62
     3
  6
CONTINUOUS
  0
LAYER
  2
61
 70
     0
 62
     3
  6
CONTINUOUS
  0
LAYER
  2
62
 70
     0
 62
     3
  6
CONTINUOUS
  0
LAYER
  2
63
 70
     0
 62
     3
  6
CONTINUOUS
  0
LAYER
  2
64
 70
     0
 62
     3
  6
CONTINUOUS
  0
LAYER
  2
65
 70
     0
 62
     3
  6
CONTINUOUS
  0
LAYER
  2
66
 70
     0
 62
     3
  6
CONTINUOUS
  0
LAYER
  2
67
 70
     0
 62
     3
  6
CONTINUOUS
  0
LAYER
  2
68
 70
     0
 62
     3
  6
CONTINUOUS
  0
LAYER
  2
69
 70
     0
 62
     3
  6
CONTINUOUS
  0
LAYER
  2
70
 70
     0
 62
     3
  6
CONTINUOUS
  0
LAYER
  2
71
 70
     0
 62
     3
  6
CONTINUOUS
  0
LAYER
  2
72
 70
     0
 62
     3
  6
CONTINUOUS
  0
LAYER
  2
73
 70
     0
 62
     3
  6
CONTINUOUS
  0
LAYER
  2
74
 70
     0
 62
     3
  6
CONTINUOUS
  0
LAYER
  2
75
 70
     0
 62
     3
  6
CONTINUOUS
  0
LAYER
  2
76
 70
     0
 62
     3
  6
CONTINUOUS
  0
LAYER
  2
77
 70
     0
 62
     3
  6
CONTINUOUS
  0
LAYER
  2
78
 70
     0
 62
     3
  6
CONTINUOUS
  0
LAYER
  2
79
 70
     0
 62
     3
  6
CONTINUOUS
  0
LAYER
  2
80
 70
     0
 62
     3
  6
CONTINUOUS
  0
LAYER
  2
81
 70
     0
 62
     3
  6
CONTINUOUS
  0
LAYER
  2
82
 70
     0
 62
     3
  6
CONTINUOUS
  0
LAYER
  2
83
 70
     0
 62
     3
  6
CONTINUOUS
  0
LAYER
  2
84
 70
     0
 62
     3
  6
CONTINUOUS
  0
LAYER
  2
85
 70
     0
 62
     3
  6
CONTINUOUS
  0
LAYER
  2
86
 70
     0
 62
     3
  6
CONTINUOUS
  0
LAYER
  2
87
 70
     0
 62
     3
  6
CONTINUOUS
  0
LAYER
  2
88
 70
     0
 62
     3
  6
CONTINUOUS
  0
LAYER
  2
89
 70
     0
 62
     3
  6
CONTINUOUS
  0
LAYER
  2
90
 70
     0
 62
     3
  6
CONTINUOUS
  0
LAYER
  2
91
 70
     0
 62
     3
  6
CONTINUOUS
  0
LAYER
  2
92
 70
     0
 62
     3
  6
CONTINUOUS
  0
LAYER
  2
93
 70
     0
 62
     3
  6
CONTINUOUS
  0
LAYER
  2
94
 70
     0
 62
     3
  6
CONTINUOUS
  0
LAYER
  2
95
 70
     0
 62
     3
  6
CONTINUOUS
  0
LAYER
  2
96
 70
     0
 62
     3
  6
CONTINUOUS
  0
LAYER
  2
97
 70
     0
 62
     3
  6
CONTINUOUS
  0
LAYER
  2
98
 70
     0
 62
     3
  6
CONTINUOUS
  0
LAYER
  2
99
 70
     0
 62
     3
  6
CONTINUOUS
  0
ENDTAB
  0
TABLE
  2
STYLE
 70
     2
  0
STYLE
  2
STANDARD
 70
     0
 40
0.0
 41
1.0
 50
0.0
 71
     0
 42
0.2
  3
TXT
  4
BIGFONT
  0
STYLE
  2
KANJI
 70
     0
 40
4.5
 41
1.0
 50
0.0
 71
     0
 42
0.2
  3
TXT
  4
BIGFONT
  0
ENDTAB
  0
TABLE
  2
VIEW
 70
     0
  0
ENDTAB
  0
ENDSEC
  0
SECTION
  2
BLOCKS
  0
BLOCK
  8
0
  2
G0
 70
     0
 10
0
 20
0
  0
TEXT
  8
0
 62
     3
 10
3107.536481
 20
2403.564900
 40
32.000000
 50
0.000000E+00
 41
1.02 
  1
受口深さ
 72
     5
 11
3259.536481
 21
2403.564900
  0
ENDBLK
  0
BLOCK
  8
0
  2
G1
 70
     0
 10
0
 20
0
  0
LINE
  8
0
 62
     3
  6
CONTINUOUS
 10
3031.880616
 20
2417.395122
 11
3102.696549
 21
2417.395122
  0
SOLID
  8
0
 62
     3
 10
3060.858391
 20
2425.159693
 11
3060.858391
 21
2409.630551
 12
3031.880616
 22
2417.395122
 13
3031.880616
 23
2417.395122
  0
ENDBLK
  0
BLOCK
  8
0
  2
G2
 70
     0
 10
0
 20
0
  0
TEXT
  8
0
 62
     3
 10
3090.533941
 20
2000.889093
 40
32.000000
 50
0.000000E+00
 41
0.95 
  1
受口深さ　
 72
     5
 11
3266.533941
 21
2000.889093
  0
ENDBLK
  0
BLOCK
  8
0
  2
G3
 70
     0
 10
0
 20
0
  0
LINE
  8
0
 62
     1
  6
CONTINUOUS
 10
3116.118163
 20
2214.589268
 11
3116.118163
 21
2339.589268
  0
SOLID
  8
0
 62
     1
 10
3109.647687
 20
2238.737414
 11
3122.588639
 21
2238.737414
 12
3116.118163
 22
2214.589268
 13
3116.118163
 23
2214.589268
  0
SOLID
  8
0
 62
     1
 10
3122.588639
 20
2315.441123
 11
3109.647687
 21
2315.441123
 12
3116.118163
 22
2339.589268
 13
3116.118163
 23
2339.589268
  0
LINE
  8
0
 62
     1
  6
CONTINUOUS
 10
3052.863476
 20
2214.589268
 11
3126.118163
 21
2214.589268
  0
LINE
  8
0
 62
     1
  6
CONTINUOUS
 10
3052.863476
 20
2339.589268
 11
3126.118163
 21
2339.589268
  0
TEXT
  8
0
 62
     1
 10
3110.784830
 20
2219.089268
 40
32.000000
 50
90.000000
 41
0.60 
  1
%%c125
 72
     5
 11
3110.784830
 21
2335.089268
  0
ENDBLK
  0
BLOCK
  8
0
  2
G4
 70
     0
 10
0
 20
0
  0
LINE
  8
0
 62
     1
  6
CONTINUOUS
 10
3931.994840
 20
1993.589268
 11
3931.994840
 21
2153.589268
  0
LINE
  8
0
 62
     1
  6
CONTINUOUS
 10
3884.994840
 20
1993.589268
 11
3941.994840
 21
1993.589268
  0
LINE
  8
0
 62
     1
  6
CONTINUOUS
 10
3847.061896
 20
2153.589268
 11
3941.994840
 21
2153.589268
  0
TEXT
  8
0
 62
     1
 10
3926.661507
 20
2045.589268
 40
32.000000
 50
90.000000
 41
0.58 
  1
160
 72
     5
 11
3926.661507
 21
2101.589268
  0
LINE
  8
0
 62
     1
  6
CONTINUOUS
 10
3931.994840
 20
2203.589268
 11
3931.994840
 21
2153.589268
  0
SOLID
  8
0
 62
     1
 10
3925.524364
 20
2177.737414
 11
3938.465316
 21
2177.737414
 12
3931.994840
 22
2153.589268
 13
3931.994840
 23
2153.589268
  0
LINE
  8
0
 62
     1
  6
CONTINUOUS
 10
3931.994840
 20
1993.589268
 11
3931.994840
 21
1943.589268
  0
SOLID
  8
0
 62
     1
 10
3938.465316
 20
1969.441123
 11
3925.524364
 21
1969.441123
 12
3931.994840
 22
1993.589268
 13
3931.994840
 23
1993.589268
  0
ENDBLK
  0
BLOCK
  8
0
  2
G5
 70
     0
 10
0
 20
0
  0
LINE
  8
0
 62
     1
  6
CONTINUOUS
 10
3612.370094
 20
2296.964522
 11
3822.370094
 21
2296.964522
  0
SOLID
  8
0
 62
     1
 10
3636.518239
 20
2303.434998
 11
3636.518239
 21
2290.494046
 12
3612.370094
 22
2296.964522
 13
3612.370094
 23
2296.964522
  0
SOLID
  8
0
 62
     1
 10
3798.221948
 20
2290.494046
 11
3798.221948
 21
2303.434998
 12
3822.370094
 22
2296.964522
 13
3822.370094
 23
2296.964522
  0
LINE
  8
0
 62
     1
  6
CONTINUOUS
 10
3612.370094
 20
2163.589268
 11
3612.370094
 21
2306.964522
  0
LINE
  8
0
 62
     1
  6
CONTINUOUS
 10
3822.370094
 20
2163.589268
 11
3822.370094
 21
2306.964522
  0
TEXT
  8
0
 62
     1
 10
3689.370094
 20
2302.297855
 40
32.000000
 50
0.000000E+00
 41
0.58 
  1
210
 72
     5
 11
3745.370094
 21
2302.297855
  0
ENDBLK
  0
BLOCK
  8
0
  2
G6
 70
     0
 10
0
 20
0
  0
LINE
  8
0
 62
     1
  6
CONTINUOUS
 10
3664.526054
 20
2381.795790
 11
3489.163572
 21
2206.433308
  0
SOLID
  8
0
 62
     1
 10
3652.026054
 20
2360.145155
 11
3642.875419
 21
2369.295790
 12
3664.526054
 22
2381.795790
 13
3664.526054
 23
2381.795790
  0
SOLID
  8
0
 62
     1
 10
3501.663572
 20
2228.083943
 11
3510.814207
 21
2218.933308
 12
3489.163572
 22
2206.433308
 13
3489.163572
 23
2206.433308
  0
TEXT
  8
0
 62
     1
 10
3553.274587
 20
2278.086795
 40
32.000000
 50
45.000000
 41
0.58 
  1
248
 72
     5
 11
3592.872567
 21
2317.684775
  0
ENDBLK
  0
BLOCK
  8
0
  2
G7
 70
     0
 10
0
 20
0
  0
LINE
  8
0
 62
     3
  6
CONTINUOUS
 10
3097.560047
 20
1414.224772
 11
3075.057592
 21
1427.216570
  0
LINE
  8
0
 62
     3
  6
CONTINUOUS
 10
3082.142578
 20
1387.520932
 11
3097.560047
 21
1414.224772
  0
TEXT
  8
0
 62
     3
 10
3070.349294
 20
1355.162715
 40
32.000000
 50
0.000000E+00
 41
0.86 
  1
Ｃ
 72
     5
 11
3102.349294
 21
1355.162715
  0
LINE
  8
0
 62
     3
  6
CONTINUOUS
 10
3082.142578
 20
1434.891181
 11
3082.142578
 21
1387.520932
  0
LINE
  8
0
 62
     3
  6
CONTINUOUS
 10
3082.142578
 20
1434.891181
 11
3002.580014
 21
1434.891181
  0
ENDBLK
  0
BLOCK
  8
0
  2
G8
 70
     0
 10
0
 20
0
  0
TEXT
  8
0
 62
     1
 10
3701.370094
 20
1943.397909
 40
32.000000
 50
0.000000E+00
 41
0.86 
  1
Ａ
 72
     5
 11
3733.370094
 21
1943.397909
  0
LINE
  8
0
 62
     1
  6
CONTINUOUS
 10
3779.870094
 20
1941.264576
 11
3654.870094
 21
1941.264576
  0
SOLID
  8
0
 62
     1
 10
3750.892319
 20
1933.500005
 11
3750.892319
 21
1949.029148
 12
3779.870094
 22
1941.264576
 13
3779.870094
 23
1941.264576
  0
SOLID
  8
0
 62
     1
 10
3683.847868
 20
1949.029148
 11
3683.847868
 21
1933.500005
 12
3654.870094
 22
1941.264576
 13
3654.870094
 23
1941.264576
  0
LINE
  8
0
 62
     1
  6
CONTINUOUS
 10
3779.870094
 20
1989.589268
 11
3779.870094
 21
1937.264576
  0
LINE
  8
0
 62
     1
  6
CONTINUOUS
 10
3654.870094
 20
1989.589268
 11
3654.870094
 21
1937.264576
  0
ENDBLK
  0
BLOCK
  8
0
  2
G9
 70
     0
 10
0
 20
0
  0
LINE
  8
0
 62
     1
  6
CONTINUOUS
 10
3874.994840
 20
2058.271349
 11
3874.994840
 21
1993.589268
  0
LINE
  8
0
 62
     1
  6
CONTINUOUS
 10
3789.870094
 20
1993.589268
 11
3884.994840
 21
1993.589268
  0
TEXT
  8
0
 62
     1
 10
3869.661507
 20
2006.063502
 40
32.000000
 50
90.000000
 41
0.56 
  1
65
 72
     5
 11
3869.661507
 21
2042.063502
  0
LINE
  8
0
 62
     1
  6
CONTINUOUS
 10
3874.994840
 20
2108.271349
 11
3874.994840
 21
2058.271349
  0
SOLID
  8
0
 62
     1
 10
3868.524364
 20
2082.419495
 11
3881.465316
 21
2082.419495
 12
3874.994840
 22
2058.271349
 13
3874.994840
 23
2058.271349
  0
LINE
  8
0
 62
     1
  6
CONTINUOUS
 10
3874.994840
 20
1993.589268
 11
3874.994840
 21
1943.589268
  0
SOLID
  8
0
 62
     1
 10
3881.465316
 20
1969.441123
 11
3868.524364
 21
1969.441123
 12
3874.994840
 22
1993.589268
 13
3874.994840
 23
1993.589268
  0
ENDBLK
  0
BLOCK
  8
0
  2
G10
 70
     0
 10
0
 20
0
  0
LINE
  8
0
 62
     1
  6
CONTINUOUS
 10
3116.118163
 20
2182.089268
 11
3116.118163
 21
2117.089268
  0
LINE
  8
0
 62
     1
  6
CONTINUOUS
 10
2952.863476
 20
2182.089268
 11
3126.118163
 21
2182.089268
  0
LINE
  8
0
 62
     1
  6
CONTINUOUS
 10
2955.363476
 20
2117.089268
 11
3176.118163
 21
2117.089268
  0
TEXT
  8
0
 62
     1
 10
3110.784830
 20
2131.589268
 40
32.000000
 50
90.000000
 41
0.56 
  1
65
 72
     5
 11
3110.784830
 21
2167.589268
  0
LINE
  8
0
 62
     1
  6
CONTINUOUS
 10
3116.118163
 20
2232.089268
 11
3116.118163
 21
2182.089268
  0
SOLID
  8
0
 62
     1
 10
3109.647687
 20
2206.237414
 11
3122.588639
 21
2206.237414
 12
3116.118163
 22
2182.089268
 13
3116.118163
 23
2182.089268
  0
LINE
  8
0
 62
     1
  6
CONTINUOUS
 10
3116.118163
 20
2117.089268
 11
3116.118163
 21
2067.089268
  0
SOLID
  8
0
 62
     1
 10
3122.588639
 20
2092.941123
 11
3109.647687
 21
2092.941123
 12
3116.118163
 22
2117.089268
 13
3116.118163
 23
2117.089268
  0
ENDBLK
  0
BLOCK
  8
0
  2
G11
 70
     0
 10
0
 20
0
  0
TEXT
  8
0
 62
     1
 10
3568.661507
 20
2125.589268
 40
32.000000
 50
90.000000
 41
0.58 
  1
210
 72
     5
 11
3568.661507
 21
2181.589268
  0
LINE
  8
0
 62
     1
  6
CONTINUOUS
 10
3707.370094
 20
2258.589268
 11
3563.994840
 21
2258.589268
  0
LINE
  8
0
 62
     1
  6
CONTINUOUS
 10
3707.370094
 20
2048.589268
 11
3563.994840
 21
2048.589268
  0
LINE
  8
0
 62
     1
  6
CONTINUOUS
 10
3573.994840
 20
2048.589268
 11
3573.994840
 21
2258.589268
  0
SOLID
  8
0
 62
     1
 10
3567.524364
 20
2072.737414
 11
3580.465316
 21
2072.737414
 12
3573.994840
 22
2048.589268
 13
3573.994840
 23
2048.589268
  0
SOLID
  8
0
 62
     1
 10
3580.465316
 20
2234.441123
 11
3567.524364
 21
2234.441123
 12
3573.994840
 22
2258.589268
 13
3573.994840
 23
2258.589268
  0
ENDBLK
  0
BLOCK
  8
0
  2
G12
 70
     0
 10
0
 20
0
  0
LINE
  8
0
 62
     1
  6
CONTINUOUS
 10
2820.363476
 20
2063.834581
 11
2945.363476
 21
2063.834581
  0
SOLID
  8
0
 62
     1
 10
2844.511622
 20
2070.305058
 11
2844.511622
 21
2057.364105
 12
2820.363476
 22
2063.834581
 13
2820.363476
 23
2063.834581
  0
SOLID
  8
0
 62
     1
 10
2921.215330
 20
2057.364105
 11
2921.215330
 21
2070.305058
 12
2945.363476
 22
2063.834581
 13
2945.363476
 23
2063.834581
  0
LINE
  8
0
 62
     1
  6
CONTINUOUS
 10
2820.363476
 20
2107.089268
 11
2820.363476
 21
2053.834581
  0
LINE
  8
0
 62
     1
  6
CONTINUOUS
 10
2945.363476
 20
2107.089268
 11
2945.363476
 21
2053.834581
  0
TEXT
  8
0
 62
     1
 10
2824.863476
 20
2069.167914
 40
32.000000
 50
0.000000E+00
 41
0.60 
  1
%%c125
 72
     5
 11
2940.863476
 21
2069.167914
  0
ENDBLK
  0
BLOCK
  8
0
  2
G13
 70
     0
 10
0
 20
0
  0
LINE
  8
0
 62
     1
  6
CONTINUOUS
 10
3042.863476
 20
2400.343955
 11
3092.863476
 21
2400.343955
  0
SOLID
  8
0
 62
     1
 10
3067.011622
 20
2406.814431
 11
3067.011622
 21
2393.873479
 12
3042.863476
 22
2400.343955
 13
3042.863476
 23
2400.343955
  0
LINE
  8
0
 62
     1
  6
CONTINUOUS
 10
2927.863476
 20
2400.343955
 11
2977.863476
 21
2400.343955
  0
SOLID
  8
0
 62
     1
 10
2953.715330
 20
2393.873479
 11
2953.715330
 21
2406.814431
 12
2977.863476
 22
2400.343955
 13
2977.863476
 23
2400.343955
  0
TEXT
  8
0
 62
     1
 10
2992.363476
 20
2405.677288
 40
32.000000
 50
0.000000E+00
 41
0.56 
  1
65
 72
     5
 11
3028.363476
 21
2405.677288
  0
LINE
  8
0
 62
     1
  6
CONTINUOUS
 10
3042.863476
 20
2349.589268
 11
3042.863476
 21
2460.343955
  0
LINE
  8
0
 62
     1
  6
CONTINUOUS
 10
2977.863476
 20
2347.089268
 11
2977.863476
 21
2410.343955
  0
LINE
  8
0
 62
     1
  6
CONTINUOUS
 10
2977.863476
 20
2400.343955
 11
3042.863476
 21
2400.343955
  0
ENDBLK
  0
BLOCK
  8
0
  2
G14
 70
     0
 10
0
 20
0
  0
LINE
  8
0
 62
     1
  6
CONTINUOUS
 10
3299.940390
 20
1901.227117
 11
3299.940390
 21
1826.227117
  0
SOLID
  8
0
 62
     1
 10
3306.410866
 20
1877.078971
 11
3293.469913
 21
1877.078971
 12
3299.940390
 22
1901.227117
 13
3299.940390
 23
1901.227117
  0
SOLID
  8
0
 62
     1
 10
3293.469913
 20
1850.375262
 11
3306.410866
 21
1850.375262
 12
3299.940390
 22
1826.227117
 13
3299.940390
 23
1826.227117
  0
LINE
  8
0
 62
     1
  6
CONTINUOUS
 10
3309.940390
 20
1901.227117
 11
2963.053530
 21
1901.227117
  0
LINE
  8
0
 62
     1
  6
CONTINUOUS
 10
3309.940390
 20
1826.227117
 11
3179.940390
 21
1826.227117
  0
TEXT
  8
0
 62
     1
 10
3294.607057
 20
1845.727117
 40
32.000000
 50
90.000000
 41
0.56 
  1
75
 72
     5
 11
3294.607057
 21
1881.727117
  0
ENDBLK
  0
BLOCK
  8
0
  2
G15
 70
     0
 10
0
 20
0
  0
LINE
  8
0
 62
     1
  6
CONTINUOUS
 10
3119.940390
 20
1336.227117
 11
3119.940390
 21
1276.227117
  0
LINE
  8
0
 62
     1
  6
CONTINUOUS
 10
3129.940390
 20
1336.227117
 11
2993.417843
 21
1336.227117
  0
LINE
  8
0
 62
     1
  6
CONTINUOUS
 10
3129.940390
 20
1276.227117
 11
2920.632221
 21
1276.227117
  0
TEXT
  8
0
 62
     1
 10
3114.607057
 20
1290.227117
 40
32.000000
 50
90.000000
 41
0.86 
  1
Ｂ
 72
     5
 11
3114.607057
 21
1322.227117
  0
LINE
  8
0
 62
     1
  6
CONTINUOUS
 10
3119.940390
 20
1386.227117
 11
3119.940390
 21
1336.227117
  0
SOLID
  8
0
 62
     1
 10
3113.469913
 20
1360.375262
 11
3126.410866
 21
1360.375262
 12
3119.940390
 22
1336.227117
 13
3119.940390
 23
1336.227117
  0
LINE
  8
0
 62
     1
  6
CONTINUOUS
 10
3119.940390
 20
1276.227117
 11
3119.940390
 21
1226.227117
  0
SOLID
  8
0
 62
     1
 10
3126.410866
 20
1252.078971
 11
3113.469913
 21
1252.078971
 12
3119.940390
 22
1276.227117
 13
3119.940390
 23
1276.227117
  0
ENDBLK
  0
BLOCK
  8
0
  2
G16
 70
     0
 10
0
 20
0
  0
LINE
  8
0
 62
     1
  6
CONTINUOUS
 10
3239.940390
 20
1276.227117
 11
3239.940390
 21
1636.227117
  0
SOLID
  8
0
 62
     1
 10
3232.175818
 20
1305.204891
 11
3247.704961
 21
1305.204891
 12
3239.940390
 22
1276.227117
 13
3239.940390
 23
1276.227117
  0
SOLID
  8
0
 62
     1
 10
3247.704961
 20
1607.249342
 11
3232.175818
 21
1607.249342
 12
3239.940390
 22
1636.227117
 13
3239.940390
 23
1636.227117
  0
LINE
  8
0
 62
     1
  6
CONTINUOUS
 10
3249.940390
 20
1276.227117
 11
3129.940390
 21
1276.227117
  0
TEXT
  8
0
 62
     1
 10
3234.607057
 20
1440.227117
 40
32.000000
 50
90.000000
 41
0.86 
  1
Ｐ
 72
     5
 11
3234.607057
 21
1472.227117
  0
ENDBLK
  0
BLOCK
  8
0
  2
G17
 70
     0
 10
0
 20
0
  0
LINE
  8
0
 62
     1
  6
CONTINUOUS
 10
3179.940390
 20
1576.227117
 11
3179.940390
 21
1826.227117
  0
SOLID
  8
0
 62
     1
 10
3172.175818
 20
1605.204891
 11
3187.704961
 21
1605.204891
 12
3179.940390
 22
1576.227117
 13
3179.940390
 23
1576.227117
  0
SOLID
  8
0
 62
     1
 10
3187.704961
 20
1797.249342
 11
3172.175818
 21
1797.249342
 12
3179.940390
 22
1826.227117
 13
3179.940390
 23
1826.227117
  0
LINE
  8
0
 62
     1
  6
CONTINUOUS
 10
3129.940390
 20
1576.227117
 11
3189.940390
 21
1576.227117
  0
LINE
  8
0
 62
     1
  6
CONTINUOUS
 10
2892.863476
 20
1826.227117
 11
3189.940390
 21
1826.227117
  0
TEXT
  8
0
 62
     1
 10
3174.607057
 20
1623.227117
 40
32.000000
 50
90.000000
 41
0.61 
  1
250(280)
 72
     5
 11
3174.607057
 21
1779.227117
  0
ENDBLK
  0
BLOCK
  8
0
  2
G18
 70
     0
 10
0
 20
0
  0
LINE
  8
0
 62
     1
  6
CONTINUOUS
 10
3119.940390
 20
1186.227117
 11
3119.940390
 21
1066.227117
  0
SOLID
  8
0
 62
     1
 10
3126.410866
 20
1162.078971
 11
3113.469913
 21
1162.078971
 12
3119.940390
 22
1186.227117
 13
3119.940390
 23
1186.227117
  0
SOLID
  8
0
 62
     1
 10
3113.469913
 20
1090.375262
 11
3126.410866
 21
1090.375262
 12
3119.940390
 22
1066.227117
 13
3119.940390
 23
1066.227117
  0
LINE
  8
0
 62
     1
  6
CONTINUOUS
 10
2973.612565
 20
1186.227117
 11
3129.940390
 21
1186.227117
  0
LINE
  8
0
 62
     1
  6
CONTINUOUS
 10
2943.114387
 20
1066.227117
 11
3129.940390
 21
1066.227117
  0
TEXT
  8
0
 62
     1
 10
3114.607057
 20
1098.227117
 40
32.000000
 50
90.000000
 41
0.58 
  1
120
 72
     5
 11
3114.607057
 21
1154.227117
  0
ENDBLK
  0
BLOCK
  8
0
  2
G19
 70
     0
 10
0
 20
0
  0
LINE
  8
0
 62
     1
  6
CONTINUOUS
 10
3119.940390
 20
1066.227117
 11
3119.940390
 21
916.227117
  0
SOLID
  8
0
 62
     1
 10
3126.410866
 20
1042.078971
 11
3113.469913
 21
1042.078971
 12
3119.940390
 22
1066.227117
 13
3119.940390
 23
1066.227117
  0
SOLID
  8
0
 62
     1
 10
3113.469913
 20
940.375262
 11
3126.410866
 21
940.375262
 12
3119.940390
 22
916.227117
 13
3119.940390
 23
916.227117
  0
LINE
  8
0
 62
     1
  6
CONTINUOUS
 10
2945.863476
 20
916.227117
 11
3129.940390
 21
916.227117
  0
TEXT
  8
0
 62
     1
 10
3114.607057
 20
963.227117
 40
32.000000
 50
90.000000
 41
0.58 
  1
150
 72
     5
 11
3114.607057
 21
1019.227117
  0
ENDBLK
  0
BLOCK
  8
0
  2
G20
 70
     0
 10
0
 20
0
  0
LINE
  8
0
 62
     1
  6
CONTINUOUS
 10
3239.940390
 20
1276.227117
 11
3239.940390
 21
916.227117
  0
SOLID
  8
0
 62
     1
 10
3246.410866
 20
1252.078971
 11
3233.469913
 21
1252.078971
 12
3239.940390
 22
1276.227117
 13
3239.940390
 23
1276.227117
  0
SOLID
  8
0
 62
     1
 10
3233.469913
 20
940.375262
 11
3246.410866
 21
940.375262
 12
3239.940390
 22
916.227117
 13
3239.940390
 23
916.227117
  0
LINE
  8
0
 62
     1
  6
CONTINUOUS
 10
3249.940390
 20
916.227117
 11
3129.940390
 21
916.227117
  0
TEXT
  8
0
 62
     1
 10
3234.607057
 20
1068.227117
 40
32.000000
 50
90.000000
 41
0.58 
  1
360
 72
     5
 11
3234.607057
 21
1124.227117
  0
ENDBLK
  0
BLOCK
  8
0
  2
G21
 70
     0
 10
0
 20
0
  0
LINE
  8
0
 62
     1
  6
CONTINUOUS
 10
3299.940390
 20
1826.227117
 11
3299.940390
 21
916.227117
  0
SOLID
  8
0
 62
     1
 10
3306.410866
 20
1802.078971
 11
3293.469913
 21
1802.078971
 12
3299.940390
 22
1826.227117
 13
3299.940390
 23
1826.227117
  0
SOLID
  8
0
 62
     1
 10
3293.469913
 20
940.375262
 11
3306.410866
 21
940.375262
 12
3299.940390
 22
916.227117
 13
3299.940390
 23
916.227117
  0
LINE
  8
0
 62
     1
  6
CONTINUOUS
 10
3249.940390
 20
916.227117
 11
3309.940390
 21
916.227117
  0
TEXT
  8
0
 62
     1
 10
3294.607057
 20
1277.227117
 40
32.000000
 50
90.000000
 41
0.89 
  1
Ｌ（有効長）
 72
     5
 11
3294.607057
 21
1473.227117
  0
ENDBLK
  0
BLOCK
  8
0
  2
G22
 70
     0
 10
0
 20
0
  0
LINE
  8
0
 62
     1
  6
CONTINUOUS
 10
3359.940390
 20
1901.227117
 11
3359.940390
 21
916.227117
  0
SOLID
  8
0
 62
     1
 10
3366.410866
 20
1877.078971
 11
3353.469913
 21
1877.078971
 12
3359.940390
 22
1901.227117
 13
3359.940390
 23
1901.227117
  0
SOLID
  8
0
 62
     1
 10
3353.469913
 20
940.375262
 11
3366.410866
 21
940.375262
 12
3359.940390
 22
916.227117
 13
3359.940390
 23
916.227117
  0
LINE
  8
0
 62
     1
  6
CONTINUOUS
 10
3309.940390
 20
1901.227117
 11
3369.940390
 21
1901.227117
  0
LINE
  8
0
 62
     1
  6
CONTINUOUS
 10
3309.940390
 20
916.227117
 11
3369.940390
 21
916.227117
  0
TEXT
  8
0
 62
     1
 10
3354.607057
 20
1372.727117
 40
32.000000
 50
90.000000
 41
0.97 
  1
Ｌｔ
 72
     5
 11
3354.607057
 21
1444.727117
  0
ENDBLK
  0
BLOCK
  8
0
  2
G23
 70
     0
 10
0
 20
0
  0
TEXT
  8
0
 62
     7
 10
3439.137258
 20
1911.758430
 40
32.000000
 50
360.000000
 41
0.66 
  1
％％ｃ　　　枝管
 72
     5
 11
3631.137258
 21
1911.758430
  0
LINE
  8
0
 62
     3
  6
CONTINUOUS
 10
3631.436326
 20
1902.260842
 11
3469.572083
 21
1902.260842
  0
LINE
  8
0
 62
     3
  6
CONTINUOUS
 10
3631.436326
 20
1894.260842
 11
3469.572083
 21
1894.260842
  0
ENDBLK
  0
BLOCK
  8
0
  2
G24
 70
     0
 10
0
 20
0
  0
LINE
  8
0
 62
     1
  6
CONTINUOUS
 10
2715.786562
 20
1573.727117
 11
2715.786562
 21
1483.144416
  0
SOLID
  8
0
 62
     1
 10
2722.257038
 20
1549.578971
 11
2709.316086
 21
1549.578971
 12
2715.786562
 22
1573.727117
 13
2715.786562
 23
1573.727117
  0
TEXT
  8
0
 62
     1
 10
2710.453229
 20
1487.999037
 40
32.000000
 50
90.000000
 41
0.58 
  1
2.5
 72
     5
 11
2710.453229
 21
1543.999037
  0
LINE
  8
0
 62
     1
  6
CONTINUOUS
 10
2705.786562
 20
1573.727117
 11
2882.863476
 21
1573.727117
  0
LINE
  8
0
 62
     1
  6
CONTINUOUS
 10
2715.786562
 20
1573.727117
 11
2715.786562
 21
1576.227117
  0
ENDBLK
  0
BLOCK
  8
0
  2
G25
 70
     0
 10
0
 20
0
  0
LINE
  8
0
 62
     1
  6
CONTINUOUS
 10
2715.786562
 20
1636.227117
 11
2715.786562
 21
1686.227117
  0
SOLID
  8
0
 62
     1
 10
2708.021991
 20
1665.204891
 11
2723.551134
 21
1665.204891
 12
2715.786562
 22
1636.227117
 13
2715.786562
 23
1636.227117
  0
TEXT
  8
0
 62
     1
 10
2710.453229
 20
1588.227117
 40
32.000000
 50
90.000000
 41
0.56 
  1
60
 72
     5
 11
2710.453229
 21
1624.227117
  0
LINE
  8
0
 62
     1
  6
CONTINUOUS
 10
2705.786562
 20
1636.227117
 11
2780.937527
 21
1636.227117
  0
LINE
  8
0
 62
     1
  6
CONTINUOUS
 10
2705.786562
 20
1576.227117
 11
2882.863476
 21
1576.227117
  0
LINE
  8
0
 62
     1
  6
CONTINUOUS
 10
2715.786562
 20
1576.227117
 11
2715.786562
 21
1636.227117
  0
CIRCLE
  8
0
 62
     1
  6
CONTINUOUS
 10
2715.786562
 20
1576.227117
 40
2.500000
  0
CIRCLE
  8
0
 62
     1
  6
CONTINUOUS
 10
2715.786562
 20
1576.227117
 40
1.250000
  0
ENDBLK
  0
BLOCK
  8
0
  2
G26
 70
     0
 10
0
 20
0
  0
LINE
  8
0
 62
     1
  6
CONTINUOUS
 10
3119.940390
 20
1636.227117
 11
3119.940390
 21
1686.227117
  0
SOLID
  8
0
 62
     1
 10
3112.175818
 20
1665.204891
 11
3127.704961
 21
1665.204891
 12
3119.940390
 22
1636.227117
 13
3119.940390
 23
1636.227117
  0
TEXT
  8
0
 62
     1
 10
3114.607057
 20
1588.227117
 40
32.000000
 50
90.000000
 41
0.56 
  1
60
 72
     5
 11
3114.607057
 21
1624.227117
  0
LINE
  8
0
 62
     1
  6
CONTINUOUS
 10
3058.797182
 20
1636.227117
 11
3129.940390
 21
1636.227117
  0
LINE
  8
0
 62
     1
  6
CONTINUOUS
 10
3047.863476
 20
1576.227117
 11
3129.940390
 21
1576.227117
  0
LINE
  8
0
 62
     1
  6
CONTINUOUS
 10
3119.940390
 20
1576.227117
 11
3119.940390
 21
1636.227117
  0
CIRCLE
  8
0
 62
     1
  6
CONTINUOUS
 10
3119.940390
 20
1576.227117
 40
2.500000
  0
CIRCLE
  8
0
 62
     1
  6
CONTINUOUS
 10
3119.940390
 20
1576.227117
 40
1.250000
  0
ENDBLK
  0
BLOCK
  8
0
  2
G27
 70
     0
 10
0
 20
0
  0
LINE
  8
0
 62
     1
  6
CONTINUOUS
 10
3119.940390
 20
1573.727117
 11
3119.940390
 21
1483.144416
  0
SOLID
  8
0
 62
     1
 10
3126.410866
 20
1549.578971
 11
3113.469913
 21
1549.578971
 12
3119.940390
 22
1573.727117
 13
3119.940390
 23
1573.727117
  0
TEXT
  8
0
 62
     1
 10
3114.607057
 20
1487.999037
 40
32.000000
 50
90.000000
 41
0.58 
  1
2.5
 72
     5
 11
3114.607057
 21
1543.999037
  0
LINE
  8
0
 62
     1
  6
CONTINUOUS
 10
3129.940390
 20
1573.727117
 11
3047.863476
 21
1573.727117
  0
LINE
  8
0
 62
     1
  6
CONTINUOUS
 10
3119.940390
 20
1573.727117
 11
3119.940390
 21
1576.227117
  0
ENDBLK
  0
BLOCK
  8
0
  2
G28
 70
     0
 10
0
 20
0
  0
LINE
  8
0
 62
     7
  6
CONTINUOUS
 10
2807.863476
 20
1911.227117
 11
2807.863476
 21
1954.751724
  0
LINE
  8
0
 62
     7
  6
CONTINUOUS
 10
2957.863476
 20
1911.227117
 11
2957.863476
 21
1954.751724
  0
LINE
  8
0
 62
     7
  6
CONTINUOUS
 10
2807.863476
 20
1944.751724
 11
2957.863476
 21
1944.751724
  0
SOLID
  8
0
 62
     7
 10
2827.181992
 20
1949.928105
 11
2827.181992
 21
1939.575343
 12
2807.863476
 22
1944.751724
 13
2807.863476
 23
1944.751724
  0
SOLID
  8
0
 62
     7
 10
2938.544959
 20
1939.575343
 11
2938.544959
 21
1949.928105
 12
2957.863476
 22
1944.751724
 13
2957.863476
 23
1944.751724
  0
TEXT
  8
0
 62
     7
 10
2824.863476
 20
1950.085054
 40
32.000000
 50
0.000000E+00
 41
0.60 
  1
%%c150
 72
     5
 11
2940.863476
 21
1950.085054
  0
ENDBLK
  0
BLOCK
  8
0
  2
G29
 70
     0
 10
0
 20
0
  0
LINE
  8
0
 62
     7
  6
CONTINUOUS
 10
2796.863476
 20
1731.986486
 11
2796.863476
 21
2016.948668
  0
LINE
  8
0
 62
     7
  6
CONTINUOUS
 10
2968.863476
 20
1721.986486
 11
2968.863476
 21
2016.948668
  0
LINE
  8
0
 62
     7
  6
CONTINUOUS
 10
2796.863476
 20
2006.948668
 11
2968.863476
 21
2006.948668
  0
SOLID
  8
0
 62
     7
 10
2816.181992
 20
2012.125048
 11
2816.181992
 21
2001.772287
 12
2796.863476
 22
2006.948668
 13
2796.863476
 23
2006.948668
  0
SOLID
  8
0
 62
     7
 10
2949.544959
 20
2001.772287
 11
2949.544959
 21
2012.125048
 12
2968.863476
 22
2006.948668
 13
2968.863476
 23
2006.948668
  0
TEXT
  8
0
 62
     7
 10
2824.863476
 20
2012.281997
 40
32.000000
 50
0.000000E+00
 41
0.60 
  1
%%c172
 72
     5
 11
2940.863476
 21
2012.281997
  0
ENDBLK
  0
BLOCK
  8
0
  2
G30
 70
     0
 10
0
 20
0
  0
LINE
  8
0
 62
     7
  6
CONTINUOUS
 10
2827.863476
 20
906.227117
 11
2827.863476
 21
831.592951
  0
LINE
  8
0
 62
     7
  6
CONTINUOUS
 10
2937.863476
 20
906.227117
 11
2937.863476
 21
831.592951
  0
LINE
  8
0
 62
     7
  6
CONTINUOUS
 10
2827.863476
 20
841.592951
 11
2937.863476
 21
841.592951
  0
SOLID
  8
0
 62
     7
 10
2847.181992
 20
846.769332
 11
2847.181992
 21
836.416570
 12
2827.863476
 22
841.592951
 13
2827.863476
 23
841.592951
  0
SOLID
  8
0
 62
     7
 10
2918.544959
 20
836.416570
 11
2918.544959
 21
846.769332
 12
2937.863476
 22
841.592951
 13
2937.863476
 23
841.592951
  0
TEXT
  8
0
 62
     7
 10
2824.863476
 20
846.926280
 40
32.000000
 50
0.000000E+00
 41
0.60 
  1
%%c110
 72
     5
 11
2940.863476
 21
846.926280
  0
ENDBLK
  0
BLOCK
  8
0
  2
G31
 70
     0
 10
0
 20
0
  0
LINE
  8
0
 62
     7
  6
CONTINUOUS
 10
2796.863476
 20
1170.099028
 11
2796.863476
 21
766.948668
  0
LINE
  8
0
 62
     7
  6
CONTINUOUS
 10
2968.863476
 20
1180.099028
 11
2968.863476
 21
766.948668
  0
LINE
  8
0
 62
     7
  6
CONTINUOUS
 10
2796.863476
 20
776.948668
 11
2968.863476
 21
776.948668
  0
SOLID
  8
0
 62
     7
 10
2816.181992
 20
782.125048
 11
2816.181992
 21
771.772287
 12
2796.863476
 22
776.948668
 13
2796.863476
 23
776.948668
  0
SOLID
  8
0
 62
     7
 10
2949.544959
 20
771.772287
 11
2949.544959
 21
782.125048
 12
2968.863476
 22
776.948668
 13
2968.863476
 23
776.948668
  0
TEXT
  8
0
 62
     7
 10
2824.863476
 20
782.281997
 40
32.000000
 50
0.000000E+00
 41
0.60 
  1
%%c172
 72
     5
 11
2940.863476
 21
782.281997
  0
ENDBLK
  0
BLOCK
  8
0
  2
G32
 70
     0
 10
0
 20
0
  0
LINE
  8
0
 62
     7
  6
CONTINUOUS
 10
3121.415957
 20
2277.089268
 11
3184.337256
 21
2277.089268
  0
LINE
  8
0
 62
     7
  6
CONTINUOUS
 10
2965.363476
 20
2117.089268
 11
3184.337256
 21
2117.089268
  0
LINE
  8
0
 62
     7
  6
CONTINUOUS
 10
3174.337256
 20
2277.089268
 11
3174.337256
 21
2117.089268
  0
SOLID
  8
0
 62
     7
 10
3179.513637
 20
2257.770752
 11
3169.160875
 21
2257.770752
 12
3174.337256
 22
2277.089268
 13
3174.337256
 23
2277.089268
  0
SOLID
  8
0
 62
     7
 10
3169.160875
 20
2136.407785
 11
3179.513637
 21
2136.407785
 12
3174.337256
 22
2117.089268
 13
3174.337256
 23
2117.089268
  0
TEXT
  8
0
 62
     7
 10
3169.003926
 20
2169.089268
 40
32.000000
 50
90.000000
 41
0.58 
  1
160
 72
     5
 11
3169.003926
 21
2225.089268
  0
ENDBLK
  0
BLOCK
  8
0
  2
G33
 70
     0
 10
0
 20
0
  0
LINE
  8
0
 62
     7
  6
CONTINUOUS
 10
2787.863476
 20
2349.089268
 11
2787.863476
 21
2469.299426
  0
LINE
  8
0
 62
     7
  6
CONTINUOUS
 10
2882.863476
 20
2395.530428
 11
2882.863476
 21
2469.299426
  0
LINE
  8
0
 62
     7
  6
CONTINUOUS
 10
2787.863476
 20
2459.299426
 11
2882.863476
 21
2459.299426
  0
SOLID
  8
0
 62
     7
 10
2807.181992
 20
2464.475807
 11
2807.181992
 21
2454.123045
 12
2787.863476
 22
2459.299426
 13
2787.863476
 23
2459.299426
  0
SOLID
  8
0
 62
     7
 10
2863.544959
 20
2454.123045
 11
2863.544959
 21
2464.475807
 12
2882.863476
 22
2459.299426
 13
2882.863476
 23
2459.299426
  0
TEXT
  8
0
 62
     7
 10
2817.363476
 20
2464.632756
 40
32.000000
 50
0.000000E+00
 41
0.56 
  1
95
 72
     5
 11
2853.363476
 21
2464.632756
  0
ENDBLK
  0
BLOCK
  8
0
  2
G34
 70
     0
 10
0
 20
0
  0
LINE
  8
0
 62
     7
  6
CONTINUOUS
 10
2882.863476
 20
2379.187720
 11
2882.863476
 21
2469.299426
  0
LINE
  8
0
 62
     7
  6
CONTINUOUS
 10
3042.863476
 20
2359.589268
 11
3042.863476
 21
2469.299426
  0
LINE
  8
0
 62
     7
  6
CONTINUOUS
 10
2882.863476
 20
2459.299426
 11
3042.863476
 21
2459.299426
  0
SOLID
  8
0
 62
     7
 10
2902.181992
 20
2464.475807
 11
2902.181992
 21
2454.123045
 12
2882.863476
 22
2459.299426
 13
2882.863476
 23
2459.299426
  0
SOLID
  8
0
 62
     7
 10
3023.544959
 20
2454.123045
 11
3023.544959
 21
2464.475807
 12
3042.863476
 22
2459.299426
 13
3042.863476
 23
2459.299426
  0
TEXT
  8
0
 62
     7
 10
2934.863476
 20
2464.632756
 40
32.000000
 50
0.000000E+00
 41
0.58 
  1
160
 72
     5
 11
2990.863476
 21
2464.632756
  0
ENDBLK
  0
ENDSEC
  0
SECTION
  2
ENTITIES
  0
INSERT
  8
0
  2
G0
 10
0
 20
0
  0
INSERT
  8
0
  2
G1
 10
0
 20
0
  0
INSERT
  8
0
  2
G2
 10
0
 20
0
  0
POINT
  8
3
 62
     7
 10
2968.863476
 20
1396.227117
  0
POINT
  8
3
 62
     4
 10
2968.863476
 20
1274.227117
  0
LINE
  8
3
 62
     4
  6
CONTINUOUS
 10
2815.710101
 20
1381.227117
 11
2840.213740
 21
1381.227117
  0
LINE
  8
0
 62
     2
  6
CONTINUOUS
 10
2784.863476
 20
1431.728715
 11
2784.863476
 21
1433.728715
  0
LINE
  8
0
 62
     2
  6
CONTINUOUS
 10
2777.863476
 20
1434.728715
 11
2882.863476
 21
1434.728715
  0
LINE
  8
0
 62
     2
  6
CONTINUOUS
 10
2784.863476
 20
1431.728715
 11
2980.863476
 21
1431.728715
  0
LINE
  8
0
 62
     2
  6
CONTINUOUS
 10
2777.863476
 20
1434.728715
 11
2777.863476
 21
1442.728715
  0
LINE
  8
0
 62
     3
  6
CONTINUOUS
 10
2968.863476
 20
1701.227117
 11
2968.863476
 21
1711.986486
  0
LINE
  8
3
 62
     3
  6
CONTINUOUS
 10
2957.863476
 20
1896.227117
 11
2882.863476
 21
1896.227117
  0
LINE
  8
3
 62
     3
  6
CONTINUOUS
 10
2807.863476
 20
1901.227117
 11
2957.863476
 21
1901.227117
  0
LINE
  8
3
 62
     3
  6
CONTINUOUS
 10
2807.863476
 20
1901.227117
 11
2807.863476
 21
1896.227117
  0
LINE
  8
0
 62
     3
  6
CONTINUOUS
 10
2968.863476
 20
1571.227117
 11
2968.863476
 21
1449.728715
  0
ARC
  8
3
 62
     3
  6
CONTINUOUS
 10
2944.863476
 20
1824.227117
 40
10.000000
 50
302.527138
 51
360.000000
  0
LINE
  8
3
 62
     3
  6
CONTINUOUS
 10
2810.863476
 20
1891.644541
 11
2810.863476
 21
1824.227117
  0
LINE
  8
3
 62
     3
  6
CONTINUOUS
 10
2954.863476
 20
1891.644541
 11
2954.863476
 21
1824.227117
  0
ARC
  8
3
 62
     3
  6
CONTINUOUS
 10
2820.863476
 20
1824.227117
 40
10.000000
 50
180.000000
 51
238.038250
  0
LINE
  8
3
 62
     3
  6
CENTER
 10
3048.797182
 20
1636.227117
 11
2780.937527
 21
1636.227117
  0
LINE
  8
0
 62
     2
  6
CONTINUOUS
 10
2980.863476
 20
1449.728715
 11
2987.863476
 21
1442.728715
  0
ARC
  8
3
 62
     3
  6
CONTINUOUS
 10
2805.863476
 20
1891.644541
 40
5.000000
 50
360.000000
 51
426.421822
  0
LINE
  8
3
 62
     3
  6
CONTINUOUS
 10
2957.863476
 20
1901.227117
 11
2957.863476
 21
1896.227117
  0
ARC
  8
0
 62
     3
  6
CONTINUOUS
 10
2933.863476
 20
1711.986486
 40
35.000000
 50
0.000000E+00
 51
17.716492
  0
ARC
  8
3
 62
     3
  6
CONTINUOUS
 10
2959.863476
 20
1891.644541
 40
5.000000
 50
113.578178
 51
180.000000
  0
LINE
  8
3
 62
     3
  6
CONTINUOUS
 10
2960.602498
 20
1719.103002
 11
2882.863476
 21
1719.103002
  0
ARC
  8
3
 62
     4
  6
CONTINUOUS
 10
2802.863476
 20
1062.355205
 40
25.000000
 50
0.000000E+00
 51
14.708304
  0
LINE
  8
3
 62
     4
  6
CONTINUOUS
 10
2798.010392
 20
1181.212593
 11
2827.044250
 21
1068.702658
  0
ARC
  8
3
 62
     4
  6
CONTINUOUS
 10
2831.863476
 20
1190.099028
 40
35.000000
 50
180.000000
 51
194.708304
  0
LINE
  8
3
 62
     4
  6
CONTINUOUS
 10
2827.863476
 20
1062.355205
 11
2827.863476
 21
918.227117
  0
ARC
  8
3
 62
     4
  6
CONTINUOUS
 10
2962.863476
 20
1062.355205
 40
25.000000
 50
165.291696
 51
180.000000
  0
LINE
  8
3
 62
     4
  6
CONTINUOUS
 10
2967.716560
 20
1181.212593
 11
2938.682702
 21
1068.702658
  0
ARC
  8
3
 62
     4
  6
CONTINUOUS
 10
2933.863476
 20
1190.099028
 40
35.000000
 50
345.291696
 51
360.000000
  0
LINE
  8
3
 62
     4
  6
CONTINUOUS
 10
2937.863476
 20
1062.355205
 11
2937.863476
 21
918.227117
  0
LINE
  8
3
 62
     4
  6
CONTINUOUS
 10
2935.863476
 20
916.227117
 11
2829.863476
 21
916.227117
  0
LINE
  8
3
 62
     4
  6
CONTINUOUS
 10
2832.612565
 20
1066.227117
 11
2933.114387
 21
1066.227117
  0
LINE
  8
3
 62
     4
  6
CONTINUOUS
 10
2802.114387
 20
1186.227117
 11
2963.612565
 21
1186.227117
  0
LINE
  8
3
 62
     4
  6
CONTINUOUS
 10
2796.863476
 20
1186.227117
 11
2796.863476
 21
1271.227117
  0
LINE
  8
3
 62
     4
  6
CONTINUOUS
 10
2975.863476
 20
1406.926479
 11
2789.863476
 21
1406.926479
  0
LINE
  8
3
 62
     4
  6
CONTINUOUS
 10
2968.863476
 20
1190.099028
 11
2968.863476
 21
1406.926479
  0
LINE
  8
3
 62
     4
  6
CONTINUOUS
 10
2778.863476
 20
1416.227117
 11
2986.863476
 21
1416.227117
  0
LINE
  8
3
 62
     4
  6
CONTINUOUS
 10
2987.863476
 20
1431.227117
 11
2777.863476
 21
1431.227117
  0
ARC
  8
3
 62
     4
  6
CONTINUOUS
 10
2829.863476
 20
918.227117
 40
2.000000
 50
180.000000
 51
270.000000
  0
ARC
  8
3
 62
     4
  6
CONTINUOUS
 10
2935.863476
 20
918.227117
 40
2.000000
 50
270.000000
 51
360.000000
  0
LINE
  8
3
 62
     4
  6
CONTINUOUS
 10
2987.863476
 20
1431.227117
 11
2987.863476
 21
1416.227117
  0
LINE
  8
3
 62
     4
  6
CONTINUOUS
 10
2986.863476
 20
1416.227117
 11
2987.863476
 21
1416.227117
  0
LINE
  8
3
 62
     4
  6
CENTER
 10
2779.356192
 20
1336.227117
 11
2979.481707
 21
1336.227117
  0
LINE
  8
3
 62
     3
  6
CENTER
 10
2804.374623
 20
1407.283548
 11
2804.374623
 21
1437.774319
  0
LINE
  8
3
 62
     3
  6
CENTER
 10
2961.352329
 20
1407.283548
 11
2961.352329
 21
1437.774319
  0
ARC
  8
3
 62
     4
  6
CONTINUOUS
 10
2986.863476
 20
1414.227117
 40
2.000000
 50
90.000000
 51
180.000000
  0
LINE
  8
3
 62
     4
  6
CONTINUOUS
 10
2984.863476
 20
1414.227117
 11
2984.863476
 21
1412.727117
  0
LINE
  8
3
 62
     4
  6
CONTINUOUS
 10
2925.513212
 20
1381.227117
 11
2958.669666
 21
1381.227117
  0
ARC
  8
3
 62
     4
  6
CONTINUOUS
 10
2983.363476
 20
1412.727117
 40
1.500000
 50
270.000000
 51
360.000000
  0
LINE
  8
3
 62
     4
  6
CONTINUOUS
 10
2983.363476
 20
1411.227117
 11
2782.363476
 21
1411.227117
  0
LINE
  8
3
 62
     4
  6
CONTINUOUS
 10
2979.422624
 20
1411.227117
 11
2975.863476
 21
1406.926479
  0
LINE
  8
3
 62
     4
  6
CONTINUOUS
 10
2789.863476
 20
1406.926479
 11
2789.863476
 21
1398.227117
  0
LINE
  8
3
 62
     4
  6
CONTINUOUS
 10
2786.304328
 20
1411.227117
 11
2789.863476
 21
1406.926479
  0
ARC
  8
3
 62
     4
  6
CONTINUOUS
 10
2782.363476
 20
1412.727117
 40
1.500000
 50
180.000000
 51
270.000000
  0
LINE
  8
3
 62
     4
  6
CONTINUOUS
 10
2780.863476
 20
1414.227117
 11
2780.863476
 21
1412.727117
  0
ARC
  8
3
 62
     4
  6
CONTINUOUS
 10
2778.863476
 20
1414.227117
 40
2.000000
 50
0.000000E+00
 51
90.000000
  0
LINE
  8
3
 62
     4
  6
CONTINUOUS
 10
2778.863476
 20
1416.227117
 11
2777.863476
 21
1416.227117
  0
LINE
  8
3
 62
     4
  6
CONTINUOUS
 10
2777.863476
 20
1431.227117
 11
2777.863476
 21
1416.227117
  0
LINE
  8
0
 62
     3
  6
CONTINUOUS
 10
2796.863476
 20
1711.986486
 11
2796.863476
 21
1701.227117
  0
ARC
  8
0
 62
     3
  6
CONTINUOUS
 10
2831.863476
 20
1711.986486
 40
35.000000
 50
162.283508
 51
180.000000
  0
LINE
  8
3
 62
     3
  6
CONTINUOUS
 10
2943.833460
 20
1815.743100
 11
2882.863476
 21
1815.743100
  0
LINE
  8
0
 62
     3
  6
CONTINUOUS
 10
2822.110159
 20
1798.036132
 11
2798.523388
 21
1722.637240
  0
LINE
  8
0
 62
     3
  6
CONTINUOUS
 10
2943.616793
 20
1798.036132
 11
2967.203563
 21
1722.637240
  0
ARC
  8
2
 62
     3
  6
CONTINUOUS
 10
2807.821550
 20
1802.600741
 40
15.000000
 50
342.283508
 51
419.888987
  0
LINE
  8
3
 62
     4
  6
CENTER
 10
2882.863476
 20
1143.831738
 11
2882.863476
 21
1455.909326
  0
LINE
  8
3
 62
     4
  6
CENTER
 10
2882.863476
 20
903.139597
 11
2882.863476
 21
1143.831738
  0
LINE
  8
0
 62
     2
  6
CONTINUOUS
 10
2784.863476
 20
1449.728715
 11
2777.863476
 21
1442.728715
  0
LINE
  8
0
 62
     3
  6
CONTINUOUS
 10
2796.863476
 20
1571.227117
 11
2796.863476
 21
1449.728715
  0
ARC
  8
2
 62
     3
  6
CONTINUOUS
 10
2957.905401
 20
1802.600741
 40
15.000000
 50
120.111013
 51
197.716492
  0
INSERT
  8
0
  2
G3
 10
0
 20
0
  0
LINE
  8
0
 62
     1
  6
CONTINUOUS
 10
3053.089812
 20
2277.089268
 11
3078.887997
 21
2277.089268
  0
ARC
  8
0
 62
     3
  6
CONTINUOUS
 10
2822.863476
 20
2184.089268
 40
2.000000
 50
180.000000
 51
270.000000
  0
LINE
  8
0
 62
     3
  6
CONTINUOUS
 10
2820.863476
 20
2184.089268
 11
2820.863476
 21
2212.089268
  0
ARC
  8
0
 62
     3
  6
CONTINUOUS
 10
2942.863476
 20
2184.089268
 40
2.000000
 50
270.000000
 51
360.000000
  0
LINE
  8
0
 62
     3
  6
CONTINUOUS
 10
2944.863476
 20
2184.089268
 11
2944.863476
 21
2212.089268
  0
LINE
  8
0
 62
     3
  6
CONTINUOUS
 10
2942.863476
 20
2182.089268
 11
2822.863476
 21
2182.089268
  0
ARC
  8
0
 62
     3
  6
CONTINUOUS
 10
2789.863476
 20
2217.089268
 40
2.000000
 50
180.000000
 51
270.000000
  0
LINE
  8
0
 62
     3
  6
CONTINUOUS
 10
2789.863476
 20
2215.089268
 11
2817.863476
 21
2215.089268
  0
ARC
  8
0
 62
     3
  6
CONTINUOUS
 10
2789.863476
 20
2337.089268
 40
2.000000
 50
90.000000
 51
180.000000
  0
LINE
  8
0
 62
     7
  6
CONTINUOUS
 10
3030.343034
 20
1742.311644
 11
3030.343034
 21
1700.527305
  0
SOLID
  8
0
 62
     7
 10
3022.578462
 20
1729.505080
 11
3038.107605
 21
1729.505080
 12
3030.343034
 22
1700.527305
 13
3030.343034
 23
1700.527305
  0
LINE
  8
0
 62
     3
  6
CONTINUOUS
 10
2789.863476
 20
2339.089268
 11
2822.545568
 21
2339.089268
  0
LINE
  8
0
 62
     3
  6
CONTINUOUS
 10
2787.863476
 20
2337.089268
 11
2787.863476
 21
2217.089268
  0
ARC
  8
0
 62
     3
  6
CONTINUOUS
 10
2947.863476
 20
2212.089268
 40
3.000000
 50
90.000000
 51
180.000000
  0
ARC
  8
0
 62
     3
  6
CONTINUOUS
 10
2817.863476
 20
2212.089268
 40
3.000000
 50
0.000000E+00
 51
90.000000
  0
CIRCLE
  8
0
 62
     3
  6
CONTINUOUS
 10
2882.863476
 20
2277.089268
 40
67.000000
  0
CIRCLE
  8
0
 62
     3
  6
CONTINUOUS
 10
2882.863476
 20
2277.089268
 40
52.000000
  0
ARC
  8
0
 62
     3
  6
CONTINUOUS
 10
2975.863476
 20
2337.089268
 40
2.000000
 50
0.000000E+00
 51
90.000000
  0
LINE
  8
0
 62
     3
  6
CONTINUOUS
 10
2975.863476
 20
2339.089268
 11
2943.181384
 21
2339.089268
  0
ARC
  8
0
 62
     3
  6
CONTINUOUS
 10
2975.863476
 20
2217.089268
 40
2.000000
 50
270.000000
 51
360.000000
  0
LINE
  8
0
 62
     3
  6
CONTINUOUS
 10
2975.863476
 20
2215.089268
 11
2947.863476
 21
2215.089268
  0
LINE
  8
3
 62
     3
  6
CONTINUOUS
 10
2966.677172
 20
1695.980203
 11
2963.114119
 21
1694.524020
  0
LINE
  8
3
 62
     3
  6
CONTINUOUS
 10
2963.114119
 20
1694.524020
 11
2959.677480
 21
1691.791880
  0
LINE
  8
3
 62
     3
  6
CONTINUOUS
 10
2959.677480
 20
1691.791880
 11
2956.442474
 21
1687.843582
  0
LINE
  8
3
 62
     3
  6
CONTINUOUS
 10
2956.442474
 20
1687.843582
 11
2953.479906
 21
1682.765544
  0
LINE
  8
3
 62
     3
  6
CONTINUOUS
 10
2953.479906
 20
1682.765544
 11
2950.854618
 21
1676.668910
  0
LINE
  8
3
 62
     3
  6
CONTINUOUS
 10
2950.854618
 20
1676.668910
 11
2948.624071
 21
1669.687117
  0
LINE
  8
3
 62
     3
  6
CONTINUOUS
 10
2948.624071
 20
1669.687117
 11
2946.837086
 21
1661.972979
  0
LINE
  8
3
 62
     3
  6
CONTINUOUS
 10
2946.837086
 20
1661.972979
 11
2945.532773
 21
1653.695335
  0
LINE
  8
3
 62
     3
  6
CONTINUOUS
 10
2945.532773
 20
1653.695335
 11
2944.739682
 21
1645.035360
  0
LINE
  8
3
 62
     3
  6
CONTINUOUS
 10
2945.532773
 20
1653.695335
 11
2944.739682
 21
1645.035360
  0
LINE
  8
3
 62
     3
  6
CONTINUOUS
 10
2944.739682
 20
1627.418873
 11
2945.417380
 21
1619.719469
  0
LINE
  8
3
 62
     3
  6
CONTINUOUS
 10
2945.417380
 20
1619.719469
 11
2946.499682
 21
1612.304614
  0
LINE
  8
3
 62
     3
  6
CONTINUOUS
 10
2946.499682
 20
1612.304614
 11
2947.967933
 21
1605.302121
  0
LINE
  8
3
 62
     3
  6
CONTINUOUS
 10
2947.967933
 20
1605.302121
 11
2949.796822
 21
1598.832694
  0
LINE
  8
3
 62
     3
  6
CONTINUOUS
 10
2949.796822
 20
1598.832694
 11
2951.954825
 21
1593.007849
  0
LINE
  8
3
 62
     3
  6
CONTINUOUS
 10
2951.954825
 20
1593.007849
 11
2954.404743
 21
1587.927991
  0
LINE
  8
3
 62
     3
  6
CONTINUOUS
 10
2954.404743
 20
1587.927991
 11
2957.104347
 21
1583.680685
  0
LINE
  8
3
 62
     3
  6
CONTINUOUS
 10
2957.104347
 20
1583.680685
 11
2960.007102
 21
1580.339142
  0
LINE
  8
3
 62
     3
  6
CONTINUOUS
 10
2960.007102
 20
1580.339142
 11
2963.062972
 21
1577.960961
  0
LINE
  8
3
 62
     3
  6
CONTINUOUS
 10
2963.062972
 20
1577.960961
 11
2966.219282
 21
1576.587137
  0
LINE
  8
3
 62
     3
  6
CONTINUOUS
 10
2963.062972
 20
1577.960961
 11
2966.219282
 21
1576.587137
  0
LINE
  8
3
 62
     4
  6
CONTINUOUS
 10
2800.063888
 20
1276.717316
 11
2803.468610
 21
1278.343896
  0
LINE
  8
3
 62
     4
  6
CONTINUOUS
 10
2803.468610
 20
1278.343896
 11
2806.746830
 21
1281.079067
  0
LINE
  8
3
 62
     4
  6
CONTINUOUS
 10
2806.746830
 20
1281.079067
 11
2809.835762
 21
1284.870446
  0
LINE
  8
3
 62
     4
  6
CONTINUOUS
 10
2809.835762
 20
1284.870446
 11
2812.676246
 21
1289.645417
  0
LINE
  8
3
 62
     4
  6
CONTINUOUS
 10
2812.676246
 20
1289.645417
 11
2815.213881
 21
1295.312531
  0
LINE
  8
3
 62
     4
  6
CONTINUOUS
 10
2815.213881
 20
1295.312531
 11
2817.400065
 21
1301.763250
  0
LINE
  8
3
 62
     4
  6
CONTINUOUS
 10
2817.400065
 20
1301.763250
 11
2819.192928
 21
1308.874027
  0
LINE
  8
3
 62
     4
  6
CONTINUOUS
 10
2819.192928
 20
1308.874027
 11
2820.558132
 21
1316.508677
  0
LINE
  8
3
 62
     4
  6
CONTINUOUS
 10
2820.558132
 20
1316.508677
 11
2821.469532
 21
1324.520978
  0
LINE
  8
3
 62
     4
  6
CONTINUOUS
 10
2820.558132
 20
1316.508677
 11
2821.469532
 21
1324.520978
  0
TEXT
  8
0
 62
     3
 10
3770.070826
 20
1806.492174
 40
32.000000
 50
0.000000E+00
 41
0.87 
  1
Ｃ矢視　（下部）
 72
     5
 11
4026.070826
 21
1806.492174
  0
LINE
  8
0
 62
     3
  6
CONTINUOUS
 10
3766.070826
 20
1801.158841
 11
4019.974961
 21
1801.158841
  0
TEXT
  8
0
 62
     7
 10
2996.717552
 20
1744.988985
 40
32.000000
 50
0.000000E+00
 41
0.78 
  1
７５枝管
 72
     5
 11
3108.717552
 21
1744.988985
  0
LINE
  8
3
 62
     4
  6
CONTINUOUS
 10
2821.469532
 20
1347.933255
 11
2821.085445
 21
1351.857217
  0
LINE
  8
3
 62
     4
  6
CONTINUOUS
 10
2821.085445
 20
1351.857217
 11
2820.592081
 21
1355.710664
  0
LINE
  8
3
 62
     4
  6
CONTINUOUS
 10
2820.592081
 20
1355.710664
 11
2819.991667
 21
1359.476211
  0
LINE
  8
3
 62
     4
  6
CONTINUOUS
 10
2819.991667
 20
1359.476211
 11
2819.286910
 21
1363.136872
  0
LINE
  8
3
 62
     4
  6
CONTINUOUS
 10
2819.286910
 20
1363.136872
 11
2818.480992
 21
1366.676130
  0
LINE
  8
3
 62
     4
  6
CONTINUOUS
 10
2818.480992
 20
1366.676130
 11
2817.577547
 21
1370.078019
  0
LINE
  8
3
 62
     4
  6
CONTINUOUS
 10
2817.577547
 20
1370.078019
 11
2816.580651
 21
1373.327191
  0
LINE
  8
3
 62
     4
  6
CONTINUOUS
 10
2816.580651
 20
1373.327191
 11
2815.494802
 21
1376.408988
  0
LINE
  8
3
 62
     4
  6
CONTINUOUS
 10
2815.494802
 20
1376.408988
 11
2814.324899
 21
1379.309505
  0
LINE
  8
3
 62
     4
  6
CONTINUOUS
 10
2815.494802
 20
1376.408988
 11
2814.324899
 21
1379.309505
  0
ARC
  8
3
 62
     4
  6
CONTINUOUS
 10
2822.735293
 20
1408.175616
 40
28.500781
 50
225.057601
 51
244.512889
  0
POINT
  8
3
 62
     7
 10
2796.863476
 20
1396.227117
  0
ARC
  8
1
 62
     4
  6
CONTINUOUS
 10
2789.863476
 20
1276.227117
 40
2.000000
 50
180.000000
 51
270.000000
  0
ARC
  8
1
 62
     4
  6
CONTINUOUS
 10
2789.863476
 20
1396.227117
 40
2.000000
 50
90.000000
 51
180.000000
  0
ARC
  8
1
 62
     4
  6
CONTINUOUS
 10
2793.863476
 20
1271.227117
 40
3.000000
 50
0.000000E+00
 51
90.000000
  0
LINE
  8
1
 62
     4
  6
CONTINUOUS
 10
2793.863476
 20
1274.227117
 11
2789.863476
 21
1274.227117
  0
ARC
  8
1
 62
     4
  6
CONTINUOUS
 10
2777.062159
 20
1370.987309
 40
30.639745
 50
33.671563
 51
62.448001
  0
LINE
  8
1
 62
     4
  6
CONTINUOUS
 10
2787.863476
 20
1396.227117
 11
2787.863476
 21
1276.227117
  0
POINT
  8
0
 62
     3
 10
2882.863476
 20
1423.227117
  0
POINT
  8
0
 62
     3
 10
2882.863476
 20
1408.727117
  0
POINT
  8
0
 62
     3
 10
2882.863476
 20
1386.227117
  0
ARC
  8
0
 62
     2
  6
CONTINUOUS
 10
2783.863476
 20
1433.728715
 40
1.000000
 50
360.000000
 51
450.000000
  0
LINE
  8
0
 62
     2
  6
CONTINUOUS
 10
2784.863476
 20
1449.728715
 11
2980.863476
 21
1449.728715
  0
LINE
  8
3
 62
     3
  6
CONTINUOUS
 10
3037.863476
 20
1573.727117
 11
3037.863476
 21
1696.227117
  0
LINE
  8
3
 62
     3
  6
CONTINUOUS
 10
3037.863476
 20
1573.727117
 11
3042.863476
 21
1573.727117
  0
LINE
  8
3
 62
     3
  6
CONTINUOUS
 10
3037.863476
 20
1696.227117
 11
2977.863476
 21
1696.227117
  0
ARC
  8
1
 62
     3
  6
CONTINUOUS
 10
2975.863476
 20
1576.227117
 40
2.000000
 50
270.000000
 51
360.000000
  0
LINE
  8
3
 62
     3
  6
CONTINUOUS
 10
3037.863476
 20
1576.227117
 11
2977.863476
 21
1576.227117
  0
LINE
  8
3
 62
     3
  6
CONTINUOUS
 10
3037.863476
 20
1698.727117
 11
3042.863476
 21
1698.727117
  0
LINE
  8
3
 62
     3
  6
CONTINUOUS
 10
3037.863476
 20
1698.727117
 11
3037.863476
 21
1696.227117
  0
LINE
  8
3
 62
     3
  6
CONTINUOUS
 10
3042.863476
 20
1698.727117
 11
3042.863476
 21
1573.727117
  0
LINE
  8
1
 62
     3
  6
CONTINUOUS
 10
2975.863476
 20
1698.227117
 11
2971.863476
 21
1698.227117
  0
LINE
  8
1
 62
     3
  6
CONTINUOUS
 10
2975.863476
 20
1574.227117
 11
2971.863476
 21
1574.227117
  0
ARC
  8
1
 62
     3
  6
CONTINUOUS
 10
2975.863476
 20
1696.227117
 40
2.000000
 50
0.000000E+00
 51
90.000000
  0
ARC
  8
1
 62
     3
  6
CONTINUOUS
 10
2971.863476
 20
1701.227117
 40
3.000000
 50
180.000000
 51
270.000000
  0
ARC
  8
1
 62
     3
  6
CONTINUOUS
 10
2971.863476
 20
1571.227117
 40
3.000000
 50
90.000000
 51
180.000000
  0
ARC
  8
0
 62
     3
  6
CONTINUOUS
 10
2933.863476
 20
1711.986486
 40
35.000000
 50
0.000000E+00
 51
17.716492
  0
LINE
  8
0
 62
     3
  6
CONTINUOUS
 10
2968.863476
 20
1711.986486
 11
2968.863476
 21
1701.227117
  0
LINE
  8
0
 62
     2
  6
CONTINUOUS
 10
2777.863476
 20
1442.728715
 11
2882.863476
 21
1442.728715
  0
LINE
  8
3
 62
     3
  6
CENTER
 10
2882.863476
 20
1908.701565
 11
2882.863476
 21
1455.909326
  0
LINE
  8
3
 62
     3
  6
CONTINUOUS
 10
2805.124453
 20
1719.103002
 11
2882.863476
 21
1719.103002
  0
LINE
  8
3
 62
     3
  6
CONTINUOUS
 10
2821.893492
 20
1815.743100
 11
2882.863476
 21
1815.743100
  0
LINE
  8
3
 62
     3
  6
CONTINUOUS
 10
2807.863476
 20
1896.227117
 11
2882.863476
 21
1896.227117
  0
POINT
  8
0
 62
     3
 10
2882.863476
 20
1826.227117
  0
TEXT
  8
0
 62
     6
 10
2536.833607
 20
2583.812443
 40
35.000000
 50
0.000000E+00
 41
0.81 
  1
４ＳＦ－　　　－　　　　０　　００－Ｐ
 72
     5
 11
3152.333607
 21
2583.812443
  0
LINE
  8
0
 62
     2
  6
CONTINUOUS
 10
2987.863476
 20
1434.728715
 11
2987.863476
 21
1442.728715
  0
LINE
  8
0
 62
     2
  6
CONTINUOUS
 10
2980.863476
 20
1431.728715
 11
2980.863476
 21
1433.728715
  0
ARC
  8
0
 62
     2
  6
CONTINUOUS
 10
2981.863476
 20
1433.728715
 40
1.000000
 50
90.000000
 51
180.000000
  0
LINE
  8
0
 62
     2
  6
CONTINUOUS
 10
2987.863476
 20
1442.728715
 11
2882.863476
 21
1442.728715
  0
LINE
  8
0
 62
     2
  6
CONTINUOUS
 10
2987.863476
 20
1434.728715
 11
2882.863476
 21
1434.728715
  0
LINE
  8
0
 62
     3
  6
CONTINUOUS
 10
2977.863476
 20
2217.089268
 11
2977.863476
 21
2337.089268
  0
LINE
  8
3
 62
     3
  6
CONTINUOUS
 10
3037.863476
 20
2337.089268
 11
2977.863476
 21
2337.089268
  0
LINE
  8
3
 62
     3
  6
CONTINUOUS
 10
3042.863476
 20
2214.589268
 11
3042.863476
 21
2339.589268
  0
LINE
  8
3
 62
     3
  6
CONTINUOUS
 10
3037.863476
 20
2214.589268
 11
3037.863476
 21
2217.089268
  0
LINE
  8
3
 62
     3
  6
CONTINUOUS
 10
3037.863476
 20
2214.589268
 11
3042.863476
 21
2214.589268
  0
LINE
  8
3
 62
     3
  6
CONTINUOUS
 10
3037.863476
 20
2339.589268
 11
3042.863476
 21
2339.589268
  0
LINE
  8
3
 62
     3
  6
CONTINUOUS
 10
3037.863476
 20
2339.589268
 11
3037.863476
 21
2217.089268
  0
LINE
  8
3
 62
     3
  6
CONTINUOUS
 10
3037.863476
 20
2217.089268
 11
2977.863476
 21
2217.089268
  0
CIRCLE
  8
0
 62
     3
  6
CONTINUOUS
 10
2882.863476
 20
2277.089268
 40
86.500000
  0
CIRCLE
  8
0
 62
     3
  6
CONTINUOUS
 10
2882.863476
 20
2277.089268
 40
75.000000
  0
LINE
  8
3
 62
     3
  6
CENTER
 10
3048.339644
 20
2277.089268
 11
2776.670152
 21
2277.089268
  0
LINE
  8
3
 62
     3
  6
CENTER
 10
2882.863476
 20
2379.187720
 11
2882.863476
 21
2104.039191
  0
INSERT
  8
0
  2
G4
 10
0
 20
0
  0
LINE
  8
0
 62
     1
  6
CONTINUOUS
 10
3882.464562
 20
2058.271349
 11
3789.870094
 21
2058.271349
  0
LINE
  8
0
 62
     1
  6
CONTINUOUS
 10
3797.980267
 20
2248.341577
 11
3754.347347
 21
2291.974497
  0
LINE
  8
0
 62
     1
  6
CONTINUOUS
 10
3707.508451
 20
2338.813393
 11
3657.454986
 21
2388.866858
  0
ARC
  8
0
 62
     4
  6
CONTINUOUS
 10
3717.370094
 20
2153.589268
 40
100.000000
 50
306.038338
 51
323.961662
  0
LINE
  8
3
 62
     4
  6
CONTINUOUS
 10
3779.870094
 20
1993.589268
 11
3654.870094
 21
1993.589268
  0
LINE
  8
3
 62
     4
  6
CONTINUOUS
 10
3779.870094
 20
1998.589268
 11
3779.870094
 21
1993.589268
  0
LINE
  8
3
 62
     4
  6
CONTINUOUS
 10
3654.870094
 20
1998.589268
 11
3654.870094
 21
1993.589268
  0
LINE
  8
3
 62
     4
  6
CONTINUOUS
 10
3654.870094
 20
1998.589268
 11
3779.870094
 21
1998.589268
  0
LINE
  8
3
 62
     4
  6
CONTINUOUS
 10
3777.370094
 20
1998.589268
 11
3777.370094
 21
2058.271349
  0
LINE
  8
3
 62
     4
  6
CONTINUOUS
 10
3657.370094
 20
1998.589268
 11
3657.370094
 21
2058.271349
  0
ARC
  8
3
 62
     3
  6
CONTINUOUS
 10
3717.370094
 20
2153.589268
 40
105.000000
 50
259.021382
 51
279.903199
  0
ARC
  8
0
 62
     4
  6
CONTINUOUS
 10
3717.370094
 20
2153.589268
 40
100.000000
 50
36.038338
 51
53.961662
  0
ARC
  8
0
 62
     4
  6
CONTINUOUS
 10
3717.370094
 20
2153.589268
 40
100.000000
 50
126.038338
 51
143.961662
  0
CIRCLE
  8
3
 62
     4
  6
CONTINUOUS
 10
3717.370094
 20
2153.589268
 40
88.000000
  0
INSERT
  8
0
  2
G5
 10
0
 20
0
  0
LINE
  8
0
 62
     1
  6
CONTINUOUS
 10
3533.660177
 20
2161.936703
 11
3482.092504
 21
2213.504376
  0
LINE
  8
0
 62
     1
  6
CONTINUOUS
 10
3622.617785
 20
2072.979095
 11
3579.151191
 21
2116.445689
  0
ARC
  8
3
 62
     4
  6
CONTINUOUS
 10
3717.370094
 20
2153.589268
 40
100.000000
 50
233.109614
 51
306.890386
  0
LINE
  8
3
 62
     4
  6
CONTINUOUS
 10
3798.334701
 20
2062.338337
 11
3735.431946
 21
2050.135640
  0
ARC
  8
3
 62
     3
  6
CONTINUOUS
 10
3717.370094
 20
2153.589268
 40
105.000000
 50
80.096801
 51
100.978618
  0
ARC
  8
3
 62
     3
  6
CONTINUOUS
 10
3717.370094
 20
2153.589268
 40
105.000000
 50
170.096801
 51
189.903199
  0
LINE
  8
3
 62
     4
  6
CONTINUOUS
 10
3636.405486
 20
2062.338337
 11
3699.308241
 21
2050.135640
  0
LINE
  8
3
 62
     3
  6
CENTER
 10
3648.658337
 20
2222.301025
 11
3627.977160
 21
2242.982202
  0
LINE
  8
3
 62
     4
  6
CONTINUOUS
 10
3626.119163
 20
2072.624661
 11
3613.916466
 21
2135.527416
  0
ARC
  8
3
 62
     4
  6
CENTER
 10
3717.370094
 20
2153.589268
 40
111.000000
 50
127.724288
 51
143.734984
  0
LINE
  8
3
 62
     3
  6
CENTER
 10
3649.732563
 20
2085.951737
 11
3627.220606
 21
2063.439781
  0
ARC
  8
3
 62
     4
  6
CENTER
 10
3717.370094
 20
2153.589268
 40
111.000000
 50
215.817615
 51
233.930525
  0
ARC
  8
3
 62
     4
  6
CENTER
 10
3717.370094
 20
2153.589268
 40
111.000000
 50
305.029921
 51
325.550885
  0
LINE
  8
3
 62
     4
  6
CONTINUOUS
 10
3626.119163
 20
2234.553875
 11
3613.916466
 21
2171.651121
  0
LINE
  8
3
 62
     4
  6
CONTINUOUS
 10
3820.448417
 20
2133.592790
 11
3808.621024
 21
2072.624661
  0
LINE
  8
3
 62
     3
  6
CENTER
 10
3785.361321
 20
2085.598040
 11
3807.312022
 21
2063.647340
  0
LINE
  8
3
 62
     4
  6
CONTINUOUS
 10
3636.405486
 20
2244.840199
 11
3697.373616
 21
2256.667592
  0
ARC
  8
3
 62
     4
  6
CONTINUOUS
 10
3638.881241
 20
2232.078121
 40
13.000000
 50
100.978618
 51
169.021382
  0
ARC
  8
3
 62
     4
  6
CONTINUOUS
 10
3638.881241
 20
2075.100416
 40
13.000000
 50
190.978618
 51
259.021382
  0
ARC
  8
3
 62
     4
  6
CONTINUOUS
 10
3795.858946
 20
2075.100416
 40
13.000000
 50
280.978618
 51
349.021382
  0
LINE
  8
3
 62
     3
  6
CENTER
 10
3785.355958
 20
2221.575133
 11
3807.096652
 21
2243.315827
  0
LINE
  8
3
 62
     4
  6
CONTINUOUS
 10
3798.334701
 20
2244.840199
 11
3735.431946
 21
2257.042896
  0
LINE
  8
3
 62
     4
  6
CONTINUOUS
 10
3808.621024
 20
2234.553875
 11
3820.448417
 21
2173.585746
  0
ARC
  8
3
 62
     3
  6
CONTINUOUS
 10
3717.370094
 20
2153.589268
 40
105.000000
 50
349.021382
 51
370.978618
  0
CIRCLE
  8
3
 62
     3
  6
CONTINUOUS
 10
3717.370094
 20
2153.589268
 40
81.000000
  0
ARC
  8
3
 62
     4
  6
CONTINUOUS
 10
3795.858946
 20
2232.078121
 40
13.000000
 50
10.978618
 51
79.021382
  0
LINE
  8
3
 62
     3
  6
CENTER
 10
3717.370094
 20
1988.113100
 11
3717.370094
 21
2270.839318
  0
LINE
  8
3
 62
     3
  6
CENTER
 10
3826.367343
 20
2153.589268
 11
3600.951018
 21
2153.589268
  0
CIRCLE
  8
3
 62
     4
  6
CONTINUOUS
 10
3795.858946
 20
2075.100416
 40
7.000000
  0
CIRCLE
  8
3
 62
     4
  6
CONTINUOUS
 10
3795.858946
 20
2232.078121
 40
7.000000
  0
CIRCLE
  8
3
 62
     4
  6
CONTINUOUS
 10
3638.881241
 20
2232.078121
 40
7.000000
  0
CIRCLE
  8
3
 62
     4
  6
CONTINUOUS
 10
3638.881241
 20
2075.100416
 40
7.000000
  0
ARC
  8
3
 62
     4
  6
CENTER
 10
3717.370094
 20
2153.589268
 40
111.000000
 50
34.510429
 51
52.981003
  0
ARC
  8
3
 62
     4
  6
CONTINUOUS
 10
3717.370094
 20
2153.589268
 40
100.000000
 50
323.109614
 51
396.890386
  0
ARC
  8
3
 62
     4
  6
CONTINUOUS
 10
3717.370094
 20
2153.589268
 40
100.000000
 50
53.109614
 51
126.890386
  0
ARC
  8
3
 62
     4
  6
CONTINUOUS
 10
3717.370094
 20
2153.589268
 40
100.000000
 50
143.109614
 51
216.890386
  0
ARC
  8
0
 62
     4
  6
CONTINUOUS
 10
3717.370094
 20
2153.589268
 40
100.000000
 50
216.038338
 51
233.961662
  0
TEXT
  8
0
 62
     6
 10
2719.816479
 20
2583.910129
 40
35.000000
 50
0.000000E+00
 41
0.86 
  1
Ｃ
 72
     5
 11
2754.816479
 21
2583.910129
  0
TEXT
  8
0
 62
     6
 10
2840.490420
 20
2584.910129
 40
35.000000
 50
0.000000E+00
 41
0.86 
  1
Ａ
 72
     5
 11
2875.490420
 21
2584.910129
  0
TEXT
  8
0
 62
     6
 10
2809.990420
 20
2649.959535
 40
32.000000
 50
0.000000E+00
 41
0.97 
  1
下部
 72
     5
 11
2881.990420
 21
2649.959535
  0
TEXT
  8
0
 62
     6
 10
2689.990420
 20
2649.959535
 40
32.000000
 50
0.000000E+00
 41
0.97 
  1
上部
 72
     5
 11
2761.990420
 21
2649.959535
  0
INSERT
  8
0
  2
G6
 10
0
 20
0
  0
INSERT
  8
0
  2
G7
 10
0
 20
0
  0
CIRCLE
  8
0
 62
     3
  6
CONTINUOUS
 10
2882.863476
 20
1636.227117
 40
62.500000
  0
CIRCLE
  8
0
 62
     3
  6
CONTINUOUS
 10
2882.863476
 20
1636.227117
 40
54.000000
  0
LINE
  8
0
 62
     3
  6
CONTINUOUS
 10
3262.022257
 20
1895.315148
 11
3262.022257
 21
2013.720796
  0
SOLID
  8
0
 62
     3
 10
3254.257685
 20
1924.292922
 11
3269.786828
 21
1924.292922
 12
3262.022257
 22
1895.315148
 13
3262.022257
 23
1895.315148
  0
TEXT
  8
0
 62
     6
 10
2947.066195
 20
2683.926093
 40
32.000000
 50
0.000000E+00
 41
0.86 
  1
ａ
 72
     5
 11
2979.066195
 21
2683.926093
  0
CIRCLE
  8
0
 62
     6
  6
HIDDEN
 10
2963.252571
 20
2552.940231
 40
20.000000
  0
TEXT
  8
0
 62
     6
 10
2955.252571
 20
2536.940231
 40
32.000000
 50
0.000000E+00
 41
0.50 
  1
3
 72
     5
 11
2971.252571
 21
2536.940231
  0
CIRCLE
  8
0
 62
     6
  6
HIDDEN
 10
2963.252571
 20
2600.298843
 40
20.000000
  0
TEXT
  8
0
 62
     6
 10
2955.252571
 20
2584.298843
 40
32.000000
 50
0.000000E+00
 41
0.50 
  1
2
 72
     5
 11
2971.252571
 21
2584.298843
  0
CIRCLE
  8
0
 62
     6
  6
HIDDEN
 10
2963.252571
 20
2648.332262
 40
20.000000
  0
TEXT
  8
0
 62
     6
 10
2955.252571
 20
2632.332262
 40
32.000000
 50
0.000000E+00
 41
0.50 
  1
1
 72
     5
 11
2971.252571
 21
2632.332262
  0
TEXT
  8
0
 62
     6
 10
3698.206339
 20
2421.134541
 40
32.000000
 50
0.000000E+00
 41
0.50 
  1
3
 72
     5
 11
3714.206339
 21
2421.134541
  0
TEXT
  8
0
 62
     6
 10
3177.087629
 20
2603.485825
 40
35.000000
 50
0.000000E+00
 41
0.60 
  1
240,260,280
 72
     5
 11
3409.587629
 21
2603.485825
  0
TEXT
  8
0
 62
     6
 10
3698.206339
 20
2481.134541
 40
32.000000
 50
0.000000E+00
 41
0.50 
  1
2
 72
     5
 11
3714.206339
 21
2481.134541
  0
TEXT
  8
0
 62
     6
 10
3698.206339
 20
2541.134541
 40
32.000000
 50
0.000000E+00
 41
0.50 
  1
1
 72
     5
 11
3714.206339
 21
2541.134541
  0
TEXT
  8
0
 62
     6
 10
3178.948131
 20
2561.370812
 40
35.000000
 50
0.000000E+00
 41
0.60 
  1
300,340,360
 72
     5
 11
3411.448131
 21
2561.370812
  0
TEXT
  8
0
 62
     6
 10
3729.294308
 20
2424.530401
 40
32.000000
 50
0.000000E+00
 41
0.74 
  1
：％％ｃ７５枝管
 72
     5
 11
3941.294308
 21
2424.530401
  0
TEXT
  8
0
 62
     6
 10
3729.294308
 20
2484.530401
 40
32.000000
 50
0.000000E+00
 41
0.74 
  1
：％％ｃ６５枝管
 72
     5
 11
3941.294308
 21
2484.530401
  0
TEXT
  8
0
 62
     6
 10
3729.294308
 20
2544.530401
 40
32.000000
 50
0.000000E+00
 41
0.74 
  1
：％％ｃ５０枝管
 72
     5
 11
3941.294308
 21
2544.530401
  0
TEXT
  8
0
 62
     6
 10
3631.418499
 20
2597.505821
 40
32.000000
 50
0.000000E+00
 41
0.97 
  1
枝管のタイプ（呼び径）
 72
     5
 11
4027.418499
 21
2597.505821
  0
LINE
  8
0
 62
     4
  6
CONTINUOUS
 10
2900.363476
 20
1276.227117
 11
2865.363476
 21
1276.227117
  0
POINT
  8
0
 62
     4
 10
2882.863476
 20
1386.227117
  0
CIRCLE
  8
0
 62
     4
  6
CONTINUOUS
 10
2882.863476
 20
1336.227117
 40
40.000000
  0
CIRCLE
  8
0
 62
     4
  6
CONTINUOUS
 10
2882.863476
 20
1336.227117
 40
54.000000
  0
CIRCLE
  8
0
 62
     4
  6
CONTINUOUS
 10
2882.863476
 20
1336.227117
 40
62.500000
  0
POINT
  8
0
 62
     4
 10
2882.863476
 20
1336.227117
  0
INSERT
  8
0
  2
G8
 10
0
 20
0
  0
LINE
  8
0
 62
     3
  6
CONTINUOUS
 10
3851.683673
 20
1990.538081
 11
3851.683673
 21
1923.781324
  0
SOLID
  8
0
 62
     3
 10
3859.448245
 20
1961.560306
 11
3843.919102
 21
1961.560306
 12
3851.683673
 22
1990.538081
 13
3851.683673
 23
1990.538081
  0
TEXT
  8
0
 62
     3
 10
3834.670160
 20
1889.875919
 40
32.000000
 50
0.000000E+00
 41
1.02 
  1
受口深さ
 72
     5
 11
3986.670160
 21
1889.875919
  0
TEXT
  8
0
 62
     3
 10
3671.142857
 20
2007.106512
 40
32.000000
 50
0.000000E+00
 41
0.86 
  1
ａ
 72
     5
 11
3703.142857
 21
2007.106512
  0
INSERT
  8
0
  2
G9
 10
0
 20
0
  0
INSERT
  8
0
  2
G10
 10
0
 20
0
  0
ARC
  8
1
 62
     3
  6
CONTINUOUS
 10
2793.363476
 20
1571.227117
 40
3.000000
 50
0.000000E+00
 51
90.000000
  0
ARC
  8
1
 62
     3
  6
CONTINUOUS
 10
2793.363476
 20
1701.227117
 40
3.000000
 50
270.000000
 51
360.000000
  0
ARC
  8
1
 62
     3
  6
CONTINUOUS
 10
2789.863476
 20
1696.227117
 40
2.000000
 50
90.000000
 51
180.000000
  0
LINE
  8
1
 62
     3
  6
CONTINUOUS
 10
2789.863476
 20
1574.227117
 11
2793.363476
 21
1574.227117
  0
LINE
  8
1
 62
     3
  6
CONTINUOUS
 10
2789.863476
 20
1698.227117
 11
2793.363476
 21
1698.227117
  0
ARC
  8
1
 62
     3
  6
CONTINUOUS
 10
2789.863476
 20
1576.227117
 40
2.000000
 50
180.000000
 51
270.000000
  0
LINE
  8
3
 62
     3
  6
CONTINUOUS
 10
2799.507670
 20
1576.587137
 11
2803.009463
 21
1578.176208
  0
LINE
  8
3
 62
     3
  6
CONTINUOUS
 10
2803.009463
 20
1578.176208
 11
2806.379948
 21
1581.000227
  0
LINE
  8
3
 62
     3
  6
CONTINUOUS
 10
2806.379948
 20
1581.000227
 11
2809.547423
 21
1584.999119
  0
LINE
  8
3
 62
     3
  6
CONTINUOUS
 10
2809.547423
 20
1584.999119
 11
2812.444505
 21
1590.087811
  0
LINE
  8
3
 62
     3
  6
CONTINUOUS
 10
2812.444505
 20
1590.087811
 11
2815.009562
 21
1596.158050
  0
LINE
  8
3
 62
     3
  6
CONTINUOUS
 10
2815.009562
 20
1596.158050
 11
2817.188027
 21
1603.080700
  0
LINE
  8
3
 62
     3
  6
CONTINUOUS
 10
2817.188027
 20
1603.080700
 11
2818.933555
 21
1610.708493
  0
LINE
  8
3
 62
     3
  6
CONTINUOUS
 10
2818.933555
 20
1610.708493
 11
2820.209014
 21
1618.879156
  0
LINE
  8
3
 62
     3
  6
CONTINUOUS
 10
2820.209014
 20
1618.879156
 11
2820.987270
 21
1627.418873
  0
LINE
  8
3
 62
     3
  6
CONTINUOUS
 10
2820.209014
 20
1618.879156
 11
2820.987270
 21
1627.418873
  0
LINE
  8
3
 62
     3
  6
CONTINUOUS
 10
2820.987270
 20
1645.035360
 11
2820.296869
 21
1652.843467
  0
LINE
  8
3
 62
     3
  6
CONTINUOUS
 10
2820.296869
 20
1652.843467
 11
2819.190413
 21
1660.356886
  0
LINE
  8
3
 62
     3
  6
CONTINUOUS
 10
2819.190413
 20
1660.356886
 11
2817.687526
 21
1667.442368
  0
LINE
  8
3
 62
     3
  6
CONTINUOUS
 10
2817.687526
 20
1667.442368
 11
2815.814861
 21
1673.974254
  0
LINE
  8
3
 62
     3
  6
CONTINUOUS
 10
2815.814861
 20
1673.974254
 11
2813.605630
 21
1679.836702
  0
LINE
  8
3
 62
     3
  6
CONTINUOUS
 10
2813.605630
 20
1679.836702
 11
2811.099012
 21
1684.925743
  0
LINE
  8
3
 62
     3
  6
CONTINUOUS
 10
2811.099012
 20
1684.925743
 11
2808.339462
 21
1689.151124
  0
LINE
  8
3
 62
     3
  6
CONTINUOUS
 10
2808.339462
 20
1689.151124
 11
2805.375921
 21
1692.437907
  0
LINE
  8
3
 62
     3
  6
CONTINUOUS
 10
2805.375921
 20
1692.437907
 11
2802.260946
 21
1694.727804
  0
LINE
  8
3
 62
     3
  6
CONTINUOUS
 10
2802.260946
 20
1694.727804
 11
2799.049779
 21
1695.980203
  0
LINE
  8
3
 62
     3
  6
CONTINUOUS
 10
2802.260946
 20
1694.727804
 11
2799.049779
 21
1695.980203
  0
LINE
  8
0
 62
     3
  6
CONTINUOUS
 10
2787.863476
 20
1696.227117
 11
2787.863476
 21
1576.227117
  0
INSERT
  8
0
  2
G11
 10
0
 20
0
  0
LINE
  8
3
 62
     3
  6
CONTINUOUS
 10
2945.363476
 20
2122.089268
 11
2822.863476
 21
2122.089268
  0
LINE
  8
3
 62
     3
  6
CONTINUOUS
 10
2945.363476
 20
2122.089268
 11
2945.363476
 21
2117.089268
  0
LINE
  8
3
 62
     3
  6
CONTINUOUS
 10
2820.363476
 20
2122.089268
 11
2820.363476
 21
2117.089268
  0
LINE
  8
3
 62
     3
  6
CONTINUOUS
 10
2820.363476
 20
2122.089268
 11
2822.863476
 21
2122.089268
  0
LINE
  8
3
 62
     3
  6
CONTINUOUS
 10
2820.363476
 20
2117.089268
 11
2945.363476
 21
2117.089268
  0
LINE
  8
0
 62
     3
  6
CONTINUOUS
 10
3088.660141
 20
2126.953184
 11
3088.660141
 21
2043.680103
  0
SOLID
  8
0
 62
     3
 10
3096.424713
 20
2097.975409
 11
3080.895570
 21
2097.975409
 12
3088.660141
 22
2126.953184
 13
3088.660141
 23
2126.953184
  0
LINE
  8
3
 62
     3
  6
CONTINUOUS
 10
2942.863476
 20
2122.089268
 11
2942.863476
 21
2182.089268
  0
LINE
  8
3
 62
     3
  6
CONTINUOUS
 10
2822.863476
 20
2122.089268
 11
2822.863476
 21
2182.089268
  0
INSERT
  8
0
  2
G12
 10
0
 20
0
  0
CIRCLE
  8
0
 62
     3
  6
CONTINUOUS
 10
2882.863476
 20
1636.227117
 40
40.000000
  0
INSERT
  8
0
  2
G13
 10
0
 20
0
  0
LINE
  8
0
 62
     3
  6
CONTINUOUS
 10
3262.022257
 20
2013.720796
 11
3241.992940
 21
2013.720796
  0
INSERT
  8
0
  2
G14
 10
0
 20
0
  0
INSERT
  8
0
  2
G15
 10
0
 20
0
  0
INSERT
  8
0
  2
G16
 10
0
 20
0
  0
LINE
  8
0
 62
     1
  6
CONTINUOUS
 10
3119.940390
 20
1636.227117
 11
3136.816384
 21
1636.227117
  0
LINE
  8
0
 62
     1
  6
CONTINUOUS
 10
3249.940390
 20
1636.227117
 11
3194.343698
 21
1636.227117
  0
INSERT
  8
0
  2
G17
 10
0
 20
0
  0
INSERT
  8
0
  2
G18
 10
0
 20
0
  0
INSERT
  8
0
  2
G19
 10
0
 20
0
  0
INSERT
  8
0
  2
G20
 10
0
 20
0
  0
INSERT
  8
0
  2
G21
 10
0
 20
0
  0
INSERT
  8
0
  2
G22
 10
0
 20
0
  0
INSERT
  8
0
  2
G23
 10
0
 20
0
  0
LINE
  8
0
 62
     3
  6
CONTINUOUS
 10
3664.127086
 20
2015.594352
 11
3595.385109
 21
2015.594352
  0
SOLID
  8
0
 62
     3
 10
3635.149311
 20
2007.829780
 11
3635.149311
 21
2023.358923
 12
3664.127086
 22
2015.594352
 13
3664.127086
 23
2015.594352
  0
LINE
  8
0
 62
     3
  6
CONTINUOUS
 10
3595.385109
 20
2015.594352
 11
3595.385109
 21
1952.917843
  0
INSERT
  8
0
  2
G24
 10
0
 20
0
  0
INSERT
  8
0
  2
G25
 10
0
 20
0
  0
INSERT
  8
0
  2
G26
 10
0
 20
0
  0
INSERT
  8
0
  2
G27
 10
0
 20
0
  0
TEXT
  8
0
 62
     3
 10
3311.553615
 20
579.564184
 40
32.000000
 50
0.000000E+00
 41
0.94 
  1
対応可能Ｐ寸法　２４０～３６０
 72
     5
 11
3837.267923
 21
579.564184
  0
TEXT
  8
0
 62
     2
 10
3948.410366
 20
1000.076846
 40
30.000000
 50
0.000000E+00
 41
0.58 
  1
94
 72
     5
 11
3983.410366
 21
1000.076846
  0
LINE
  8
0
 62
     2
  6
CONTINUOUS
 10
3483.552739
 20
1190.846702
 11
3606.433699
 21
1108.921646
  0
TEXT
  8
0
 62
     2
 10
3488.121837
 20
1061.537257
 40
30.000000
 50
0.000000E+00
 41
0.86 
  1
受口深さ
 72
     5
 11
3608.121837
 21
1061.537257
  0
TEXT
  8
0
 62
     2
 10
3724.570046
 20
1061.516846
 40
30.000000
 50
0.000000E+00
 41
0.58 
  1
65
 72
     5
 11
3759.570046
 21
1061.516846
  0
TEXT
  8
0
 62
     2
 10
3824.261511
 20
1000.076846
 40
30.000000
 50
0.000000E+00
 41
0.61 
  1
110
 72
     5
 11
3879.261511
 21
1000.076846
  0
TEXT
  8
0
 62
     2
 10
3714.809031
 20
1001.803982
 40
30.000000
 50
0.000000E+00
 41
0.61 
  1
125
 72
     5
 11
3769.809031
 21
1001.803982
  0
LINE
  8
0
 62
     2
  6
CONTINUOUS
 10
3994.113379
 20
1149.881678
 11
3994.113379
 21
1149.881486
  0
LINE
  8
0
 62
     2
  6
CONTINUOUS
 10
3483.552739
 20
1190.846702
 11
4024.114339
 21
1190.846702
  0
LINE
  8
0
 62
     2
  6
CONTINUOUS
 10
3483.552739
 20
1149.881678
 11
3483.552739
 21
1190.846702
  0
TEXT
  8
0
 62
     2
 10
3495.330843
 20
1004.387725
 40
30.000000
 50
0.000000E+00
 41
0.86 
  1
Ａ寸法
 72
     5
 11
3585.330843
 21
1004.387725
  0
LINE
  8
0
 62
     2
  6
CONTINUOUS
 10
3483.552739
 20
1047.481646
 11
4024.114339
 21
1047.481646
  0
LINE
  8
0
 62
     2
  6
CONTINUOUS
 10
3483.552739
 20
1149.881678
 11
3483.552739
 21
924.601646
  0
TEXT
  8
0
 62
     2
 10
3928.456285
 20
1114.716379
 40
30.000000
 50
0.000000E+00
 41
0.63 
  1
50(1)
 72
     5
 11
4023.456285
 21
1114.716379
  0
TEXT
  8
0
 62
     2
 10
3816.535645
 20
1114.716379
 40
30.000000
 50
0.000000E+00
 41
0.63 
  1
65(2)
 72
     5
 11
3911.535645
 21
1114.716379
  0
TEXT
  8
0
 62
     2
 10
3704.615965
 20
1114.716379
 40
30.000000
 50
0.000000E+00
 41
0.63 
  1
75(3)
 72
     5
 11
3799.615965
 21
1114.716379
  0
LINE
  8
0
 62
     2
  6
CONTINUOUS
 10
3483.552739
 20
924.601646
 11
4024.114339
 21
924.601646
  0
LINE
  8
0
 62
     2
  6
CONTINUOUS
 10
3912.193699
 20
1149.881486
 11
3912.193699
 21
924.601646
  0
LINE
  8
0
 62
     2
  6
CONTINUOUS
 10
3688.353379
 20
1047.481646
 11
3606.433699
 21
986.041646
  0
LINE
  8
0
 62
     2
  6
CONTINUOUS
 10
3800.273059
 20
1149.881678
 11
3800.273059
 21
924.601646
  0
LINE
  8
0
 62
     2
  6
CONTINUOUS
 10
3688.353379
 20
1189.607822
 11
3688.353379
 21
924.601646
  0
LINE
  8
0
 62
     2
  6
CONTINUOUS
 10
3606.433699
 20
1189.607822
 11
3606.433699
 21
924.601646
  0
TEXT
  8
0
 62
     2
 10
3733.916713
 20
1154.795013
 40
30.000000
 50
0.000000E+00
 41
0.86 
  1
下部横枝管サイズ
 72
     5
 11
3973.916713
 21
1154.795013
  0
LINE
  8
0
 62
     2
  6
CONTINUOUS
 10
3483.552739
 20
1108.921646
 11
4024.114339
 21
1108.921646
  0
LINE
  8
0
 62
     2
  6
CONTINUOUS
 10
3688.353379
 20
1149.881678
 11
4024.114339
 21
1149.881678
  0
LINE
  8
0
 62
     2
  6
CONTINUOUS
 10
3483.552739
 20
986.041646
 11
4024.114339
 21
986.041646
  0
TEXT
  8
0
 62
     2
 10
3495.330843
 20
942.947725
 40
30.000000
 50
0.000000E+00
 41
0.86 
  1
Ｂ寸法
 72
     5
 11
3585.330843
 21
942.947725
  0
LINE
  8
0
 62
     2
  6
CONTINUOUS
 10
4024.114339
 20
1190.846702
 11
4024.114339
 21
924.601646
  0
LINE
  8
0
 62
     2
  6
CONTINUOUS
 10
3688.353379
 20
986.041646
 11
3606.433699
 21
924.601646
  0
TEXT
  8
0
 62
     2
 10
3632.650366
 20
1061.516846
 40
30.000000
 50
0.000000E+00
 41
0.58 
  1
75
 72
     5
 11
3667.650366
 21
1061.516846
  0
TEXT
  8
0
 62
     2
 10
3836.489726
 20
1061.516846
 40
30.000000
 50
0.000000E+00
 41
0.58 
  1
65
 72
     5
 11
3871.489726
 21
1061.516846
  0
TEXT
  8
0
 62
     2
 10
3948.410366
 20
1061.516846
 40
30.000000
 50
0.000000E+00
 41
0.58 
  1
65
 72
     5
 11
3983.410366
 21
1061.516846
  0
TEXT
  8
0
 62
     2
 10
3609.048500
 20
1159.938571
 40
18.400000
 50
0.000000E+00
 41
0.89 
  1
立管受口
 72
     5
 11
3685.048499
 21
1159.938571
  0
TEXT
  8
0
 62
     2
 10
3625.578794
 20
1121.253863
 40
25.600000
 50
0.000000E+00
 41
0.55 
  1
100
 72
     5
 11
3667.635939
 21
1121.253863
  0
TEXT
  8
0
 62
     2
 10
3724.570046
 20
938.636846
 40
30.000000
 50
0.000000E+00
 41
0.58 
  1
60
 72
     5
 11
3759.570046
 21
938.636846
  0
TEXT
  8
0
 62
     2
 10
3836.489726
 20
938.636846
 40
30.000000
 50
0.000000E+00
 41
0.58 
  1
52
 72
     5
 11
3871.489726
 21
938.636846
  0
TEXT
  8
0
 62
     2
 10
3948.410366
 20
938.636846
 40
30.000000
 50
0.000000E+00
 41
0.58 
  1
44
 72
     5
 11
3983.410366
 21
938.636846
  0
TEXT
  8
0
 62
     2
 10
3733.220431
 20
759.025896
 40
30.000000
 50
0.000000E+00
 41
0.61 
  1
850
 72
     5
 11
3788.220431
 21
759.025896
  0
TEXT
  8
0
 62
     2
 10
3314.281517
 20
837.217257
 40
30.000000
 50
0.000000E+00
 41
0.86 
  1
Ｐ
 72
     5
 11
3344.281517
 21
837.217257
  0
TEXT
  8
0
 62
     2
 10
3530.729726
 20
837.196846
 40
30.000000
 50
0.000000E+00
 41
0.61 
  1
260
 72
     5
 11
3585.729726
 21
837.196846
  0
TEXT
  8
0
 62
     2
 10
3630.421191
 20
759.025896
 40
30.000000
 50
0.000000E+00
 41
0.61 
  1
830
 72
     5
 11
3685.421191
 21
759.025896
  0
TEXT
  8
0
 62
     2
 10
3530.968711
 20
760.753032
 40
30.000000
 50
0.000000E+00
 41
0.61 
  1
810
 72
     5
 11
3585.968711
 21
760.753032
  0
LINE
  8
0
 62
     2
  6
CONTINUOUS
 10
4022.541101
 20
871.364597
 11
4022.541101
 21
871.364405
  0
LINE
  8
0
 62
     2
  6
CONTINUOUS
 10
3244.712419
 20
884.601646
 11
3244.712419
 21
640.281646
  0
TEXT
  8
0
 62
     2
 10
3255.240523
 20
765.067725
 40
30.000000
 50
0.000000E+00
 41
0.72 
  1
Ｌ（有効長）
 72
     5
 11
3405.240523
 21
765.067725
  0
LINE
  8
0
 62
     2
  6
CONTINUOUS
 10
3244.712419
 20
823.161646
 11
4024.114339
 21
823.161646
  0
TEXT
  8
0
 62
     2
 10
3943.410366
 20
837.196846
 40
30.000000
 50
0.000000E+00
 41
0.61 
  1
360
 72
     5
 11
3998.410366
 21
837.196846
  0
LINE
  8
0
 62
     2
  6
CONTINUOUS
 10
3912.193699
 20
884.601646
 11
3912.193699
 21
640.281646
  0
LINE
  8
0
 62
     2
  6
CONTINUOUS
 10
4024.114339
 20
884.601646
 11
4024.114339
 21
640.281646
  0
LINE
  8
0
 62
     2
  6
CONTINUOUS
 10
3708.353379
 20
884.601646
 11
3708.353379
 21
640.281646
  0
LINE
  8
0
 62
     2
  6
CONTINUOUS
 10
3606.432739
 20
884.601646
 11
3606.432739
 21
640.281646
  0
LINE
  8
0
 62
     2
  6
CONTINUOUS
 10
3504.513059
 20
884.601646
 11
3504.513059
 21
640.281646
  0
LINE
  8
0
 62
     2
  6
CONTINUOUS
 10
3402.593379
 20
884.601646
 11
3402.593379
 21
640.281646
  0
TEXT
  8
0
 62
     2
 10
3836.729671
 20
760.753032
 40
30.000000
 50
0.000000E+00
 41
0.61 
  1
890
 72
     5
 11
3891.729671
 21
760.753032
  0
LINE
  8
0
 62
     2
  6
CONTINUOUS
 10
3244.712419
 20
884.601646
 11
4024.114339
 21
884.601646
  0
TEXT
  8
0
 62
     2
 10
3941.182151
 20
759.025896
 40
30.000000
 50
0.000000E+00
 41
0.61 
  1
910
 72
     5
 11
3996.182151
 21
759.025896
  0
LINE
  8
0
 62
     2
  6
CONTINUOUS
 10
3244.712419
 20
731.721646
 11
4024.114339
 21
731.721646
  0
TEXT
  8
0
 62
     2
 10
3255.240523
 20
673.627725
 40
30.000000
 50
0.000000E+00
 41
0.72 
  1
Ｌｔ（全長）
 72
     5
 11
3405.240523
 21
673.627725
  0
LINE
  8
0
 62
     2
  6
CONTINUOUS
 10
3810.274019
 20
884.601646
 11
3810.274019
 21
640.281646
  0
TEXT
  8
0
 62
     2
 10
3428.810046
 20
837.196846
 40
30.000000
 50
0.000000E+00
 41
0.61 
  1
240
 72
     5
 11
3483.810046
 21
837.196846
  0
TEXT
  8
0
 62
     2
 10
3632.649406
 20
837.196846
 40
30.000000
 50
0.000000E+00
 41
0.61 
  1
280
 72
     5
 11
3687.649406
 21
837.196846
  0
TEXT
  8
0
 62
     2
 10
3734.570046
 20
837.196846
 40
30.000000
 50
0.000000E+00
 41
0.61 
  1
300
 72
     5
 11
3789.570046
 21
837.196846
  0
TEXT
  8
0
 62
     2
 10
3836.490686
 20
837.196846
 40
30.000000
 50
0.000000E+00
 41
0.61 
  1
340
 72
     5
 11
3891.490686
 21
837.196846
  0
TEXT
  8
0
 62
     2
 10
3429.049031
 20
669.313032
 40
30.000000
 50
0.000000E+00
 41
0.61 
  1
865
 72
     5
 11
3484.049031
 21
669.313032
  0
TEXT
  8
0
 62
     2
 10
3941.182151
 20
667.585896
 40
30.000000
 50
0.000000E+00
 41
0.61 
  1
985
 72
     5
 11
3996.182151
 21
667.585896
  0
TEXT
  8
0
 62
     2
 10
3429.049031
 20
760.753032
 40
30.000000
 50
0.000000E+00
 41
0.61 
  1
790
 72
     5
 11
3484.049031
 21
760.753032
  0
TEXT
  8
0
 62
     2
 10
3836.729671
 20
669.313032
 40
30.000000
 50
0.000000E+00
 41
0.61 
  1
965
 72
     5
 11
3891.729671
 21
669.313032
  0
TEXT
  8
0
 62
     2
 10
3530.968711
 20
669.313032
 40
30.000000
 50
0.000000E+00
 41
0.61 
  1
885
 72
     5
 11
3585.968711
 21
669.313032
  0
TEXT
  8
0
 62
     2
 10
3630.421191
 20
667.585896
 40
30.000000
 50
0.000000E+00
 41
0.61 
  1
905
 72
     5
 11
3685.421191
 21
667.585896
  0
TEXT
  8
0
 62
     2
 10
3733.220431
 20
667.585896
 40
30.000000
 50
0.000000E+00
 41
0.61 
  1
925
 72
     5
 11
3788.220431
 21
667.585896
  0
LINE
  8
0
 62
     2
  6
CONTINUOUS
 10
3244.712419
 20
640.281646
 11
4024.114339
 21
640.281646
  0
INSERT
  8
0
  2
G28
 10
0
 20
0
  0
INSERT
  8
0
  2
G29
 10
0
 20
0
  0
INSERT
  8
0
  2
G30
 10
0
 20
0
  0
INSERT
  8
0
  2
G31
 10
0
 20
0
  0
INSERT
  8
0
  2
G32
 10
0
 20
0
  0
INSERT
  8
0
  2
G33
 10
0
 20
0
  0
INSERT
  8
0
  2
G34
 10
0
 20
0
  0
ENDSEC
  0
EOF
