  0
SECTION
  2
HEADER
  9
$INSBASE
 10
0
 20
0
  9
$EXTMIN
 10
0
 20
0
  9
$EXTMAX
 10
4200.000000
 20
2970.000000
  9
$LIMMIN
 10
0
 20
0
  9
$LIMMAX
 10
4200.000000
 20
2970.000000
  9
$VIEWCTR
 10
2100.000000
 20
1485.000000
  9
$DIMASZ
 40
20.000000
  9
$DIMDLI
 40
80.000000
  9
$DIMEXE
 40
10.000000
  9
$DIMEXO
 40
10.000000
  9
$DIMTXT
 40
32.000000
  9
$TEXTSIZE
 40
32.000000
  9
$ANGBASE
 50
0.0
  9
$ANGDIR
 70
     0
  9
$ATTMODE
 70
     1
  9
$AUNITS
 70
     1
  9
$AUPREC
 70
     2
  9
$AXISMODE
 70
     0
  9
$AXISUNIT
 10
0.0
 20
0.0
  9
$BLIPMODE
 70
     1
  9
$CECOLOR
 62
   256
  9
$CELTYPE
  6
BYLAYER
  9
$CHAMFERA
 40
0.0
  9
$CHAMFERB
 40
0.0
  9
$CLAYER
  8
0
  9
$COORDS
 70
     0
  9
$DIMALT
 70
     0
  9
$DIMALTD
 70
     2
  9
$DIMALTF
 40
25.4
  9
$DIMDLE
 40
0.0
  9
$DIMLFAC
 40
1.0
  9
$DIMLIM
 70
     0
  9
$DIMRND
 40
0.0
  9
$DIMSCALE
 40
1.0
  9
$DIMSE1
 70
     0
  9
$DIMSE2
 70
     0
  9
$DIMTAD
 70
     1
  9
$DIMTIH
 70
     0
  9
$DIMTM
 40
0.0
  9
$DIMTOH
 70
     0
  9
$DIMTOL
 70
     0
  9
$DIMTP
 40
0.0
  9
$DIMTSZ
 40
0.0
  9
$DIMZIN
 70
     0
  9
$DRAGMODE
 70
     2
  9
$ELEVATION
 40
0.0
  9
$FASTZOOM
 70
     1
  9
$FILLETRAD
 40
0.0
  9
$FILLMODE
 70
     1
  9
$GRIDMODE
 70
     0
  9
$GRIDUNIT
 10
0.0
 20
0.0
  9
$LTSCALE
 40
1.0
  9
$LUNITS
 70
     2
  9
$LUPREC
 70
     2
  9
$MENU
  1
ACAD
  9
$ORTHOMODE
 70
     0
  9
$OSMODE
 70
     0
  9
$PDMODE
 70
     0
  9
$PDSIZE
 40
0.0
  9
$PLINEWID
 40
0.0
  9
$QTEXTMODE
 70
     0
  9
$REGENMODE
 70
     1
  9
$SKETCHINC
 40
0.1
  9
$SKPOLY
 70
     0
  9
$SNAPBASE
 10
0.0
 20
0.0
  9
$SNAPISOPAIR
 70
     0
  9
$SNAPMODE
 70
     0
  9
$SNAPSTYLE
 70
     0
  9
$SNAPUNIT
 10
0.0
 20
0.0
  9
$TEXTSTYLE
  7
KANJI
  9
$THICKNESS
 40
0.0
  9
$TRACEWID
 40
0.05
  9
$VIEWDIR
 10
0.0
 20
0.0
 30
1.0
  9
$VIEWSIZE
 40
0.0
  0
ENDSEC
  0
SECTION
  2
TABLES
  0
TABLE
  2
LTYPE
 70
     9
  0
LTYPE
  2
CONTINUOUS
 70
    64
  3
Solid line
 72
    65
 73
     0
 40
0.0
  0
LTYPE
  2
DASHED
 70
    64
  3
__ __ __ __ __ __ __ __ __ __ __ __ __ __ __
 72
    65
 73
     2
 40
0.75
 49
0.5
 49
-0.25
  0
LTYPE
  2
HIDDEN
 70
    64
  3
_ _ _ _ _ _ _ _ _ _ _ _ _ _ _ _ _ _ _ _ _ _ _
 72
    65
 73
     2
 40
0.375
 49
0.25
 49
-0.125
  0
LTYPE
  2
CENTER
 70
    64
  3
____ _ ____ _ ____ _ ____ _ ____ _ ____ _ ____
 72
    65
 73
     4
 40
2.0
 49
1.25
 49
-0.25
 49
0.25
 49
-0.25
  0
LTYPE
  2
PHANTOM
 70
    64
  3
_____ _ _ _____ _ _ _____ _ _ _____ _ _ ____
 72
    65
 73
     6
 40
2.5
 49
1.25
 49
-0.25
 49
0.25
 49
-0.25
 49
0.25
 49
-0.25
  0
LTYPE
  2
DOT
 70
    64
  3
...............................................
 72
    65
 73
     2
 40
0.25
 49
0.0
 49
-0.25
  0
LTYPE
  2
DASHDOT
 70
    64
  3
__ . __ . __ . __ . __ . __ . __ . __ . __ . __
 72
    65
 73
     4
 40
1.0
 49
0.5
 49
-0.25
 49
0.0
 49
-0.25
  0
LTYPE
  2
BORDER
 70
    64
  3
__ __ . __ __ . __ __ . __ __ . __ __ . __ __
 72
    65
 73
     6
 40
1.75
 49
0.5
 49
-0.25
 49
0.5
 49
-0.25
 49
0.0
 49
-0.25
  0
LTYPE
  2
DIVIDE
 70
    64
  3
__ . . __ . . __ . . __ . . __ . . __ . . __
 72
    65
 73
     6
 40
1.25
 49
0.5
 49
-0.25
 49
0.0
 49
-0.25
 49
0.0
 49
-0.25
  0
ENDTAB
  0
TABLE
  2
LAYER
 70
   100
  0
LAYER
  2
0
 70
     0
 62
     3
  6
CONTINUOUS
  0
LAYER
  2
1
 70
     0
 62
     3
  6
CONTINUOUS
  0
LAYER
  2
2
 70
     0
 62
     3
  6
CONTINUOUS
  0
LAYER
  2
3
 70
     0
 62
     3
  6
CONTINUOUS
  0
LAYER
  2
4
 70
     0
 62
     3
  6
CONTINUOUS
  0
LAYER
  2
5
 70
     0
 62
     3
  6
CONTINUOUS
  0
LAYER
  2
6
 70
     0
 62
     3
  6
CONTINUOUS
  0
LAYER
  2
7
 70
     0
 62
     3
  6
CONTINUOUS
  0
LAYER
  2
8
 70
     0
 62
     3
  6
CONTINUOUS
  0
LAYER
  2
9
 70
     0
 62
     3
  6
CONTINUOUS
  0
LAYER
  2
10
 70
     0
 62
     3
  6
CONTINUOUS
  0
LAYER
  2
11
 70
     0
 62
     3
  6
CONTINUOUS
  0
LAYER
  2
12
 70
     0
 62
     3
  6
CONTINUOUS
  0
LAYER
  2
13
 70
     0
 62
     3
  6
CONTINUOUS
  0
LAYER
  2
14
 70
     0
 62
     3
  6
CONTINUOUS
  0
LAYER
  2
15
 70
     0
 62
     3
  6
CONTINUOUS
  0
LAYER
  2
16
 70
     0
 62
     3
  6
CONTINUOUS
  0
LAYER
  2
17
 70
     0
 62
     3
  6
CONTINUOUS
  0
LAYER
  2
18
 70
     0
 62
     3
  6
CONTINUOUS
  0
LAYER
  2
19
 70
     0
 62
     3
  6
CONTINUOUS
  0
LAYER
  2
20
 70
     0
 62
     3
  6
CONTINUOUS
  0
LAYER
  2
21
 70
     0
 62
     3
  6
CONTINUOUS
  0
LAYER
  2
22
 70
     0
 62
     3
  6
CONTINUOUS
  0
LAYER
  2
23
 70
     0
 62
     3
  6
CONTINUOUS
  0
LAYER
  2
24
 70
     0
 62
     3
  6
CONTINUOUS
  0
LAYER
  2
25
 70
     0
 62
     3
  6
CONTINUOUS
  0
LAYER
  2
26
 70
     0
 62
     3
  6
CONTINUOUS
  0
LAYER
  2
27
 70
     0
 62
     3
  6
CONTINUOUS
  0
LAYER
  2
28
 70
     0
 62
     3
  6
CONTINUOUS
  0
LAYER
  2
29
 70
     0
 62
     3
  6
CONTINUOUS
  0
LAYER
  2
30
 70
     0
 62
     3
  6
CONTINUOUS
  0
LAYER
  2
31
 70
     0
 62
     3
  6
CONTINUOUS
  0
LAYER
  2
32
 70
     0
 62
     3
  6
CONTINUOUS
  0
LAYER
  2
33
 70
     0
 62
     3
  6
CONTINUOUS
  0
LAYER
  2
34
 70
     0
 62
     3
  6
CONTINUOUS
  0
LAYER
  2
35
 70
     0
 62
     3
  6
CONTINUOUS
  0
LAYER
  2
36
 70
     0
 62
     3
  6
CONTINUOUS
  0
LAYER
  2
37
 70
     0
 62
     3
  6
CONTINUOUS
  0
LAYER
  2
38
 70
     0
 62
     3
  6
CONTINUOUS
  0
LAYER
  2
39
 70
     0
 62
     3
  6
CONTINUOUS
  0
LAYER
  2
40
 70
     0
 62
     3
  6
CONTINUOUS
  0
LAYER
  2
41
 70
     0
 62
     3
  6
CONTINUOUS
  0
LAYER
  2
42
 70
     0
 62
     3
  6
CONTINUOUS
  0
LAYER
  2
43
 70
     0
 62
     3
  6
CONTINUOUS
  0
LAYER
  2
44
 70
     0
 62
     3
  6
CONTINUOUS
  0
LAYER
  2
45
 70
     0
 62
     3
  6
CONTINUOUS
  0
LAYER
  2
46
 70
     0
 62
     3
  6
CONTINUOUS
  0
LAYER
  2
47
 70
     0
 62
     3
  6
CONTINUOUS
  0
LAYER
  2
48
 70
     0
 62
     3
  6
CONTINUOUS
  0
LAYER
  2
49
 70
     0
 62
     3
  6
CONTINUOUS
  0
LAYER
  2
50
 70
     0
 62
     3
  6
CONTINUOUS
  0
LAYER
  2
51
 70
     0
 62
     3
  6
CONTINUOUS
  0
LAYER
  2
52
 70
     0
 62
     3
  6
CONTINUOUS
  0
LAYER
  2
53
 70
     0
 62
     3
  6
CONTINUOUS
  0
LAYER
  2
54
 70
     0
 62
     3
  6
CONTINUOUS
  0
LAYER
  2
55
 70
     0
 62
     3
  6
CONTINUOUS
  0
LAYER
  2
56
 70
     0
 62
     3
  6
CONTINUOUS
  0
LAYER
  2
57
 70
     0
 62
     3
  6
CONTINUOUS
  0
LAYER
  2
58
 70
     0
 62
     3
  6
CONTINUOUS
  0
LAYER
  2
59
 70
     0
 62
     3
  6
CONTINUOUS
  0
LAYER
  2
60
 70
     0
 62
     3
  6
CONTINUOUS
  0
LAYER
  2
61
 70
     0
 62
     3
  6
CONTINUOUS
  0
LAYER
  2
62
 70
     0
 62
     3
  6
CONTINUOUS
  0
LAYER
  2
63
 70
     0
 62
     3
  6
CONTINUOUS
  0
LAYER
  2
64
 70
     0
 62
     3
  6
CONTINUOUS
  0
LAYER
  2
65
 70
     0
 62
     3
  6
CONTINUOUS
  0
LAYER
  2
66
 70
     0
 62
     3
  6
CONTINUOUS
  0
LAYER
  2
67
 70
     0
 62
     3
  6
CONTINUOUS
  0
LAYER
  2
68
 70
     0
 62
     3
  6
CONTINUOUS
  0
LAYER
  2
69
 70
     0
 62
     3
  6
CONTINUOUS
  0
LAYER
  2
70
 70
     0
 62
     3
  6
CONTINUOUS
  0
LAYER
  2
71
 70
     0
 62
     3
  6
CONTINUOUS
  0
LAYER
  2
72
 70
     0
 62
     3
  6
CONTINUOUS
  0
LAYER
  2
73
 70
     0
 62
     3
  6
CONTINUOUS
  0
LAYER
  2
74
 70
     0
 62
     3
  6
CONTINUOUS
  0
LAYER
  2
75
 70
     0
 62
     3
  6
CONTINUOUS
  0
LAYER
  2
76
 70
     0
 62
     3
  6
CONTINUOUS
  0
LAYER
  2
77
 70
     0
 62
     3
  6
CONTINUOUS
  0
LAYER
  2
78
 70
     0
 62
     3
  6
CONTINUOUS
  0
LAYER
  2
79
 70
     0
 62
     3
  6
CONTINUOUS
  0
LAYER
  2
80
 70
     0
 62
     3
  6
CONTINUOUS
  0
LAYER
  2
81
 70
     0
 62
     3
  6
CONTINUOUS
  0
LAYER
  2
82
 70
     0
 62
     3
  6
CONTINUOUS
  0
LAYER
  2
83
 70
     0
 62
     3
  6
CONTINUOUS
  0
LAYER
  2
84
 70
     0
 62
     3
  6
CONTINUOUS
  0
LAYER
  2
85
 70
     0
 62
     3
  6
CONTINUOUS
  0
LAYER
  2
86
 70
     0
 62
     3
  6
CONTINUOUS
  0
LAYER
  2
87
 70
     0
 62
     3
  6
CONTINUOUS
  0
LAYER
  2
88
 70
     0
 62
     3
  6
CONTINUOUS
  0
LAYER
  2
89
 70
     0
 62
     3
  6
CONTINUOUS
  0
LAYER
  2
90
 70
     0
 62
     3
  6
CONTINUOUS
  0
LAYER
  2
91
 70
     0
 62
     3
  6
CONTINUOUS
  0
LAYER
  2
92
 70
     0
 62
     3
  6
CONTINUOUS
  0
LAYER
  2
93
 70
     0
 62
     3
  6
CONTINUOUS
  0
LAYER
  2
94
 70
     0
 62
     3
  6
CONTINUOUS
  0
LAYER
  2
95
 70
     0
 62
     3
  6
CONTINUOUS
  0
LAYER
  2
96
 70
     0
 62
     3
  6
CONTINUOUS
  0
LAYER
  2
97
 70
     0
 62
     3
  6
CONTINUOUS
  0
LAYER
  2
98
 70
     0
 62
     3
  6
CONTINUOUS
  0
LAYER
  2
99
 70
     0
 62
     3
  6
CONTINUOUS
  0
ENDTAB
  0
TABLE
  2
STYLE
 70
     2
  0
STYLE
  2
STANDARD
 70
     0
 40
0.0
 41
1.0
 50
0.0
 71
     0
 42
0.2
  3
TXT
  4
BIGFONT
  0
STYLE
  2
KANJI
 70
     0
 40
4.5
 41
1.0
 50
0.0
 71
     0
 42
0.2
  3
TXT
  4
BIGFONT
  0
ENDTAB
  0
TABLE
  2
VIEW
 70
     0
  0
ENDTAB
  0
ENDSEC
  0
SECTION
  2
BLOCKS
  0
BLOCK
  8
0
  2
G0
 70
     0
 10
0
 20
0
  0
LINE
  8
0
 62
     3
  6
CONTINUOUS
 10
3077.560047
 20
1414.224772
 11
3055.057592
 21
1427.216570
  0
LINE
  8
0
 62
     3
  6
CONTINUOUS
 10
3062.142578
 20
1387.520932
 11
3077.560047
 21
1414.224772
  0
TEXT
  8
0
 62
     3
 10
3050.349294
 20
1355.162715
 40
32.000000
 50
0.000000E+00
 41
0.86 
  1
Ｃ
 72
     5
 11
3082.349294
 21
1355.162715
  0
LINE
  8
0
 62
     3
  6
CONTINUOUS
 10
3062.142578
 20
1434.891181
 11
3062.142578
 21
1387.520932
  0
LINE
  8
0
 62
     3
  6
CONTINUOUS
 10
3062.142578
 20
1434.891181
 11
2982.580014
 21
1434.891181
  0
ENDBLK
  0
BLOCK
  8
0
  2
G1
 70
     0
 10
0
 20
0
  0
LINE
  8
0
 62
     1
  6
CONTINUOUS
 10
3096.118163
 20
2182.089268
 11
3096.118163
 21
2117.089268
  0
LINE
  8
0
 62
     1
  6
CONTINUOUS
 10
2932.863476
 20
2182.089268
 11
3106.118163
 21
2182.089268
  0
LINE
  8
0
 62
     1
  6
CONTINUOUS
 10
2935.363476
 20
2117.089268
 11
3156.118163
 21
2117.089268
  0
TEXT
  8
0
 62
     1
 10
3090.784830
 20
2131.589268
 40
32.000000
 50
90.000000
 41
0.56 
  1
65
 72
     5
 11
3090.784830
 21
2167.589268
  0
LINE
  8
0
 62
     1
  6
CONTINUOUS
 10
3096.118163
 20
2232.089268
 11
3096.118163
 21
2182.089268
  0
SOLID
  8
0
 62
     1
 10
3089.647687
 20
2206.237414
 11
3102.588639
 21
2206.237414
 12
3096.118163
 22
2182.089268
 13
3096.118163
 23
2182.089268
  0
LINE
  8
0
 62
     1
  6
CONTINUOUS
 10
3096.118163
 20
2117.089268
 11
3096.118163
 21
2067.089268
  0
SOLID
  8
0
 62
     1
 10
3102.588639
 20
2092.941123
 11
3089.647687
 21
2092.941123
 12
3096.118163
 22
2117.089268
 13
3096.118163
 23
2117.089268
  0
ENDBLK
  0
BLOCK
  8
0
  2
G2
 70
     0
 10
0
 20
0
  0
LINE
  8
0
 62
     1
  6
CONTINUOUS
 10
3868.624747
 20
2160.000000
 11
3868.624747
 21
2000.000000
  0
LINE
  8
0
 62
     1
  6
CONTINUOUS
 10
3821.624747
 20
2160.000000
 11
3878.624747
 21
2160.000000
  0
TEXT
  8
0
 62
     1
 10
3863.291414
 20
2052.000000
 40
32.000000
 50
90.000000
 41
0.58 
  1
160
 72
     5
 11
3863.291414
 21
2108.000000
  0
LINE
  8
0
 62
     1
  6
CONTINUOUS
 10
3868.624747
 20
1950.000000
 11
3868.624747
 21
2000.000000
  0
SOLID
  8
0
 62
     1
 10
3875.095223
 20
1975.851854
 11
3862.154271
 21
1975.851854
 12
3868.624747
 22
2000.000000
 13
3868.624747
 23
2000.000000
  0
LINE
  8
0
 62
     1
  6
CONTINUOUS
 10
3868.624747
 20
2160.000000
 11
3868.624747
 21
2210.000000
  0
SOLID
  8
0
 62
     1
 10
3862.154271
 20
2184.148146
 11
3875.095223
 21
2184.148146
 12
3868.624747
 22
2160.000000
 13
3868.624747
 23
2160.000000
  0
ENDBLK
  0
BLOCK
  8
0
  2
G3
 70
     0
 10
0
 20
0
  0
LINE
  8
0
 62
     1
  6
CONTINUOUS
 10
3549.000000
 20
2263.375253
 11
3759.000000
 21
2263.375253
  0
SOLID
  8
0
 62
     1
 10
3573.148146
 20
2269.845729
 11
3573.148146
 21
2256.904777
 12
3549.000000
 22
2263.375253
 13
3549.000000
 23
2263.375253
  0
SOLID
  8
0
 62
     1
 10
3734.851854
 20
2256.904777
 11
3734.851854
 21
2269.845729
 12
3759.000000
 22
2263.375253
 13
3759.000000
 23
2263.375253
  0
LINE
  8
0
 62
     1
  6
CONTINUOUS
 10
3549.000000
 20
2010.000000
 11
3549.000000
 21
2273.375253
  0
LINE
  8
0
 62
     1
  6
CONTINUOUS
 10
3759.000000
 20
2010.000000
 11
3759.000000
 21
2273.375253
  0
TEXT
  8
0
 62
     1
 10
3626.000000
 20
2268.708586
 40
32.000000
 50
0.000000E+00
 41
0.58 
  1
210
 72
     5
 11
3682.000000
 21
2268.708586
  0
ENDBLK
  0
BLOCK
  8
0
  2
G4
 70
     0
 10
0
 20
0
  0
LINE
  8
0
 62
     1
  6
CONTINUOUS
 10
3471.675308
 20
2105.000000
 11
3471.675308
 21
1895.000000
  0
SOLID
  8
0
 62
     1
 10
3478.145784
 20
2080.851854
 11
3465.204832
 21
2080.851854
 12
3471.675308
 22
2105.000000
 13
3471.675308
 23
2105.000000
  0
SOLID
  8
0
 62
     1
 10
3465.204832
 20
1919.148146
 11
3478.145784
 21
1919.148146
 12
3471.675308
 22
1895.000000
 13
3471.675308
 23
1895.000000
  0
LINE
  8
0
 62
     1
  6
CONTINUOUS
 10
3644.000000
 20
2105.000000
 11
3461.675308
 21
2105.000000
  0
LINE
  8
0
 62
     1
  6
CONTINUOUS
 10
3644.000000
 20
1895.000000
 11
3461.675308
 21
1895.000000
  0
TEXT
  8
0
 62
     1
 10
3466.341975
 20
1972.000000
 40
32.000000
 50
90.000000
 41
0.58 
  1
210
 72
     5
 11
3466.341975
 21
2028.000000
  0
ENDBLK
  0
BLOCK
  8
0
  2
G5
 70
     0
 10
0
 20
0
  0
LINE
  8
0
 62
     1
  6
CONTINUOUS
 10
3579.942757
 20
2249.419725
 11
3404.580275
 21
2074.057243
  0
SOLID
  8
0
 62
     1
 10
3567.442757
 20
2227.769090
 11
3558.292122
 21
2236.919725
 12
3579.942757
 22
2249.419725
 13
3579.942757
 23
2249.419725
  0
SOLID
  8
0
 62
     1
 10
3417.080275
 20
2095.707878
 11
3426.230910
 21
2086.557243
 12
3404.580275
 22
2074.057243
 13
3404.580275
 23
2074.057243
  0
TEXT
  8
0
 62
     1
 10
3468.691290
 20
2145.710730
 40
32.000000
 50
45.000000
 41
0.58 
  1
248
 72
     5
 11
3508.289270
 21
2185.308710
  0
ENDBLK
  0
BLOCK
  8
0
  2
G6
 70
     0
 10
0
 20
0
  0
LINE
  8
0
 62
     1
  6
CONTINUOUS
 10
3811.624747
 20
2095.317919
 11
3811.624747
 21
2160.000000
  0
LINE
  8
0
 62
     1
  6
CONTINUOUS
 10
3726.500000
 20
2160.000000
 11
3821.624747
 21
2160.000000
  0
TEXT
  8
0
 62
     1
 10
3806.291414
 20
2111.525767
 40
32.000000
 50
90.000000
 41
0.56 
  1
65
 72
     5
 11
3806.291414
 21
2147.525767
  0
LINE
  8
0
 62
     1
  6
CONTINUOUS
 10
3811.624747
 20
2045.317919
 11
3811.624747
 21
2095.317919
  0
SOLID
  8
0
 62
     1
 10
3818.095223
 20
2071.169773
 11
3805.154271
 21
2071.169773
 12
3811.624747
 22
2095.317919
 13
3811.624747
 23
2095.317919
  0
LINE
  8
0
 62
     1
  6
CONTINUOUS
 10
3811.624747
 20
2160.000000
 11
3811.624747
 21
2210.000000
  0
SOLID
  8
0
 62
     1
 10
3805.154271
 20
2184.148146
 11
3818.095223
 21
2184.148146
 12
3811.624747
 22
2160.000000
 13
3811.624747
 23
2160.000000
  0
ENDBLK
  0
BLOCK
  8
0
  2
G7
 70
     0
 10
0
 20
0
  0
LINE
  8
0
 62
     1
  6
CONTINUOUS
 10
3099.940390
 20
1576.227117
 11
3099.940390
 21
1636.227117
  0
CIRCLE
  8
0
 62
     1
  6
CONTINUOUS
 10
3099.940390
 20
1576.227117
 40
2.500000
  0
CIRCLE
  8
0
 62
     1
  6
CONTINUOUS
 10
3099.940390
 20
1576.227117
 40
1.250000
  0
LINE
  8
0
 62
     1
  6
CONTINUOUS
 10
3027.863476
 20
1576.227117
 11
3109.940390
 21
1576.227117
  0
LINE
  8
0
 62
     1
  6
CONTINUOUS
 10
3038.797182
 20
1636.227117
 11
3109.940390
 21
1636.227117
  0
TEXT
  8
0
 62
     1
 10
3094.607057
 20
1588.227117
 40
32.000000
 50
90.000000
 41
0.56 
  1
60
 72
     5
 11
3094.607057
 21
1624.227117
  0
LINE
  8
0
 62
     1
  6
CONTINUOUS
 10
3099.940390
 20
1636.227117
 11
3099.940390
 21
1686.227117
  0
SOLID
  8
0
 62
     1
 10
3092.175818
 20
1665.204891
 11
3107.704961
 21
1665.204891
 12
3099.940390
 22
1636.227117
 13
3099.940390
 23
1636.227117
  0
ENDBLK
  0
BLOCK
  8
0
  2
G8
 70
     0
 10
0
 20
0
  0
LINE
  8
0
 62
     1
  6
CONTINUOUS
 10
3099.940390
 20
1573.727117
 11
3099.940390
 21
1576.227117
  0
LINE
  8
0
 62
     1
  6
CONTINUOUS
 10
3109.940390
 20
1573.727117
 11
3027.863476
 21
1573.727117
  0
TEXT
  8
0
 62
     1
 10
3094.607057
 20
1487.999037
 40
32.000000
 50
90.000000
 41
0.58 
  1
2.5
 72
     5
 11
3094.607057
 21
1543.999037
  0
LINE
  8
0
 62
     1
  6
CONTINUOUS
 10
3099.940390
 20
1573.727117
 11
3099.940390
 21
1483.144416
  0
SOLID
  8
0
 62
     1
 10
3106.410866
 20
1549.578971
 11
3093.469913
 21
1549.578971
 12
3099.940390
 22
1573.727117
 13
3099.940390
 23
1573.727117
  0
ENDBLK
  0
BLOCK
  8
0
  2
G9
 70
     0
 10
0
 20
0
  0
LINE
  8
0
 62
     1
  6
CONTINUOUS
 10
3022.863476
 20
2400.343955
 11
3072.863476
 21
2400.343955
  0
SOLID
  8
0
 62
     1
 10
3047.011622
 20
2406.814431
 11
3047.011622
 21
2393.873479
 12
3022.863476
 22
2400.343955
 13
3022.863476
 23
2400.343955
  0
LINE
  8
0
 62
     1
  6
CONTINUOUS
 10
2907.863476
 20
2400.343955
 11
2957.863476
 21
2400.343955
  0
SOLID
  8
0
 62
     1
 10
2933.715330
 20
2393.873479
 11
2933.715330
 21
2406.814431
 12
2957.863476
 22
2400.343955
 13
2957.863476
 23
2400.343955
  0
TEXT
  8
0
 62
     1
 10
2972.363476
 20
2405.677288
 40
32.000000
 50
0.000000E+00
 41
0.56 
  1
65
 72
     5
 11
3008.363476
 21
2405.677288
  0
LINE
  8
0
 62
     1
  6
CONTINUOUS
 10
3022.863476
 20
2349.589268
 11
3022.863476
 21
2460.343955
  0
LINE
  8
0
 62
     1
  6
CONTINUOUS
 10
2957.863476
 20
2347.089268
 11
2957.863476
 21
2410.343955
  0
LINE
  8
0
 62
     1
  6
CONTINUOUS
 10
2957.863476
 20
2400.343955
 11
3022.863476
 21
2400.343955
  0
ENDBLK
  0
BLOCK
  8
0
  2
G10
 70
     0
 10
0
 20
0
  0
LINE
  8
0
 62
     1
  6
CONTINUOUS
 10
3339.940390
 20
1901.227117
 11
3339.940390
 21
916.227117
  0
SOLID
  8
0
 62
     1
 10
3346.410866
 20
1877.078971
 11
3333.469913
 21
1877.078971
 12
3339.940390
 22
1901.227117
 13
3339.940390
 23
1901.227117
  0
SOLID
  8
0
 62
     1
 10
3333.469913
 20
940.375262
 11
3346.410866
 21
940.375262
 12
3339.940390
 22
916.227117
 13
3339.940390
 23
916.227117
  0
LINE
  8
0
 62
     1
  6
CONTINUOUS
 10
3289.940390
 20
1901.227117
 11
3349.940390
 21
1901.227117
  0
LINE
  8
0
 62
     1
  6
CONTINUOUS
 10
3289.940390
 20
916.227117
 11
3349.940390
 21
916.227117
  0
TEXT
  8
0
 62
     1
 10
3334.607057
 20
1372.727117
 40
32.000000
 50
90.000000
 41
0.97 
  1
Ｌｔ
 72
     5
 11
3334.607057
 21
1444.727117
  0
ENDBLK
  0
BLOCK
  8
0
  2
G11
 70
     0
 10
0
 20
0
  0
LINE
  8
0
 62
     1
  6
CONTINUOUS
 10
3279.940390
 20
1826.227117
 11
3279.940390
 21
916.227117
  0
SOLID
  8
0
 62
     1
 10
3286.410866
 20
1802.078971
 11
3273.469913
 21
1802.078971
 12
3279.940390
 22
1826.227117
 13
3279.940390
 23
1826.227117
  0
SOLID
  8
0
 62
     1
 10
3273.469913
 20
940.375262
 11
3286.410866
 21
940.375262
 12
3279.940390
 22
916.227117
 13
3279.940390
 23
916.227117
  0
LINE
  8
0
 62
     1
  6
CONTINUOUS
 10
3229.940390
 20
916.227117
 11
3289.940390
 21
916.227117
  0
TEXT
  8
0
 62
     1
 10
3274.607057
 20
1277.227117
 40
32.000000
 50
90.000000
 41
0.89 
  1
Ｌ（有効長）
 72
     5
 11
3274.607057
 21
1473.227117
  0
ENDBLK
  0
BLOCK
  8
0
  2
G12
 70
     0
 10
0
 20
0
  0
LINE
  8
0
 62
     1
  6
CONTINUOUS
 10
3219.940390
 20
1276.227117
 11
3219.940390
 21
916.227117
  0
SOLID
  8
0
 62
     1
 10
3226.410866
 20
1252.078971
 11
3213.469913
 21
1252.078971
 12
3219.940390
 22
1276.227117
 13
3219.940390
 23
1276.227117
  0
SOLID
  8
0
 62
     1
 10
3213.469913
 20
940.375262
 11
3226.410866
 21
940.375262
 12
3219.940390
 22
916.227117
 13
3219.940390
 23
916.227117
  0
LINE
  8
0
 62
     1
  6
CONTINUOUS
 10
3229.940390
 20
916.227117
 11
3109.940390
 21
916.227117
  0
TEXT
  8
0
 62
     1
 10
3214.607057
 20
1068.227117
 40
32.000000
 50
90.000000
 41
0.58 
  1
360
 72
     5
 11
3214.607057
 21
1124.227117
  0
ENDBLK
  0
BLOCK
  8
0
  2
G13
 70
     0
 10
0
 20
0
  0
LINE
  8
0
 62
     1
  6
CONTINUOUS
 10
3099.940390
 20
1066.227117
 11
3099.940390
 21
916.227117
  0
SOLID
  8
0
 62
     1
 10
3106.410866
 20
1042.078971
 11
3093.469913
 21
1042.078971
 12
3099.940390
 22
1066.227117
 13
3099.940390
 23
1066.227117
  0
SOLID
  8
0
 62
     1
 10
3093.469913
 20
940.375262
 11
3106.410866
 21
940.375262
 12
3099.940390
 22
916.227117
 13
3099.940390
 23
916.227117
  0
LINE
  8
0
 62
     1
  6
CONTINUOUS
 10
2925.863476
 20
916.227117
 11
3109.940390
 21
916.227117
  0
TEXT
  8
0
 62
     1
 10
3094.607057
 20
963.227117
 40
32.000000
 50
90.000000
 41
0.58 
  1
150
 72
     5
 11
3094.607057
 21
1019.227117
  0
ENDBLK
  0
BLOCK
  8
0
  2
G14
 70
     0
 10
0
 20
0
  0
LINE
  8
0
 62
     1
  6
CONTINUOUS
 10
3099.940390
 20
1186.227117
 11
3099.940390
 21
1066.227117
  0
SOLID
  8
0
 62
     1
 10
3106.410866
 20
1162.078971
 11
3093.469913
 21
1162.078971
 12
3099.940390
 22
1186.227117
 13
3099.940390
 23
1186.227117
  0
SOLID
  8
0
 62
     1
 10
3093.469913
 20
1090.375262
 11
3106.410866
 21
1090.375262
 12
3099.940390
 22
1066.227117
 13
3099.940390
 23
1066.227117
  0
LINE
  8
0
 62
     1
  6
CONTINUOUS
 10
2953.612565
 20
1186.227117
 11
3109.940390
 21
1186.227117
  0
LINE
  8
0
 62
     1
  6
CONTINUOUS
 10
2923.114387
 20
1066.227117
 11
3109.940390
 21
1066.227117
  0
TEXT
  8
0
 62
     1
 10
3094.607057
 20
1098.227117
 40
32.000000
 50
90.000000
 41
0.58 
  1
120
 72
     5
 11
3094.607057
 21
1154.227117
  0
ENDBLK
  0
BLOCK
  8
0
  2
G15
 70
     0
 10
0
 20
0
  0
LINE
  8
0
 62
     1
  6
CONTINUOUS
 10
3159.940390
 20
1576.227117
 11
3159.940390
 21
1826.227117
  0
SOLID
  8
0
 62
     1
 10
3152.175818
 20
1605.204891
 11
3167.704961
 21
1605.204891
 12
3159.940390
 22
1576.227117
 13
3159.940390
 23
1576.227117
  0
SOLID
  8
0
 62
     1
 10
3167.704961
 20
1797.249342
 11
3152.175818
 21
1797.249342
 12
3159.940390
 22
1826.227117
 13
3159.940390
 23
1826.227117
  0
LINE
  8
0
 62
     1
  6
CONTINUOUS
 10
3109.940390
 20
1576.227117
 11
3169.940390
 21
1576.227117
  0
LINE
  8
0
 62
     1
  6
CONTINUOUS
 10
2872.863476
 20
1826.227117
 11
3169.940390
 21
1826.227117
  0
TEXT
  8
0
 62
     1
 10
3154.607057
 20
1673.227117
 40
32.000000
 50
90.000000
 41
0.58 
  1
250
 72
     5
 11
3154.607057
 21
1729.227117
  0
ENDBLK
  0
BLOCK
  8
0
  2
G16
 70
     0
 10
0
 20
0
  0
LINE
  8
0
 62
     1
  6
CONTINUOUS
 10
3219.940390
 20
1276.227117
 11
3219.940390
 21
1636.227117
  0
SOLID
  8
0
 62
     1
 10
3212.175818
 20
1305.204891
 11
3227.704961
 21
1305.204891
 12
3219.940390
 22
1276.227117
 13
3219.940390
 23
1276.227117
  0
SOLID
  8
0
 62
     1
 10
3227.704961
 20
1607.249342
 11
3212.175818
 21
1607.249342
 12
3219.940390
 22
1636.227117
 13
3219.940390
 23
1636.227117
  0
LINE
  8
0
 62
     1
  6
CONTINUOUS
 10
3229.940390
 20
1276.227117
 11
3109.940390
 21
1276.227117
  0
TEXT
  8
0
 62
     1
 10
3214.607057
 20
1440.227117
 40
32.000000
 50
90.000000
 41
0.86 
  1
Ｐ
 72
     5
 11
3214.607057
 21
1472.227117
  0
ENDBLK
  0
BLOCK
  8
0
  2
G17
 70
     0
 10
0
 20
0
  0
LINE
  8
0
 62
     1
  6
CONTINUOUS
 10
3099.940390
 20
1336.227117
 11
3099.940390
 21
1276.227117
  0
LINE
  8
0
 62
     1
  6
CONTINUOUS
 10
3109.940390
 20
1336.227117
 11
2973.417843
 21
1336.227117
  0
LINE
  8
0
 62
     1
  6
CONTINUOUS
 10
3109.940390
 20
1276.227117
 11
2900.632221
 21
1276.227117
  0
TEXT
  8
0
 62
     1
 10
3094.607057
 20
1290.227117
 40
32.000000
 50
90.000000
 41
0.86 
  1
Ｂ
 72
     5
 11
3094.607057
 21
1322.227117
  0
LINE
  8
0
 62
     1
  6
CONTINUOUS
 10
3099.940390
 20
1386.227117
 11
3099.940390
 21
1336.227117
  0
SOLID
  8
0
 62
     1
 10
3093.469913
 20
1360.375262
 11
3106.410866
 21
1360.375262
 12
3099.940390
 22
1336.227117
 13
3099.940390
 23
1336.227117
  0
LINE
  8
0
 62
     1
  6
CONTINUOUS
 10
3099.940390
 20
1276.227117
 11
3099.940390
 21
1226.227117
  0
SOLID
  8
0
 62
     1
 10
3106.410866
 20
1252.078971
 11
3093.469913
 21
1252.078971
 12
3099.940390
 22
1276.227117
 13
3099.940390
 23
1276.227117
  0
ENDBLK
  0
BLOCK
  8
0
  2
G18
 70
     0
 10
0
 20
0
  0
LINE
  8
0
 62
     1
  6
CONTINUOUS
 10
3279.940390
 20
1901.227117
 11
3279.940390
 21
1826.227117
  0
SOLID
  8
0
 62
     1
 10
3286.410866
 20
1877.078971
 11
3273.469913
 21
1877.078971
 12
3279.940390
 22
1901.227117
 13
3279.940390
 23
1901.227117
  0
SOLID
  8
0
 62
     1
 10
3273.469913
 20
1850.375262
 11
3286.410866
 21
1850.375262
 12
3279.940390
 22
1826.227117
 13
3279.940390
 23
1826.227117
  0
LINE
  8
0
 62
     1
  6
CONTINUOUS
 10
3289.940390
 20
1901.227117
 11
2943.053530
 21
1901.227117
  0
LINE
  8
0
 62
     1
  6
CONTINUOUS
 10
3289.940390
 20
1826.227117
 11
3159.940390
 21
1826.227117
  0
TEXT
  8
0
 62
     1
 10
3274.607057
 20
1845.727117
 40
32.000000
 50
90.000000
 41
0.56 
  1
75
 72
     5
 11
3274.607057
 21
1881.727117
  0
ENDBLK
  0
BLOCK
  8
0
  2
G19
 70
     0
 10
0
 20
0
  0
LINE
  8
0
 62
     1
  6
CONTINUOUS
 10
2695.786562
 20
1573.727117
 11
2695.786562
 21
1483.144416
  0
SOLID
  8
0
 62
     1
 10
2702.257038
 20
1549.578971
 11
2689.316086
 21
1549.578971
 12
2695.786562
 22
1573.727117
 13
2695.786562
 23
1573.727117
  0
TEXT
  8
0
 62
     1
 10
2690.453229
 20
1487.999037
 40
32.000000
 50
90.000000
 41
0.58 
  1
2.5
 72
     5
 11
2690.453229
 21
1543.999037
  0
LINE
  8
0
 62
     1
  6
CONTINUOUS
 10
2685.786562
 20
1573.727117
 11
2862.863476
 21
1573.727117
  0
LINE
  8
0
 62
     1
  6
CONTINUOUS
 10
2695.786562
 20
1573.727117
 11
2695.786562
 21
1576.227117
  0
ENDBLK
  0
BLOCK
  8
0
  2
G20
 70
     0
 10
0
 20
0
  0
TEXT
  8
0
 62
     3
 10
3059.090772
 20
1986.453919
 40
32.000000
 50
0.000000E+00
 41
0.95 
  1
受口深さ　
 72
     5
 11
3235.090772
 21
1986.453919
  0
ENDBLK
  0
BLOCK
  8
0
  2
G21
 70
     0
 10
0
 20
0
  0
LINE
  8
0
 62
     1
  6
CONTINUOUS
 10
2695.786562
 20
1636.227117
 11
2695.786562
 21
1686.227117
  0
SOLID
  8
0
 62
     1
 10
2688.021991
 20
1665.204891
 11
2703.551134
 21
1665.204891
 12
2695.786562
 22
1636.227117
 13
2695.786562
 23
1636.227117
  0
TEXT
  8
0
 62
     1
 10
2690.453229
 20
1588.227117
 40
32.000000
 50
90.000000
 41
0.56 
  1
60
 72
     5
 11
2690.453229
 21
1624.227117
  0
LINE
  8
0
 62
     1
  6
CONTINUOUS
 10
2685.786562
 20
1636.227117
 11
2760.937527
 21
1636.227117
  0
LINE
  8
0
 62
     1
  6
CONTINUOUS
 10
2685.786562
 20
1576.227117
 11
2862.863476
 21
1576.227117
  0
LINE
  8
0
 62
     1
  6
CONTINUOUS
 10
2695.786562
 20
1576.227117
 11
2695.786562
 21
1636.227117
  0
CIRCLE
  8
0
 62
     1
  6
CONTINUOUS
 10
2695.786562
 20
1576.227117
 40
2.500000
  0
CIRCLE
  8
0
 62
     1
  6
CONTINUOUS
 10
2695.786562
 20
1576.227117
 40
1.250000
  0
ENDBLK
  0
BLOCK
  8
0
  2
G22
 70
     0
 10
0
 20
0
  0
TEXT
  8
0
 62
     3
 10
3087.536481
 20
2413.564900
 40
32.000000
 50
0.000000E+00
 41
1.02 
  1
受口深さ
 72
     5
 11
3239.536481
 21
2413.564900
  0
ENDBLK
  0
BLOCK
  8
0
  2
G23
 70
     0
 10
0
 20
0
  0
LINE
  8
0
 62
     1
  6
CONTINUOUS
 10
3096.118163
 20
2214.589268
 11
3096.118163
 21
2339.589268
  0
SOLID
  8
0
 62
     1
 10
3089.647687
 20
2238.737414
 11
3102.588639
 21
2238.737414
 12
3096.118163
 22
2214.589268
 13
3096.118163
 23
2214.589268
  0
SOLID
  8
0
 62
     1
 10
3102.588639
 20
2315.441123
 11
3089.647687
 21
2315.441123
 12
3096.118163
 22
2339.589268
 13
3096.118163
 23
2339.589268
  0
LINE
  8
0
 62
     1
  6
CONTINUOUS
 10
3032.863476
 20
2214.589268
 11
3106.118163
 21
2214.589268
  0
LINE
  8
0
 62
     1
  6
CONTINUOUS
 10
3032.863476
 20
2339.589268
 11
3106.118163
 21
2339.589268
  0
TEXT
  8
0
 62
     1
 10
3090.784830
 20
2219.089268
 40
32.000000
 50
90.000000
 41
0.60 
  1
%%c125
 72
     5
 11
3090.784830
 21
2335.089268
  0
ENDBLK
  0
BLOCK
  8
0
  2
G24
 70
     0
 10
0
 20
0
  0
LINE
  8
0
 62
     3
  6
CONTINUOUS
 10
3011.880616
 20
2427.395122
 11
3082.696549
 21
2427.395122
  0
SOLID
  8
0
 62
     3
 10
3040.858391
 20
2435.159693
 11
3040.858391
 21
2419.630551
 12
3011.880616
 22
2427.395122
 13
3011.880616
 23
2427.395122
  0
ENDBLK
  0
BLOCK
  8
0
  2
G25
 70
     0
 10
0
 20
0
  0
LINE
  8
0
 62
     1
  6
CONTINUOUS
 10
2800.363476
 20
2063.834581
 11
2925.363476
 21
2063.834581
  0
SOLID
  8
0
 62
     1
 10
2824.511622
 20
2070.305058
 11
2824.511622
 21
2057.364105
 12
2800.363476
 22
2063.834581
 13
2800.363476
 23
2063.834581
  0
SOLID
  8
0
 62
     1
 10
2901.215330
 20
2057.364105
 11
2901.215330
 21
2070.305058
 12
2925.363476
 22
2063.834581
 13
2925.363476
 23
2063.834581
  0
LINE
  8
0
 62
     1
  6
CONTINUOUS
 10
2800.363476
 20
2107.089268
 11
2800.363476
 21
2053.834581
  0
LINE
  8
0
 62
     1
  6
CONTINUOUS
 10
2925.363476
 20
2107.089268
 11
2925.363476
 21
2053.834581
  0
TEXT
  8
0
 62
     1
 10
2804.863476
 20
2069.167914
 40
32.000000
 50
0.000000E+00
 41
0.60 
  1
%%c125
 72
     5
 11
2920.863476
 21
2069.167914
  0
ENDBLK
  0
BLOCK
  8
0
  2
G26
 70
     0
 10
0
 20
0
  0
TEXT
  8
0
 62
     7
 10
3803.261650
 20
2305.859671
 40
32.000000
 50
360.000000
 41
0.66 
  1
％％ｃ　　　枝管
 72
     5
 11
3995.261650
 21
2305.859671
  0
LINE
  8
0
 62
     3
  6
CONTINUOUS
 10
3995.560717
 20
2296.362083
 11
3833.696474
 21
2296.362083
  0
LINE
  8
0
 62
     3
  6
CONTINUOUS
 10
3995.560717
 20
2288.362083
 11
3833.696474
 21
2288.362083
  0
ENDBLK
  0
BLOCK
  8
0
  2
G27
 70
     0
 10
0
 20
0
  0
LINE
  8
0
 62
     3
  6
CONTINUOUS
 10
3808.608793
 20
2314.677582
 11
3840.608793
 21
2314.677582
  0
TEXT
  8
0
 62
     3
 10
3808.608793
 20
2320.010915
 40
32.000000
 50
0.000000E+00
 41
0.50 
  1
 
 72
     5
 11
3824.608793
 21
2320.010915
  0
LINE
  8
0
 62
     3
  6
CONTINUOUS
 10
3716.500000
 20
2160.000000
 11
3808.608793
 21
2314.677582
  0
SOLID
  8
0
 62
     3
 10
3721.936647
 20
2179.246892
 11
3730.831721
 21
2173.949974
 12
3716.500000
 22
2160.000000
 13
3716.500000
 23
2160.000000
  0
ENDBLK
  0
BLOCK
  8
0
  2
G28
 70
     0
 10
0
 20
0
  0
LINE
  8
0
 62
     7
  6
CONTINUOUS
 10
2767.863476
 20
2349.089268
 11
2767.863476
 21
2469.299426
  0
LINE
  8
0
 62
     7
  6
CONTINUOUS
 10
2862.863476
 20
2395.530428
 11
2862.863476
 21
2469.299426
  0
LINE
  8
0
 62
     7
  6
CONTINUOUS
 10
2767.863476
 20
2459.299426
 11
2862.863476
 21
2459.299426
  0
SOLID
  8
0
 62
     7
 10
2787.181992
 20
2464.475807
 11
2787.181992
 21
2454.123045
 12
2767.863476
 22
2459.299426
 13
2767.863476
 23
2459.299426
  0
SOLID
  8
0
 62
     7
 10
2843.544959
 20
2454.123045
 11
2843.544959
 21
2464.475807
 12
2862.863476
 22
2459.299426
 13
2862.863476
 23
2459.299426
  0
TEXT
  8
0
 62
     7
 10
2797.363476
 20
2464.632756
 40
32.000000
 50
0.000000E+00
 41
0.56 
  1
95
 72
     5
 11
2833.363476
 21
2464.632756
  0
ENDBLK
  0
BLOCK
  8
0
  2
G29
 70
     0
 10
0
 20
0
  0
LINE
  8
0
 62
     7
  6
CONTINUOUS
 10
2862.863476
 20
2379.187720
 11
2862.863476
 21
2469.299426
  0
LINE
  8
0
 62
     7
  6
CONTINUOUS
 10
3022.863476
 20
2359.589268
 11
3022.863476
 21
2469.299426
  0
LINE
  8
0
 62
     7
  6
CONTINUOUS
 10
2862.863476
 20
2459.299426
 11
3022.863476
 21
2459.299426
  0
SOLID
  8
0
 62
     7
 10
2882.181992
 20
2464.475807
 11
2882.181992
 21
2454.123045
 12
2862.863476
 22
2459.299426
 13
2862.863476
 23
2459.299426
  0
SOLID
  8
0
 62
     7
 10
3003.544959
 20
2454.123045
 11
3003.544959
 21
2464.475807
 12
3022.863476
 22
2459.299426
 13
3022.863476
 23
2459.299426
  0
TEXT
  8
0
 62
     7
 10
2914.863476
 20
2464.632756
 40
32.000000
 50
0.000000E+00
 41
0.58 
  1
160
 72
     5
 11
2970.863476
 21
2464.632756
  0
ENDBLK
  0
BLOCK
  8
0
  2
G30
 70
     0
 10
0
 20
0
  0
LINE
  8
0
 62
     7
  6
CONTINUOUS
 10
3101.415957
 20
2277.089268
 11
3164.337256
 21
2277.089268
  0
LINE
  8
0
 62
     7
  6
CONTINUOUS
 10
2945.363476
 20
2117.089268
 11
3164.337256
 21
2117.089268
  0
LINE
  8
0
 62
     7
  6
CONTINUOUS
 10
3154.337256
 20
2277.089268
 11
3154.337256
 21
2117.089268
  0
SOLID
  8
0
 62
     7
 10
3159.513637
 20
2257.770752
 11
3149.160875
 21
2257.770752
 12
3154.337256
 22
2277.089268
 13
3154.337256
 23
2277.089268
  0
SOLID
  8
0
 62
     7
 10
3149.160875
 20
2136.407785
 11
3159.513637
 21
2136.407785
 12
3154.337256
 22
2117.089268
 13
3154.337256
 23
2117.089268
  0
TEXT
  8
0
 62
     7
 10
3149.003926
 20
2169.089268
 40
32.000000
 50
90.000000
 41
0.58 
  1
160
 72
     5
 11
3149.003926
 21
2225.089268
  0
ENDBLK
  0
BLOCK
  8
0
  2
G31
 70
     0
 10
0
 20
0
  0
LINE
  8
0
 62
     7
  6
CONTINUOUS
 10
2787.863476
 20
1911.227117
 11
2787.863476
 21
1954.751724
  0
LINE
  8
0
 62
     7
  6
CONTINUOUS
 10
2937.863476
 20
1911.227117
 11
2937.863476
 21
1954.751724
  0
LINE
  8
0
 62
     7
  6
CONTINUOUS
 10
2787.863476
 20
1944.751724
 11
2937.863476
 21
1944.751724
  0
SOLID
  8
0
 62
     7
 10
2807.181992
 20
1949.928105
 11
2807.181992
 21
1939.575343
 12
2787.863476
 22
1944.751724
 13
2787.863476
 23
1944.751724
  0
SOLID
  8
0
 62
     7
 10
2918.544959
 20
1939.575343
 11
2918.544959
 21
1949.928105
 12
2937.863476
 22
1944.751724
 13
2937.863476
 23
1944.751724
  0
TEXT
  8
0
 62
     7
 10
2804.863476
 20
1950.085054
 40
32.000000
 50
0.000000E+00
 41
0.60 
  1
%%c150
 72
     5
 11
2920.863476
 21
1950.085054
  0
ENDBLK
  0
BLOCK
  8
0
  2
G32
 70
     0
 10
0
 20
0
  0
LINE
  8
0
 62
     7
  6
CONTINUOUS
 10
2776.863476
 20
1731.986486
 11
2776.863476
 21
2016.948668
  0
LINE
  8
0
 62
     7
  6
CONTINUOUS
 10
2948.863476
 20
1721.986486
 11
2948.863476
 21
2016.948668
  0
LINE
  8
0
 62
     7
  6
CONTINUOUS
 10
2776.863476
 20
2006.948668
 11
2948.863476
 21
2006.948668
  0
SOLID
  8
0
 62
     7
 10
2796.181992
 20
2012.125048
 11
2796.181992
 21
2001.772287
 12
2776.863476
 22
2006.948668
 13
2776.863476
 23
2006.948668
  0
SOLID
  8
0
 62
     7
 10
2929.544959
 20
2001.772287
 11
2929.544959
 21
2012.125048
 12
2948.863476
 22
2006.948668
 13
2948.863476
 23
2006.948668
  0
TEXT
  8
0
 62
     7
 10
2804.863476
 20
2012.281997
 40
32.000000
 50
0.000000E+00
 41
0.60 
  1
%%c172
 72
     5
 11
2920.863476
 21
2012.281997
  0
ENDBLK
  0
BLOCK
  8
0
  2
G33
 70
     0
 10
0
 20
0
  0
LINE
  8
0
 62
     7
  6
CONTINUOUS
 10
2807.863476
 20
906.227117
 11
2807.863476
 21
831.592951
  0
LINE
  8
0
 62
     7
  6
CONTINUOUS
 10
2917.863476
 20
906.227117
 11
2917.863476
 21
831.592951
  0
LINE
  8
0
 62
     7
  6
CONTINUOUS
 10
2807.863476
 20
841.592951
 11
2917.863476
 21
841.592951
  0
SOLID
  8
0
 62
     7
 10
2827.181992
 20
846.769332
 11
2827.181992
 21
836.416570
 12
2807.863476
 22
841.592951
 13
2807.863476
 23
841.592951
  0
SOLID
  8
0
 62
     7
 10
2898.544959
 20
836.416570
 11
2898.544959
 21
846.769332
 12
2917.863476
 22
841.592951
 13
2917.863476
 23
841.592951
  0
TEXT
  8
0
 62
     7
 10
2804.863476
 20
846.926280
 40
32.000000
 50
0.000000E+00
 41
0.60 
  1
%%c110
 72
     5
 11
2920.863476
 21
846.926280
  0
ENDBLK
  0
BLOCK
  8
0
  2
G34
 70
     0
 10
0
 20
0
  0
LINE
  8
0
 62
     7
  6
CONTINUOUS
 10
2776.863476
 20
1170.099028
 11
2776.863476
 21
766.948668
  0
LINE
  8
0
 62
     7
  6
CONTINUOUS
 10
2948.863476
 20
1180.099028
 11
2948.863476
 21
766.948668
  0
LINE
  8
0
 62
     7
  6
CONTINUOUS
 10
2776.863476
 20
776.948668
 11
2948.863476
 21
776.948668
  0
SOLID
  8
0
 62
     7
 10
2796.181992
 20
782.125048
 11
2796.181992
 21
771.772287
 12
2776.863476
 22
776.948668
 13
2776.863476
 23
776.948668
  0
SOLID
  8
0
 62
     7
 10
2929.544959
 20
771.772287
 11
2929.544959
 21
782.125048
 12
2948.863476
 22
776.948668
 13
2948.863476
 23
776.948668
  0
TEXT
  8
0
 62
     7
 10
2804.863476
 20
782.281997
 40
32.000000
 50
0.000000E+00
 41
0.60 
  1
%%c172
 72
     5
 11
2920.863476
 21
782.281997
  0
ENDBLK
  0
ENDSEC
  0
SECTION
  2
ENTITIES
  0
INSERT
  8
0
  2
G0
 10
0
 20
0
  0
LINE
  8
0
 62
     3
  6
CONTINUOUS
 10
2955.863476
 20
2215.089268
 11
2927.863476
 21
2215.089268
  0
LINE
  8
0
 62
     3
  6
CONTINUOUS
 10
2957.863476
 20
2217.089268
 11
2957.863476
 21
2337.089268
  0
LINE
  8
3
 62
     3
  6
CONTINUOUS
 10
3017.863476
 20
2337.089268
 11
2957.863476
 21
2337.089268
  0
LINE
  8
0
 62
     3
  6
CONTINUOUS
 10
3252.022257
 20
1999.671594
 11
3207.696015
 21
1999.671594
  0
LINE
  8
3
 62
     3
  6
CONTINUOUS
 10
3022.863476
 20
2214.589268
 11
3022.863476
 21
2339.589268
  0
LINE
  8
3
 62
     3
  6
CONTINUOUS
 10
3017.863476
 20
2214.589268
 11
3017.863476
 21
2217.089268
  0
LINE
  8
3
 62
     3
  6
CONTINUOUS
 10
3017.863476
 20
2214.589268
 11
3022.863476
 21
2214.589268
  0
LINE
  8
3
 62
     3
  6
CONTINUOUS
 10
3017.863476
 20
2339.589268
 11
3022.863476
 21
2339.589268
  0
LINE
  8
3
 62
     3
  6
CONTINUOUS
 10
3017.863476
 20
2339.589268
 11
3017.863476
 21
2217.089268
  0
LINE
  8
3
 62
     3
  6
CONTINUOUS
 10
3017.863476
 20
2217.089268
 11
2957.863476
 21
2217.089268
  0
CIRCLE
  8
0
 62
     3
  6
CONTINUOUS
 10
2862.863476
 20
2277.089268
 40
86.500000
  0
CIRCLE
  8
0
 62
     3
  6
CONTINUOUS
 10
2862.863476
 20
2277.089268
 40
75.000000
  0
LINE
  8
3
 62
     3
  6
CENTER
 10
3028.339644
 20
2277.089268
 11
2756.670152
 21
2277.089268
  0
LINE
  8
3
 62
     3
  6
CENTER
 10
2862.863476
 20
2379.187720
 11
2862.863476
 21
2104.039191
  0
INSERT
  8
0
  2
G1
 10
0
 20
0
  0
INSERT
  8
0
  2
G2
 10
0
 20
0
  0
LINE
  8
0
 62
     1
  6
CONTINUOUS
 10
3431.541055
 20
2047.096463
 11
3397.509207
 21
2081.128311
  0
LINE
  8
0
 62
     1
  6
CONTINUOUS
 10
3572.871689
 20
2256.490793
 11
3734.362482
 21
2095.000000
  0
INSERT
  8
0
  2
G3
 10
0
 20
0
  0
INSERT
  8
0
  2
G4
 10
0
 20
0
  0
LINE
  8
0
 62
     1
  6
CONTINUOUS
 10
3559.247691
 20
1919.389827
 11
3476.021158
 21
2002.616360
  0
INSERT
  8
0
  2
G5
 10
0
 20
0
  0
TEXT
  8
0
 62
     1
 10
3638.000000
 20
2214.458025
 40
32.000000
 50
0.000000E+00
 41
0.86 
  1
Ａ
 72
     5
 11
3670.000000
 21
2214.458025
  0
LINE
  8
0
 62
     1
  6
CONTINUOUS
 10
3591.500000
 20
2212.324692
 11
3716.500000
 21
2212.324692
  0
SOLID
  8
0
 62
     1
 10
3620.477775
 20
2220.089263
 11
3620.477775
 21
2204.560121
 12
3591.500000
 22
2212.324692
 13
3591.500000
 23
2212.324692
  0
SOLID
  8
0
 62
     1
 10
3687.522225
 20
2204.560121
 11
3687.522225
 21
2220.089263
 12
3716.500000
 22
2212.324692
 13
3716.500000
 23
2212.324692
  0
LINE
  8
0
 62
     1
  6
CONTINUOUS
 10
3591.500000
 20
2164.000000
 11
3591.500000
 21
2216.324692
  0
LINE
  8
0
 62
     1
  6
CONTINUOUS
 10
3716.500000
 20
2164.000000
 11
3716.500000
 21
2216.324692
  0
LINE
  8
0
 62
     1
  6
CONTINUOUS
 10
3719.638816
 20
2095.000000
 11
3815.624747
 21
2095.000000
  0
INSERT
  8
0
  2
G6
 10
0
 20
0
  0
ARC
  8
1
 62
     4
  6
CONTINUOUS
 10
2955.863476
 20
1396.227117
 40
2.000000
 50
0.000000E+00
 51
90.000000
  0
ARC
  8
1
 62
     4
  6
CONTINUOUS
 10
2955.863476
 20
1276.227117
 40
2.000000
 50
270.000000
 51
360.000000
  0
POINT
  8
3
 62
     7
 10
2948.863476
 20
1396.227117
  0
ARC
  8
3
 62
     4
  6
CONTINUOUS
 10
2922.991659
 20
1408.175616
 40
28.500781
 50
295.487111
 51
314.942399
  0
LINE
  8
0
 62
     3
  6
CONTINUOUS
 10
3789.738015
 20
2154.417239
 11
3789.738015
 21
2239.111040
  0
SOLID
  8
0
 62
     3
 10
3781.973443
 20
2183.395013
 11
3797.502586
 21
2183.395013
 12
3789.738015
 22
2154.417239
 13
3789.738015
 23
2154.417239
  0
LINE
  8
3
 62
     4
  6
CONTINUOUS
 10
2955.863476
 20
1406.926479
 11
2955.863476
 21
1398.227117
  0
POINT
  8
3
 62
     7
 10
2948.863476
 20
1396.227117
  0
POINT
  8
3
 62
     4
 10
2948.863476
 20
1274.227117
  0
LINE
  8
3
 62
     4
  6
CONTINUOUS
 10
2795.710101
 20
1381.227117
 11
2819.490097
 21
1381.227117
  0
LINE
  8
0
 62
     2
  6
CONTINUOUS
 10
2764.863476
 20
1431.728715
 11
2764.863476
 21
1433.728715
  0
LINE
  8
0
 62
     2
  6
CONTINUOUS
 10
2757.863476
 20
1434.728715
 11
2862.863476
 21
1434.728715
  0
LINE
  8
0
 62
     2
  6
CONTINUOUS
 10
2764.863476
 20
1431.728715
 11
2960.863476
 21
1431.728715
  0
LINE
  8
0
 62
     2
  6
CONTINUOUS
 10
2757.863476
 20
1434.728715
 11
2757.863476
 21
1442.728715
  0
LINE
  8
0
 62
     3
  6
CONTINUOUS
 10
2948.863476
 20
1701.227117
 11
2948.863476
 21
1711.986486
  0
LINE
  8
3
 62
     3
  6
CONTINUOUS
 10
2937.863476
 20
1896.227117
 11
2862.863476
 21
1896.227117
  0
LINE
  8
3
 62
     3
  6
CONTINUOUS
 10
2787.863476
 20
1901.227117
 11
2937.863476
 21
1901.227117
  0
LINE
  8
3
 62
     3
  6
CONTINUOUS
 10
2787.863476
 20
1901.227117
 11
2787.863476
 21
1896.227117
  0
LINE
  8
0
 62
     3
  6
CONTINUOUS
 10
2948.863476
 20
1571.227117
 11
2948.863476
 21
1449.728715
  0
ARC
  8
3
 62
     3
  6
CONTINUOUS
 10
2924.863476
 20
1824.227117
 40
10.000000
 50
302.527138
 51
360.000000
  0
LINE
  8
3
 62
     3
  6
CONTINUOUS
 10
2790.863476
 20
1891.644541
 11
2790.863476
 21
1824.227117
  0
LINE
  8
3
 62
     3
  6
CONTINUOUS
 10
2934.863476
 20
1891.644541
 11
2934.863476
 21
1824.227117
  0
ARC
  8
3
 62
     3
  6
CONTINUOUS
 10
2800.863476
 20
1824.227117
 40
10.000000
 50
180.000000
 51
238.038250
  0
LINE
  8
3
 62
     3
  6
CENTER
 10
3028.797182
 20
1636.227117
 11
2760.937527
 21
1636.227117
  0
LINE
  8
0
 62
     2
  6
CONTINUOUS
 10
2960.863476
 20
1449.728715
 11
2967.863476
 21
1442.728715
  0
ARC
  8
3
 62
     3
  6
CONTINUOUS
 10
2785.863476
 20
1891.644541
 40
5.000000
 50
360.000000
 51
426.421822
  0
LINE
  8
3
 62
     3
  6
CONTINUOUS
 10
2937.863476
 20
1901.227117
 11
2937.863476
 21
1896.227117
  0
ARC
  8
0
 62
     3
  6
CONTINUOUS
 10
2913.863476
 20
1711.986486
 40
35.000000
 50
0.000000E+00
 51
17.716492
  0
ARC
  8
3
 62
     3
  6
CONTINUOUS
 10
2939.863476
 20
1891.644541
 40
5.000000
 50
113.578178
 51
180.000000
  0
LINE
  8
3
 62
     3
  6
CONTINUOUS
 10
2940.602498
 20
1719.103002
 11
2862.863476
 21
1719.103002
  0
ARC
  8
3
 62
     4
  6
CONTINUOUS
 10
2782.863476
 20
1062.355205
 40
25.000000
 50
0.000000E+00
 51
14.708304
  0
LINE
  8
3
 62
     4
  6
CONTINUOUS
 10
2778.010392
 20
1181.212593
 11
2807.044250
 21
1068.702658
  0
ARC
  8
3
 62
     4
  6
CONTINUOUS
 10
2811.863476
 20
1190.099028
 40
35.000000
 50
180.000000
 51
194.708304
  0
LINE
  8
3
 62
     4
  6
CONTINUOUS
 10
2807.863476
 20
1062.355205
 11
2807.863476
 21
918.227117
  0
ARC
  8
3
 62
     4
  6
CONTINUOUS
 10
2942.863476
 20
1062.355205
 40
25.000000
 50
165.291696
 51
180.000000
  0
LINE
  8
3
 62
     4
  6
CONTINUOUS
 10
2947.716560
 20
1181.212593
 11
2918.682702
 21
1068.702658
  0
ARC
  8
3
 62
     4
  6
CONTINUOUS
 10
2913.863476
 20
1190.099028
 40
35.000000
 50
345.291696
 51
360.000000
  0
LINE
  8
3
 62
     4
  6
CONTINUOUS
 10
2917.863476
 20
1062.355205
 11
2917.863476
 21
918.227117
  0
LINE
  8
3
 62
     4
  6
CONTINUOUS
 10
2915.863476
 20
916.227117
 11
2809.863476
 21
916.227117
  0
LINE
  8
3
 62
     4
  6
CONTINUOUS
 10
2812.612565
 20
1066.227117
 11
2913.114387
 21
1066.227117
  0
LINE
  8
3
 62
     4
  6
CONTINUOUS
 10
2782.114387
 20
1186.227117
 11
2943.612565
 21
1186.227117
  0
LINE
  8
3
 62
     4
  6
CONTINUOUS
 10
2776.863476
 20
1186.227117
 11
2776.863476
 21
1406.926479
  0
LINE
  8
3
 62
     4
  6
CONTINUOUS
 10
2955.863476
 20
1406.926479
 11
2769.863476
 21
1406.926479
  0
LINE
  8
3
 62
     4
  6
CONTINUOUS
 10
2948.863476
 20
1190.099028
 11
2948.863476
 21
1271.227117
  0
LINE
  8
3
 62
     4
  6
CONTINUOUS
 10
2758.863476
 20
1416.227117
 11
2966.863476
 21
1416.227117
  0
LINE
  8
3
 62
     4
  6
CONTINUOUS
 10
2967.863476
 20
1431.227117
 11
2757.863476
 21
1431.227117
  0
ARC
  8
3
 62
     4
  6
CONTINUOUS
 10
2809.863476
 20
918.227117
 40
2.000000
 50
180.000000
 51
270.000000
  0
ARC
  8
3
 62
     4
  6
CONTINUOUS
 10
2915.863476
 20
918.227117
 40
2.000000
 50
270.000000
 51
360.000000
  0
LINE
  8
3
 62
     4
  6
CONTINUOUS
 10
2967.863476
 20
1431.227117
 11
2967.863476
 21
1416.227117
  0
LINE
  8
3
 62
     4
  6
CONTINUOUS
 10
2966.863476
 20
1416.227117
 11
2967.863476
 21
1416.227117
  0
LINE
  8
3
 62
     4
  6
CENTER
 10
2759.356192
 20
1336.227117
 11
2959.481707
 21
1336.227117
  0
LINE
  8
3
 62
     3
  6
CENTER
 10
2784.374623
 20
1407.283548
 11
2784.374623
 21
1437.774319
  0
LINE
  8
3
 62
     3
  6
CENTER
 10
2941.352329
 20
1407.283548
 11
2941.352329
 21
1437.774319
  0
ARC
  8
3
 62
     4
  6
CONTINUOUS
 10
2966.863476
 20
1414.227117
 40
2.000000
 50
90.000000
 51
180.000000
  0
LINE
  8
3
 62
     4
  6
CONTINUOUS
 10
2964.863476
 20
1414.227117
 11
2964.863476
 21
1412.727117
  0
ARC
  8
3
 62
     4
  6
CONTINUOUS
 10
2963.363476
 20
1412.727117
 40
1.500000
 50
270.000000
 51
360.000000
  0
LINE
  8
3
 62
     4
  6
CONTINUOUS
 10
2963.363476
 20
1411.227117
 11
2762.363476
 21
1411.227117
  0
LINE
  8
3
 62
     4
  6
CONTINUOUS
 10
2959.422624
 20
1411.227117
 11
2955.863476
 21
1406.926479
  0
LINE
  8
3
 62
     4
  6
CONTINUOUS
 10
2766.304328
 20
1411.227117
 11
2769.863476
 21
1406.926479
  0
ARC
  8
3
 62
     4
  6
CONTINUOUS
 10
2762.363476
 20
1412.727117
 40
1.500000
 50
180.000000
 51
270.000000
  0
LINE
  8
3
 62
     4
  6
CONTINUOUS
 10
2760.863476
 20
1414.227117
 11
2760.863476
 21
1412.727117
  0
ARC
  8
3
 62
     4
  6
CONTINUOUS
 10
2758.863476
 20
1414.227117
 40
2.000000
 50
0.000000E+00
 51
90.000000
  0
LINE
  8
3
 62
     4
  6
CONTINUOUS
 10
2758.863476
 20
1416.227117
 11
2757.863476
 21
1416.227117
  0
LINE
  8
3
 62
     4
  6
CONTINUOUS
 10
2757.863476
 20
1431.227117
 11
2757.863476
 21
1416.227117
  0
LINE
  8
0
 62
     3
  6
CONTINUOUS
 10
2776.863476
 20
1711.986486
 11
2776.863476
 21
1701.227117
  0
ARC
  8
0
 62
     3
  6
CONTINUOUS
 10
2811.863476
 20
1711.986486
 40
35.000000
 50
162.283508
 51
180.000000
  0
LINE
  8
3
 62
     3
  6
CONTINUOUS
 10
2923.833460
 20
1815.743100
 11
2862.863476
 21
1815.743100
  0
LINE
  8
0
 62
     3
  6
CONTINUOUS
 10
2802.110159
 20
1798.036132
 11
2778.523388
 21
1722.637240
  0
LINE
  8
0
 62
     3
  6
CONTINUOUS
 10
2923.616793
 20
1798.036132
 11
2947.203563
 21
1722.637240
  0
ARC
  8
2
 62
     3
  6
CONTINUOUS
 10
2787.821550
 20
1802.600741
 40
15.000000
 50
342.283508
 51
419.888987
  0
LINE
  8
3
 62
     4
  6
CENTER
 10
2862.863476
 20
1143.831738
 11
2862.863476
 21
1455.909326
  0
LINE
  8
3
 62
     4
  6
CENTER
 10
2862.863476
 20
903.139597
 11
2862.863476
 21
1143.831738
  0
LINE
  8
0
 62
     2
  6
CONTINUOUS
 10
2764.863476
 20
1449.728715
 11
2757.863476
 21
1442.728715
  0
LINE
  8
0
 62
     3
  6
CONTINUOUS
 10
2776.863476
 20
1571.227117
 11
2776.863476
 21
1449.728715
  0
ARC
  8
2
 62
     3
  6
CONTINUOUS
 10
2937.905401
 20
1802.600741
 40
15.000000
 50
120.111013
 51
197.716492
  0
LINE
  8
0
 62
     7
  6
CONTINUOUS
 10
3010.343034
 20
1742.311644
 11
3010.343034
 21
1700.527305
  0
SOLID
  8
0
 62
     7
 10
3002.578462
 20
1729.505080
 11
3018.107605
 21
1729.505080
 12
3010.343034
 22
1700.527305
 13
3010.343034
 23
1700.527305
  0
LINE
  8
3
 62
     3
  6
CONTINUOUS
 10
2946.677172
 20
1695.980203
 11
2943.466006
 21
1694.727804
  0
LINE
  8
3
 62
     3
  6
CONTINUOUS
 10
2943.466006
 20
1694.727804
 11
2940.351031
 21
1692.437907
  0
LINE
  8
3
 62
     3
  6
CONTINUOUS
 10
2940.351031
 20
1692.437907
 11
2937.387489
 21
1689.151124
  0
LINE
  8
3
 62
     3
  6
CONTINUOUS
 10
2937.387489
 20
1689.151124
 11
2934.627940
 21
1684.925743
  0
LINE
  8
3
 62
     3
  6
CONTINUOUS
 10
2934.627940
 20
1684.925743
 11
2932.121322
 21
1679.836702
  0
LINE
  8
3
 62
     3
  6
CONTINUOUS
 10
2932.121322
 20
1679.836702
 11
2929.912091
 21
1673.974254
  0
LINE
  8
3
 62
     3
  6
CONTINUOUS
 10
2929.912091
 20
1673.974254
 11
2928.039426
 21
1667.442368
  0
LINE
  8
3
 62
     3
  6
CONTINUOUS
 10
2928.039426
 20
1667.442368
 11
2926.536539
 21
1660.356886
  0
LINE
  8
3
 62
     3
  6
CONTINUOUS
 10
2926.536539
 20
1660.356886
 11
2925.430083
 21
1652.843467
  0
LINE
  8
3
 62
     3
  6
CONTINUOUS
 10
2925.430083
 20
1652.843467
 11
2924.739682
 21
1645.035360
  0
LINE
  8
3
 62
     3
  6
CONTINUOUS
 10
2925.430083
 20
1652.843467
 11
2924.739682
 21
1645.035360
  0
LINE
  8
3
 62
     3
  6
CONTINUOUS
 10
2924.739682
 20
1627.418873
 11
2925.417380
 21
1619.719469
  0
LINE
  8
3
 62
     3
  6
CONTINUOUS
 10
2925.417380
 20
1619.719469
 11
2926.499682
 21
1612.304614
  0
LINE
  8
3
 62
     3
  6
CONTINUOUS
 10
2926.499682
 20
1612.304614
 11
2927.967933
 21
1605.302121
  0
LINE
  8
3
 62
     3
  6
CONTINUOUS
 10
2927.967933
 20
1605.302121
 11
2929.796822
 21
1598.832694
  0
LINE
  8
3
 62
     3
  6
CONTINUOUS
 10
2929.796822
 20
1598.832694
 11
2931.954825
 21
1593.007849
  0
LINE
  8
3
 62
     3
  6
CONTINUOUS
 10
2931.954825
 20
1593.007849
 11
2934.404743
 21
1587.927991
  0
LINE
  8
3
 62
     3
  6
CONTINUOUS
 10
2934.404743
 20
1587.927991
 11
2937.104347
 21
1583.680685
  0
LINE
  8
3
 62
     3
  6
CONTINUOUS
 10
2937.104347
 20
1583.680685
 11
2940.007102
 21
1580.339142
  0
LINE
  8
3
 62
     3
  6
CONTINUOUS
 10
2940.007102
 20
1580.339142
 11
2943.062972
 21
1577.960961
  0
LINE
  8
3
 62
     3
  6
CONTINUOUS
 10
2943.062972
 20
1577.960961
 11
2946.219282
 21
1576.587137
  0
LINE
  8
3
 62
     3
  6
CONTINUOUS
 10
2943.062972
 20
1577.960961
 11
2946.219282
 21
1576.587137
  0
TEXT
  8
0
 62
     3
 10
3747.518205
 20
1842.336372
 40
32.000000
 50
0.000000E+00
 41
0.87 
  1
Ｃ矢視　（下部）
 72
     5
 11
4003.518205
 21
1842.336372
  0
LINE
  8
0
 62
     3
  6
CONTINUOUS
 10
3743.518205
 20
1837.003039
 11
3997.422339
 21
1837.003039
  0
TEXT
  8
0
 62
     7
 10
2971.326025
 20
1739.590527
 40
32.000000
 50
0.000000E+00
 41
0.78 
  1
７５枝管
 72
     5
 11
3083.326025
 21
1739.590527
  0
LINE
  8
3
 62
     4
  6
CONTINUOUS
 10
2930.016851
 20
1381.227117
 11
2906.236855
 21
1381.227117
  0
TEXT
  8
0
 62
     3
 10
3603.656222
 20
2115.055789
 40
32.000000
 50
0.000000E+00
 41
0.86 
  1
ａ
 72
     5
 11
3635.656222
 21
2115.055789
  0
POINT
  8
0
 62
     3
 10
2862.863476
 20
1423.227117
  0
POINT
  8
0
 62
     3
 10
2862.863476
 20
1408.727117
  0
POINT
  8
0
 62
     3
 10
2862.863476
 20
1386.227117
  0
ARC
  8
0
 62
     2
  6
CONTINUOUS
 10
2763.863476
 20
1433.728715
 40
1.000000
 50
360.000000
 51
450.000000
  0
LINE
  8
0
 62
     2
  6
CONTINUOUS
 10
2764.863476
 20
1449.728715
 11
2960.863476
 21
1449.728715
  0
LINE
  8
3
 62
     3
  6
CONTINUOUS
 10
3017.863476
 20
1573.727117
 11
3017.863476
 21
1696.227117
  0
LINE
  8
3
 62
     3
  6
CONTINUOUS
 10
3017.863476
 20
1573.727117
 11
3022.863476
 21
1573.727117
  0
LINE
  8
3
 62
     3
  6
CONTINUOUS
 10
3017.863476
 20
1696.227117
 11
2957.863476
 21
1696.227117
  0
ARC
  8
1
 62
     3
  6
CONTINUOUS
 10
2955.863476
 20
1576.227117
 40
2.000000
 50
270.000000
 51
360.000000
  0
LINE
  8
3
 62
     3
  6
CONTINUOUS
 10
3017.863476
 20
1576.227117
 11
2957.863476
 21
1576.227117
  0
LINE
  8
3
 62
     3
  6
CONTINUOUS
 10
3017.863476
 20
1698.727117
 11
3022.863476
 21
1698.727117
  0
LINE
  8
3
 62
     3
  6
CONTINUOUS
 10
3017.863476
 20
1698.727117
 11
3017.863476
 21
1696.227117
  0
LINE
  8
3
 62
     3
  6
CONTINUOUS
 10
3022.863476
 20
1698.727117
 11
3022.863476
 21
1573.727117
  0
LINE
  8
1
 62
     3
  6
CONTINUOUS
 10
2955.863476
 20
1698.227117
 11
2951.863476
 21
1698.227117
  0
LINE
  8
1
 62
     3
  6
CONTINUOUS
 10
2955.863476
 20
1574.227117
 11
2951.863476
 21
1574.227117
  0
ARC
  8
1
 62
     3
  6
CONTINUOUS
 10
2955.863476
 20
1696.227117
 40
2.000000
 50
0.000000E+00
 51
90.000000
  0
ARC
  8
1
 62
     3
  6
CONTINUOUS
 10
2951.863476
 20
1701.227117
 40
3.000000
 50
180.000000
 51
270.000000
  0
ARC
  8
1
 62
     3
  6
CONTINUOUS
 10
2951.863476
 20
1571.227117
 40
3.000000
 50
90.000000
 51
180.000000
  0
ARC
  8
0
 62
     3
  6
CONTINUOUS
 10
2913.863476
 20
1711.986486
 40
35.000000
 50
0.000000E+00
 51
17.716492
  0
LINE
  8
0
 62
     3
  6
CONTINUOUS
 10
2948.863476
 20
1711.986486
 11
2948.863476
 21
1701.227117
  0
LINE
  8
0
 62
     2
  6
CONTINUOUS
 10
2757.863476
 20
1442.728715
 11
2862.863476
 21
1442.728715
  0
LINE
  8
3
 62
     3
  6
CENTER
 10
2862.863476
 20
1908.701565
 11
2862.863476
 21
1455.909326
  0
LINE
  8
3
 62
     3
  6
CONTINUOUS
 10
2785.124453
 20
1719.103002
 11
2862.863476
 21
1719.103002
  0
LINE
  8
3
 62
     3
  6
CONTINUOUS
 10
2801.893492
 20
1815.743100
 11
2862.863476
 21
1815.743100
  0
LINE
  8
3
 62
     3
  6
CONTINUOUS
 10
2787.863476
 20
1896.227117
 11
2862.863476
 21
1896.227117
  0
POINT
  8
0
 62
     3
 10
2862.863476
 20
1826.227117
  0
TEXT
  8
0
 62
     6
 10
2536.833607
 20
2583.812443
 40
35.000000
 50
0.000000E+00
 41
0.81 
  1
４ＳＦ－　　　－　　　　０００　　－Ｐ
 72
     5
 11
3152.333607
 21
2583.812443
  0
LINE
  8
0
 62
     2
  6
CONTINUOUS
 10
2967.863476
 20
1434.728715
 11
2967.863476
 21
1442.728715
  0
LINE
  8
0
 62
     2
  6
CONTINUOUS
 10
2960.863476
 20
1431.728715
 11
2960.863476
 21
1433.728715
  0
ARC
  8
0
 62
     2
  6
CONTINUOUS
 10
2961.863476
 20
1433.728715
 40
1.000000
 50
90.000000
 51
180.000000
  0
LINE
  8
0
 62
     2
  6
CONTINUOUS
 10
2967.863476
 20
1442.728715
 11
2862.863476
 21
1442.728715
  0
LINE
  8
0
 62
     2
  6
CONTINUOUS
 10
2967.863476
 20
1434.728715
 11
2862.863476
 21
1434.728715
  0
TEXT
  8
0
 62
     6
 10
3177.087629
 20
2603.485825
 40
35.000000
 50
0.000000E+00
 41
0.60 
  1
240,260,280
 72
     5
 11
3409.587629
 21
2603.485825
  0
TEXT
  8
0
 62
     6
 10
3178.948131
 20
2561.370812
 40
35.000000
 50
0.000000E+00
 41
0.60 
  1
300,340,360
 72
     5
 11
3411.448131
 21
2561.370812
  0
INSERT
  8
0
  2
G7
 10
0
 20
0
  0
INSERT
  8
0
  2
G8
 10
0
 20
0
  0
INSERT
  8
0
  2
G9
 10
0
 20
0
  0
ARC
  8
0
 62
     4
  6
CONTINUOUS
 10
3654.000000
 20
2000.000000
 40
100.000000
 50
36.038338
 51
53.961662
  0
LINE
  8
3
 62
     4
  6
CONTINUOUS
 10
3716.500000
 20
2160.000000
 11
3591.500000
 21
2160.000000
  0
LINE
  8
3
 62
     4
  6
CONTINUOUS
 10
3716.500000
 20
2155.000000
 11
3716.500000
 21
2160.000000
  0
LINE
  8
3
 62
     4
  6
CONTINUOUS
 10
3591.500000
 20
2155.000000
 11
3591.500000
 21
2160.000000
  0
LINE
  8
3
 62
     4
  6
CONTINUOUS
 10
3591.500000
 20
2155.000000
 11
3716.500000
 21
2155.000000
  0
LINE
  8
3
 62
     4
  6
CONTINUOUS
 10
3714.000000
 20
2155.000000
 11
3714.000000
 21
2095.317919
  0
LINE
  8
3
 62
     4
  6
CONTINUOUS
 10
3594.000000
 20
2155.000000
 11
3594.000000
 21
2095.317919
  0
ARC
  8
3
 62
     3
  6
CONTINUOUS
 10
3654.000000
 20
2000.000000
 40
105.000000
 50
80.096801
 51
100.978618
  0
ARC
  8
0
 62
     4
  6
CONTINUOUS
 10
3654.000000
 20
2000.000000
 40
100.000000
 50
306.038338
 51
323.961662
  0
ARC
  8
0
 62
     4
  6
CONTINUOUS
 10
3654.000000
 20
2000.000000
 40
100.000000
 50
216.038338
 51
233.961662
  0
CIRCLE
  8
3
 62
     4
  6
CONTINUOUS
 10
3654.000000
 20
2000.000000
 40
88.000000
  0
ARC
  8
3
 62
     4
  6
CONTINUOUS
 10
3654.000000
 20
2000.000000
 40
100.000000
 50
53.109614
 51
126.890386
  0
LINE
  8
3
 62
     4
  6
CONTINUOUS
 10
3734.964607
 20
2091.250931
 11
3672.061853
 21
2103.453628
  0
ARC
  8
3
 62
     3
  6
CONTINUOUS
 10
3654.000000
 20
2000.000000
 40
105.000000
 50
259.021382
 51
279.903199
  0
ARC
  8
3
 62
     3
  6
CONTINUOUS
 10
3654.000000
 20
2000.000000
 40
105.000000
 50
170.096801
 51
189.903199
  0
LINE
  8
3
 62
     4
  6
CONTINUOUS
 10
3573.035393
 20
2091.250931
 11
3635.938147
 21
2103.453628
  0
LINE
  8
3
 62
     3
  6
CENTER
 10
3585.288243
 20
1931.288243
 11
3564.607067
 21
1910.607067
  0
LINE
  8
3
 62
     4
  6
CONTINUOUS
 10
3562.749069
 20
2080.964607
 11
3550.546372
 21
2018.061853
  0
ARC
  8
3
 62
     4
  6
CENTER
 10
3654.000000
 20
2000.000000
 40
111.000000
 50
216.265016
 51
232.275712
  0
LINE
  8
3
 62
     3
  6
CENTER
 10
3586.362469
 20
2067.637531
 11
3563.850513
 21
2090.149487
  0
ARC
  8
3
 62
     4
  6
CENTER
 10
3654.000000
 20
2000.000000
 40
111.000000
 50
126.069475
 51
144.182385
  0
ARC
  8
3
 62
     4
  6
CENTER
 10
3654.000000
 20
2000.000000
 40
111.000000
 50
34.449115
 51
54.970079
  0
LINE
  8
3
 62
     4
  6
CONTINUOUS
 10
3562.749069
 20
1919.035393
 11
3550.546372
 21
1981.938147
  0
LINE
  8
3
 62
     4
  6
CONTINUOUS
 10
3757.078324
 20
2019.996478
 11
3745.250931
 21
2080.964607
  0
LINE
  8
3
 62
     3
  6
CENTER
 10
3721.991228
 20
2067.991228
 11
3743.941928
 21
2089.941928
  0
LINE
  8
3
 62
     4
  6
CONTINUOUS
 10
3573.035393
 20
1908.749069
 11
3634.003522
 21
1896.921676
  0
ARC
  8
3
 62
     4
  6
CONTINUOUS
 10
3575.511147
 20
1921.511147
 40
13.000000
 50
190.978618
 51
259.021382
  0
ARC
  8
3
 62
     4
  6
CONTINUOUS
 10
3575.511147
 20
2078.488853
 40
13.000000
 50
100.978618
 51
169.021382
  0
ARC
  8
3
 62
     4
  6
CONTINUOUS
 10
3732.488853
 20
2078.488853
 40
13.000000
 50
10.978618
 51
79.021382
  0
LINE
  8
3
 62
     3
  6
CENTER
 10
3721.985865
 20
1932.014135
 11
3743.726559
 21
1910.273441
  0
LINE
  8
3
 62
     4
  6
CONTINUOUS
 10
3734.964607
 20
1908.749069
 11
3672.061853
 21
1896.546372
  0
LINE
  8
3
 62
     4
  6
CONTINUOUS
 10
3745.250931
 20
1919.035393
 11
3757.078324
 21
1980.003522
  0
ARC
  8
3
 62
     3
  6
CONTINUOUS
 10
3654.000000
 20
2000.000000
 40
105.000000
 50
349.021382
 51
370.978618
  0
CIRCLE
  8
3
 62
     3
  6
CONTINUOUS
 10
3654.000000
 20
2000.000000
 40
81.000000
  0
ARC
  8
3
 62
     4
  6
CONTINUOUS
 10
3732.488853
 20
1921.511147
 40
13.000000
 50
280.978618
 51
349.021382
  0
LINE
  8
3
 62
     3
  6
CENTER
 10
3654.000000
 20
2165.476168
 11
3654.000000
 21
1882.749950
  0
LINE
  8
3
 62
     3
  6
CENTER
 10
3762.997250
 20
2000.000000
 11
3537.580925
 21
2000.000000
  0
CIRCLE
  8
3
 62
     4
  6
CONTINUOUS
 10
3732.488853
 20
2078.488853
 40
7.000000
  0
CIRCLE
  8
3
 62
     4
  6
CONTINUOUS
 10
3732.488853
 20
1921.511147
 40
7.000000
  0
CIRCLE
  8
3
 62
     4
  6
CONTINUOUS
 10
3575.511147
 20
1921.511147
 40
7.000000
  0
CIRCLE
  8
3
 62
     4
  6
CONTINUOUS
 10
3575.511147
 20
2078.488853
 40
7.000000
  0
ARC
  8
3
 62
     4
  6
CENTER
 10
3654.000000
 20
2000.000000
 40
111.000000
 50
307.018997
 51
325.489571
  0
ARC
  8
3
 62
     4
  6
CONTINUOUS
 10
3654.000000
 20
2000.000000
 40
100.000000
 50
323.109614
 51
396.890386
  0
ARC
  8
3
 62
     4
  6
CONTINUOUS
 10
3654.000000
 20
2000.000000
 40
100.000000
 50
233.109614
 51
306.890386
  0
ARC
  8
3
 62
     4
  6
CONTINUOUS
 10
3654.000000
 20
2000.000000
 40
100.000000
 50
143.109614
 51
216.890386
  0
ARC
  8
0
 62
     4
  6
CONTINUOUS
 10
3654.000000
 20
2000.000000
 40
100.000000
 50
126.038338
 51
143.961662
  0
INSERT
  8
0
  2
G10
 10
0
 20
0
  0
INSERT
  8
0
  2
G11
 10
0
 20
0
  0
INSERT
  8
0
  2
G12
 10
0
 20
0
  0
INSERT
  8
0
  2
G13
 10
0
 20
0
  0
INSERT
  8
0
  2
G14
 10
0
 20
0
  0
INSERT
  8
0
  2
G15
 10
0
 20
0
  0
LINE
  8
0
 62
     1
  6
CONTINUOUS
 10
3229.940390
 20
1636.227117
 11
3099.940390
 21
1636.227117
  0
LINE
  8
0
 62
     1
  6
CONTINUOUS
 10
3099.940390
 20
1636.227117
 11
3116.816384
 21
1636.227117
  0
INSERT
  8
0
  2
G16
 10
0
 20
0
  0
TEXT
  8
0
 62
     6
 10
2719.816479
 20
2583.910129
 40
35.000000
 50
0.000000E+00
 41
0.86 
  1
Ｃ
 72
     5
 11
2754.816479
 21
2583.910129
  0
TEXT
  8
0
 62
     6
 10
2840.490420
 20
2584.910129
 40
35.000000
 50
0.000000E+00
 41
0.86 
  1
Ａ
 72
     5
 11
2875.490420
 21
2584.910129
  0
TEXT
  8
0
 62
     6
 10
2821.990420
 20
2649.959535
 40
32.000000
 50
0.000000E+00
 41
0.97 
  1
下部
 72
     5
 11
2893.990420
 21
2649.959535
  0
TEXT
  8
0
 62
     6
 10
2701.990420
 20
2649.959535
 40
32.000000
 50
0.000000E+00
 41
0.97 
  1
上部
 72
     5
 11
2773.990420
 21
2649.959535
  0
INSERT
  8
0
  2
G17
 10
0
 20
0
  0
INSERT
  8
0
  2
G18
 10
0
 20
0
  0
INSERT
  8
0
  2
G19
 10
0
 20
0
  0
LINE
  8
0
 62
     3
  6
CONTINUOUS
 10
3819.560334
 20
2239.111040
 11
3789.738015
 21
2239.111040
  0
TEXT
  8
0
 62
     3
 10
3825.291895
 20
2227.896055
 40
32.000000
 50
0.000000E+00
 41
1.02 
  1
受口深さ
 72
     5
 11
3977.291895
 21
2227.896055
  0
LINE
  8
0
 62
     3
  6
CONTINUOUS
 10
3252.022257
 20
1895.891616
 11
3252.022257
 21
1999.671594
  0
SOLID
  8
0
 62
     3
 10
3244.257685
 20
1924.869391
 11
3259.786828
 21
1924.869391
 12
3252.022257
 22
1895.891616
 13
3252.022257
 23
1895.891616
  0
INSERT
  8
0
  2
G20
 10
0
 20
0
  0
TEXT
  8
0
 62
     6
 10
3032.066195
 20
2683.926093
 40
32.000000
 50
0.000000E+00
 41
0.86 
  1
ａ
 72
     5
 11
3064.066195
 21
2683.926093
  0
LINE
  8
0
 62
     7
  6
CONTINUOUS
 10
3769.271113
 20
2000.000000
 11
3878.624747
 21
2000.000000
  0
CIRCLE
  8
0
 62
     6
  6
HIDDEN
 10
3048.252571
 20
2552.940231
 40
20.000000
  0
TEXT
  8
0
 62
     6
 10
3040.252571
 20
2536.940231
 40
32.000000
 50
0.000000E+00
 41
0.50 
  1
3
 72
     5
 11
3056.252571
 21
2536.940231
  0
CIRCLE
  8
0
 62
     6
  6
HIDDEN
 10
3048.252571
 20
2600.298843
 40
20.000000
  0
TEXT
  8
0
 62
     6
 10
3040.252571
 20
2584.298843
 40
32.000000
 50
0.000000E+00
 41
0.50 
  1
2
 72
     5
 11
3056.252571
 21
2584.298843
  0
CIRCLE
  8
0
 62
     6
  6
HIDDEN
 10
3048.252571
 20
2648.332262
 40
20.000000
  0
TEXT
  8
0
 62
     6
 10
3040.252571
 20
2632.332262
 40
32.000000
 50
0.000000E+00
 41
0.50 
  1
1
 72
     5
 11
3056.252571
 21
2632.332262
  0
TEXT
  8
0
 62
     6
 10
3698.206339
 20
2431.134541
 40
32.000000
 50
0.000000E+00
 41
0.50 
  1
3
 72
     5
 11
3714.206339
 21
2431.134541
  0
TEXT
  8
0
 62
     6
 10
3698.206339
 20
2491.134541
 40
32.000000
 50
0.000000E+00
 41
0.50 
  1
2
 72
     5
 11
3714.206339
 21
2491.134541
  0
TEXT
  8
0
 62
     6
 10
3698.206339
 20
2551.134541
 40
32.000000
 50
0.000000E+00
 41
0.50 
  1
1
 72
     5
 11
3714.206339
 21
2551.134541
  0
TEXT
  8
0
 62
     6
 10
3729.294308
 20
2434.530401
 40
32.000000
 50
0.000000E+00
 41
0.74 
  1
：％％ｃ７５枝管
 72
     5
 11
3941.294308
 21
2434.530401
  0
TEXT
  8
0
 62
     6
 10
3729.294308
 20
2494.530401
 40
32.000000
 50
0.000000E+00
 41
0.74 
  1
：％％ｃ６５枝管
 72
     5
 11
3941.294308
 21
2494.530401
  0
TEXT
  8
0
 62
     6
 10
3729.294308
 20
2554.530401
 40
32.000000
 50
0.000000E+00
 41
0.74 
  1
：％％ｃ５０枝管
 72
     5
 11
3941.294308
 21
2554.530401
  0
TEXT
  8
0
 62
     6
 10
3631.418499
 20
2607.505821
 40
32.000000
 50
0.000000E+00
 41
0.97 
  1
枝管のタイプ（呼び径）
 72
     5
 11
4027.418499
 21
2607.505821
  0
LINE
  8
0
 62
     4
  6
HIDDEN
 10
2880.363476
 20
1276.227117
 11
2845.363476
 21
1276.227117
  0
POINT
  8
0
 62
     4
 10
2862.863476
 20
1386.227117
  0
CIRCLE
  8
0
 62
     4
  6
HIDDEN
 10
2862.863476
 20
1336.227117
 40
40.000000
  0
CIRCLE
  8
0
 62
     4
  6
HIDDEN
 10
2862.863476
 20
1336.227117
 40
54.000000
  0
CIRCLE
  8
0
 62
     4
  6
CONTINUOUS
 10
2862.863476
 20
1336.227117
 40
62.500000
  0
POINT
  8
0
 62
     4
 10
2862.863476
 20
1336.227117
  0
INSERT
  8
0
  2
G21
 10
0
 20
0
  0
ARC
  8
1
 62
     4
  6
CONTINUOUS
 10
2951.863476
 20
1271.227117
 40
3.000000
 50
90.000000
 51
180.000000
  0
LINE
  8
1
 62
     4
  6
CONTINUOUS
 10
2951.863476
 20
1274.227117
 11
2955.863476
 21
1274.227117
  0
ARC
  8
1
 62
     4
  6
CONTINUOUS
 10
2968.664793
 20
1370.987309
 40
30.639745
 50
117.551999
 51
146.328437
  0
LINE
  8
1
 62
     4
  6
CONTINUOUS
 10
2957.863476
 20
1396.227117
 11
2957.863476
 21
1276.227117
  0
LINE
  8
3
 62
     4
  6
CONTINUOUS
 10
2924.257420
 20
1324.520978
 11
2925.056901
 21
1317.295397
  0
LINE
  8
3
 62
     4
  6
CONTINUOUS
 10
2925.056901
 20
1317.295397
 11
2926.225812
 21
1310.363599
  0
LINE
  8
3
 62
     4
  6
CONTINUOUS
 10
2926.225812
 20
1310.363599
 11
2927.746015
 21
1303.833151
  0
LINE
  8
3
 62
     4
  6
CONTINUOUS
 10
2927.746015
 20
1303.833151
 11
2929.593919
 21
1297.805393
  0
LINE
  8
3
 62
     4
  6
CONTINUOUS
 10
2929.593919
 20
1297.805393
 11
2931.740847
 21
1292.373863
  0
LINE
  8
3
 62
     4
  6
CONTINUOUS
 10
2931.740847
 20
1292.373863
 11
2934.153485
 21
1287.622847
  0
LINE
  8
3
 62
     4
  6
CONTINUOUS
 10
2934.153485
 20
1287.622847
 11
2936.794392
 21
1283.626073
  0
LINE
  8
3
 62
     4
  6
CONTINUOUS
 10
2936.794392
 20
1283.626073
 11
2939.622587
 21
1280.445561
  0
LINE
  8
3
 62
     4
  6
CONTINUOUS
 10
2939.622587
 20
1280.445561
 11
2942.594182
 21
1278.130668
  0
LINE
  8
3
 62
     4
  6
CONTINUOUS
 10
2942.594182
 20
1278.130668
 11
2945.663064
 21
1276.717316
  0
LINE
  8
3
 62
     4
  6
CONTINUOUS
 10
2942.594182
 20
1278.130668
 11
2945.663064
 21
1276.717316
  0
LINE
  8
3
 62
     4
  6
CONTINUOUS
 10
2931.402053
 20
1379.309505
 11
2930.232149
 21
1376.408988
  0
LINE
  8
3
 62
     4
  6
CONTINUOUS
 10
2930.232149
 20
1376.408988
 11
2929.146301
 21
1373.327191
  0
LINE
  8
3
 62
     4
  6
CONTINUOUS
 10
2929.146301
 20
1373.327191
 11
2928.149405
 21
1370.078019
  0
LINE
  8
3
 62
     4
  6
CONTINUOUS
 10
2928.149405
 20
1370.078019
 11
2927.245960
 21
1366.676130
  0
LINE
  8
3
 62
     4
  6
CONTINUOUS
 10
2927.245960
 20
1366.676130
 11
2926.440041
 21
1363.136872
  0
LINE
  8
3
 62
     4
  6
CONTINUOUS
 10
2926.440041
 20
1363.136872
 11
2925.735285
 21
1359.476211
  0
LINE
  8
3
 62
     4
  6
CONTINUOUS
 10
2925.735285
 20
1359.476211
 11
2925.134871
 21
1355.710664
  0
LINE
  8
3
 62
     4
  6
CONTINUOUS
 10
2925.134871
 20
1355.710664
 11
2924.641507
 21
1351.857217
  0
LINE
  8
3
 62
     4
  6
CONTINUOUS
 10
2924.641507
 20
1351.857217
 11
2924.257420
 21
1347.933255
  0
LINE
  8
3
 62
     4
  6
CONTINUOUS
 10
2924.641507
 20
1351.857217
 11
2924.257420
 21
1347.933255
  0
ARC
  8
1
 62
     3
  6
CONTINUOUS
 10
2773.363476
 20
1571.227117
 40
3.000000
 50
0.000000E+00
 51
90.000000
  0
ARC
  8
1
 62
     3
  6
CONTINUOUS
 10
2773.363476
 20
1701.227117
 40
3.000000
 50
270.000000
 51
360.000000
  0
ARC
  8
1
 62
     3
  6
CONTINUOUS
 10
2769.863476
 20
1696.227117
 40
2.000000
 50
90.000000
 51
180.000000
  0
LINE
  8
1
 62
     3
  6
CONTINUOUS
 10
2769.863476
 20
1574.227117
 11
2773.363476
 21
1574.227117
  0
LINE
  8
1
 62
     3
  6
CONTINUOUS
 10
2769.863476
 20
1698.227117
 11
2773.363476
 21
1698.227117
  0
ARC
  8
1
 62
     3
  6
CONTINUOUS
 10
2769.863476
 20
1576.227117
 40
2.000000
 50
180.000000
 51
270.000000
  0
LINE
  8
3
 62
     3
  6
CONTINUOUS
 10
2779.507670
 20
1576.587137
 11
2783.009463
 21
1578.176208
  0
LINE
  8
3
 62
     3
  6
CONTINUOUS
 10
2783.009463
 20
1578.176208
 11
2786.379948
 21
1581.000227
  0
LINE
  8
3
 62
     3
  6
CONTINUOUS
 10
2786.379948
 20
1581.000227
 11
2789.547423
 21
1584.999119
  0
LINE
  8
3
 62
     3
  6
CONTINUOUS
 10
2789.547423
 20
1584.999119
 11
2792.444505
 21
1590.087811
  0
LINE
  8
3
 62
     3
  6
CONTINUOUS
 10
2792.444505
 20
1590.087811
 11
2795.009562
 21
1596.158050
  0
LINE
  8
3
 62
     3
  6
CONTINUOUS
 10
2795.009562
 20
1596.158050
 11
2797.188027
 21
1603.080700
  0
LINE
  8
3
 62
     3
  6
CONTINUOUS
 10
2797.188027
 20
1603.080700
 11
2798.933555
 21
1610.708493
  0
LINE
  8
3
 62
     3
  6
CONTINUOUS
 10
2798.933555
 20
1610.708493
 11
2800.209014
 21
1618.879156
  0
LINE
  8
3
 62
     3
  6
CONTINUOUS
 10
2800.209014
 20
1618.879156
 11
2800.987270
 21
1627.418873
  0
LINE
  8
3
 62
     3
  6
CONTINUOUS
 10
2800.209014
 20
1618.879156
 11
2800.987270
 21
1627.418873
  0
LINE
  8
3
 62
     3
  6
CONTINUOUS
 10
2800.987270
 20
1645.035360
 11
2800.296869
 21
1652.843467
  0
LINE
  8
3
 62
     3
  6
CONTINUOUS
 10
2800.296869
 20
1652.843467
 11
2799.190413
 21
1660.356886
  0
LINE
  8
3
 62
     3
  6
CONTINUOUS
 10
2799.190413
 20
1660.356886
 11
2797.687526
 21
1667.442368
  0
LINE
  8
3
 62
     3
  6
CONTINUOUS
 10
2797.687526
 20
1667.442368
 11
2795.814861
 21
1673.974254
  0
LINE
  8
3
 62
     3
  6
CONTINUOUS
 10
2795.814861
 20
1673.974254
 11
2793.605630
 21
1679.836702
  0
LINE
  8
3
 62
     3
  6
CONTINUOUS
 10
2793.605630
 20
1679.836702
 11
2791.099012
 21
1684.925743
  0
LINE
  8
3
 62
     3
  6
CONTINUOUS
 10
2791.099012
 20
1684.925743
 11
2788.339462
 21
1689.151124
  0
LINE
  8
3
 62
     3
  6
CONTINUOUS
 10
2788.339462
 20
1689.151124
 11
2785.375921
 21
1692.437907
  0
LINE
  8
3
 62
     3
  6
CONTINUOUS
 10
2785.375921
 20
1692.437907
 11
2782.260946
 21
1694.727804
  0
LINE
  8
3
 62
     3
  6
CONTINUOUS
 10
2782.260946
 20
1694.727804
 11
2779.049779
 21
1695.980203
  0
LINE
  8
3
 62
     3
  6
CONTINUOUS
 10
2782.260946
 20
1694.727804
 11
2779.049779
 21
1695.980203
  0
LINE
  8
0
 62
     3
  6
CONTINUOUS
 10
2767.863476
 20
1696.227117
 11
2767.863476
 21
1576.227117
  0
INSERT
  8
0
  2
G22
 10
0
 20
0
  0
ARC
  8
0
 62
     3
  6
CONTINUOUS
 10
2955.863476
 20
2217.089268
 40
2.000000
 50
270.000000
 51
360.000000
  0
LINE
  8
0
 62
     3
  6
CONTINUOUS
 10
2955.863476
 20
2339.089268
 11
2923.181384
 21
2339.089268
  0
ARC
  8
0
 62
     3
  6
CONTINUOUS
 10
2955.863476
 20
2337.089268
 40
2.000000
 50
0.000000E+00
 51
90.000000
  0
CIRCLE
  8
0
 62
     3
  6
CONTINUOUS
 10
2862.863476
 20
2277.089268
 40
52.000000
  0
CIRCLE
  8
0
 62
     3
  6
CONTINUOUS
 10
2862.863476
 20
2277.089268
 40
67.000000
  0
ARC
  8
0
 62
     3
  6
CONTINUOUS
 10
2797.863476
 20
2212.089268
 40
3.000000
 50
0.000000E+00
 51
90.000000
  0
ARC
  8
0
 62
     3
  6
CONTINUOUS
 10
2927.863476
 20
2212.089268
 40
3.000000
 50
90.000000
 51
180.000000
  0
LINE
  8
0
 62
     3
  6
CONTINUOUS
 10
2767.863476
 20
2337.089268
 11
2767.863476
 21
2217.089268
  0
LINE
  8
0
 62
     3
  6
CONTINUOUS
 10
2769.863476
 20
2339.089268
 11
2802.545568
 21
2339.089268
  0
ARC
  8
0
 62
     3
  6
CONTINUOUS
 10
2769.863476
 20
2337.089268
 40
2.000000
 50
90.000000
 51
180.000000
  0
LINE
  8
0
 62
     3
  6
CONTINUOUS
 10
2769.863476
 20
2215.089268
 11
2797.863476
 21
2215.089268
  0
ARC
  8
0
 62
     3
  6
CONTINUOUS
 10
2769.863476
 20
2217.089268
 40
2.000000
 50
180.000000
 51
270.000000
  0
LINE
  8
0
 62
     3
  6
CONTINUOUS
 10
2922.863476
 20
2182.089268
 11
2802.863476
 21
2182.089268
  0
LINE
  8
0
 62
     3
  6
CONTINUOUS
 10
2924.863476
 20
2184.089268
 11
2924.863476
 21
2212.089268
  0
ARC
  8
0
 62
     3
  6
CONTINUOUS
 10
2922.863476
 20
2184.089268
 40
2.000000
 50
270.000000
 51
360.000000
  0
LINE
  8
0
 62
     3
  6
CONTINUOUS
 10
2800.863476
 20
2184.089268
 11
2800.863476
 21
2212.089268
  0
ARC
  8
0
 62
     3
  6
CONTINUOUS
 10
2802.863476
 20
2184.089268
 40
2.000000
 50
180.000000
 51
270.000000
  0
LINE
  8
0
 62
     1
  6
CONTINUOUS
 10
3033.089812
 20
2277.089268
 11
3058.887997
 21
2277.089268
  0
INSERT
  8
0
  2
G23
 10
0
 20
0
  0
INSERT
  8
0
  2
G24
 10
0
 20
0
  0
LINE
  8
3
 62
     3
  6
CONTINUOUS
 10
2925.363476
 20
2122.089268
 11
2802.863476
 21
2122.089268
  0
LINE
  8
3
 62
     3
  6
CONTINUOUS
 10
2925.363476
 20
2122.089268
 11
2925.363476
 21
2117.089268
  0
LINE
  8
3
 62
     3
  6
CONTINUOUS
 10
2800.363476
 20
2122.089268
 11
2800.363476
 21
2117.089268
  0
LINE
  8
3
 62
     3
  6
CONTINUOUS
 10
2800.363476
 20
2122.089268
 11
2802.863476
 21
2122.089268
  0
LINE
  8
3
 62
     3
  6
CONTINUOUS
 10
2800.363476
 20
2117.089268
 11
2925.363476
 21
2117.089268
  0
LINE
  8
0
 62
     3
  6
CONTINUOUS
 10
3068.660141
 20
2126.953184
 11
3068.660141
 21
2024.302057
  0
SOLID
  8
0
 62
     3
 10
3076.424713
 20
2097.975409
 11
3060.895570
 21
2097.975409
 12
3068.660141
 22
2126.953184
 13
3068.660141
 23
2126.953184
  0
LINE
  8
3
 62
     3
  6
CONTINUOUS
 10
2922.863476
 20
2122.089268
 11
2922.863476
 21
2182.089268
  0
LINE
  8
3
 62
     3
  6
CONTINUOUS
 10
2802.863476
 20
2122.089268
 11
2802.863476
 21
2182.089268
  0
INSERT
  8
0
  2
G25
 10
0
 20
0
  0
CIRCLE
  8
0
 62
     3
  6
CONTINUOUS
 10
2862.863476
 20
1636.227117
 40
54.000000
  0
CIRCLE
  8
0
 62
     3
  6
CONTINUOUS
 10
2862.863476
 20
1636.227117
 40
62.500000
  0
CIRCLE
  8
0
 62
     3
  6
CONTINUOUS
 10
2862.863476
 20
1636.227117
 40
40.000000
  0
INSERT
  8
0
  2
G26
 10
0
 20
0
  0
INSERT
  8
0
  2
G27
 10
0
 20
0
  0
TEXT
  8
0
 62
     3
 10
3311.553615
 20
579.564184
 40
32.000000
 50
0.000000E+00
 41
0.94 
  1
対応可能Ｐ寸法　２４０～３６０
 72
     5
 11
3837.267923
 21
579.564184
  0
LINE
  8
0
 62
     2
  6
CONTINUOUS
 10
3244.712419
 20
640.281646
 11
4024.114339
 21
640.281646
  0
TEXT
  8
0
 62
     2
 10
3733.220431
 20
667.585896
 40
30.000000
 50
0.000000E+00
 41
0.61 
  1
925
 72
     5
 11
3788.220431
 21
667.585896
  0
TEXT
  8
0
 62
     2
 10
3630.421191
 20
667.585896
 40
30.000000
 50
0.000000E+00
 41
0.61 
  1
905
 72
     5
 11
3685.421191
 21
667.585896
  0
TEXT
  8
0
 62
     2
 10
3530.968711
 20
669.313032
 40
30.000000
 50
0.000000E+00
 41
0.61 
  1
885
 72
     5
 11
3585.968711
 21
669.313032
  0
TEXT
  8
0
 62
     2
 10
3836.729671
 20
669.313032
 40
30.000000
 50
0.000000E+00
 41
0.61 
  1
965
 72
     5
 11
3891.729671
 21
669.313032
  0
TEXT
  8
0
 62
     2
 10
3429.049031
 20
760.753032
 40
30.000000
 50
0.000000E+00
 41
0.61 
  1
790
 72
     5
 11
3484.049031
 21
760.753032
  0
TEXT
  8
0
 62
     2
 10
3941.182151
 20
667.585896
 40
30.000000
 50
0.000000E+00
 41
0.61 
  1
985
 72
     5
 11
3996.182151
 21
667.585896
  0
TEXT
  8
0
 62
     2
 10
3429.049031
 20
669.313032
 40
30.000000
 50
0.000000E+00
 41
0.61 
  1
865
 72
     5
 11
3484.049031
 21
669.313032
  0
TEXT
  8
0
 62
     2
 10
3836.490686
 20
837.196846
 40
30.000000
 50
0.000000E+00
 41
0.61 
  1
340
 72
     5
 11
3891.490686
 21
837.196846
  0
TEXT
  8
0
 62
     2
 10
3734.570046
 20
837.196846
 40
30.000000
 50
0.000000E+00
 41
0.61 
  1
300
 72
     5
 11
3789.570046
 21
837.196846
  0
TEXT
  8
0
 62
     2
 10
3632.649406
 20
837.196846
 40
30.000000
 50
0.000000E+00
 41
0.61 
  1
280
 72
     5
 11
3687.649406
 21
837.196846
  0
TEXT
  8
0
 62
     2
 10
3428.810046
 20
837.196846
 40
30.000000
 50
0.000000E+00
 41
0.61 
  1
240
 72
     5
 11
3483.810046
 21
837.196846
  0
LINE
  8
0
 62
     2
  6
CONTINUOUS
 10
3810.274019
 20
884.601646
 11
3810.274019
 21
640.281646
  0
TEXT
  8
0
 62
     2
 10
3255.240523
 20
673.627725
 40
30.000000
 50
0.000000E+00
 41
0.72 
  1
Ｌｔ（全長）
 72
     5
 11
3405.240523
 21
673.627725
  0
LINE
  8
0
 62
     2
  6
CONTINUOUS
 10
3244.712419
 20
731.721646
 11
4024.114339
 21
731.721646
  0
TEXT
  8
0
 62
     2
 10
3941.182151
 20
759.025896
 40
30.000000
 50
0.000000E+00
 41
0.61 
  1
910
 72
     5
 11
3996.182151
 21
759.025896
  0
LINE
  8
0
 62
     2
  6
CONTINUOUS
 10
3244.712419
 20
884.601646
 11
4024.114339
 21
884.601646
  0
TEXT
  8
0
 62
     2
 10
3836.729671
 20
760.753032
 40
30.000000
 50
0.000000E+00
 41
0.61 
  1
890
 72
     5
 11
3891.729671
 21
760.753032
  0
LINE
  8
0
 62
     2
  6
CONTINUOUS
 10
3402.593379
 20
884.601646
 11
3402.593379
 21
640.281646
  0
LINE
  8
0
 62
     2
  6
CONTINUOUS
 10
3504.513059
 20
884.601646
 11
3504.513059
 21
640.281646
  0
LINE
  8
0
 62
     2
  6
CONTINUOUS
 10
3606.432739
 20
884.601646
 11
3606.432739
 21
640.281646
  0
LINE
  8
0
 62
     2
  6
CONTINUOUS
 10
3708.353379
 20
884.601646
 11
3708.353379
 21
640.281646
  0
LINE
  8
0
 62
     2
  6
CONTINUOUS
 10
4024.114339
 20
884.601646
 11
4024.114339
 21
640.281646
  0
LINE
  8
0
 62
     2
  6
CONTINUOUS
 10
3912.193699
 20
884.601646
 11
3912.193699
 21
640.281646
  0
TEXT
  8
0
 62
     2
 10
3943.410366
 20
837.196846
 40
30.000000
 50
0.000000E+00
 41
0.61 
  1
360
 72
     5
 11
3998.410366
 21
837.196846
  0
LINE
  8
0
 62
     2
  6
CONTINUOUS
 10
3244.712419
 20
823.161646
 11
4024.114339
 21
823.161646
  0
TEXT
  8
0
 62
     2
 10
3255.240523
 20
765.067725
 40
30.000000
 50
0.000000E+00
 41
0.72 
  1
Ｌ（有効長）
 72
     5
 11
3405.240523
 21
765.067725
  0
LINE
  8
0
 62
     2
  6
CONTINUOUS
 10
3244.712419
 20
884.601646
 11
3244.712419
 21
640.281646
  0
LINE
  8
0
 62
     2
  6
CONTINUOUS
 10
4022.541101
 20
871.364597
 11
4022.541101
 21
871.364405
  0
TEXT
  8
0
 62
     2
 10
3530.968711
 20
760.753032
 40
30.000000
 50
0.000000E+00
 41
0.61 
  1
810
 72
     5
 11
3585.968711
 21
760.753032
  0
TEXT
  8
0
 62
     2
 10
3630.421191
 20
759.025896
 40
30.000000
 50
0.000000E+00
 41
0.61 
  1
830
 72
     5
 11
3685.421191
 21
759.025896
  0
TEXT
  8
0
 62
     2
 10
3530.729726
 20
837.196846
 40
30.000000
 50
0.000000E+00
 41
0.61 
  1
260
 72
     5
 11
3585.729726
 21
837.196846
  0
TEXT
  8
0
 62
     2
 10
3314.281517
 20
837.217257
 40
30.000000
 50
0.000000E+00
 41
0.86 
  1
Ｐ
 72
     5
 11
3344.281517
 21
837.217257
  0
TEXT
  8
0
 62
     2
 10
3733.220431
 20
759.025896
 40
30.000000
 50
0.000000E+00
 41
0.61 
  1
850
 72
     5
 11
3788.220431
 21
759.025896
  0
TEXT
  8
0
 62
     2
 10
3948.410366
 20
938.636846
 40
30.000000
 50
0.000000E+00
 41
0.58 
  1
44
 72
     5
 11
3983.410366
 21
938.636846
  0
TEXT
  8
0
 62
     2
 10
3836.489726
 20
938.636846
 40
30.000000
 50
0.000000E+00
 41
0.58 
  1
52
 72
     5
 11
3871.489726
 21
938.636846
  0
TEXT
  8
0
 62
     2
 10
3724.570046
 20
938.636846
 40
30.000000
 50
0.000000E+00
 41
0.58 
  1
60
 72
     5
 11
3759.570046
 21
938.636846
  0
TEXT
  8
0
 62
     2
 10
3625.578794
 20
1121.253863
 40
25.600000
 50
0.000000E+00
 41
0.55 
  1
100
 72
     5
 11
3667.635939
 21
1121.253863
  0
TEXT
  8
0
 62
     2
 10
3609.048500
 20
1159.938571
 40
18.400000
 50
0.000000E+00
 41
0.89 
  1
立管受口
 72
     5
 11
3685.048499
 21
1159.938571
  0
TEXT
  8
0
 62
     2
 10
3948.410366
 20
1061.516846
 40
30.000000
 50
0.000000E+00
 41
0.58 
  1
65
 72
     5
 11
3983.410366
 21
1061.516846
  0
TEXT
  8
0
 62
     2
 10
3836.489726
 20
1061.516846
 40
30.000000
 50
0.000000E+00
 41
0.58 
  1
65
 72
     5
 11
3871.489726
 21
1061.516846
  0
TEXT
  8
0
 62
     2
 10
3632.650366
 20
1061.516846
 40
30.000000
 50
0.000000E+00
 41
0.58 
  1
75
 72
     5
 11
3667.650366
 21
1061.516846
  0
LINE
  8
0
 62
     2
  6
CONTINUOUS
 10
3688.353379
 20
986.041646
 11
3606.433699
 21
924.601646
  0
LINE
  8
0
 62
     2
  6
CONTINUOUS
 10
4024.114339
 20
1190.846702
 11
4024.114339
 21
924.601646
  0
TEXT
  8
0
 62
     2
 10
3495.330843
 20
942.947725
 40
30.000000
 50
0.000000E+00
 41
0.86 
  1
Ｂ寸法
 72
     5
 11
3585.330843
 21
942.947725
  0
LINE
  8
0
 62
     2
  6
CONTINUOUS
 10
3483.552739
 20
986.041646
 11
4024.114339
 21
986.041646
  0
LINE
  8
0
 62
     2
  6
CONTINUOUS
 10
3688.353379
 20
1149.881678
 11
4024.114339
 21
1149.881678
  0
LINE
  8
0
 62
     2
  6
CONTINUOUS
 10
3483.552739
 20
1108.921646
 11
4024.114339
 21
1108.921646
  0
TEXT
  8
0
 62
     2
 10
3733.916713
 20
1154.795013
 40
30.000000
 50
0.000000E+00
 41
0.86 
  1
下部横枝管サイズ
 72
     5
 11
3973.916713
 21
1154.795013
  0
LINE
  8
0
 62
     2
  6
CONTINUOUS
 10
3606.433699
 20
1189.607822
 11
3606.433699
 21
924.601646
  0
LINE
  8
0
 62
     2
  6
CONTINUOUS
 10
3688.353379
 20
1189.607822
 11
3688.353379
 21
924.601646
  0
LINE
  8
0
 62
     2
  6
CONTINUOUS
 10
3800.273059
 20
1149.881678
 11
3800.273059
 21
924.601646
  0
LINE
  8
0
 62
     2
  6
CONTINUOUS
 10
3688.353379
 20
1047.481646
 11
3606.433699
 21
986.041646
  0
LINE
  8
0
 62
     2
  6
CONTINUOUS
 10
3912.193699
 20
1149.881486
 11
3912.193699
 21
924.601646
  0
LINE
  8
0
 62
     2
  6
CONTINUOUS
 10
3483.552739
 20
924.601646
 11
4024.114339
 21
924.601646
  0
TEXT
  8
0
 62
     2
 10
3704.615965
 20
1114.716379
 40
30.000000
 50
0.000000E+00
 41
0.63 
  1
75(3)
 72
     5
 11
3799.615965
 21
1114.716379
  0
TEXT
  8
0
 62
     2
 10
3816.535645
 20
1114.716379
 40
30.000000
 50
0.000000E+00
 41
0.63 
  1
65(2)
 72
     5
 11
3911.535645
 21
1114.716379
  0
TEXT
  8
0
 62
     2
 10
3928.456285
 20
1114.716379
 40
30.000000
 50
0.000000E+00
 41
0.63 
  1
50(1)
 72
     5
 11
4023.456285
 21
1114.716379
  0
LINE
  8
0
 62
     2
  6
CONTINUOUS
 10
3483.552739
 20
1149.881678
 11
3483.552739
 21
924.601646
  0
LINE
  8
0
 62
     2
  6
CONTINUOUS
 10
3483.552739
 20
1047.481646
 11
4024.114339
 21
1047.481646
  0
TEXT
  8
0
 62
     2
 10
3495.330843
 20
1004.387725
 40
30.000000
 50
0.000000E+00
 41
0.86 
  1
Ａ寸法
 72
     5
 11
3585.330843
 21
1004.387725
  0
LINE
  8
0
 62
     2
  6
CONTINUOUS
 10
3483.552739
 20
1149.881678
 11
3483.552739
 21
1190.846702
  0
LINE
  8
0
 62
     2
  6
CONTINUOUS
 10
3483.552739
 20
1190.846702
 11
4024.114339
 21
1190.846702
  0
LINE
  8
0
 62
     2
  6
CONTINUOUS
 10
3994.113379
 20
1149.881678
 11
3994.113379
 21
1149.881486
  0
TEXT
  8
0
 62
     2
 10
3714.809031
 20
1001.803982
 40
30.000000
 50
0.000000E+00
 41
0.61 
  1
125
 72
     5
 11
3769.809031
 21
1001.803982
  0
TEXT
  8
0
 62
     2
 10
3824.261511
 20
1000.076846
 40
30.000000
 50
0.000000E+00
 41
0.61 
  1
110
 72
     5
 11
3879.261511
 21
1000.076846
  0
TEXT
  8
0
 62
     2
 10
3724.570046
 20
1061.516846
 40
30.000000
 50
0.000000E+00
 41
0.58 
  1
65
 72
     5
 11
3759.570046
 21
1061.516846
  0
TEXT
  8
0
 62
     2
 10
3488.121837
 20
1061.537257
 40
30.000000
 50
0.000000E+00
 41
0.86 
  1
受口深さ
 72
     5
 11
3608.121837
 21
1061.537257
  0
LINE
  8
0
 62
     2
  6
CONTINUOUS
 10
3483.552739
 20
1190.846702
 11
3606.433699
 21
1108.921646
  0
TEXT
  8
0
 62
     2
 10
3948.410366
 20
1000.076846
 40
30.000000
 50
0.000000E+00
 41
0.58 
  1
94
 72
     5
 11
3983.410366
 21
1000.076846
  0
INSERT
  8
0
  2
G28
 10
0
 20
0
  0
INSERT
  8
0
  2
G29
 10
0
 20
0
  0
INSERT
  8
0
  2
G30
 10
0
 20
0
  0
INSERT
  8
0
  2
G31
 10
0
 20
0
  0
INSERT
  8
0
  2
G32
 10
0
 20
0
  0
INSERT
  8
0
  2
G33
 10
0
 20
0
  0
INSERT
  8
0
  2
G34
 10
0
 20
0
  0
ENDSEC
  0
EOF
