  0
SECTION
  2
HEADER
  9
$INSBASE
 10
0
 20
0
  9
$EXTMIN
 10
0
 20
0
  9
$EXTMAX
 10
4200.000000
 20
2970.000000
  9
$LIMMIN
 10
0
 20
0
  9
$LIMMAX
 10
4200.000000
 20
2970.000000
  9
$VIEWCTR
 10
2100.000000
 20
1485.000000
  9
$DIMASZ
 40
30.000000
  9
$DIMDLI
 40
80.000000
  9
$DIMEXE
 40
10.000000
  9
$DIMEXO
 40
10.000000
  9
$DIMTXT
 40
32.000000
  9
$TEXTSIZE
 40
32.000000
  9
$ANGBASE
 50
0.0
  9
$ANGDIR
 70
     0
  9
$ATTMODE
 70
     1
  9
$AUNITS
 70
     1
  9
$AUPREC
 70
     2
  9
$AXISMODE
 70
     0
  9
$AXISUNIT
 10
0.0
 20
0.0
  9
$BLIPMODE
 70
     1
  9
$CECOLOR
 62
   256
  9
$CELTYPE
  6
BYLAYER
  9
$CHAMFERA
 40
0.0
  9
$CHAMFERB
 40
0.0
  9
$CLAYER
  8
0
  9
$COORDS
 70
     0
  9
$DIMALT
 70
     0
  9
$DIMALTD
 70
     2
  9
$DIMALTF
 40
25.4
  9
$DIMDLE
 40
0.0
  9
$DIMLFAC
 40
1.0
  9
$DIMLIM
 70
     0
  9
$DIMRND
 40
0.0
  9
$DIMSCALE
 40
1.0
  9
$DIMSE1
 70
     0
  9
$DIMSE2
 70
     0
  9
$DIMTAD
 70
     1
  9
$DIMTIH
 70
     0
  9
$DIMTM
 40
0.0
  9
$DIMTOH
 70
     0
  9
$DIMTOL
 70
     0
  9
$DIMTP
 40
0.0
  9
$DIMTSZ
 40
0.0
  9
$DIMZIN
 70
     0
  9
$DRAGMODE
 70
     2
  9
$ELEVATION
 40
0.0
  9
$FASTZOOM
 70
     1
  9
$FILLETRAD
 40
0.0
  9
$FILLMODE
 70
     1
  9
$GRIDMODE
 70
     0
  9
$GRIDUNIT
 10
0.0
 20
0.0
  9
$LTSCALE
 40
1.0
  9
$LUNITS
 70
     2
  9
$LUPREC
 70
     2
  9
$MENU
  1
ACAD
  9
$ORTHOMODE
 70
     0
  9
$OSMODE
 70
     0
  9
$PDMODE
 70
     0
  9
$PDSIZE
 40
0.0
  9
$PLINEWID
 40
0.0
  9
$QTEXTMODE
 70
     0
  9
$REGENMODE
 70
     1
  9
$SKETCHINC
 40
0.1
  9
$SKPOLY
 70
     0
  9
$SNAPBASE
 10
0.0
 20
0.0
  9
$SNAPISOPAIR
 70
     0
  9
$SNAPMODE
 70
     0
  9
$SNAPSTYLE
 70
     0
  9
$SNAPUNIT
 10
0.0
 20
0.0
  9
$TEXTSTYLE
  7
KANJI
  9
$THICKNESS
 40
0.0
  9
$TRACEWID
 40
0.05
  9
$VIEWDIR
 10
0.0
 20
0.0
 30
1.0
  9
$VIEWSIZE
 40
0.0
  0
ENDSEC
  0
SECTION
  2
TABLES
  0
TABLE
  2
LTYPE
 70
     9
  0
LTYPE
  2
CONTINUOUS
 70
    64
  3
Solid line
 72
    65
 73
     0
 40
0.0
  0
LTYPE
  2
DASHED
 70
    64
  3
__ __ __ __ __ __ __ __ __ __ __ __ __ __ __
 72
    65
 73
     2
 40
0.75
 49
0.5
 49
-0.25
  0
LTYPE
  2
HIDDEN
 70
    64
  3
_ _ _ _ _ _ _ _ _ _ _ _ _ _ _ _ _ _ _ _ _ _ _
 72
    65
 73
     2
 40
0.375
 49
0.25
 49
-0.125
  0
LTYPE
  2
CENTER
 70
    64
  3
____ _ ____ _ ____ _ ____ _ ____ _ ____ _ ____
 72
    65
 73
     4
 40
2.0
 49
1.25
 49
-0.25
 49
0.25
 49
-0.25
  0
LTYPE
  2
PHANTOM
 70
    64
  3
_____ _ _ _____ _ _ _____ _ _ _____ _ _ ____
 72
    65
 73
     6
 40
2.5
 49
1.25
 49
-0.25
 49
0.25
 49
-0.25
 49
0.25
 49
-0.25
  0
LTYPE
  2
DOT
 70
    64
  3
...............................................
 72
    65
 73
     2
 40
0.25
 49
0.0
 49
-0.25
  0
LTYPE
  2
DASHDOT
 70
    64
  3
__ . __ . __ . __ . __ . __ . __ . __ . __ . __
 72
    65
 73
     4
 40
1.0
 49
0.5
 49
-0.25
 49
0.0
 49
-0.25
  0
LTYPE
  2
BORDER
 70
    64
  3
__ __ . __ __ . __ __ . __ __ . __ __ . __ __
 72
    65
 73
     6
 40
1.75
 49
0.5
 49
-0.25
 49
0.5
 49
-0.25
 49
0.0
 49
-0.25
  0
LTYPE
  2
DIVIDE
 70
    64
  3
__ . . __ . . __ . . __ . . __ . . __ . . __
 72
    65
 73
     6
 40
1.25
 49
0.5
 49
-0.25
 49
0.0
 49
-0.25
 49
0.0
 49
-0.25
  0
ENDTAB
  0
TABLE
  2
LAYER
 70
   100
  0
LAYER
  2
0
 70
     0
 62
     3
  6
CONTINUOUS
  0
LAYER
  2
1
 70
     0
 62
     3
  6
CONTINUOUS
  0
LAYER
  2
2
 70
     0
 62
     3
  6
CONTINUOUS
  0
LAYER
  2
3
 70
     0
 62
     3
  6
CONTINUOUS
  0
LAYER
  2
4
 70
     0
 62
     3
  6
CONTINUOUS
  0
LAYER
  2
5
 70
     0
 62
     3
  6
CONTINUOUS
  0
LAYER
  2
6
 70
     0
 62
     3
  6
CONTINUOUS
  0
LAYER
  2
7
 70
     0
 62
     3
  6
CONTINUOUS
  0
LAYER
  2
8
 70
     0
 62
     3
  6
CONTINUOUS
  0
LAYER
  2
9
 70
     0
 62
     3
  6
CONTINUOUS
  0
LAYER
  2
10
 70
     0
 62
     3
  6
CONTINUOUS
  0
LAYER
  2
11
 70
     0
 62
     3
  6
CONTINUOUS
  0
LAYER
  2
12
 70
     0
 62
     3
  6
CONTINUOUS
  0
LAYER
  2
13
 70
     0
 62
     3
  6
CONTINUOUS
  0
LAYER
  2
14
 70
     0
 62
     3
  6
CONTINUOUS
  0
LAYER
  2
15
 70
     0
 62
     3
  6
CONTINUOUS
  0
LAYER
  2
16
 70
     0
 62
     3
  6
CONTINUOUS
  0
LAYER
  2
17
 70
     0
 62
     3
  6
CONTINUOUS
  0
LAYER
  2
18
 70
     0
 62
     3
  6
CONTINUOUS
  0
LAYER
  2
19
 70
     0
 62
     3
  6
CONTINUOUS
  0
LAYER
  2
20
 70
     0
 62
     3
  6
CONTINUOUS
  0
LAYER
  2
21
 70
     0
 62
     3
  6
CONTINUOUS
  0
LAYER
  2
22
 70
     0
 62
     3
  6
CONTINUOUS
  0
LAYER
  2
23
 70
     0
 62
     3
  6
CONTINUOUS
  0
LAYER
  2
24
 70
     0
 62
     3
  6
CONTINUOUS
  0
LAYER
  2
25
 70
     0
 62
     3
  6
CONTINUOUS
  0
LAYER
  2
26
 70
     0
 62
     3
  6
CONTINUOUS
  0
LAYER
  2
27
 70
     0
 62
     3
  6
CONTINUOUS
  0
LAYER
  2
28
 70
     0
 62
     3
  6
CONTINUOUS
  0
LAYER
  2
29
 70
     0
 62
     3
  6
CONTINUOUS
  0
LAYER
  2
30
 70
     0
 62
     3
  6
CONTINUOUS
  0
LAYER
  2
31
 70
     0
 62
     3
  6
CONTINUOUS
  0
LAYER
  2
32
 70
     0
 62
     3
  6
CONTINUOUS
  0
LAYER
  2
33
 70
     0
 62
     3
  6
CONTINUOUS
  0
LAYER
  2
34
 70
     0
 62
     3
  6
CONTINUOUS
  0
LAYER
  2
35
 70
     0
 62
     3
  6
CONTINUOUS
  0
LAYER
  2
36
 70
     0
 62
     3
  6
CONTINUOUS
  0
LAYER
  2
37
 70
     0
 62
     3
  6
CONTINUOUS
  0
LAYER
  2
38
 70
     0
 62
     3
  6
CONTINUOUS
  0
LAYER
  2
39
 70
     0
 62
     3
  6
CONTINUOUS
  0
LAYER
  2
40
 70
     0
 62
     3
  6
CONTINUOUS
  0
LAYER
  2
41
 70
     0
 62
     3
  6
CONTINUOUS
  0
LAYER
  2
42
 70
     0
 62
     3
  6
CONTINUOUS
  0
LAYER
  2
43
 70
     0
 62
     3
  6
CONTINUOUS
  0
LAYER
  2
44
 70
     0
 62
     3
  6
CONTINUOUS
  0
LAYER
  2
45
 70
     0
 62
     3
  6
CONTINUOUS
  0
LAYER
  2
46
 70
     0
 62
     3
  6
CONTINUOUS
  0
LAYER
  2
47
 70
     0
 62
     3
  6
CONTINUOUS
  0
LAYER
  2
48
 70
     0
 62
     3
  6
CONTINUOUS
  0
LAYER
  2
49
 70
     0
 62
     3
  6
CONTINUOUS
  0
LAYER
  2
50
 70
     0
 62
     3
  6
CONTINUOUS
  0
LAYER
  2
51
 70
     0
 62
     3
  6
CONTINUOUS
  0
LAYER
  2
52
 70
     0
 62
     3
  6
CONTINUOUS
  0
LAYER
  2
53
 70
     0
 62
     3
  6
CONTINUOUS
  0
LAYER
  2
54
 70
     0
 62
     3
  6
CONTINUOUS
  0
LAYER
  2
55
 70
     0
 62
     3
  6
CONTINUOUS
  0
LAYER
  2
56
 70
     0
 62
     3
  6
CONTINUOUS
  0
LAYER
  2
57
 70
     0
 62
     3
  6
CONTINUOUS
  0
LAYER
  2
58
 70
     0
 62
     3
  6
CONTINUOUS
  0
LAYER
  2
59
 70
     0
 62
     3
  6
CONTINUOUS
  0
LAYER
  2
60
 70
     0
 62
     3
  6
CONTINUOUS
  0
LAYER
  2
61
 70
     0
 62
     3
  6
CONTINUOUS
  0
LAYER
  2
62
 70
     0
 62
     3
  6
CONTINUOUS
  0
LAYER
  2
63
 70
     0
 62
     3
  6
CONTINUOUS
  0
LAYER
  2
64
 70
     0
 62
     3
  6
CONTINUOUS
  0
LAYER
  2
65
 70
     0
 62
     3
  6
CONTINUOUS
  0
LAYER
  2
66
 70
     0
 62
     3
  6
CONTINUOUS
  0
LAYER
  2
67
 70
     0
 62
     3
  6
CONTINUOUS
  0
LAYER
  2
68
 70
     0
 62
     3
  6
CONTINUOUS
  0
LAYER
  2
69
 70
     0
 62
     3
  6
CONTINUOUS
  0
LAYER
  2
70
 70
     0
 62
     3
  6
CONTINUOUS
  0
LAYER
  2
71
 70
     0
 62
     3
  6
CONTINUOUS
  0
LAYER
  2
72
 70
     0
 62
     3
  6
CONTINUOUS
  0
LAYER
  2
73
 70
     0
 62
     3
  6
CONTINUOUS
  0
LAYER
  2
74
 70
     0
 62
     3
  6
CONTINUOUS
  0
LAYER
  2
75
 70
     0
 62
     3
  6
CONTINUOUS
  0
LAYER
  2
76
 70
     0
 62
     3
  6
CONTINUOUS
  0
LAYER
  2
77
 70
     0
 62
     3
  6
CONTINUOUS
  0
LAYER
  2
78
 70
     0
 62
     3
  6
CONTINUOUS
  0
LAYER
  2
79
 70
     0
 62
     3
  6
CONTINUOUS
  0
LAYER
  2
80
 70
     0
 62
     3
  6
CONTINUOUS
  0
LAYER
  2
81
 70
     0
 62
     3
  6
CONTINUOUS
  0
LAYER
  2
82
 70
     0
 62
     3
  6
CONTINUOUS
  0
LAYER
  2
83
 70
     0
 62
     3
  6
CONTINUOUS
  0
LAYER
  2
84
 70
     0
 62
     3
  6
CONTINUOUS
  0
LAYER
  2
85
 70
     0
 62
     3
  6
CONTINUOUS
  0
LAYER
  2
86
 70
     0
 62
     3
  6
CONTINUOUS
  0
LAYER
  2
87
 70
     0
 62
     3
  6
CONTINUOUS
  0
LAYER
  2
88
 70
     0
 62
     3
  6
CONTINUOUS
  0
LAYER
  2
89
 70
     0
 62
     3
  6
CONTINUOUS
  0
LAYER
  2
90
 70
     0
 62
     3
  6
CONTINUOUS
  0
LAYER
  2
91
 70
     0
 62
     3
  6
CONTINUOUS
  0
LAYER
  2
92
 70
     0
 62
     3
  6
CONTINUOUS
  0
LAYER
  2
93
 70
     0
 62
     3
  6
CONTINUOUS
  0
LAYER
  2
94
 70
     0
 62
     3
  6
CONTINUOUS
  0
LAYER
  2
95
 70
     0
 62
     3
  6
CONTINUOUS
  0
LAYER
  2
96
 70
     0
 62
     3
  6
CONTINUOUS
  0
LAYER
  2
97
 70
     0
 62
     3
  6
CONTINUOUS
  0
LAYER
  2
98
 70
     0
 62
     3
  6
CONTINUOUS
  0
LAYER
  2
99
 70
     0
 62
     3
  6
CONTINUOUS
  0
ENDTAB
  0
TABLE
  2
STYLE
 70
     2
  0
STYLE
  2
STANDARD
 70
     0
 40
0.0
 41
1.0
 50
0.0
 71
     0
 42
0.2
  3
TXT
  4
BIGFONT
  0
STYLE
  2
KANJI
 70
     0
 40
4.5
 41
1.0
 50
0.0
 71
     0
 42
0.2
  3
TXT
  4
BIGFONT
  0
ENDTAB
  0
TABLE
  2
VIEW
 70
     0
  0
ENDTAB
  0
ENDSEC
  0
SECTION
  2
BLOCKS
  0
BLOCK
  8
0
  2
G0
 70
     0
 10
0
 20
0
  0
TEXT
  8
0
 62
     7
 10
-374.906664
 20
337.422005
 40
32.000000
 50
360.000000
 41
0.66 
  1
％％ｃ　　　枝管
 72
     5
 11
-182.906664
 21
337.422005
  0
LINE
  8
0
 62
     3
  6
CONTINUOUS
 10
-182.607597
 20
327.924418
 11
-344.471839
 21
327.924418
  0
LINE
  8
0
 62
     3
  6
CONTINUOUS
 10
-182.607597
 20
319.924418
 11
-344.471839
 21
319.924418
  0
ENDBLK
  0
BLOCK
  8
0
  2
G1
 70
     0
 10
0
 20
0
  0
TEXT
  8
0
 62
     1
 10
-895.392943
 20
-112.272883
 40
32.000000
 50
90.000000
 41
0.97 
  1
Ｌｔ
 72
     5
 11
-895.392943
 21
-40.272883
  0
LINE
  8
0
 62
     1
  6
CONTINUOUS
 10
-940.059610
 20
-568.772883
 11
-880.059610
 21
-568.772883
  0
LINE
  8
0
 62
     1
  6
CONTINUOUS
 10
-940.059610
 20
416.227117
 11
-880.059610
 21
416.227117
  0
LINE
  8
0
 62
     1
  6
CONTINUOUS
 10
-890.059610
 20
416.227117
 11
-890.059610
 21
-568.772883
  0
SOLID
  8
0
 62
     1
 10
-883.589134
 20
392.078971
 11
-896.530087
 21
392.078971
 12
-890.059610
 22
416.227117
 13
-890.059610
 23
416.227117
  0
SOLID
  8
0
 62
     1
 10
-896.530087
 20
-544.624738
 11
-883.589134
 21
-544.624738
 12
-890.059610
 22
-568.772883
 13
-890.059610
 23
-568.772883
  0
ENDBLK
  0
BLOCK
  8
0
  2
G2
 70
     0
 10
0
 20
0
  0
TEXT
  8
0
 62
     1
 10
-955.392943
 20
-207.772883
 40
32.000000
 50
90.000000
 41
0.89 
  1
Ｌ（有効長）
 72
     5
 11
-955.392943
 21
-11.772883
  0
LINE
  8
0
 62
     1
  6
CONTINUOUS
 10
-1000.059610
 20
-568.772883
 11
-940.059610
 21
-568.772883
  0
LINE
  8
0
 62
     1
  6
CONTINUOUS
 10
-950.059610
 20
341.227117
 11
-950.059610
 21
-568.772883
  0
SOLID
  8
0
 62
     1
 10
-943.589134
 20
317.078971
 11
-956.530087
 21
317.078971
 12
-950.059610
 22
341.227117
 13
-950.059610
 23
341.227117
  0
SOLID
  8
0
 62
     1
 10
-956.530087
 20
-544.624738
 11
-943.589134
 21
-544.624738
 12
-950.059610
 22
-568.772883
 13
-950.059610
 23
-568.772883
  0
ENDBLK
  0
BLOCK
  8
0
  2
G3
 70
     0
 10
0
 20
0
  0
TEXT
  8
0
 62
     1
 10
-1015.392943
 20
-416.772883
 40
32.000000
 50
90.000000
 41
0.58 
  1
360
 72
     5
 11
-1015.392943
 21
-360.772883
  0
LINE
  8
0
 62
     1
  6
CONTINUOUS
 10
-1000.059610
 20
-568.772883
 11
-1120.059610
 21
-568.772883
  0
LINE
  8
0
 62
     1
  6
CONTINUOUS
 10
-1010.059610
 20
-208.772883
 11
-1010.059610
 21
-568.772883
  0
SOLID
  8
0
 62
     1
 10
-1003.589134
 20
-232.921029
 11
-1016.530087
 21
-232.921029
 12
-1010.059610
 22
-208.772883
 13
-1010.059610
 23
-208.772883
  0
SOLID
  8
0
 62
     1
 10
-1016.530087
 20
-544.624738
 11
-1003.589134
 21
-544.624738
 12
-1010.059610
 22
-568.772883
 13
-1010.059610
 23
-568.772883
  0
ENDBLK
  0
BLOCK
  8
0
  2
G4
 70
     0
 10
0
 20
0
  0
TEXT
  8
0
 62
     1
 10
-1135.392943
 20
-521.772883
 40
32.000000
 50
90.000000
 41
0.58 
  1
150
 72
     5
 11
-1135.392943
 21
-465.772883
  0
LINE
  8
0
 62
     1
  6
CONTINUOUS
 10
-1304.136524
 20
-568.772883
 11
-1120.059610
 21
-568.772883
  0
LINE
  8
0
 62
     1
  6
CONTINUOUS
 10
-1130.059610
 20
-418.772883
 11
-1130.059610
 21
-568.772883
  0
SOLID
  8
0
 62
     1
 10
-1123.589134
 20
-442.921029
 11
-1136.530087
 21
-442.921029
 12
-1130.059610
 22
-418.772883
 13
-1130.059610
 23
-418.772883
  0
SOLID
  8
0
 62
     1
 10
-1136.530087
 20
-544.624738
 11
-1123.589134
 21
-544.624738
 12
-1130.059610
 22
-568.772883
 13
-1130.059610
 23
-568.772883
  0
ENDBLK
  0
BLOCK
  8
0
  2
G5
 70
     0
 10
0
 20
0
  0
TEXT
  8
0
 62
     1
 10
-1135.392943
 20
-386.772883
 40
32.000000
 50
90.000000
 41
0.58 
  1
120
 72
     5
 11
-1135.392943
 21
-330.772883
  0
LINE
  8
0
 62
     1
  6
CONTINUOUS
 10
-1306.885613
 20
-418.772883
 11
-1120.059610
 21
-418.772883
  0
LINE
  8
0
 62
     1
  6
CONTINUOUS
 10
-1276.387435
 20
-298.772883
 11
-1120.059610
 21
-298.772883
  0
LINE
  8
0
 62
     1
  6
CONTINUOUS
 10
-1130.059610
 20
-298.772883
 11
-1130.059610
 21
-418.772883
  0
SOLID
  8
0
 62
     1
 10
-1123.589134
 20
-322.921029
 11
-1136.530087
 21
-322.921029
 12
-1130.059610
 22
-298.772883
 13
-1130.059610
 23
-298.772883
  0
SOLID
  8
0
 62
     1
 10
-1136.530087
 20
-394.624738
 11
-1123.589134
 21
-394.624738
 12
-1130.059610
 22
-418.772883
 13
-1130.059610
 23
-418.772883
  0
ENDBLK
  0
BLOCK
  8
0
  2
G6
 70
     0
 10
0
 20
0
  0
TEXT
  8
0
 62
     1
 10
-1075.392943
 20
188.227117
 40
32.000000
 50
90.000000
 41
0.58 
  1
250
 72
     5
 11
-1075.392943
 21
244.227117
  0
LINE
  8
0
 62
     1
  6
CONTINUOUS
 10
-1357.136524
 20
341.227117
 11
-1060.059610
 21
341.227117
  0
LINE
  8
0
 62
     1
  6
CONTINUOUS
 10
-1120.059610
 20
91.227117
 11
-1060.059610
 21
91.227117
  0
LINE
  8
0
 62
     1
  6
CONTINUOUS
 10
-1070.059610
 20
91.227117
 11
-1070.059610
 21
341.227117
  0
SOLID
  8
0
 62
     1
 10
-1077.824182
 20
120.204891
 11
-1062.295039
 21
120.204891
 12
-1070.059610
 22
91.227117
 13
-1070.059610
 23
91.227117
  0
SOLID
  8
0
 62
     1
 10
-1062.295039
 20
312.249342
 11
-1077.824182
 21
312.249342
 12
-1070.059610
 22
341.227117
 13
-1070.059610
 23
341.227117
  0
ENDBLK
  0
BLOCK
  8
0
  2
G7
 70
     0
 10
0
 20
0
  0
TEXT
  8
0
 62
     1
 10
-1015.392943
 20
-44.772883
 40
32.000000
 50
90.000000
 41
0.86 
  1
Ｐ
 72
     5
 11
-1015.392943
 21
-12.772883
  0
LINE
  8
0
 62
     1
  6
CONTINUOUS
 10
-1000.059610
 20
-208.772883
 11
-1120.059610
 21
-208.772883
  0
LINE
  8
0
 62
     1
  6
CONTINUOUS
 10
-1010.059610
 20
-208.772883
 11
-1010.059610
 21
151.227117
  0
SOLID
  8
0
 62
     1
 10
-1017.824182
 20
-179.795109
 11
-1002.295039
 21
-179.795109
 12
-1010.059610
 22
-208.772883
 13
-1010.059610
 23
-208.772883
  0
SOLID
  8
0
 62
     1
 10
-1002.295039
 20
122.249342
 11
-1017.824182
 21
122.249342
 12
-1010.059610
 22
151.227117
 13
-1010.059610
 23
151.227117
  0
ENDBLK
  0
BLOCK
  8
0
  2
G8
 70
     0
 10
0
 20
0
  0
POINT
  8
0
 62
     4
 10
270.000000
 20
1315.000000
  0
POINT
  8
0
 62
     4
 10
-1830.000000
 20
1315.000000
  0
ENDBLK
  0
BLOCK
  8
0
  2
G9
 70
     0
 10
0
 20
0
  0
TEXT
  8
0
 62
     1
 10
-955.392943
 20
360.727117
 40
32.000000
 50
90.000000
 41
0.56 
  1
75
 72
     5
 11
-955.392943
 21
396.727117
  0
LINE
  8
0
 62
     1
  6
CONTINUOUS
 10
-940.059610
 20
341.227117
 11
-1070.059610
 21
341.227117
  0
LINE
  8
0
 62
     1
  6
CONTINUOUS
 10
-940.059610
 20
416.227117
 11
-1286.946470
 21
416.227117
  0
LINE
  8
0
 62
     1
  6
CONTINUOUS
 10
-950.059610
 20
416.227117
 11
-950.059610
 21
341.227117
  0
SOLID
  8
0
 62
     1
 10
-943.589134
 20
392.078971
 11
-956.530087
 21
392.078971
 12
-950.059610
 22
416.227117
 13
-950.059610
 23
416.227117
  0
SOLID
  8
0
 62
     1
 10
-956.530087
 20
365.375262
 11
-943.589134
 21
365.375262
 12
-950.059610
 22
341.227117
 13
-950.059610
 23
341.227117
  0
ENDBLK
  0
BLOCK
  8
0
  2
G10
 70
     0
 10
0
 20
0
  0
LINE
  8
0
 62
     1
  6
CONTINUOUS
 10
-1272.136524
 20
915.343955
 11
-1207.136524
 21
915.343955
  0
LINE
  8
0
 62
     1
  6
CONTINUOUS
 10
-1272.136524
 20
862.089268
 11
-1272.136524
 21
925.343955
  0
LINE
  8
0
 62
     1
  6
CONTINUOUS
 10
-1207.136524
 20
864.589268
 11
-1207.136524
 21
975.343955
  0
TEXT
  8
0
 62
     1
 10
-1257.636524
 20
920.677288
 40
32.000000
 50
0.000000E+00
 41
0.56 
  1
65
 72
     5
 11
-1221.636524
 21
920.677288
  0
LINE
  8
0
 62
     1
  6
CONTINUOUS
 10
-1322.136524
 20
915.343955
 11
-1272.136524
 21
915.343955
  0
SOLID
  8
0
 62
     1
 10
-1296.284670
 20
908.873479
 11
-1296.284670
 21
921.814431
 12
-1272.136524
 22
915.343955
 13
-1272.136524
 23
915.343955
  0
LINE
  8
0
 62
     1
  6
CONTINUOUS
 10
-1207.136524
 20
915.343955
 11
-1157.136524
 21
915.343955
  0
SOLID
  8
0
 62
     1
 10
-1182.988378
 20
921.814431
 11
-1182.988378
 21
908.873479
 12
-1207.136524
 22
915.343955
 13
-1207.136524
 23
915.343955
  0
ENDBLK
  0
BLOCK
  8
0
  2
G11
 70
     0
 10
0
 20
0
  0
LINE
  8
0
 62
     1
  6
CONTINUOUS
 10
-426.000000
 20
295.675308
 11
-376.000000
 21
295.675308
  0
SOLID
  8
0
 62
     1
 10
-401.851854
 20
302.145784
 11
-401.851854
 21
289.204832
 12
-426.000000
 22
295.675308
 13
-426.000000
 23
295.675308
  0
TEXT
  8
0
 62
     1
 10
-534.000000
 20
301.008641
 40
32.000000
 50
0.000000E+00
 41
0.58 
  1
160
 72
     5
 11
-478.000000
 21
301.008641
  0
LINE
  8
0
 62
     1
  6
CONTINUOUS
 10
-586.000000
 20
380.769153
 11
-586.000000
 21
285.675308
  0
LINE
  8
0
 62
     1
  6
CONTINUOUS
 10
-426.000000
 20
342.675308
 11
-426.000000
 21
285.675308
  0
LINE
  8
0
 62
     1
  6
CONTINUOUS
 10
-426.000000
 20
295.675308
 11
-586.000000
 21
295.675308
  0
LINE
  8
0
 62
     1
  6
CONTINUOUS
 10
-586.000000
 20
295.675308
 11
-636.000000
 21
295.675308
  0
SOLID
  8
0
 62
     1
 10
-610.148146
 20
289.204832
 11
-610.148146
 21
302.145784
 12
-586.000000
 22
295.675308
 13
-586.000000
 23
295.675308
  0
ENDBLK
  0
BLOCK
  8
0
  2
G12
 70
     0
 10
0
 20
0
  0
TEXT
  8
0
 62
     1
 10
-1425.136524
 20
584.167914
 40
32.000000
 50
0.000000E+00
 41
0.60 
  1
%%c125
 72
     5
 11
-1309.136524
 21
584.167914
  0
LINE
  8
0
 62
     1
  6
CONTINUOUS
 10
-1304.636524
 20
622.089268
 11
-1304.636524
 21
568.834581
  0
LINE
  8
0
 62
     1
  6
CONTINUOUS
 10
-1429.636524
 20
622.089268
 11
-1429.636524
 21
568.834581
  0
LINE
  8
0
 62
     1
  6
CONTINUOUS
 10
-1429.636524
 20
578.834581
 11
-1304.636524
 21
578.834581
  0
SOLID
  8
0
 62
     1
 10
-1405.488378
 20
585.305058
 11
-1405.488378
 21
572.364105
 12
-1429.636524
 22
578.834581
 13
-1429.636524
 23
578.834581
  0
SOLID
  8
0
 62
     1
 10
-1328.784670
 20
572.364105
 11
-1328.784670
 21
585.305058
 12
-1304.636524
 22
578.834581
 13
-1304.636524
 23
578.834581
  0
ENDBLK
  0
BLOCK
  8
0
  2
G13
 70
     0
 10
0
 20
0
  0
TEXT
  8
0
 62
     3
 10
-1142.463519
 20
928.564900
 40
32.000000
 50
0.000000E+00
 41
1.02 
  1
受口深さ
 72
     5
 11
-990.463519
 21
928.564900
  0
ENDBLK
  0
BLOCK
  8
0
  2
G14
 70
     0
 10
0
 20
0
  0
LINE
  8
0
 62
     1
  6
CONTINUOUS
 10
-426.000000
 20
352.675308
 11
-396.228591
 21
352.675308
  0
SOLID
  8
0
 62
     1
 10
-401.851854
 20
359.145784
 11
-401.851854
 21
346.204832
 12
-426.000000
 22
352.675308
 13
-426.000000
 23
352.675308
  0
LINE
  8
0
 62
     1
  6
CONTINUOUS
 10
-490.682081
 20
352.675308
 11
-519.896755
 21
352.675308
  0
SOLID
  8
0
 62
     1
 10
-514.830227
 20
346.204832
 11
-514.830227
 21
359.145784
 12
-490.682081
 22
352.675308
 13
-490.682081
 23
352.675308
  0
TEXT
  8
0
 62
     1
 10
-474.474233
 20
358.008641
 40
32.000000
 50
0.000000E+00
 41
0.56 
  1
65
 72
     5
 11
-438.474233
 21
358.008641
  0
LINE
  8
0
 62
     1
  6
CONTINUOUS
 10
-426.000000
 20
432.500000
 11
-426.000000
 21
342.675308
  0
LINE
  8
0
 62
     1
  6
CONTINUOUS
 10
-490.682081
 20
352.675308
 11
-426.000000
 21
352.675308
  0
ENDBLK
  0
BLOCK
  8
0
  2
G15
 70
     0
 10
0
 20
0
  0
LINE
  8
0
 62
     1
  6
CONTINUOUS
 10
-303.675308
 20
610.000000
 11
-303.675308
 21
400.000000
  0
SOLID
  8
0
 62
     1
 10
-297.204832
 20
585.851854
 11
-310.145784
 21
585.851854
 12
-303.675308
 22
610.000000
 13
-303.675308
 23
610.000000
  0
SOLID
  8
0
 62
     1
 10
-310.145784
 20
424.148146
 11
-297.204832
 21
424.148146
 12
-303.675308
 22
400.000000
 13
-303.675308
 23
400.000000
  0
LINE
  8
0
 62
     1
  6
CONTINUOUS
 10
-576.000000
 20
610.000000
 11
-293.675308
 21
610.000000
  0
LINE
  8
0
 62
     1
  6
CONTINUOUS
 10
-576.000000
 20
400.000000
 11
-293.675308
 21
400.000000
  0
TEXT
  8
0
 62
     1
 10
-309.008641
 20
477.000000
 40
32.000000
 50
90.000000
 41
0.58 
  1
210
 72
     5
 11
-309.008641
 21
533.000000
  0
ENDBLK
  0
BLOCK
  8
0
  2
G16
 70
     0
 10
0
 20
0
  0
LINE
  8
0
 62
     1
  6
CONTINUOUS
 10
-691.000000
 20
778.375253
 11
-481.000000
 21
778.375253
  0
SOLID
  8
0
 62
     1
 10
-666.851854
 20
784.845729
 11
-666.851854
 21
771.904777
 12
-691.000000
 22
778.375253
 13
-691.000000
 23
778.375253
  0
SOLID
  8
0
 62
     1
 10
-505.148146
 20
771.904777
 11
-505.148146
 21
784.845729
 12
-481.000000
 22
778.375253
 13
-481.000000
 23
778.375253
  0
LINE
  8
0
 62
     1
  6
CONTINUOUS
 10
-691.000000
 20
515.000000
 11
-691.000000
 21
788.375253
  0
LINE
  8
0
 62
     1
  6
CONTINUOUS
 10
-481.000000
 20
515.000000
 11
-481.000000
 21
788.375253
  0
TEXT
  8
0
 62
     1
 10
-614.000000
 20
783.708586
 40
32.000000
 50
0.000000E+00
 41
0.58 
  1
210
 72
     5
 11
-558.000000
 21
783.708586
  0
ENDBLK
  0
BLOCK
  8
0
  2
G17
 70
     0
 10
0
 20
0
  0
LINE
  8
0
 62
     3
  6
CONTINUOUS
 10
-1218.119384
 20
942.395122
 11
-1147.303451
 21
942.395122
  0
SOLID
  8
0
 62
     3
 10
-1189.141609
 20
950.159693
 11
-1189.141609
 21
934.630551
 12
-1218.119384
 22
942.395122
 13
-1218.119384
 23
942.395122
  0
ENDBLK
  0
BLOCK
  8
0
  2
G18
 70
     0
 10
0
 20
0
  0
TEXT
  8
0
 62
     3
 10
-1159.466059
 20
515.889093
 40
32.000000
 50
0.000000E+00
 41
0.95 
  1
受口深さ　
 72
     5
 11
-983.466059
 21
515.889093
  0
ENDBLK
  0
BLOCK
  8
0
  2
G19
 70
     0
 10
0
 20
0
  0
TEXT
  8
0
 62
     1
 10
-1139.215170
 20
734.089268
 40
32.000000
 50
90.000000
 41
0.60 
  1
%%c125
 72
     5
 11
-1139.215170
 21
850.089268
  0
LINE
  8
0
 62
     1
  6
CONTINUOUS
 10
-1197.136524
 20
854.589268
 11
-1123.881837
 21
854.589268
  0
LINE
  8
0
 62
     1
  6
CONTINUOUS
 10
-1197.136524
 20
729.589268
 11
-1123.881837
 21
729.589268
  0
LINE
  8
0
 62
     1
  6
CONTINUOUS
 10
-1133.881837
 20
729.589268
 11
-1133.881837
 21
854.589268
  0
SOLID
  8
0
 62
     1
 10
-1140.352313
 20
753.737414
 11
-1127.411361
 21
753.737414
 12
-1133.881837
 22
729.589268
 13
-1133.881837
 23
729.589268
  0
SOLID
  8
0
 62
     1
 10
-1127.411361
 20
830.441123
 11
-1140.352313
 21
830.441123
 12
-1133.881837
 22
854.589268
 13
-1133.881837
 23
854.589268
  0
ENDBLK
  0
BLOCK
  8
0
  2
G20
 70
     0
 10
0
 20
0
  0
LINE
  8
0
 62
     1
  6
CONTINUOUS
 10
-334.840581
 20
580.796937
 11
-510.203063
 21
756.159419
  0
SOLID
  8
0
 62
     1
 10
-356.491217
 20
593.296937
 11
-347.340581
 21
602.447572
 12
-334.840581
 22
580.796937
 13
-334.840581
 23
580.796937
  0
SOLID
  8
0
 62
     1
 10
-488.552428
 20
743.659419
 11
-497.703063
 21
734.508783
 12
-510.203063
 22
756.159419
 13
-510.203063
 23
756.159419
  0
LINE
  8
0
 62
     1
  6
CONTINUOUS
 10
-666.610173
 20
599.752309
 11
-503.131995
 21
763.230486
  0
TEXT
  8
0
 62
     1
 10
-438.549576
 20
692.048404
 40
32.000000
 50
315.000000
 41
0.58 
  1
248
 72
     5
 11
-398.951596
 21
652.450424
  0
ENDBLK
  0
BLOCK
  8
0
  2
G21
 70
     0
 10
0
 20
0
  0
LINE
  8
0
 62
     3
  6
CONTINUOUS
 10
-426.000000
 20
442.500000
 11
-360.558408
 21
350.342747
  0
SOLID
  8
0
 62
     3
 10
-402.238066
 20
424.186877
 11
-416.541032
 21
414.030228
 12
-426.000000
 22
442.500000
 13
-426.000000
 23
442.500000
  0
TEXT
  8
0
 62
     3
 10
-360.558408
 20
355.676080
 40
32.000000
 50
0.000000E+00
 41
0.50 
  1
 
 72
     5
 11
-344.558408
 21
355.676080
  0
LINE
  8
0
 62
     3
  6
CONTINUOUS
 10
-360.558408
 20
350.342747
 11
-340.508665
 21
350.342747
  0
ENDBLK
  0
BLOCK
  8
0
  2
G22
 70
     0
 10
0
 20
0
  0
TEXT
  8
0
 62
     3
 10
-861.408811
 20
745.385762
 40
32.000000
 50
0.000000E+00
 41
0.95 
  1
受口深さ　
 72
     5
 11
-685.408811
 21
745.385762
  0
ENDBLK
  0
BLOCK
  8
0
  2
G23
 70
     0
 10
0
 20
0
  0
LINE
  8
0
 62
     3
  6
CONTINUOUS
 10
-1152.439953
 20
-70.775228
 11
-1174.942408
 21
-57.783430
  0
LINE
  8
0
 62
     3
  6
CONTINUOUS
 10
-1167.857422
 20
-97.479068
 11
-1152.439953
 21
-70.775228
  0
TEXT
  8
0
 62
     3
 10
-1179.650706
 20
-129.837285
 40
32.000000
 50
0.000000E+00
 41
0.86 
  1
Ｃ
 72
     5
 11
-1147.650706
 21
-129.837285
  0
LINE
  8
0
 62
     3
  6
CONTINUOUS
 10
-1167.857422
 20
-50.108819
 11
-1167.857422
 21
-97.479068
  0
LINE
  8
0
 62
     3
  6
CONTINUOUS
 10
-1167.857422
 20
-50.108819
 11
-1247.419986
 21
-50.108819
  0
ENDBLK
  0
BLOCK
  8
0
  2
G24
 70
     0
 10
0
 20
0
  0
LINE
  8
0
 62
     1
  6
CONTINUOUS
 10
-743.624747
 20
665.000000
 11
-743.624747
 21
600.317919
  0
LINE
  8
0
 62
     1
  6
CONTINUOUS
 10
-658.500000
 20
665.000000
 11
-753.624747
 21
665.000000
  0
LINE
  8
0
 62
     1
  6
CONTINUOUS
 10
-656.000000
 20
600.317919
 11
-753.624747
 21
600.317919
  0
TEXT
  8
0
 62
     1
 10
-748.958080
 20
614.658959
 40
32.000000
 50
90.000000
 41
0.56 
  1
65
 72
     5
 11
-748.958080
 21
650.658959
  0
LINE
  8
0
 62
     1
  6
CONTINUOUS
 10
-743.624747
 20
715.000000
 11
-743.624747
 21
665.000000
  0
SOLID
  8
0
 62
     1
 10
-750.095223
 20
689.148146
 11
-737.154271
 21
689.148146
 12
-743.624747
 22
665.000000
 13
-743.624747
 23
665.000000
  0
LINE
  8
0
 62
     1
  6
CONTINUOUS
 10
-743.624747
 20
600.317919
 11
-743.624747
 21
550.317919
  0
SOLID
  8
0
 62
     1
 10
-737.154271
 20
576.169773
 11
-750.095223
 21
576.169773
 12
-743.624747
 22
600.317919
 13
-743.624747
 23
600.317919
  0
ENDBLK
  0
BLOCK
  8
0
  2
G25
 70
     0
 10
0
 20
0
  0
LINE
  8
0
 62
     1
  6
CONTINUOUS
 10
-800.624747
 20
665.000000
 11
-800.624747
 21
505.000000
  0
LINE
  8
0
 62
     1
  6
CONTINUOUS
 10
-753.624747
 20
665.000000
 11
-810.624747
 21
665.000000
  0
LINE
  8
0
 62
     1
  6
CONTINUOUS
 10
-712.419075
 20
505.000000
 11
-810.624747
 21
505.000000
  0
TEXT
  8
0
 62
     1
 10
-805.958080
 20
557.000000
 40
32.000000
 50
90.000000
 41
0.58 
  1
160
 72
     5
 11
-805.958080
 21
613.000000
  0
LINE
  8
0
 62
     1
  6
CONTINUOUS
 10
-800.624747
 20
715.000000
 11
-800.624747
 21
665.000000
  0
SOLID
  8
0
 62
     1
 10
-807.095223
 20
689.148146
 11
-794.154271
 21
689.148146
 12
-800.624747
 22
665.000000
 13
-800.624747
 23
665.000000
  0
LINE
  8
0
 62
     1
  6
CONTINUOUS
 10
-800.624747
 20
505.000000
 11
-800.624747
 21
455.000000
  0
SOLID
  8
0
 62
     1
 10
-794.154271
 20
480.851854
 11
-807.095223
 21
480.851854
 12
-800.624747
 22
505.000000
 13
-800.624747
 23
505.000000
  0
ENDBLK
  0
BLOCK
  8
0
  2
G26
 70
     0
 10
0
 20
0
  0
LINE
  8
0
 62
     1
  6
CONTINUOUS
 10
-1133.881837
 20
632.089268
 11
-1133.881837
 21
582.089268
  0
SOLID
  8
0
 62
     1
 10
-1127.411361
 20
607.941123
 11
-1140.352313
 21
607.941123
 12
-1133.881837
 22
632.089268
 13
-1133.881837
 23
632.089268
  0
LINE
  8
0
 62
     1
  6
CONTINUOUS
 10
-1133.881837
 20
747.089268
 11
-1133.881837
 21
697.089268
  0
SOLID
  8
0
 62
     1
 10
-1140.352313
 20
721.237414
 11
-1127.411361
 21
721.237414
 12
-1133.881837
 22
697.089268
 13
-1133.881837
 23
697.089268
  0
TEXT
  8
0
 62
     1
 10
-1139.215170
 20
646.589268
 40
32.000000
 50
90.000000
 41
0.56 
  1
65
 72
     5
 11
-1139.215170
 21
682.589268
  0
LINE
  8
0
 62
     1
  6
CONTINUOUS
 10
-1294.636524
 20
632.089268
 11
-1073.881837
 21
632.089268
  0
LINE
  8
0
 62
     1
  6
CONTINUOUS
 10
-1297.136524
 20
697.089268
 11
-1123.881837
 21
697.089268
  0
LINE
  8
0
 62
     1
  6
CONTINUOUS
 10
-1133.881837
 20
697.089268
 11
-1133.881837
 21
632.089268
  0
ENDBLK
  0
BLOCK
  8
0
  2
G27
 70
     0
 10
0
 20
0
  0
LINE
  8
0
 62
     3
  6
CONTINUOUS
 10
-430.243487
 20
376.606926
 11
-358.873556
 21
272.502567
  0
SOLID
  8
0
 62
     3
 10
-406.787086
 20
357.904057
 11
-421.255761
 21
347.984892
 12
-430.243487
 22
376.606926
 13
-430.243487
 23
376.606926
  0
TEXT
  8
0
 62
     3
 10
-358.873556
 20
277.835900
 40
32.000000
 50
0.000000E+00
 41
0.50 
  1
 
 72
     5
 11
-342.873556
 21
277.835900
  0
LINE
  8
0
 62
     3
  6
CONTINUOUS
 10
-358.873556
 20
272.502567
 11
-349.269897
 21
272.502567
  0
ENDBLK
  0
BLOCK
  8
0
  2
G28
 70
     0
 10
0
 20
0
  0
LINE
  8
0
 62
     3
  6
CONTINUOUS
 10
-761.591871
 20
792.588786
 11
-923.456114
 21
792.588786
  0
LINE
  8
0
 62
     3
  6
CONTINUOUS
 10
-761.591871
 20
800.588786
 11
-923.456114
 21
800.588786
  0
TEXT
  8
0
 62
     7
 10
-953.890938
 20
810.086374
 40
32.000000
 50
360.000000
 41
0.66 
  1
％％ｃ　　　枝管
 72
     5
 11
-761.890938
 21
810.086374
  0
ENDBLK
  0
BLOCK
  8
0
  2
G29
 70
     0
 10
0
 20
0
  0
LINE
  8
0
 62
     3
  6
CONTINUOUS
 10
-648.500000
 20
665.000000
 11
-717.073171
 21
819.805896
  0
SOLID
  8
0
 62
     3
 10
-668.138874
 20
687.678506
 11
-652.099705
 21
694.783252
 12
-648.500000
 22
665.000000
 13
-648.500000
 23
665.000000
  0
TEXT
  8
0
 62
     3
 10
-733.073171
 20
825.139229
 40
32.000000
 50
0.000000E+00
 41
0.50 
  1
 
 72
     5
 11
-717.073171
 21
825.139229
  0
LINE
  8
0
 62
     3
  6
CONTINUOUS
 10
-717.073171
 20
819.805896
 11
-749.073171
 21
819.805896
  0
ENDBLK
  0
BLOCK
  8
0
  2
G30
 70
     0
 10
0
 20
0
  0
LINE
  8
0
 62
     1
  6
CONTINUOUS
 10
-1534.213438
 20
91.227117
 11
-1534.213438
 21
151.227117
  0
CIRCLE
  8
0
 62
     1
  6
CONTINUOUS
 10
-1534.213438
 20
91.227117
 40
2.500000
  0
CIRCLE
  8
0
 62
     1
  6
CONTINUOUS
 10
-1534.213438
 20
91.227117
 40
1.250000
  0
LINE
  8
0
 62
     1
  6
CONTINUOUS
 10
-1544.213438
 20
91.227117
 11
-1367.136524
 21
91.227117
  0
LINE
  8
0
 62
     1
  6
CONTINUOUS
 10
-1544.213438
 20
151.227117
 11
-1469.062473
 21
151.227117
  0
TEXT
  8
0
 62
     1
 10
-1539.546771
 20
103.227117
 40
32.000000
 50
90.000000
 41
0.56 
  1
60
 72
     5
 11
-1539.546771
 21
139.227117
  0
LINE
  8
0
 62
     1
  6
CONTINUOUS
 10
-1534.213438
 20
151.227117
 11
-1534.213438
 21
201.227117
  0
SOLID
  8
0
 62
     1
 10
-1541.978009
 20
180.204891
 11
-1526.448866
 21
180.204891
 12
-1534.213438
 22
151.227117
 13
-1534.213438
 23
151.227117
  0
ENDBLK
  0
BLOCK
  8
0
  2
G31
 70
     0
 10
0
 20
0
  0
LINE
  8
0
 62
     1
  6
CONTINUOUS
 10
-1534.213438
 20
88.727117
 11
-1534.213438
 21
91.227117
  0
LINE
  8
0
 62
     1
  6
CONTINUOUS
 10
-1544.213438
 20
88.727117
 11
-1367.136524
 21
88.727117
  0
TEXT
  8
0
 62
     1
 10
-1539.546771
 20
2.999037
 40
32.000000
 50
90.000000
 41
0.58 
  1
2.5
 72
     5
 11
-1539.546771
 21
58.999037
  0
LINE
  8
0
 62
     1
  6
CONTINUOUS
 10
-1534.213438
 20
88.727117
 11
-1534.213438
 21
-1.855584
  0
SOLID
  8
0
 62
     1
 10
-1527.742962
 20
64.578971
 11
-1540.683914
 21
64.578971
 12
-1534.213438
 22
88.727117
 13
-1534.213438
 23
88.727117
  0
ENDBLK
  0
BLOCK
  8
0
  2
G32
 70
     0
 10
0
 20
0
  0
LINE
  8
0
 62
     1
  6
CONTINUOUS
 10
-1130.059610
 20
151.227117
 11
-1130.059610
 21
201.227117
  0
SOLID
  8
0
 62
     1
 10
-1137.824182
 20
180.204891
 11
-1122.295039
 21
180.204891
 12
-1130.059610
 22
151.227117
 13
-1130.059610
 23
151.227117
  0
TEXT
  8
0
 62
     1
 10
-1135.392943
 20
103.227117
 40
32.000000
 50
90.000000
 41
0.56 
  1
60
 72
     5
 11
-1135.392943
 21
139.227117
  0
LINE
  8
0
 62
     1
  6
CONTINUOUS
 10
-1191.202818
 20
151.227117
 11
-1120.059610
 21
151.227117
  0
LINE
  8
0
 62
     1
  6
CONTINUOUS
 10
-1202.136524
 20
91.227117
 11
-1120.059610
 21
91.227117
  0
LINE
  8
0
 62
     1
  6
CONTINUOUS
 10
-1130.059610
 20
91.227117
 11
-1130.059610
 21
151.227117
  0
CIRCLE
  8
0
 62
     1
  6
CONTINUOUS
 10
-1130.059610
 20
91.227117
 40
2.500000
  0
CIRCLE
  8
0
 62
     1
  6
CONTINUOUS
 10
-1130.059610
 20
91.227117
 40
1.250000
  0
ENDBLK
  0
BLOCK
  8
0
  2
G33
 70
     0
 10
0
 20
0
  0
LINE
  8
0
 62
     1
  6
CONTINUOUS
 10
-1130.059610
 20
88.727117
 11
-1130.059610
 21
-1.855584
  0
SOLID
  8
0
 62
     1
 10
-1123.589134
 20
64.578971
 11
-1136.530087
 21
64.578971
 12
-1130.059610
 22
88.727117
 13
-1130.059610
 23
88.727117
  0
TEXT
  8
0
 62
     1
 10
-1135.392943
 20
2.999037
 40
32.000000
 50
90.000000
 41
0.58 
  1
2.5
 72
     5
 11
-1135.392943
 21
58.999037
  0
LINE
  8
0
 62
     1
  6
CONTINUOUS
 10
-1120.059610
 20
88.727117
 11
-1202.136524
 21
88.727117
  0
LINE
  8
0
 62
     1
  6
CONTINUOUS
 10
-1130.059610
 20
88.727117
 11
-1130.059610
 21
91.227117
  0
ENDBLK
  0
BLOCK
  8
0
  2
G34
 70
     0
 10
0
 20
0
  0
LINE
  8
0
 62
     7
  6
CONTINUOUS
 10
-1462.136524
 20
864.089268
 11
-1462.136524
 21
984.299426
  0
LINE
  8
0
 62
     7
  6
CONTINUOUS
 10
-1367.136524
 20
910.530428
 11
-1367.136524
 21
984.299426
  0
LINE
  8
0
 62
     7
  6
CONTINUOUS
 10
-1462.136524
 20
974.299426
 11
-1367.136524
 21
974.299426
  0
SOLID
  8
0
 62
     7
 10
-1433.447381
 20
983.070578
 11
-1433.447381
 21
965.528275
 12
-1462.136524
 22
974.299426
 13
-1462.136524
 23
974.299426
  0
SOLID
  8
0
 62
     7
 10
-1395.825667
 20
965.528275
 11
-1395.825667
 21
983.070578
 12
-1367.136524
 22
974.299426
 13
-1367.136524
 23
974.299426
  0
TEXT
  8
0
 62
     7
 10
-1432.636524
 20
979.632756
 40
32.000000
 50
0.000000E+00
 41
0.56 
  1
95
 72
     5
 11
-1396.636524
 21
979.632756
  0
ENDBLK
  0
BLOCK
  8
0
  2
G35
 70
     0
 10
0
 20
0
  0
LINE
  8
0
 62
     7
  6
CONTINUOUS
 10
-1367.136524
 20
894.187720
 11
-1367.136524
 21
984.299426
  0
LINE
  8
0
 62
     7
  6
CONTINUOUS
 10
-1207.136524
 20
874.589268
 11
-1207.136524
 21
984.299426
  0
LINE
  8
0
 62
     7
  6
CONTINUOUS
 10
-1367.136524
 20
974.299426
 11
-1207.136524
 21
974.299426
  0
SOLID
  8
0
 62
     7
 10
-1338.447381
 20
983.070578
 11
-1338.447381
 21
965.528275
 12
-1367.136524
 22
974.299426
 13
-1367.136524
 23
974.299426
  0
SOLID
  8
0
 62
     7
 10
-1235.825667
 20
965.528275
 11
-1235.825667
 21
983.070578
 12
-1207.136524
 22
974.299426
 13
-1207.136524
 23
974.299426
  0
TEXT
  8
0
 62
     7
 10
-1315.136524
 20
979.632756
 40
32.000000
 50
0.000000E+00
 41
0.58 
  1
160
 72
     5
 11
-1259.136524
 21
979.632756
  0
ENDBLK
  0
BLOCK
  8
0
  2
G36
 70
     0
 10
0
 20
0
  0
LINE
  8
0
 62
     7
  6
CONTINUOUS
 10
-1128.584043
 20
792.089268
 11
-1065.662744
 21
792.089268
  0
LINE
  8
0
 62
     7
  6
CONTINUOUS
 10
-1284.636524
 20
632.089268
 11
-1065.662744
 21
632.089268
  0
LINE
  8
0
 62
     7
  6
CONTINUOUS
 10
-1075.662744
 20
792.089268
 11
-1075.662744
 21
632.089268
  0
SOLID
  8
0
 62
     7
 10
-1066.891593
 20
763.400126
 11
-1084.433895
 21
763.400126
 12
-1075.662744
 22
792.089268
 13
-1075.662744
 23
792.089268
  0
SOLID
  8
0
 62
     7
 10
-1084.433895
 20
660.778411
 11
-1066.891593
 21
660.778411
 12
-1075.662744
 22
632.089268
 13
-1075.662744
 23
632.089268
  0
TEXT
  8
0
 62
     7
 10
-1080.996074
 20
684.089268
 40
32.000000
 50
90.000000
 41
0.58 
  1
160
 72
     5
 11
-1080.996074
 21
740.089268
  0
ENDBLK
  0
BLOCK
  8
0
  2
G37
 70
     0
 10
0
 20
0
  0
LINE
  8
0
 62
     7
  6
CONTINUOUS
 10
-1442.136524
 20
426.227117
 11
-1442.136524
 21
469.751724
  0
LINE
  8
0
 62
     7
  6
CONTINUOUS
 10
-1292.136524
 20
426.227117
 11
-1292.136524
 21
469.751724
  0
LINE
  8
0
 62
     7
  6
CONTINUOUS
 10
-1442.136524
 20
459.751724
 11
-1292.136524
 21
459.751724
  0
SOLID
  8
0
 62
     7
 10
-1413.447381
 20
468.522875
 11
-1413.447381
 21
450.980573
 12
-1442.136524
 22
459.751724
 13
-1442.136524
 23
459.751724
  0
SOLID
  8
0
 62
     7
 10
-1320.825667
 20
450.980573
 11
-1320.825667
 21
468.522875
 12
-1292.136524
 22
459.751724
 13
-1292.136524
 23
459.751724
  0
TEXT
  8
0
 62
     7
 10
-1425.136524
 20
465.085054
 40
32.000000
 50
0.000000E+00
 41
0.60 
  1
%%c150
 72
     5
 11
-1309.136524
 21
465.085054
  0
ENDBLK
  0
BLOCK
  8
0
  2
G38
 70
     0
 10
0
 20
0
  0
LINE
  8
0
 62
     7
  6
CONTINUOUS
 10
-1453.136524
 20
246.986486
 11
-1453.136524
 21
531.948668
  0
LINE
  8
0
 62
     7
  6
CONTINUOUS
 10
-1281.136524
 20
236.986486
 11
-1281.136524
 21
531.948668
  0
LINE
  8
0
 62
     7
  6
CONTINUOUS
 10
-1453.136524
 20
521.948668
 11
-1281.136524
 21
521.948668
  0
SOLID
  8
0
 62
     7
 10
-1424.447381
 20
530.719819
 11
-1424.447381
 21
513.177516
 12
-1453.136524
 22
521.948668
 13
-1453.136524
 23
521.948668
  0
SOLID
  8
0
 62
     7
 10
-1309.825667
 20
513.177516
 11
-1309.825667
 21
530.719819
 12
-1281.136524
 22
521.948668
 13
-1281.136524
 23
521.948668
  0
TEXT
  8
0
 62
     7
 10
-1425.136524
 20
527.281997
 40
32.000000
 50
0.000000E+00
 41
0.60 
  1
%%c172
 72
     5
 11
-1309.136524
 21
527.281997
  0
ENDBLK
  0
BLOCK
  8
0
  2
G39
 70
     0
 10
0
 20
0
  0
LINE
  8
0
 62
     7
  6
CONTINUOUS
 10
-1422.136524
 20
-578.772883
 11
-1422.136524
 21
-653.407049
  0
LINE
  8
0
 62
     7
  6
CONTINUOUS
 10
-1312.136524
 20
-578.772883
 11
-1312.136524
 21
-653.407049
  0
LINE
  8
0
 62
     7
  6
CONTINUOUS
 10
-1422.136524
 20
-643.407049
 11
-1312.136524
 21
-643.407049
  0
SOLID
  8
0
 62
     7
 10
-1393.447381
 20
-634.635898
 11
-1393.447381
 21
-652.178201
 12
-1422.136524
 22
-643.407049
 13
-1422.136524
 23
-643.407049
  0
SOLID
  8
0
 62
     7
 10
-1340.825667
 20
-652.178201
 11
-1340.825667
 21
-634.635898
 12
-1312.136524
 22
-643.407049
 13
-1312.136524
 23
-643.407049
  0
TEXT
  8
0
 62
     7
 10
-1425.136524
 20
-638.073720
 40
32.000000
 50
0.000000E+00
 41
0.60 
  1
%%c110
 72
     5
 11
-1309.136524
 21
-638.073720
  0
ENDBLK
  0
BLOCK
  8
0
  2
G40
 70
     0
 10
0
 20
0
  0
LINE
  8
0
 62
     7
  6
CONTINUOUS
 10
-1453.136524
 20
-314.900972
 11
-1453.136524
 21
-718.051332
  0
LINE
  8
0
 62
     7
  6
CONTINUOUS
 10
-1281.136524
 20
-304.900972
 11
-1281.136524
 21
-718.051332
  0
LINE
  8
0
 62
     7
  6
CONTINUOUS
 10
-1453.136524
 20
-708.051332
 11
-1281.136524
 21
-708.051332
  0
SOLID
  8
0
 62
     7
 10
-1424.447381
 20
-699.280181
 11
-1424.447381
 21
-716.822484
 12
-1453.136524
 22
-708.051332
 13
-1453.136524
 23
-708.051332
  0
SOLID
  8
0
 62
     7
 10
-1309.825667
 20
-716.822484
 11
-1309.825667
 21
-699.280181
 12
-1281.136524
 22
-708.051332
 13
-1281.136524
 23
-708.051332
  0
TEXT
  8
0
 62
     7
 10
-1425.136524
 20
-702.718003
 40
32.000000
 50
0.000000E+00
 41
0.60 
  1
%%c172
 72
     5
 11
-1309.136524
 21
-702.718003
  0
ENDBLK
  0
BLOCK
  8
0
  2
G41
 70
     0
 10
0
 20
0
  0
LINE
  8
0
 62
     7
  6
CONTINUOUS
 10
-1448.849702
 20
-156.272883
 11
-1522.770461
 21
-156.272883
  0
LINE
  8
0
 62
     7
  6
CONTINUOUS
 10
-1395.052647
 20
-208.273004
 11
-1522.770461
 21
-208.273004
  0
LINE
  8
0
 62
     7
  6
CONTINUOUS
 10
-1512.770461
 20
-156.272883
 11
-1512.770461
 21
-208.273004
  0
LINE
  8
0
 62
     7
  6
CONTINUOUS
 10
-1512.770461
 20
-156.272883
 11
-1512.770461
 21
-106.272883
  0
SOLID
  8
0
 62
     7
 10
-1521.541612
 20
-127.583741
 11
-1503.999310
 21
-127.583741
 12
-1512.770461
 22
-156.272883
 13
-1512.770461
 23
-156.272883
  0
LINE
  8
0
 62
     7
  6
CONTINUOUS
 10
-1512.770461
 20
-208.273004
 11
-1512.770461
 21
-258.273004
  0
SOLID
  8
0
 62
     7
 10
-1503.999310
 20
-236.962147
 11
-1521.541612
 21
-236.962147
 12
-1512.770461
 22
-208.273004
 13
-1512.770461
 23
-208.273004
  0
TEXT
  8
0
 62
     7
 10
-1518.103791
 20
-198.272944
 40
32.000000
 50
90.000000
 41
0.86 
  1
Ｂ
 72
     5
 11
-1518.103791
 21
-166.272944
  0
ENDBLK
  0
BLOCK
  8
0
  2
G42
 70
     0
 10
0
 20
0
  0
LINE
  8
0
 62
     7
  6
CONTINUOUS
 10
-1198.166350
 20
-157.281581
 11
-1120.059610
 21
-157.281581
  0
LINE
  8
0
 62
     7
  6
CONTINUOUS
 10
-1197.136524
 20
-208.772883
 11
-1120.059610
 21
-208.772883
  0
LINE
  8
0
 62
     7
  6
CONTINUOUS
 10
-1130.059610
 20
-157.281581
 11
-1130.059610
 21
-208.772883
  0
LINE
  8
0
 62
     7
  6
CONTINUOUS
 10
-1130.059610
 20
-157.281581
 11
-1130.059610
 21
-107.281581
  0
SOLID
  8
0
 62
     7
 10
-1138.830762
 20
-128.592438
 11
-1121.288459
 21
-128.592438
 12
-1130.059610
 22
-157.281581
 13
-1130.059610
 23
-157.281581
  0
LINE
  8
0
 62
     7
  6
CONTINUOUS
 10
-1130.059610
 20
-208.772883
 11
-1130.059610
 21
-258.772883
  0
SOLID
  8
0
 62
     7
 10
-1121.288459
 20
-237.462026
 11
-1138.830762
 21
-237.462026
 12
-1130.059610
 22
-208.772883
 13
-1130.059610
 23
-208.772883
  0
TEXT
  8
0
 62
     7
 10
-1135.392940
 20
-199.027232
 40
32.000000
 50
90.000000
 41
0.86 
  1
Ｂ
 72
     5
 11
-1135.392940
 21
-167.027232
  0
ENDBLK
  0
BLOCK
  8
0
  2
G43
 70
     0
 10
0
 20
0
  0
POINT
  8
0
 62
     2
 10
-1208.166350
 20
-157.281581
  0
LINE
  8
0
 62
     2
  6
CONTINUOUS
 10
-1214.265130
 20
-102.392558
 11
-1212.135524
 21
-208.872863
  0
LINE
  8
0
 62
     2
  6
CONTINUOUS
 10
-1209.266130
 20
-102.292578
 11
-1207.136524
 21
-208.772883
  0
LINE
  8
0
 62
     2
  6
CONTINUOUS
 10
-1214.265130
 20
-102.392558
 11
-1209.266130
 21
-102.292578
  0
LINE
  8
0
 62
     2
  6
CONTINUOUS
 10
-1272.120174
 20
-210.072556
 11
-1207.136524
 21
-208.772883
  0
LINE
  8
0
 62
     2
  6
CONTINUOUS
 10
-1214.205142
 20
-105.391958
 11
-1272.136524
 21
-106.550586
  0
LINE
  8
0
 62
     2
  6
CENTER
 10
-1196.886521
 20
-157.055985
 11
-1280.166350
 21
-158.721581
  0
POINT
  8
0
 62
     2
 10
-1280.166350
 20
-150.721581
  0
ENDBLK
  0
BLOCK
  8
0
  2
G44
 70
     0
 10
0
 20
0
  0
LINE
  8
0
 62
     2
  6
CONTINUOUS
 10
-531.000000
 20
665.000000
 11
-641.000000
 21
665.000000
  0
LINE
  8
0
 62
     2
  6
CONTINUOUS
 10
-641.000000
 20
660.000000
 11
-531.000000
 21
660.000000
  0
LINE
  8
0
 62
     2
  6
CONTINUOUS
 10
-637.965398
 20
660.000000
 11
-637.569710
 21
603.020833
  0
LINE
  8
0
 62
     2
  6
CONTINUOUS
 10
-534.034602
 20
660.000000
 11
-534.430290
 21
603.020833
  0
LINE
  8
0
 62
     2
  6
CONTINUOUS
 10
-641.000000
 20
660.000000
 11
-641.000000
 21
665.000000
  0
LINE
  8
0
 62
     2
  6
CONTINUOUS
 10
-531.000000
 20
660.000000
 11
-531.000000
 21
665.000000
  0
ENDBLK
  0
BLOCK
  8
0
  2
G45
 70
     0
 10
0
 20
0
  0
LINE
  8
0
 62
     7
  6
CONTINUOUS
 10
-641.000000
 20
675.000000
 11
-641.000000
 21
726.980621
  0
LINE
  8
0
 62
     7
  6
CONTINUOUS
 10
-531.000000
 20
675.000000
 11
-531.000000
 21
726.980621
  0
LINE
  8
0
 62
     7
  6
CONTINUOUS
 10
-641.000000
 20
716.980621
 11
-531.000000
 21
716.980621
  0
SOLID
  8
0
 62
     7
 10
-612.310857
 20
725.751772
 11
-612.310857
 21
708.209470
 12
-641.000000
 22
716.980621
 13
-641.000000
 23
716.980621
  0
SOLID
  8
0
 62
     7
 10
-559.689143
 20
708.209470
 11
-559.689143
 21
725.751772
 12
-531.000000
 22
716.980621
 13
-531.000000
 23
716.980621
  0
TEXT
  8
0
 62
     7
 10
-602.000000
 20
722.313951
 40
32.000000
 50
0.000000E+00
 41
0.86 
  1
Ａ
 72
     5
 11
-570.000000
 21
722.313951
  0
ENDBLK
  0
BLOCK
  8
0
  2
G46
 70
     0
 10
0
 20
0
  0
LINE
  8
0
 62
     7
  6
CONTINUOUS
 10
-416.000000
 20
560.000000
 11
-363.675308
 21
560.000000
  0
LINE
  8
0
 62
     7
  6
CONTINUOUS
 10
-416.000000
 20
450.000000
 11
-363.675308
 21
450.000000
  0
LINE
  8
0
 62
     7
  6
CONTINUOUS
 10
-373.675308
 20
560.000000
 11
-373.675308
 21
450.000000
  0
SOLID
  8
0
 62
     7
 10
-364.904157
 20
531.310857
 11
-382.446459
 21
531.310857
 12
-373.675308
 22
560.000000
 13
-373.675308
 23
560.000000
  0
SOLID
  8
0
 62
     7
 10
-382.446459
 20
478.689143
 11
-364.904157
 21
478.689143
 12
-373.675308
 22
450.000000
 13
-373.675308
 23
450.000000
  0
TEXT
  8
0
 62
     7
 10
-379.008638
 20
489.000000
 40
32.000000
 50
90.000000
 41
0.86 
  1
Ａ
 72
     5
 11
-379.008638
 21
521.000000
  0
ENDBLK
  0
BLOCK
  8
0
  2
G47
 70
     0
 10
0
 20
0
  0
LINE
  8
0
 62
     2
  6
CONTINUOUS
 10
-426.000000
 20
450.000000
 11
-426.000000
 21
560.000000
  0
LINE
  8
0
 62
     2
  6
CONTINUOUS
 10
-431.000000
 20
450.000000
 11
-431.000000
 21
560.000000
  0
LINE
  8
0
 62
     2
  6
CONTINUOUS
 10
-431.000000
 20
450.000000
 11
-426.000000
 21
450.000000
  0
LINE
  8
0
 62
     2
  6
CONTINUOUS
 10
-431.000000
 20
560.000000
 11
-426.000000
 21
560.000000
  0
LINE
  8
0
 62
     2
  6
CONTINUOUS
 10
-431.000000
 20
453.000000
 11
-491.000000
 21
453.000000
  0
LINE
  8
0
 62
     2
  6
CONTINUOUS
 10
-491.000000
 20
557.000000
 11
-431.000000
 21
557.000000
  0
ENDBLK
  0
ENDSEC
  0
SECTION
  2
ENTITIES
  0
INSERT
  8
0
  2
G0
 10
0
 20
0
  0
INSERT
  8
0
  2
G1
 10
0
 20
0
  0
INSERT
  8
0
  2
G2
 10
0
 20
0
  0
INSERT
  8
0
  2
G3
 10
0
 20
0
  0
INSERT
  8
0
  2
G4
 10
0
 20
0
  0
INSERT
  8
0
  2
G5
 10
0
 20
0
  0
LINE
  8
0
 62
     3
  6
CONTINUOUS
 10
-977.977743
 20
526.069280
 11
-1009.174165
 21
526.069280
  0
INSERT
  8
0
  2
G6
 10
0
 20
0
  0
LINE
  8
0
 62
     1
  6
CONTINUOUS
 10
-1000.059610
 20
151.227117
 11
-1151.392943
 21
151.227117
  0
LINE
  8
0
 62
     1
  6
CONTINUOUS
 10
-1130.059610
 20
151.227117
 11
-1113.183616
 21
151.227117
  0
INSERT
  8
0
  2
G7
 10
0
 20
0
  0
INSERT
  8
0
  2
G8
 10
0
 20
0
  0
INSERT
  8
0
  2
G9
 10
0
 20
0
  0
INSERT
  8
0
  2
G10
 10
0
 20
0
  0
LINE
  8
0
 62
     7
  6
CONTINUOUS
 10
-1554.213438
 20
91.227117
 11
-1378.529315
 21
91.227117
  0
INSERT
  8
0
  2
G11
 10
0
 20
0
  0
INSERT
  8
0
  2
G12
 10
0
 20
0
  0
LINE
  8
3
 62
     3
  6
CONTINUOUS
 10
-1427.136524
 20
637.089268
 11
-1427.136524
 21
697.089268
  0
LINE
  8
3
 62
     3
  6
CONTINUOUS
 10
-1307.136524
 20
637.089268
 11
-1307.136524
 21
697.089268
  0
LINE
  8
0
 62
     3
  6
CONTINUOUS
 10
-1161.339859
 20
641.953184
 11
-1161.339859
 21
553.061568
  0
SOLID
  8
0
 62
     3
 10
-1153.575287
 20
612.975409
 11
-1169.104430
 21
612.975409
 12
-1161.339859
 22
641.953184
 13
-1161.339859
 23
641.953184
  0
LINE
  8
3
 62
     3
  6
CONTINUOUS
 10
-1429.636524
 20
632.089268
 11
-1304.636524
 21
632.089268
  0
LINE
  8
3
 62
     3
  6
CONTINUOUS
 10
-1429.636524
 20
637.089268
 11
-1427.136524
 21
637.089268
  0
LINE
  8
3
 62
     3
  6
CONTINUOUS
 10
-1429.636524
 20
637.089268
 11
-1429.636524
 21
632.089268
  0
LINE
  8
3
 62
     3
  6
CONTINUOUS
 10
-1304.636524
 20
637.089268
 11
-1304.636524
 21
632.089268
  0
LINE
  8
3
 62
     3
  6
CONTINUOUS
 10
-1304.636524
 20
637.089268
 11
-1427.136524
 21
637.089268
  0
INSERT
  8
0
  2
G13
 10
0
 20
0
  0
INSERT
  8
0
  2
G14
 10
0
 20
0
  0
LINE
  8
0
 62
     1
  6
CONTINUOUS
 10
-491.000000
 20
439.361184
 11
-491.000000
 21
348.675308
  0
INSERT
  8
0
  2
G15
 10
0
 20
0
  0
LINE
  8
0
 62
     1
  6
CONTINUOUS
 10
-520.361184
 20
410.000000
 11
-424.375253
 21
410.000000
  0
LINE
  8
3
 62
     4
  6
CONTINUOUS
 10
-1284.336936
 20
-208.282684
 11
-1287.741659
 21
-206.656104
  0
LINE
  8
3
 62
     4
  6
CONTINUOUS
 10
-1287.741659
 20
-206.656104
 11
-1291.019878
 21
-203.920933
  0
LINE
  8
3
 62
     4
  6
CONTINUOUS
 10
-1291.019878
 20
-203.920933
 11
-1294.108810
 21
-200.129554
  0
LINE
  8
3
 62
     4
  6
CONTINUOUS
 10
-1294.108810
 20
-200.129554
 11
-1296.949294
 21
-195.354583
  0
LINE
  8
3
 62
     4
  6
CONTINUOUS
 10
-1296.949294
 20
-195.354583
 11
-1299.486929
 21
-189.687469
  0
LINE
  8
3
 62
     4
  6
CONTINUOUS
 10
-1299.486929
 20
-189.687469
 11
-1301.673113
 21
-183.236750
  0
LINE
  8
3
 62
     4
  6
CONTINUOUS
 10
-1301.673113
 20
-183.236750
 11
-1303.465976
 21
-176.125973
  0
LINE
  8
3
 62
     4
  6
CONTINUOUS
 10
-1303.465976
 20
-176.125973
 11
-1304.831181
 21
-168.491323
  0
LINE
  8
3
 62
     4
  6
CONTINUOUS
 10
-1304.831181
 20
-168.491323
 11
-1305.742580
 21
-160.479022
  0
LINE
  8
3
 62
     4
  6
CONTINUOUS
 10
-1304.831181
 20
-168.491323
 11
-1305.742580
 21
-160.479022
  0
INSERT
  8
0
  2
G16
 10
0
 20
0
  0
LINE
  8
3
 62
     4
  6
CONTINUOUS
 10
-1463.695672
 20
-73.772883
 11
-1460.136524
 21
-78.073521
  0
ARC
  8
3
 62
     4
  6
CONTINUOUS
 10
-1467.636524
 20
-72.272883
 40
1.500000
 50
180.000000
 51
270.000000
  0
LINE
  8
3
 62
     4
  6
CONTINUOUS
 10
-1469.136524
 20
-70.772883
 11
-1469.136524
 21
-72.272883
  0
INSERT
  8
0
  2
G17
 10
0
 20
0
  0
INSERT
  8
0
  2
G18
 10
0
 20
0
  0
INSERT
  8
0
  2
G19
 10
0
 20
0
  0
LINE
  8
0
 62
     1
  6
CONTINUOUS
 10
-1196.910188
 20
792.089268
 11
-1171.112003
 21
792.089268
  0
ARC
  8
0
 62
     3
  6
CONTINUOUS
 10
-1427.136524
 20
699.089268
 40
2.000000
 50
180.000000
 51
270.000000
  0
LINE
  8
0
 62
     3
  6
CONTINUOUS
 10
-1429.136524
 20
699.089268
 11
-1429.136524
 21
727.089268
  0
ARC
  8
0
 62
     3
  6
CONTINUOUS
 10
-1307.136524
 20
699.089268
 40
2.000000
 50
270.000000
 51
360.000000
  0
LINE
  8
0
 62
     3
  6
CONTINUOUS
 10
-1305.136524
 20
699.089268
 11
-1305.136524
 21
727.089268
  0
LINE
  8
0
 62
     3
  6
CONTINUOUS
 10
-1307.136524
 20
697.089268
 11
-1427.136524
 21
697.089268
  0
ARC
  8
0
 62
     3
  6
CONTINUOUS
 10
-1460.136524
 20
732.089268
 40
2.000000
 50
180.000000
 51
270.000000
  0
LINE
  8
0
 62
     3
  6
CONTINUOUS
 10
-1460.136524
 20
730.089268
 11
-1432.136524
 21
730.089268
  0
ARC
  8
0
 62
     3
  6
CONTINUOUS
 10
-1460.136524
 20
852.089268
 40
2.000000
 50
90.000000
 51
180.000000
  0
LINE
  8
0
 62
     3
  6
CONTINUOUS
 10
-1460.136524
 20
854.089268
 11
-1427.454432
 21
854.089268
  0
LINE
  8
0
 62
     3
  6
CONTINUOUS
 10
-1462.136524
 20
852.089268
 11
-1462.136524
 21
732.089268
  0
ARC
  8
0
 62
     3
  6
CONTINUOUS
 10
-1302.136524
 20
727.089268
 40
3.000000
 50
90.000000
 51
180.000000
  0
ARC
  8
0
 62
     3
  6
CONTINUOUS
 10
-1432.136524
 20
727.089268
 40
3.000000
 50
0.000000E+00
 51
90.000000
  0
CIRCLE
  8
0
 62
     3
  6
CONTINUOUS
 10
-1367.136524
 20
792.089268
 40
67.000000
  0
CIRCLE
  8
0
 62
     3
  6
CONTINUOUS
 10
-1367.136524
 20
792.089268
 40
52.000000
  0
ARC
  8
0
 62
     3
  6
CONTINUOUS
 10
-1274.136524
 20
852.089268
 40
2.000000
 50
0.000000E+00
 51
90.000000
  0
LINE
  8
0
 62
     3
  6
CONTINUOUS
 10
-1274.136524
 20
854.089268
 11
-1306.818616
 21
854.089268
  0
ARC
  8
0
 62
     3
  6
CONTINUOUS
 10
-1274.136524
 20
732.089268
 40
2.000000
 50
-90.000000
 51
0.000000E+00
  0
LINE
  8
0
 62
     2
  6
CONTINUOUS
 10
-1465.136524
 20
-53.271285
 11
-1465.136524
 21
-51.271285
  0
LINE
  8
0
 62
     2
  6
CONTINUOUS
 10
-1472.136524
 20
-50.271285
 11
-1367.136524
 21
-50.271285
  0
LINE
  8
0
 62
     2
  6
CONTINUOUS
 10
-1465.136524
 20
-53.271285
 11
-1269.136524
 21
-53.271285
  0
LINE
  8
0
 62
     2
  6
CONTINUOUS
 10
-1472.136524
 20
-50.271285
 11
-1472.136524
 21
-42.271285
  0
LINE
  8
0
 62
     3
  6
CONTINUOUS
 10
-1281.136524
 20
216.227117
 11
-1281.136524
 21
226.986486
  0
LINE
  8
3
 62
     3
  6
CONTINUOUS
 10
-1292.136524
 20
411.227117
 11
-1367.136524
 21
411.227117
  0
LINE
  8
3
 62
     3
  6
CONTINUOUS
 10
-1442.136524
 20
416.227117
 11
-1292.136524
 21
416.227117
  0
LINE
  8
3
 62
     3
  6
CONTINUOUS
 10
-1442.136524
 20
416.227117
 11
-1442.136524
 21
411.227117
  0
LINE
  8
0
 62
     3
  6
CONTINUOUS
 10
-1281.136524
 20
86.227117
 11
-1281.136524
 21
-35.271285
  0
ARC
  8
3
 62
     3
  6
CONTINUOUS
 10
-1305.136524
 20
339.227117
 40
10.000000
 50
-57.472862
 51
0.000000E+00
  0
LINE
  8
3
 62
     3
  6
CONTINUOUS
 10
-1439.136524
 20
406.644541
 11
-1439.136524
 21
339.227117
  0
LINE
  8
3
 62
     3
  6
CONTINUOUS
 10
-1295.136524
 20
406.644541
 11
-1295.136524
 21
339.227117
  0
ARC
  8
3
 62
     3
  6
CONTINUOUS
 10
-1429.136524
 20
339.227117
 40
10.000000
 50
180.000000
 51
238.038250
  0
LINE
  8
3
 62
     3
  6
CENTER
 10
-1201.202818
 20
151.227117
 11
-1469.062473
 21
151.227117
  0
LINE
  8
0
 62
     2
  6
CONTINUOUS
 10
-1269.136524
 20
-35.271285
 11
-1262.136524
 21
-42.271285
  0
ARC
  8
3
 62
     3
  6
CONTINUOUS
 10
-1444.136524
 20
406.644541
 40
5.000000
 50
0.000000E+00
 51
66.421822
  0
LINE
  8
3
 62
     3
  6
CONTINUOUS
 10
-1292.136524
 20
416.227117
 11
-1292.136524
 21
411.227117
  0
ARC
  8
0
 62
     3
  6
CONTINUOUS
 10
-1316.136524
 20
226.986486
 40
35.000000
 50
0.000000E+00
 51
17.716492
  0
ARC
  8
3
 62
     3
  6
CONTINUOUS
 10
-1290.136524
 20
406.644541
 40
5.000000
 50
113.578178
 51
180.000000
  0
LINE
  8
3
 62
     3
  6
CONTINUOUS
 10
-1289.397502
 20
234.103002
 11
-1367.136524
 21
234.103002
  0
ARC
  8
3
 62
     4
  6
CONTINUOUS
 10
-1447.136524
 20
-422.644795
 40
25.000000
 50
0.000000E+00
 51
14.708304
  0
LINE
  8
3
 62
     4
  6
CONTINUOUS
 10
-1451.989608
 20
-303.787407
 11
-1422.955750
 21
-416.297342
  0
ARC
  8
3
 62
     4
  6
CONTINUOUS
 10
-1418.136524
 20
-294.900972
 40
35.000000
 50
180.000000
 51
194.708304
  0
LINE
  8
3
 62
     4
  6
CONTINUOUS
 10
-1422.136524
 20
-422.644795
 11
-1422.136524
 21
-566.772883
  0
ARC
  8
3
 62
     4
  6
CONTINUOUS
 10
-1287.136524
 20
-422.644795
 40
25.000000
 50
165.291696
 51
180.000000
  0
LINE
  8
3
 62
     4
  6
CONTINUOUS
 10
-1282.283440
 20
-303.787407
 11
-1311.317298
 21
-416.297342
  0
ARC
  8
3
 62
     4
  6
CONTINUOUS
 10
-1316.136524
 20
-294.900972
 40
35.000000
 50
-14.708304
 51
0.000000E+00
  0
LINE
  8
3
 62
     4
  6
CONTINUOUS
 10
-1312.136524
 20
-422.644795
 11
-1312.136524
 21
-566.772883
  0
LINE
  8
3
 62
     4
  6
CONTINUOUS
 10
-1314.136524
 20
-568.772883
 11
-1420.136524
 21
-568.772883
  0
LINE
  8
3
 62
     4
  6
CONTINUOUS
 10
-1417.387435
 20
-418.772883
 11
-1316.885613
 21
-418.772883
  0
LINE
  8
3
 62
     4
  6
CONTINUOUS
 10
-1447.885613
 20
-298.772883
 11
-1286.387435
 21
-298.772883
  0
LINE
  8
3
 62
     4
  6
CONTINUOUS
 10
-1460.136524
 20
-78.073521
 11
-1274.136524
 21
-78.073521
  0
LINE
  8
3
 62
     4
  6
CONTINUOUS
 10
-1281.136524
 20
-294.900972
 11
-1281.136524
 21
-213.772883
  0
LINE
  8
3
 62
     4
  6
CONTINUOUS
 10
-1471.136524
 20
-68.772883
 11
-1263.136524
 21
-68.772883
  0
LINE
  8
3
 62
     4
  6
CONTINUOUS
 10
-1262.136524
 20
-53.772883
 11
-1472.136524
 21
-53.772883
  0
ARC
  8
3
 62
     4
  6
CONTINUOUS
 10
-1420.136524
 20
-566.772883
 40
2.000000
 50
180.000000
 51
270.000000
  0
ARC
  8
3
 62
     4
  6
CONTINUOUS
 10
-1314.136524
 20
-566.772883
 40
2.000000
 50
-90.000000
 51
0.000000E+00
  0
LINE
  8
3
 62
     4
  6
CONTINUOUS
 10
-1262.136524
 20
-53.772883
 11
-1262.136524
 21
-68.772883
  0
LINE
  8
3
 62
     4
  6
CONTINUOUS
 10
-1263.136524
 20
-68.772883
 11
-1262.136524
 21
-68.772883
  0
LINE
  8
3
 62
     3
  6
CENTER
 10
-1445.625377
 20
-77.716452
 11
-1445.625377
 21
-47.225681
  0
LINE
  8
3
 62
     3
  6
CENTER
 10
-1288.647671
 20
-77.716452
 11
-1288.647671
 21
-47.225681
  0
ARC
  8
3
 62
     4
  6
CONTINUOUS
 10
-1263.136524
 20
-70.772883
 40
2.000000
 50
90.000000
 51
180.000000
  0
LINE
  8
3
 62
     4
  6
CONTINUOUS
 10
-1265.136524
 20
-70.772883
 11
-1265.136524
 21
-72.272883
  0
ARC
  8
3
 62
     4
  6
CONTINUOUS
 10
-1266.636524
 20
-72.272883
 40
1.500000
 50
-90.000000
 51
0.000000E+00
  0
LINE
  8
3
 62
     4
  6
CONTINUOUS
 10
-1266.636524
 20
-73.772883
 11
-1467.636524
 21
-73.772883
  0
ARC
  8
3
 62
     4
  6
CONTINUOUS
 10
-1467.636524
 20
-72.272883
 40
1.500000
 50
180.000000
 51
270.000000
  0
LINE
  8
3
 62
     4
  6
CONTINUOUS
 10
-1469.136524
 20
-70.772883
 11
-1469.136524
 21
-72.272883
  0
ARC
  8
3
 62
     4
  6
CONTINUOUS
 10
-1471.136524
 20
-70.772883
 40
2.000000
 50
0.000000E+00
 51
90.000000
  0
LINE
  8
3
 62
     4
  6
CONTINUOUS
 10
-1471.136524
 20
-68.772883
 11
-1472.136524
 21
-68.772883
  0
LINE
  8
3
 62
     4
  6
CONTINUOUS
 10
-1472.136524
 20
-53.772883
 11
-1472.136524
 21
-68.772883
  0
LINE
  8
0
 62
     3
  6
CONTINUOUS
 10
-1453.136524
 20
226.986486
 11
-1453.136524
 21
216.227117
  0
ARC
  8
0
 62
     3
  6
CONTINUOUS
 10
-1418.136524
 20
226.986486
 40
35.000000
 50
162.283508
 51
180.000000
  0
LINE
  8
3
 62
     3
  6
CONTINUOUS
 10
-1306.166540
 20
330.743100
 11
-1367.136524
 21
330.743100
  0
LINE
  8
0
 62
     3
  6
CONTINUOUS
 10
-1427.889841
 20
313.036132
 11
-1451.476612
 21
237.637240
  0
LINE
  8
0
 62
     3
  6
CONTINUOUS
 10
-1306.383207
 20
313.036132
 11
-1282.796437
 21
237.637240
  0
ARC
  8
2
 62
     3
  6
CONTINUOUS
 10
-1442.178450
 20
317.600741
 40
15.000000
 50
-17.716492
 51
59.888987
  0
LINE
  8
3
 62
     4
  6
CENTER
 10
-1367.136524
 20
-341.168262
 11
-1367.136524
 21
-29.090674
  0
LINE
  8
3
 62
     4
  6
CENTER
 10
-1367.136524
 20
-581.860403
 11
-1367.136524
 21
-341.168262
  0
LINE
  8
0
 62
     2
  6
CONTINUOUS
 10
-1465.136524
 20
-35.271285
 11
-1472.136524
 21
-42.271285
  0
LINE
  8
0
 62
     3
  6
CONTINUOUS
 10
-1453.136524
 20
86.227117
 11
-1453.136524
 21
-35.271285
  0
ARC
  8
2
 62
     3
  6
CONTINUOUS
 10
-1292.094599
 20
317.600741
 40
15.000000
 50
120.111013
 51
197.716492
  0
LINE
  8
0
 62
     7
  6
CONTINUOUS
 10
-1219.656966
 20
257.311644
 11
-1219.656966
 21
215.527305
  0
SOLID
  8
0
 62
     7
 10
-1227.421538
 20
244.505080
 11
-1211.892395
 21
244.505080
 12
-1219.656966
 22
215.527305
 13
-1219.656966
 23
215.527305
  0
LINE
  8
3
 62
     3
  6
CONTINUOUS
 10
-1283.322828
 20
210.980203
 11
-1287.018255
 21
209.443850
  0
LINE
  8
3
 62
     3
  6
CONTINUOUS
 10
-1287.018255
 20
209.443850
 11
-1290.574454
 21
206.535574
  0
LINE
  8
3
 62
     3
  6
CONTINUOUS
 10
-1290.574454
 20
206.535574
 11
-1293.907619
 21
202.323910
  0
LINE
  8
3
 62
     3
  6
CONTINUOUS
 10
-1293.907619
 20
202.323910
 11
-1296.939202
 21
196.908111
  0
LINE
  8
3
 62
     3
  6
CONTINUOUS
 10
-1296.939202
 20
196.908111
 11
-1299.597761
 21
190.415803
  0
LINE
  8
3
 62
     3
  6
CONTINUOUS
 10
-1299.597761
 20
190.415803
 11
-1301.820645
 21
182.999983
  0
LINE
  8
3
 62
     3
  6
CONTINUOUS
 10
-1301.820645
 20
182.999983
 11
-1303.555471
 21
174.835411
  0
LINE
  8
3
 62
     3
  6
CONTINUOUS
 10
-1303.555471
 20
174.835411
 11
-1304.761355
 21
166.114490
  0
LINE
  8
3
 62
     3
  6
CONTINUOUS
 10
-1304.761355
 20
166.114490
 11
-1305.409880
 21
157.042737
  0
LINE
  8
3
 62
     3
  6
CONTINUOUS
 10
-1304.761355
 20
166.114490
 11
-1305.409880
 21
157.042737
  0
LINE
  8
3
 62
     3
  6
CONTINUOUS
 10
-1283.780718
 20
91.587137
 11
-1287.414320
 21
93.261817
  0
LINE
  8
3
 62
     3
  6
CONTINUOUS
 10
-1287.414320
 20
93.261817
 11
-1290.903374
 21
96.265583
  0
LINE
  8
3
 62
     3
  6
CONTINUOUS
 10
-1290.903374
 20
96.265583
 11
-1294.167879
 21
100.529561
  0
LINE
  8
3
 62
     3
  6
CONTINUOUS
 10
-1294.167879
 20
100.529561
 11
-1297.132984
 21
105.955983
  0
LINE
  8
3
 62
     3
  6
CONTINUOUS
 10
-1297.132984
 20
105.955983
 11
-1299.730702
 21
112.420426
  0
LINE
  8
3
 62
     3
  6
CONTINUOUS
 10
-1299.730702
 20
112.420426
 11
-1301.901469
 21
119.774668
  0
LINE
  8
3
 62
     3
  6
CONTINUOUS
 10
-1301.901469
 20
119.774668
 11
-1303.595513
 21
127.850083
  0
LINE
  8
3
 62
     3
  6
CONTINUOUS
 10
-1303.595513
 20
127.850083
 11
-1304.773991
 21
136.461509
  0
LINE
  8
3
 62
     3
  6
CONTINUOUS
 10
-1304.773991
 20
136.461509
 11
-1305.409880
 21
145.411496
  0
LINE
  8
3
 62
     3
  6
CONTINUOUS
 10
-1304.773991
 20
136.461509
 11
-1305.409880
 21
145.411496
  0
LINE
  8
0
 62
     3
  6
CONTINUOUS
 10
-1274.136524
 20
730.089268
 11
-1302.136524
 21
730.089268
  0
TEXT
  8
0
 62
     3
 10
-504.302681
 20
179.333745
 40
32.000000
 50
0.000000E+00
 41
0.87 
  1
Ｃ矢視　（下部）
 72
     5
 11
-248.302681
 21
179.333745
  0
LINE
  8
0
 62
     3
  6
CONTINUOUS
 10
-508.302681
 20
174.000412
 11
-254.398547
 21
174.000412
  0
TEXT
  8
0
 62
     7
 10
-1253.282448
 20
264.590527
 40
32.000000
 50
0.000000E+00
 41
0.78 
  1
７５枝管
 72
     5
 11
-1141.282448
 21
264.590527
  0
TEXT
  8
0
 62
     3
 10
-472.856919
 20
515.702571
 40
32.000000
 50
0.000000E+00
 41
0.86 
  1
ａ
 72
     5
 11
-440.856919
 21
515.702571
  0
TEXT
  8
0
 62
     6
 10
-1298.933805
 20
1198.926093
 40
32.000000
 50
0.000000E+00
 41
0.86 
  1
ａ
 72
     5
 11
-1266.933805
 21
1198.926093
  0
TEXT
  8
0
 62
     3
 10
-626.343778
 20
620.055789
 40
32.000000
 50
0.000000E+00
 41
0.86 
  1
ｂ
 72
     5
 11
-594.343778
 21
620.055789
  0
POINT
  8
0
 62
     3
 10
-1367.136524
 20
-61.772883
  0
POINT
  8
0
 62
     3
 10
-1367.136524
 20
-76.272883
  0
POINT
  8
0
 62
     3
 10
-1367.136524
 20
-98.772883
  0
ARC
  8
0
 62
     2
  6
CONTINUOUS
 10
-1466.136524
 20
-51.271285
 40
1.000000
 50
360.000000
 51
450.000000
  0
LINE
  8
0
 62
     2
  6
CONTINUOUS
 10
-1465.136524
 20
-35.271285
 11
-1269.136524
 21
-35.271285
  0
LINE
  8
3
 62
     3
  6
CONTINUOUS
 10
-1212.136524
 20
88.727117
 11
-1212.136524
 21
211.227117
  0
LINE
  8
3
 62
     3
  6
CONTINUOUS
 10
-1212.136524
 20
88.727117
 11
-1207.136524
 21
88.727117
  0
LINE
  8
3
 62
     3
  6
CONTINUOUS
 10
-1212.136524
 20
211.227117
 11
-1272.136524
 21
211.227117
  0
ARC
  8
1
 62
     3
  6
CONTINUOUS
 10
-1274.136524
 20
91.227117
 40
2.000000
 50
-90.000000
 51
0.000000E+00
  0
LINE
  8
3
 62
     3
  6
CONTINUOUS
 10
-1212.136524
 20
91.227117
 11
-1272.136524
 21
91.227117
  0
LINE
  8
3
 62
     3
  6
CONTINUOUS
 10
-1212.136524
 20
213.727117
 11
-1207.136524
 21
213.727117
  0
LINE
  8
3
 62
     3
  6
CONTINUOUS
 10
-1212.136524
 20
213.727117
 11
-1212.136524
 21
211.227117
  0
LINE
  8
3
 62
     3
  6
CONTINUOUS
 10
-1207.136524
 20
213.727117
 11
-1207.136524
 21
88.727117
  0
LINE
  8
1
 62
     3
  6
CONTINUOUS
 10
-1274.136524
 20
213.227117
 11
-1278.136524
 21
213.227117
  0
LINE
  8
1
 62
     3
  6
CONTINUOUS
 10
-1274.136524
 20
89.227117
 11
-1278.136524
 21
89.227117
  0
ARC
  8
1
 62
     3
  6
CONTINUOUS
 10
-1274.136524
 20
211.227117
 40
2.000000
 50
0.000000E+00
 51
90.000000
  0
ARC
  8
1
 62
     3
  6
CONTINUOUS
 10
-1278.136524
 20
216.227117
 40
3.000000
 50
180.000000
 51
270.000000
  0
ARC
  8
1
 62
     3
  6
CONTINUOUS
 10
-1278.136524
 20
86.227117
 40
3.000000
 50
90.000000
 51
180.000000
  0
ARC
  8
0
 62
     3
  6
CONTINUOUS
 10
-1316.136524
 20
226.986486
 40
35.000000
 50
0.000000E+00
 51
17.716492
  0
LINE
  8
0
 62
     3
  6
CONTINUOUS
 10
-1281.136524
 20
226.986486
 11
-1281.136524
 21
216.227117
  0
LINE
  8
0
 62
     2
  6
CONTINUOUS
 10
-1472.136524
 20
-42.271285
 11
-1367.136524
 21
-42.271285
  0
LINE
  8
3
 62
     3
  6
CENTER
 10
-1367.136524
 20
423.701565
 11
-1367.136524
 21
-29.090674
  0
LINE
  8
3
 62
     3
  6
CONTINUOUS
 10
-1444.875547
 20
234.103002
 11
-1367.136524
 21
234.103002
  0
LINE
  8
3
 62
     3
  6
CONTINUOUS
 10
-1428.106508
 20
330.743100
 11
-1367.136524
 21
330.743100
  0
LINE
  8
3
 62
     3
  6
CONTINUOUS
 10
-1442.136524
 20
411.227117
 11
-1367.136524
 21
411.227117
  0
POINT
  8
0
 62
     3
 10
-1367.136524
 20
341.227117
  0
TEXT
  8
0
 62
     6
 10
-1663.166393
 20
1098.812443
 40
35.000000
 50
0.000000E+00
 41
0.76 
  1
４ＳＦ－　　　－　　　　　　００　　　－Ｐ
 72
     5
 11
-1026.166393
 21
1098.812443
  0
LINE
  8
0
 62
     2
  6
CONTINUOUS
 10
-1262.136524
 20
-50.271285
 11
-1262.136524
 21
-42.271285
  0
LINE
  8
0
 62
     2
  6
CONTINUOUS
 10
-1269.136524
 20
-53.271285
 11
-1269.136524
 21
-51.271285
  0
ARC
  8
0
 62
     2
  6
CONTINUOUS
 10
-1268.136524
 20
-51.271285
 40
1.000000
 50
90.000000
 51
180.000000
  0
LINE
  8
0
 62
     2
  6
CONTINUOUS
 10
-1262.136524
 20
-42.271285
 11
-1367.136524
 21
-42.271285
  0
LINE
  8
0
 62
     2
  6
CONTINUOUS
 10
-1262.136524
 20
-50.271285
 11
-1367.136524
 21
-50.271285
  0
LINE
  8
0
 62
     3
  6
CONTINUOUS
 10
-1272.136524
 20
732.089268
 11
-1272.136524
 21
852.089268
  0
LINE
  8
3
 62
     3
  6
CONTINUOUS
 10
-1212.136524
 20
852.089268
 11
-1272.136524
 21
852.089268
  0
LINE
  8
3
 62
     3
  6
CONTINUOUS
 10
-1207.136524
 20
729.589268
 11
-1207.136524
 21
854.589268
  0
LINE
  8
3
 62
     3
  6
CONTINUOUS
 10
-1212.136524
 20
729.589268
 11
-1212.136524
 21
732.089268
  0
LINE
  8
3
 62
     3
  6
CONTINUOUS
 10
-1212.136524
 20
729.589268
 11
-1207.136524
 21
729.589268
  0
LINE
  8
3
 62
     3
  6
CONTINUOUS
 10
-1212.136524
 20
854.589268
 11
-1207.136524
 21
854.589268
  0
LINE
  8
3
 62
     3
  6
CONTINUOUS
 10
-1212.136524
 20
854.589268
 11
-1212.136524
 21
732.089268
  0
LINE
  8
3
 62
     3
  6
CONTINUOUS
 10
-1212.136524
 20
732.089268
 11
-1272.136524
 21
732.089268
  0
CIRCLE
  8
0
 62
     3
  6
CONTINUOUS
 10
-1367.136524
 20
792.089268
 40
86.500000
  0
CIRCLE
  8
0
 62
     3
  6
CONTINUOUS
 10
-1367.136524
 20
792.089268
 40
75.000000
  0
LINE
  8
3
 62
     3
  6
CENTER
 10
-1201.660356
 20
792.089268
 11
-1473.329848
 21
792.089268
  0
LINE
  8
3
 62
     3
  6
CENTER
 10
-1367.136524
 20
894.187720
 11
-1367.136524
 21
619.039191
  0
ARC
  8
0
 62
     4
  6
CONTINUOUS
 10
-586.000000
 20
505.000000
 40
100.000000
 50
36.038338
 51
53.961662
  0
ARC
  8
3
 62
     3
  6
CONTINUOUS
 10
-586.000000
 20
505.000000
 40
105.000000
 50
80.096801
 51
100.978618
  0
ARC
  8
0
 62
     4
  6
CONTINUOUS
 10
-586.000000
 20
505.000000
 40
100.000000
 50
306.038338
 51
323.961662
  0
ARC
  8
0
 62
     4
  6
CONTINUOUS
 10
-586.000000
 20
505.000000
 40
100.000000
 50
216.038338
 51
233.961662
  0
CIRCLE
  8
3
 62
     4
  6
CONTINUOUS
 10
-586.000000
 20
505.000000
 40
88.000000
  0
ARC
  8
3
 62
     4
  6
CONTINUOUS
 10
-586.000000
 20
505.000000
 40
100.000000
 50
53.109614
 51
126.890386
  0
LINE
  8
3
 62
     4
  6
CONTINUOUS
 10
-505.035393
 20
596.250931
 11
-567.938147
 21
608.453628
  0
ARC
  8
3
 62
     3
  6
CONTINUOUS
 10
-586.000000
 20
505.000000
 40
105.000000
 50
259.021382
 51
279.903199
  0
ARC
  8
3
 62
     3
  6
CONTINUOUS
 10
-586.000000
 20
505.000000
 40
105.000000
 50
170.096801
 51
189.903199
  0
LINE
  8
3
 62
     4
  6
CONTINUOUS
 10
-666.964607
 20
596.250931
 11
-604.061853
 21
608.453628
  0
LINE
  8
3
 62
     3
  6
CENTER
 10
-654.711757
 20
436.288243
 11
-675.392933
 21
415.607067
  0
LINE
  8
3
 62
     4
  6
CONTINUOUS
 10
-677.250931
 20
585.964607
 11
-689.453628
 21
523.061853
  0
ARC
  8
3
 62
     4
  6
CENTER
 10
-586.000000
 20
505.000000
 40
111.000000
 50
216.265016
 51
232.275712
  0
LINE
  8
3
 62
     3
  6
CENTER
 10
-653.637531
 20
572.637531
 11
-676.149487
 21
595.149487
  0
ARC
  8
3
 62
     4
  6
CENTER
 10
-586.000000
 20
505.000000
 40
111.000000
 50
126.069475
 51
144.182385
  0
ARC
  8
3
 62
     4
  6
CENTER
 10
-586.000000
 20
505.000000
 40
111.000000
 50
34.449115
 51
54.970079
  0
LINE
  8
3
 62
     4
  6
CONTINUOUS
 10
-677.250931
 20
424.035393
 11
-689.453628
 21
486.938147
  0
LINE
  8
3
 62
     4
  6
CONTINUOUS
 10
-482.921676
 20
524.996478
 11
-494.749069
 21
585.964607
  0
LINE
  8
3
 62
     3
  6
CENTER
 10
-518.008772
 20
572.991228
 11
-496.058072
 21
594.941928
  0
LINE
  8
3
 62
     4
  6
CONTINUOUS
 10
-666.964607
 20
413.749069
 11
-605.996478
 21
401.921676
  0
ARC
  8
3
 62
     4
  6
CONTINUOUS
 10
-664.488853
 20
426.511147
 40
13.000000
 50
190.978618
 51
259.021382
  0
ARC
  8
3
 62
     4
  6
CONTINUOUS
 10
-664.488853
 20
583.488853
 40
13.000000
 50
100.978618
 51
169.021382
  0
ARC
  8
3
 62
     4
  6
CONTINUOUS
 10
-507.511147
 20
583.488853
 40
13.000000
 50
10.978618
 51
79.021382
  0
LINE
  8
3
 62
     3
  6
CENTER
 10
-518.014135
 20
437.014135
 11
-496.273441
 21
415.273441
  0
LINE
  8
3
 62
     4
  6
CONTINUOUS
 10
-505.035393
 20
413.749069
 11
-567.938147
 21
401.546372
  0
LINE
  8
3
 62
     4
  6
CONTINUOUS
 10
-494.749069
 20
424.035393
 11
-482.921676
 21
485.003522
  0
ARC
  8
3
 62
     3
  6
CONTINUOUS
 10
-586.000000
 20
505.000000
 40
105.000000
 50
-10.978618
 51
10.978618
  0
CIRCLE
  8
3
 62
     3
  6
CONTINUOUS
 10
-586.000000
 20
505.000000
 40
81.000000
  0
ARC
  8
3
 62
     4
  6
CONTINUOUS
 10
-507.511147
 20
426.511147
 40
13.000000
 50
280.978618
 51
349.021382
  0
LINE
  8
3
 62
     3
  6
CENTER
 10
-586.000000
 20
385.700729
 11
-586.000000
 21
676.590491
  0
LINE
  8
3
 62
     3
  6
CENTER
 10
-702.419075
 20
505.000000
 11
-420.520286
 21
505.000000
  0
CIRCLE
  8
3
 62
     4
  6
CONTINUOUS
 10
-507.511147
 20
583.488853
 40
7.000000
  0
CIRCLE
  8
3
 62
     4
  6
CONTINUOUS
 10
-507.511147
 20
426.511147
 40
7.000000
  0
CIRCLE
  8
3
 62
     4
  6
CONTINUOUS
 10
-664.488853
 20
426.511147
 40
7.000000
  0
CIRCLE
  8
3
 62
     4
  6
CONTINUOUS
 10
-664.488853
 20
583.488853
 40
7.000000
  0
ARC
  8
3
 62
     4
  6
CENTER
 10
-586.000000
 20
505.000000
 40
111.000000
 50
307.018997
 51
325.489571
  0
ARC
  8
3
 62
     4
  6
CONTINUOUS
 10
-586.000000
 20
505.000000
 40
100.000000
 50
323.109614
 51
396.890386
  0
ARC
  8
3
 62
     4
  6
CONTINUOUS
 10
-586.000000
 20
505.000000
 40
100.000000
 50
233.109614
 51
306.890386
  0
ARC
  8
3
 62
     4
  6
CONTINUOUS
 10
-586.000000
 20
505.000000
 40
100.000000
 50
143.109614
 51
216.890386
  0
ARC
  8
0
 62
     4
  6
CONTINUOUS
 10
-586.000000
 20
505.000000
 40
100.000000
 50
126.038338
 51
143.961662
  0
TEXT
  8
0
 62
     6
 10
-1480.183521
 20
1098.910129
 40
35.000000
 50
0.000000E+00
 41
0.86 
  1
Ｃ
 72
     5
 11
-1445.183521
 21
1098.910129
  0
TEXT
  8
0
 62
     6
 10
-1359.509580
 20
1099.910129
 40
35.000000
 50
0.000000E+00
 41
0.86 
  1
Ｃ
 72
     5
 11
-1324.509580
 21
1099.910129
  0
TEXT
  8
0
 62
     6
 10
-1388.009580
 20
1164.959535
 40
32.000000
 50
0.000000E+00
 41
0.97 
  1
下部
 72
     5
 11
-1316.009580
 21
1164.959535
  0
TEXT
  8
0
 62
     6
 10
-1508.009580
 20
1164.959535
 40
32.000000
 50
0.000000E+00
 41
0.97 
  1
上部
 72
     5
 11
-1436.009580
 21
1164.959535
  0
INSERT
  8
0
  2
G20
 10
0
 20
0
  0
TEXT
  8
0
 62
     3
 10
-347.533215
 20
259.593412
 40
32.000000
 50
0.000000E+00
 41
1.02 
  1
受口深さ
 72
     5
 11
-195.533215
 21
259.593412
  0
TEXT
  8
0
 62
     6
 10
-1157.933805
 20
1198.926093
 40
32.000000
 50
0.000000E+00
 41
0.86 
  1
ｂ
 72
     5
 11
-1125.933805
 21
1198.926093
  0
CIRCLE
  8
0
 62
     6
  6
HIDDEN
 10
-1141.747429
 20
1115.298843
 40
20.000000
  0
TEXT
  8
0
 62
     6
 10
-1149.747429
 20
1099.298843
 40
32.000000
 50
0.000000E+00
 41
0.50 
  1
2
 72
     5
 11
-1133.747429
 21
1099.298843
  0
CIRCLE
  8
0
 62
     6
  6
HIDDEN
 10
-1141.747429
 20
1163.332262
 40
20.000000
  0
TEXT
  8
0
 62
     6
 10
-1149.747429
 20
1147.332262
 40
32.000000
 50
0.000000E+00
 41
0.50 
  1
1
 72
     5
 11
-1133.747429
 21
1147.332262
  0
TEXT
  8
0
 62
     6
 10
-501.793661
 20
946.134541
 40
32.000000
 50
0.000000E+00
 41
0.50 
  1
3
 72
     5
 11
-485.793661
 21
946.134541
  0
TEXT
  8
0
 62
     6
 10
-501.793661
 20
1006.134541
 40
32.000000
 50
0.000000E+00
 41
0.50 
  1
2
 72
     5
 11
-485.793661
 21
1006.134541
  0
TEXT
  8
0
 62
     6
 10
-501.793661
 20
1066.134541
 40
32.000000
 50
0.000000E+00
 41
0.50 
  1
1
 72
     5
 11
-485.793661
 21
1066.134541
  0
TEXT
  8
0
 62
     6
 10
-470.705692
 20
949.530401
 40
32.000000
 50
0.000000E+00
 41
0.74 
  1
：％％ｃ７５枝管
 72
     5
 11
-258.705692
 21
949.530401
  0
TEXT
  8
0
 62
     6
 10
-470.705692
 20
1009.530401
 40
32.000000
 50
0.000000E+00
 41
0.74 
  1
：％％ｃ６５枝管
 72
     5
 11
-258.705692
 21
1009.530401
  0
TEXT
  8
0
 62
     6
 10
-470.705692
 20
1069.530401
 40
32.000000
 50
0.000000E+00
 41
0.74 
  1
：％％ｃ５０枝管
 72
     5
 11
-258.705692
 21
1069.530401
  0
TEXT
  8
0
 62
     6
 10
-568.581501
 20
1122.505821
 40
32.000000
 50
0.000000E+00
 41
0.97 
  1
枝管のタイプ（呼び径）
 72
     5
 11
-172.581501
 21
1122.505821
  0
POINT
  8
0
 62
     4
 10
-1367.136524
 20
-98.772883
  0
POINT
  8
0
 62
     4
 10
-1367.136524
 20
-148.772883
  0
LINE
  8
3
 62
     4
  6
CONTINUOUS
 10
-1463.695672
 20
-73.772883
 11
-1460.136524
 21
-78.073521
  0
LINE
  8
3
 62
     4
  6
CONTINUOUS
 10
-1409.786260
 20
-103.772883
 11
-1446.530006
 21
-103.772883
  0
LINE
  8
3
 62
     4
  6
CONTINUOUS
 10
-1270.577376
 20
-73.772883
 11
-1274.136524
 21
-78.073521
  0
LINE
  8
3
 62
     4
  6
CONTINUOUS
 10
-1270.577376
 20
-73.772883
 11
-1274.136524
 21
-78.073521
  0
INSERT
  8
0
  2
G21
 10
0
 20
0
  0
LINE
  8
0
 62
     3
  6
CONTINUOUS
 10
-761.542880
 20
735.329672
 11
-761.542880
 21
656.632454
  0
SOLID
  8
0
 62
     3
 10
-769.307451
 20
685.610229
 11
-753.778308
 21
685.610229
 12
-761.542880
 22
656.632454
 13
-761.542880
 23
656.632454
  0
INSERT
  8
0
  2
G22
 10
0
 20
0
  0
TEXT
  8
0
 62
     6
 10
-1001.412371
 20
1118.485825
 40
35.000000
 50
0.000000E+00
 41
0.60 
  1
240,260,280
 72
     5
 11
-768.912371
 21
1118.485825
  0
LINE
  8
0
 62
     3
  6
CONTINUOUS
 10
-977.977743
 20
406.564910
 11
-977.977743
 21
526.069280
  0
SOLID
  8
0
 62
     3
 10
-985.742315
 20
435.542685
 11
-970.213172
 21
435.542685
 12
-977.977743
 22
406.564910
 13
-977.977743
 23
406.564910
  0
CIRCLE
  8
0
 62
     6
  6
HIDDEN
 10
-1282.747429
 20
1115.298843
 40
20.000000
  0
TEXT
  8
0
 62
     6
 10
-1290.747429
 20
1099.298843
 40
32.000000
 50
0.000000E+00
 41
0.50 
  1
2
 72
     5
 11
-1274.747429
 21
1099.298843
  0
CIRCLE
  8
0
 62
     6
  6
HIDDEN
 10
-1282.747429
 20
1163.332262
 40
20.000000
  0
TEXT
  8
0
 62
     6
 10
-1290.747429
 20
1147.332262
 40
32.000000
 50
0.000000E+00
 41
0.50 
  1
1
 72
     5
 11
-1274.747429
 21
1147.332262
  0
INSERT
  8
0
  2
G23
 10
0
 20
0
  0
ARC
  8
1
 62
     3
  6
CONTINUOUS
 10
-1456.636524
 20
86.227117
 40
3.000000
 50
0.000000E+00
 51
90.000000
  0
ARC
  8
1
 62
     3
  6
CONTINUOUS
 10
-1456.636524
 20
216.227117
 40
3.000000
 50
270.000000
 51
360.000000
  0
ARC
  8
1
 62
     3
  6
CONTINUOUS
 10
-1460.136524
 20
211.227117
 40
2.000000
 50
90.000000
 51
180.000000
  0
LINE
  8
1
 62
     3
  6
CONTINUOUS
 10
-1460.136524
 20
89.227117
 11
-1456.636524
 21
89.227117
  0
LINE
  8
1
 62
     3
  6
CONTINUOUS
 10
-1460.136524
 20
213.227117
 11
-1456.636524
 21
213.227117
  0
ARC
  8
1
 62
     3
  6
CONTINUOUS
 10
-1460.136524
 20
91.227117
 40
2.000000
 50
180.000000
 51
270.000000
  0
LINE
  8
3
 62
     3
  6
CONTINUOUS
 10
-1450.492330
 20
91.587137
 11
-1446.858728
 21
93.261817
  0
LINE
  8
3
 62
     3
  6
CONTINUOUS
 10
-1446.858728
 20
93.261817
 11
-1443.369675
 21
96.265583
  0
LINE
  8
3
 62
     3
  6
CONTINUOUS
 10
-1443.369675
 20
96.265583
 11
-1440.105169
 21
100.529561
  0
LINE
  8
3
 62
     3
  6
CONTINUOUS
 10
-1440.105169
 20
100.529561
 11
-1437.140064
 21
105.955983
  0
LINE
  8
3
 62
     3
  6
CONTINUOUS
 10
-1437.140064
 20
105.955983
 11
-1434.542347
 21
112.420426
  0
LINE
  8
3
 62
     3
  6
CONTINUOUS
 10
-1434.542347
 20
112.420426
 11
-1432.371579
 21
119.774668
  0
LINE
  8
3
 62
     3
  6
CONTINUOUS
 10
-1432.371579
 20
119.774668
 11
-1430.677535
 21
127.850083
  0
LINE
  8
3
 62
     3
  6
CONTINUOUS
 10
-1430.677535
 20
127.850083
 11
-1429.499058
 21
136.461509
  0
LINE
  8
3
 62
     3
  6
CONTINUOUS
 10
-1429.499058
 20
136.461509
 11
-1428.863168
 21
145.411496
  0
LINE
  8
3
 62
     3
  6
CONTINUOUS
 10
-1429.499058
 20
136.461509
 11
-1428.863168
 21
145.411496
  0
LINE
  8
3
 62
     3
  6
CONTINUOUS
 10
-1450.950221
 20
210.980203
 11
-1447.619488
 21
209.660076
  0
LINE
  8
3
 62
     3
  6
CONTINUOUS
 10
-1447.619488
 20
209.660076
 11
-1444.394610
 21
207.224148
  0
LINE
  8
3
 62
     3
  6
CONTINUOUS
 10
-1444.394610
 20
207.224148
 11
-1441.337165
 21
203.718932
  0
LINE
  8
3
 62
     3
  6
CONTINUOUS
 10
-1441.337165
 20
203.718932
 11
-1438.505538
 21
199.211363
  0
LINE
  8
3
 62
     3
  6
CONTINUOUS
 10
-1438.505538
 20
199.211363
 11
-1435.953799
 21
193.787514
  0
LINE
  8
3
 62
     3
  6
CONTINUOUS
 10
-1435.953799
 20
193.787514
 11
-1433.730675
 21
187.550956
  0
LINE
  8
3
 62
     3
  6
CONTINUOUS
 10
-1433.730675
 20
187.550956
 11
-1431.878617
 21
180.620778
  0
LINE
  8
3
 62
     3
  6
CONTINUOUS
 10
-1431.878617
 20
180.620778
 11
-1430.432991
 21
173.129317
  0
LINE
  8
3
 62
     3
  6
CONTINUOUS
 10
-1430.432991
 20
173.129317
 11
-1429.421403
 21
165.219623
  0
LINE
  8
3
 62
     3
  6
CONTINUOUS
 10
-1429.421403
 20
165.219623
 11
-1428.863168
 21
157.042737
  0
LINE
  8
3
 62
     3
  6
CONTINUOUS
 10
-1429.421403
 20
165.219623
 11
-1428.863168
 21
157.042737
  0
LINE
  8
0
 62
     3
  6
CONTINUOUS
 10
-1462.136524
 20
211.227117
 11
-1462.136524
 21
91.227117
  0
LINE
  8
3
 62
     4
  6
CONTINUOUS
 10
-1298.597947
 20
-105.690495
 11
-1299.767851
 21
-108.591012
  0
LINE
  8
3
 62
     4
  6
CONTINUOUS
 10
-1299.767851
 20
-108.591012
 11
-1300.853699
 21
-111.672809
  0
LINE
  8
3
 62
     4
  6
CONTINUOUS
 10
-1300.853699
 20
-111.672809
 11
-1301.850595
 21
-114.921981
  0
LINE
  8
3
 62
     4
  6
CONTINUOUS
 10
-1301.850595
 20
-114.921981
 11
-1302.754040
 21
-118.323870
  0
LINE
  8
3
 62
     4
  6
CONTINUOUS
 10
-1302.754040
 20
-118.323870
 11
-1303.559959
 21
-121.863128
  0
LINE
  8
3
 62
     4
  6
CONTINUOUS
 10
-1303.559959
 20
-121.863128
 11
-1304.264715
 21
-125.523789
  0
LINE
  8
3
 62
     4
  6
CONTINUOUS
 10
-1304.264715
 20
-125.523789
 11
-1304.865129
 21
-129.289336
  0
LINE
  8
3
 62
     4
  6
CONTINUOUS
 10
-1304.865129
 20
-129.289336
 11
-1305.358493
 21
-133.142783
  0
LINE
  8
3
 62
     4
  6
CONTINUOUS
 10
-1305.358493
 20
-133.142783
 11
-1305.742580
 21
-137.066745
  0
LINE
  8
3
 62
     4
  6
CONTINUOUS
 10
-1305.358493
 20
-133.142783
 11
-1305.742580
 21
-137.066745
  0
LINE
  8
3
 62
     4
  6
CONTINUOUS
 10
-1453.136524
 20
-298.772883
 11
-1453.136524
 21
-78.073521
  0
LINE
  8
0
 62
     1
  6
CONTINUOUS
 10
-327.769514
 20
587.868005
 11
-488.056763
 21
427.580756
  0
INSERT
  8
0
  2
G24
 10
0
 20
0
  0
INSERT
  8
0
  2
G25
 10
0
 20
0
  0
LINE
  8
1
 62
     4
  6
CONTINUOUS
 10
-1272.136524
 20
-88.772883
 11
-1272.136524
 21
-208.772883
  0
ARC
  8
1
 62
     4
  6
CONTINUOUS
 10
-1261.335207
 20
-114.012691
 40
30.639745
 50
117.551999
 51
146.328437
  0
LINE
  8
1
 62
     4
  6
CONTINUOUS
 10
-1278.136524
 20
-210.772883
 11
-1274.136524
 21
-210.772883
  0
ARC
  8
1
 62
     4
  6
CONTINUOUS
 10
-1278.136524
 20
-213.772883
 40
3.000000
 50
90.000000
 51
180.000000
  0
POINT
  8
3
 62
     4
 10
-1281.136524
 20
-210.772883
  0
POINT
  8
3
 62
     7
 10
-1281.136524
 20
-88.772883
  0
LINE
  8
3
 62
     4
  6
CONTINUOUS
 10
-1274.136524
 20
-78.073521
 11
-1274.136524
 21
-86.772883
  0
ARC
  8
3
 62
     4
  6
CONTINUOUS
 10
-1307.008341
 20
-76.824384
 40
28.500781
 50
295.487111
 51
314.942399
  0
POINT
  8
3
 62
     7
 10
-1281.136524
 20
-88.772883
  0
ARC
  8
1
 62
     4
  6
CONTINUOUS
 10
-1274.136524
 20
-208.772883
 40
2.000000
 50
-90.000000
 51
0.000000E+00
  0
LINE
  8
3
 62
     4
  6
CONTINUOUS
 10
-1324.486788
 20
-103.772883
 11
-1300.632162
 21
-103.772883
  0
ARC
  8
1
 62
     4
  6
CONTINUOUS
 10
-1274.136524
 20
-88.772883
 40
2.000000
 50
0.000000E+00
 51
90.000000
  0
LINE
  8
1
 62
     4
  6
CONTINUOUS
 10
-1272.136524
 20
-88.772883
 11
-1272.136524
 21
-208.772883
  0
ARC
  8
1
 62
     4
  6
CONTINUOUS
 10
-1274.136524
 20
-88.772883
 40
2.000000
 50
0.000000E+00
 51
90.000000
  0
ARC
  8
1
 62
     4
  6
CONTINUOUS
 10
-1274.136524
 20
-208.772883
 40
2.000000
 50
-90.000000
 51
0.000000E+00
  0
ARC
  8
3
 62
     4
  6
CONTINUOUS
 10
-1274.136524
 20
-88.772883
 40
2.000000
 50
0.000000E+00
 51
90.000000
  0
LINE
  8
3
 62
     4
  6
CONTINUOUS
 10
-1272.136524
 20
-208.772883
 11
-1272.136524
 21
-88.772883
  0
ARC
  8
3
 62
     4
  6
CONTINUOUS
 10
-1274.136524
 20
-208.772883
 40
2.000000
 50
-90.000000
 51
0.000000E+00
  0
INSERT
  8
0
  2
G26
 10
0
 20
0
  0
TEXT
  8
0
 62
     6
 10
-999.551869
 20
1076.370812
 40
35.000000
 50
0.000000E+00
 41
0.60 
  1
300,340,360
 72
     5
 11
-767.051869
 21
1076.370812
  0
CIRCLE
  8
0
 62
     3
  6
CONTINUOUS
 10
-1367.136524
 20
151.227117
 40
54.000000
  0
CIRCLE
  8
0
 62
     3
  6
CONTINUOUS
 10
-1367.136524
 20
151.227117
 40
40.000000
  0
CIRCLE
  8
0
 62
     3
  6
CONTINUOUS
 10
-1367.136524
 20
151.227117
 40
62.000000
  0
INSERT
  8
0
  2
G27
 10
0
 20
0
  0
INSERT
  8
0
  2
G28
 10
0
 20
0
  0
INSERT
  8
0
  2
G29
 10
0
 20
0
  0
INSERT
  8
0
  2
G30
 10
0
 20
0
  0
INSERT
  8
0
  2
G31
 10
0
 20
0
  0
INSERT
  8
0
  2
G32
 10
0
 20
0
  0
INSERT
  8
0
  2
G33
 10
0
 20
0
  0
TEXT
  8
0
 62
     3
 10
-888.446385
 20
-905.435816
 40
32.000000
 50
0.000000E+00
 41
0.94 
  1
対応可能Ｐ寸法　２４０～３６０
 72
     5
 11
-362.732077
 21
-905.435816
  0
LINE
  8
0
 62
     2
  6
CONTINUOUS
 10
-955.287581
 20
-844.718354
 11
-175.885661
 21
-844.718354
  0
TEXT
  8
0
 62
     2
 10
-466.779569
 20
-817.414104
 40
30.000000
 50
0.000000E+00
 41
0.61 
  1
925
 72
     5
 11
-411.779569
 21
-817.414104
  0
TEXT
  8
0
 62
     2
 10
-569.578809
 20
-817.414104
 40
30.000000
 50
0.000000E+00
 41
0.61 
  1
905
 72
     5
 11
-514.578809
 21
-817.414104
  0
TEXT
  8
0
 62
     2
 10
-669.031289
 20
-815.686968
 40
30.000000
 50
0.000000E+00
 41
0.61 
  1
885
 72
     5
 11
-614.031289
 21
-815.686968
  0
TEXT
  8
0
 62
     2
 10
-363.270329
 20
-815.686968
 40
30.000000
 50
0.000000E+00
 41
0.61 
  1
965
 72
     5
 11
-308.270329
 21
-815.686968
  0
TEXT
  8
0
 62
     2
 10
-770.950969
 20
-724.246968
 40
30.000000
 50
0.000000E+00
 41
0.61 
  1
790
 72
     5
 11
-715.950969
 21
-724.246968
  0
TEXT
  8
0
 62
     2
 10
-258.817849
 20
-817.414104
 40
30.000000
 50
0.000000E+00
 41
0.61 
  1
985
 72
     5
 11
-203.817849
 21
-817.414104
  0
TEXT
  8
0
 62
     2
 10
-770.950969
 20
-815.686968
 40
30.000000
 50
0.000000E+00
 41
0.61 
  1
865
 72
     5
 11
-715.950969
 21
-815.686968
  0
TEXT
  8
0
 62
     2
 10
-363.509314
 20
-647.803154
 40
30.000000
 50
0.000000E+00
 41
0.61 
  1
340
 72
     5
 11
-308.509314
 21
-647.803154
  0
TEXT
  8
0
 62
     2
 10
-465.429954
 20
-647.803154
 40
30.000000
 50
0.000000E+00
 41
0.61 
  1
300
 72
     5
 11
-410.429954
 21
-647.803154
  0
TEXT
  8
0
 62
     2
 10
-567.350594
 20
-647.803154
 40
30.000000
 50
0.000000E+00
 41
0.61 
  1
280
 72
     5
 11
-512.350594
 21
-647.803154
  0
TEXT
  8
0
 62
     2
 10
-771.189954
 20
-647.803154
 40
30.000000
 50
0.000000E+00
 41
0.61 
  1
240
 72
     5
 11
-716.189954
 21
-647.803154
  0
LINE
  8
0
 62
     2
  6
CONTINUOUS
 10
-389.725981
 20
-600.398354
 11
-389.725981
 21
-844.718354
  0
TEXT
  8
0
 62
     2
 10
-944.759477
 20
-811.372275
 40
30.000000
 50
0.000000E+00
 41
0.72 
  1
Ｌｔ（全長）
 72
     5
 11
-794.759477
 21
-811.372275
  0
LINE
  8
0
 62
     2
  6
CONTINUOUS
 10
-955.287581
 20
-753.278354
 11
-175.885661
 21
-753.278354
  0
TEXT
  8
0
 62
     2
 10
-258.817849
 20
-725.974104
 40
30.000000
 50
0.000000E+00
 41
0.61 
  1
910
 72
     5
 11
-203.817849
 21
-725.974104
  0
LINE
  8
0
 62
     2
  6
CONTINUOUS
 10
-955.287581
 20
-600.398354
 11
-175.885661
 21
-600.398354
  0
TEXT
  8
0
 62
     2
 10
-363.270329
 20
-724.246968
 40
30.000000
 50
0.000000E+00
 41
0.61 
  1
890
 72
     5
 11
-308.270329
 21
-724.246968
  0
LINE
  8
0
 62
     2
  6
CONTINUOUS
 10
-797.406621
 20
-600.398354
 11
-797.406621
 21
-844.718354
  0
LINE
  8
0
 62
     2
  6
CONTINUOUS
 10
-695.486941
 20
-600.398354
 11
-695.486941
 21
-844.718354
  0
LINE
  8
0
 62
     2
  6
CONTINUOUS
 10
-593.567261
 20
-600.398354
 11
-593.567261
 21
-844.718354
  0
LINE
  8
0
 62
     2
  6
CONTINUOUS
 10
-491.646621
 20
-600.398354
 11
-491.646621
 21
-844.718354
  0
LINE
  8
0
 62
     2
  6
CONTINUOUS
 10
-175.885661
 20
-600.398354
 11
-175.885661
 21
-844.718354
  0
LINE
  8
0
 62
     2
  6
CONTINUOUS
 10
-287.806301
 20
-600.398354
 11
-287.806301
 21
-844.718354
  0
TEXT
  8
0
 62
     2
 10
-256.589634
 20
-647.803154
 40
30.000000
 50
0.000000E+00
 41
0.61 
  1
360
 72
     5
 11
-201.589634
 21
-647.803154
  0
LINE
  8
0
 62
     2
  6
CONTINUOUS
 10
-955.287581
 20
-661.838354
 11
-175.885661
 21
-661.838354
  0
TEXT
  8
0
 62
     2
 10
-944.759477
 20
-719.932275
 40
30.000000
 50
0.000000E+00
 41
0.72 
  1
Ｌ（有効長）
 72
     5
 11
-794.759477
 21
-719.932275
  0
LINE
  8
0
 62
     2
  6
CONTINUOUS
 10
-955.287581
 20
-600.398354
 11
-955.287581
 21
-844.718354
  0
LINE
  8
0
 62
     2
  6
CONTINUOUS
 10
-177.458899
 20
-613.635403
 11
-177.458899
 21
-613.635595
  0
TEXT
  8
0
 62
     2
 10
-669.031289
 20
-724.246968
 40
30.000000
 50
0.000000E+00
 41
0.61 
  1
810
 72
     5
 11
-614.031289
 21
-724.246968
  0
TEXT
  8
0
 62
     2
 10
-569.578809
 20
-725.974104
 40
30.000000
 50
0.000000E+00
 41
0.61 
  1
830
 72
     5
 11
-514.578809
 21
-725.974104
  0
TEXT
  8
0
 62
     2
 10
-669.270274
 20
-647.803154
 40
30.000000
 50
0.000000E+00
 41
0.61 
  1
260
 72
     5
 11
-614.270274
 21
-647.803154
  0
TEXT
  8
0
 62
     2
 10
-885.718483
 20
-647.782743
 40
30.000000
 50
0.000000E+00
 41
0.86 
  1
Ｐ
 72
     5
 11
-855.718483
 21
-647.782743
  0
TEXT
  8
0
 62
     2
 10
-466.779569
 20
-725.974104
 40
30.000000
 50
0.000000E+00
 41
0.61 
  1
850
 72
     5
 11
-411.779569
 21
-725.974104
  0
TEXT
  8
0
 62
     2
 10
-251.589634
 20
-546.363154
 40
30.000000
 50
0.000000E+00
 41
0.58 
  1
44
 72
     5
 11
-216.589634
 21
-546.363154
  0
TEXT
  8
0
 62
     2
 10
-363.510274
 20
-546.363154
 40
30.000000
 50
0.000000E+00
 41
0.58 
  1
52
 72
     5
 11
-328.510274
 21
-546.363154
  0
TEXT
  8
0
 62
     2
 10
-462.501526
 20
-363.746137
 40
25.600000
 50
0.000000E+00
 41
0.55 
  1
100
 72
     5
 11
-420.444381
 21
-363.746137
  0
TEXT
  8
0
 62
     2
 10
-479.031820
 20
-325.061429
 40
18.400000
 50
0.000000E+00
 41
0.89 
  1
立管受口
 72
     5
 11
-403.031821
 21
-325.061429
  0
TEXT
  8
0
 62
     2
 10
-251.589634
 20
-423.483154
 40
30.000000
 50
0.000000E+00
 41
0.58 
  1
65
 72
     5
 11
-216.589634
 21
-423.483154
  0
TEXT
  8
0
 62
     2
 10
-363.510274
 20
-423.483154
 40
30.000000
 50
0.000000E+00
 41
0.58 
  1
65
 72
     5
 11
-328.510274
 21
-423.483154
  0
TEXT
  8
0
 62
     2
 10
-455.429954
 20
-423.483154
 40
30.000000
 50
0.000000E+00
 41
0.58 
  1
75
 72
     5
 11
-420.429954
 21
-423.483154
  0
LINE
  8
0
 62
     2
  6
CONTINUOUS
 10
-399.726941
 20
-498.958354
 11
-481.646621
 21
-560.398354
  0
LINE
  8
0
 62
     2
  6
CONTINUOUS
 10
-175.885661
 20
-294.153298
 11
-175.885661
 21
-560.398354
  0
TEXT
  8
0
 62
     2
 10
-592.749477
 20
-542.052275
 40
30.000000
 50
0.000000E+00
 41
0.86 
  1
Ｂ寸法
 72
     5
 11
-502.749477
 21
-542.052275
  0
LINE
  8
0
 62
     2
  6
CONTINUOUS
 10
-604.527581
 20
-498.958354
 11
-175.885661
 21
-498.958354
  0
LINE
  8
0
 62
     2
  6
CONTINUOUS
 10
-399.726941
 20
-335.118322
 11
-175.885661
 21
-335.118322
  0
LINE
  8
0
 62
     2
  6
CONTINUOUS
 10
-604.527581
 20
-376.078354
 11
-175.885661
 21
-376.078354
  0
TEXT
  8
0
 62
     2
 10
-388.512732
 20
-330.204987
 40
30.000000
 50
0.000000E+00
 41
0.72 
  1
下部横枝管サイズ
 72
     5
 11
-188.512732
 21
-330.204987
  0
LINE
  8
0
 62
     2
  6
CONTINUOUS
 10
-481.646621
 20
-295.392178
 11
-481.646621
 21
-560.398354
  0
LINE
  8
0
 62
     2
  6
CONTINUOUS
 10
-399.726941
 20
-295.392178
 11
-399.726941
 21
-560.398354
  0
LINE
  8
0
 62
     2
  6
CONTINUOUS
 10
-399.726941
 20
-437.518354
 11
-481.646621
 21
-498.958354
  0
LINE
  8
0
 62
     2
  6
CONTINUOUS
 10
-287.806301
 20
-335.118514
 11
-287.806301
 21
-560.398354
  0
LINE
  8
0
 62
     2
  6
CONTINUOUS
 10
-604.527581
 20
-560.398354
 11
-175.885661
 21
-560.398354
  0
TEXT
  8
0
 62
     2
 10
-383.464355
 20
-370.283621
 40
30.000000
 50
0.000000E+00
 41
0.63 
  1
65(2)
 72
     5
 11
-288.464355
 21
-370.283621
  0
TEXT
  8
0
 62
     2
 10
-271.543715
 20
-370.283621
 40
30.000000
 50
0.000000E+00
 41
0.63 
  1
50(1)
 72
     5
 11
-176.543715
 21
-370.283621
  0
LINE
  8
0
 62
     2
  6
CONTINUOUS
 10
-604.527581
 20
-335.118322
 11
-604.527581
 21
-560.398354
  0
LINE
  8
0
 62
     2
  6
CONTINUOUS
 10
-604.527581
 20
-437.518354
 11
-175.885661
 21
-437.518354
  0
TEXT
  8
0
 62
     2
 10
-592.749477
 20
-480.612275
 40
30.000000
 50
0.000000E+00
 41
0.86 
  1
Ａ寸法
 72
     5
 11
-502.749477
 21
-480.612275
  0
LINE
  8
0
 62
     2
  6
CONTINUOUS
 10
-604.527581
 20
-335.118322
 11
-604.527581
 21
-294.153298
  0
LINE
  8
0
 62
     2
  6
CONTINUOUS
 10
-604.527581
 20
-294.153298
 11
-175.885661
 21
-294.153298
  0
LINE
  8
0
 62
     2
  6
CONTINUOUS
 10
-205.886621
 20
-335.118322
 11
-205.886621
 21
-335.118514
  0
TEXT
  8
0
 62
     2
 10
-375.738489
 20
-484.923154
 40
30.000000
 50
0.000000E+00
 41
0.61 
  1
110
 72
     5
 11
-320.738489
 21
-484.923154
  0
TEXT
  8
0
 62
     2
 10
-599.958483
 20
-423.462743
 40
30.000000
 50
0.000000E+00
 41
0.86 
  1
受口深さ
 72
     5
 11
-479.958483
 21
-423.462743
  0
LINE
  8
0
 62
     2
  6
CONTINUOUS
 10
-604.527581
 20
-294.153298
 11
-481.646621
 21
-376.078354
  0
TEXT
  8
0
 62
     2
 10
-251.589634
 20
-484.923154
 40
30.000000
 50
0.000000E+00
 41
0.58 
  1
94
 72
     5
 11
-216.589634
 21
-484.923154
  0
INSERT
  8
0
  2
G34
 10
0
 20
0
  0
INSERT
  8
0
  2
G35
 10
0
 20
0
  0
INSERT
  8
0
  2
G36
 10
0
 20
0
  0
INSERT
  8
0
  2
G37
 10
0
 20
0
  0
INSERT
  8
0
  2
G38
 10
0
 20
0
  0
INSERT
  8
0
  2
G39
 10
0
 20
0
  0
INSERT
  8
0
  2
G40
 10
0
 20
0
  0
INSERT
  8
0
  2
G41
 10
0
 20
0
  0
INSERT
  8
0
  2
G42
 10
0
 20
0
  0
INSERT
  8
0
  2
G43
 10
0
 20
0
  0
CIRCLE
  8
0
 62
     2
  6
HIDDEN
 10
-1367.136524
 20
-148.772883
 40
62.000000
  0
LINE
  8
0
 62
     2
  6
HIDDEN
 10
-1349.220401
 20
-208.273004
 11
-1385.052647
 21
-208.273004
  0
CIRCLE
  8
0
 62
     2
  6
HIDDEN
 10
-1367.136524
 20
-156.272883
 40
47.000000
  0
ARC
  8
0
 62
     2
  6
HIDDEN
 10
-1367.136524
 20
-156.272883
 40
55.000000
 50
289.010880
 51
610.989120
  0
CIRCLE
  8
0
 62
     2
  6
HIDDEN
 10
-1367.136524
 20
-156.272883
 40
35.000000
  0
LINE
  8
0
 62
     2
  6
CENTER
 10
-1438.849702
 20
-156.272883
 11
-1301.138303
 21
-156.272883
  0
INSERT
  8
0
  2
G44
 10
0
 20
0
  0
INSERT
  8
0
  2
G45
 10
0
 20
0
  0
INSERT
  8
0
  2
G46
 10
0
 20
0
  0
INSERT
  8
0
  2
G47
 10
0
 20
0
  0
ENDSEC
  0
EOF
