  0
SECTION
  2
HEADER
  9
$INSBASE
 10
0
 20
0
  9
$EXTMIN
 10
0
 20
0
  9
$EXTMAX
 10
4200.000000
 20
2970.000000
  9
$LIMMIN
 10
0
 20
0
  9
$LIMMAX
 10
4200.000000
 20
2970.000000
  9
$VIEWCTR
 10
2100.000000
 20
1485.000000
  9
$DIMASZ
 40
20.000000
  9
$DIMDLI
 40
80.000000
  9
$DIMEXE
 40
10.000000
  9
$DIMEXO
 40
10.000000
  9
$DIMTXT
 40
32.000000
  9
$TEXTSIZE
 40
32.000000
  9
$ANGBASE
 50
0.0
  9
$ANGDIR
 70
     0
  9
$ATTMODE
 70
     1
  9
$AUNITS
 70
     1
  9
$AUPREC
 70
     2
  9
$AXISMODE
 70
     0
  9
$AXISUNIT
 10
0.0
 20
0.0
  9
$BLIPMODE
 70
     1
  9
$CECOLOR
 62
   256
  9
$CELTYPE
  6
BYLAYER
  9
$CHAMFERA
 40
0.0
  9
$CHAMFERB
 40
0.0
  9
$CLAYER
  8
0
  9
$COORDS
 70
     0
  9
$DIMALT
 70
     0
  9
$DIMALTD
 70
     2
  9
$DIMALTF
 40
25.4
  9
$DIMDLE
 40
0.0
  9
$DIMLFAC
 40
1.0
  9
$DIMLIM
 70
     0
  9
$DIMRND
 40
0.0
  9
$DIMSCALE
 40
1.0
  9
$DIMSE1
 70
     0
  9
$DIMSE2
 70
     0
  9
$DIMTAD
 70
     1
  9
$DIMTIH
 70
     0
  9
$DIMTM
 40
0.0
  9
$DIMTOH
 70
     0
  9
$DIMTOL
 70
     0
  9
$DIMTP
 40
0.0
  9
$DIMTSZ
 40
0.0
  9
$DIMZIN
 70
     0
  9
$DRAGMODE
 70
     2
  9
$ELEVATION
 40
0.0
  9
$FASTZOOM
 70
     1
  9
$FILLETRAD
 40
0.0
  9
$FILLMODE
 70
     1
  9
$GRIDMODE
 70
     0
  9
$GRIDUNIT
 10
0.0
 20
0.0
  9
$LTSCALE
 40
1.0
  9
$LUNITS
 70
     2
  9
$LUPREC
 70
     2
  9
$MENU
  1
ACAD
  9
$ORTHOMODE
 70
     0
  9
$OSMODE
 70
     0
  9
$PDMODE
 70
     0
  9
$PDSIZE
 40
0.0
  9
$PLINEWID
 40
0.0
  9
$QTEXTMODE
 70
     0
  9
$REGENMODE
 70
     1
  9
$SKETCHINC
 40
0.1
  9
$SKPOLY
 70
     0
  9
$SNAPBASE
 10
0.0
 20
0.0
  9
$SNAPISOPAIR
 70
     0
  9
$SNAPMODE
 70
     0
  9
$SNAPSTYLE
 70
     0
  9
$SNAPUNIT
 10
0.0
 20
0.0
  9
$TEXTSTYLE
  7
KANJI
  9
$THICKNESS
 40
0.0
  9
$TRACEWID
 40
0.05
  9
$VIEWDIR
 10
0.0
 20
0.0
 30
1.0
  9
$VIEWSIZE
 40
0.0
  0
ENDSEC
  0
SECTION
  2
TABLES
  0
TABLE
  2
LTYPE
 70
     9
  0
LTYPE
  2
CONTINUOUS
 70
    64
  3
Solid line
 72
    65
 73
     0
 40
0.0
  0
LTYPE
  2
DASHED
 70
    64
  3
__ __ __ __ __ __ __ __ __ __ __ __ __ __ __
 72
    65
 73
     2
 40
0.75
 49
0.5
 49
-0.25
  0
LTYPE
  2
HIDDEN
 70
    64
  3
_ _ _ _ _ _ _ _ _ _ _ _ _ _ _ _ _ _ _ _ _ _ _
 72
    65
 73
     2
 40
0.375
 49
0.25
 49
-0.125
  0
LTYPE
  2
CENTER
 70
    64
  3
____ _ ____ _ ____ _ ____ _ ____ _ ____ _ ____
 72
    65
 73
     4
 40
2.0
 49
1.25
 49
-0.25
 49
0.25
 49
-0.25
  0
LTYPE
  2
PHANTOM
 70
    64
  3
_____ _ _ _____ _ _ _____ _ _ _____ _ _ ____
 72
    65
 73
     6
 40
2.5
 49
1.25
 49
-0.25
 49
0.25
 49
-0.25
 49
0.25
 49
-0.25
  0
LTYPE
  2
DOT
 70
    64
  3
...............................................
 72
    65
 73
     2
 40
0.25
 49
0.0
 49
-0.25
  0
LTYPE
  2
DASHDOT
 70
    64
  3
__ . __ . __ . __ . __ . __ . __ . __ . __ . __
 72
    65
 73
     4
 40
1.0
 49
0.5
 49
-0.25
 49
0.0
 49
-0.25
  0
LTYPE
  2
BORDER
 70
    64
  3
__ __ . __ __ . __ __ . __ __ . __ __ . __ __
 72
    65
 73
     6
 40
1.75
 49
0.5
 49
-0.25
 49
0.5
 49
-0.25
 49
0.0
 49
-0.25
  0
LTYPE
  2
DIVIDE
 70
    64
  3
__ . . __ . . __ . . __ . . __ . . __ . . __
 72
    65
 73
     6
 40
1.25
 49
0.5
 49
-0.25
 49
0.0
 49
-0.25
 49
0.0
 49
-0.25
  0
ENDTAB
  0
TABLE
  2
LAYER
 70
   100
  0
LAYER
  2
0
 70
     0
 62
     3
  6
CONTINUOUS
  0
LAYER
  2
1
 70
     0
 62
     3
  6
CONTINUOUS
  0
LAYER
  2
2
 70
     0
 62
     3
  6
CONTINUOUS
  0
LAYER
  2
3
 70
     0
 62
     3
  6
CONTINUOUS
  0
LAYER
  2
4
 70
     0
 62
     3
  6
CONTINUOUS
  0
LAYER
  2
5
 70
     0
 62
     3
  6
CONTINUOUS
  0
LAYER
  2
6
 70
     0
 62
     3
  6
CONTINUOUS
  0
LAYER
  2
7
 70
     0
 62
     3
  6
CONTINUOUS
  0
LAYER
  2
8
 70
     0
 62
     3
  6
CONTINUOUS
  0
LAYER
  2
9
 70
     0
 62
     3
  6
CONTINUOUS
  0
LAYER
  2
10
 70
     0
 62
     3
  6
CONTINUOUS
  0
LAYER
  2
11
 70
     0
 62
     3
  6
CONTINUOUS
  0
LAYER
  2
12
 70
     0
 62
     3
  6
CONTINUOUS
  0
LAYER
  2
13
 70
     0
 62
     3
  6
CONTINUOUS
  0
LAYER
  2
14
 70
     0
 62
     3
  6
CONTINUOUS
  0
LAYER
  2
15
 70
     0
 62
     3
  6
CONTINUOUS
  0
LAYER
  2
16
 70
     0
 62
     3
  6
CONTINUOUS
  0
LAYER
  2
17
 70
     0
 62
     3
  6
CONTINUOUS
  0
LAYER
  2
18
 70
     0
 62
     3
  6
CONTINUOUS
  0
LAYER
  2
19
 70
     0
 62
     3
  6
CONTINUOUS
  0
LAYER
  2
20
 70
     0
 62
     3
  6
CONTINUOUS
  0
LAYER
  2
21
 70
     0
 62
     3
  6
CONTINUOUS
  0
LAYER
  2
22
 70
     0
 62
     3
  6
CONTINUOUS
  0
LAYER
  2
23
 70
     0
 62
     3
  6
CONTINUOUS
  0
LAYER
  2
24
 70
     0
 62
     3
  6
CONTINUOUS
  0
LAYER
  2
25
 70
     0
 62
     3
  6
CONTINUOUS
  0
LAYER
  2
26
 70
     0
 62
     3
  6
CONTINUOUS
  0
LAYER
  2
27
 70
     0
 62
     3
  6
CONTINUOUS
  0
LAYER
  2
28
 70
     0
 62
     3
  6
CONTINUOUS
  0
LAYER
  2
29
 70
     0
 62
     3
  6
CONTINUOUS
  0
LAYER
  2
30
 70
     0
 62
     3
  6
CONTINUOUS
  0
LAYER
  2
31
 70
     0
 62
     3
  6
CONTINUOUS
  0
LAYER
  2
32
 70
     0
 62
     3
  6
CONTINUOUS
  0
LAYER
  2
33
 70
     0
 62
     3
  6
CONTINUOUS
  0
LAYER
  2
34
 70
     0
 62
     3
  6
CONTINUOUS
  0
LAYER
  2
35
 70
     0
 62
     3
  6
CONTINUOUS
  0
LAYER
  2
36
 70
     0
 62
     3
  6
CONTINUOUS
  0
LAYER
  2
37
 70
     0
 62
     3
  6
CONTINUOUS
  0
LAYER
  2
38
 70
     0
 62
     3
  6
CONTINUOUS
  0
LAYER
  2
39
 70
     0
 62
     3
  6
CONTINUOUS
  0
LAYER
  2
40
 70
     0
 62
     3
  6
CONTINUOUS
  0
LAYER
  2
41
 70
     0
 62
     3
  6
CONTINUOUS
  0
LAYER
  2
42
 70
     0
 62
     3
  6
CONTINUOUS
  0
LAYER
  2
43
 70
     0
 62
     3
  6
CONTINUOUS
  0
LAYER
  2
44
 70
     0
 62
     3
  6
CONTINUOUS
  0
LAYER
  2
45
 70
     0
 62
     3
  6
CONTINUOUS
  0
LAYER
  2
46
 70
     0
 62
     3
  6
CONTINUOUS
  0
LAYER
  2
47
 70
     0
 62
     3
  6
CONTINUOUS
  0
LAYER
  2
48
 70
     0
 62
     3
  6
CONTINUOUS
  0
LAYER
  2
49
 70
     0
 62
     3
  6
CONTINUOUS
  0
LAYER
  2
50
 70
     0
 62
     3
  6
CONTINUOUS
  0
LAYER
  2
51
 70
     0
 62
     3
  6
CONTINUOUS
  0
LAYER
  2
52
 70
     0
 62
     3
  6
CONTINUOUS
  0
LAYER
  2
53
 70
     0
 62
     3
  6
CONTINUOUS
  0
LAYER
  2
54
 70
     0
 62
     3
  6
CONTINUOUS
  0
LAYER
  2
55
 70
     0
 62
     3
  6
CONTINUOUS
  0
LAYER
  2
56
 70
     0
 62
     3
  6
CONTINUOUS
  0
LAYER
  2
57
 70
     0
 62
     3
  6
CONTINUOUS
  0
LAYER
  2
58
 70
     0
 62
     3
  6
CONTINUOUS
  0
LAYER
  2
59
 70
     0
 62
     3
  6
CONTINUOUS
  0
LAYER
  2
60
 70
     0
 62
     3
  6
CONTINUOUS
  0
LAYER
  2
61
 70
     0
 62
     3
  6
CONTINUOUS
  0
LAYER
  2
62
 70
     0
 62
     3
  6
CONTINUOUS
  0
LAYER
  2
63
 70
     0
 62
     3
  6
CONTINUOUS
  0
LAYER
  2
64
 70
     0
 62
     3
  6
CONTINUOUS
  0
LAYER
  2
65
 70
     0
 62
     3
  6
CONTINUOUS
  0
LAYER
  2
66
 70
     0
 62
     3
  6
CONTINUOUS
  0
LAYER
  2
67
 70
     0
 62
     3
  6
CONTINUOUS
  0
LAYER
  2
68
 70
     0
 62
     3
  6
CONTINUOUS
  0
LAYER
  2
69
 70
     0
 62
     3
  6
CONTINUOUS
  0
LAYER
  2
70
 70
     0
 62
     3
  6
CONTINUOUS
  0
LAYER
  2
71
 70
     0
 62
     3
  6
CONTINUOUS
  0
LAYER
  2
72
 70
     0
 62
     3
  6
CONTINUOUS
  0
LAYER
  2
73
 70
     0
 62
     3
  6
CONTINUOUS
  0
LAYER
  2
74
 70
     0
 62
     3
  6
CONTINUOUS
  0
LAYER
  2
75
 70
     0
 62
     3
  6
CONTINUOUS
  0
LAYER
  2
76
 70
     0
 62
     3
  6
CONTINUOUS
  0
LAYER
  2
77
 70
     0
 62
     3
  6
CONTINUOUS
  0
LAYER
  2
78
 70
     0
 62
     3
  6
CONTINUOUS
  0
LAYER
  2
79
 70
     0
 62
     3
  6
CONTINUOUS
  0
LAYER
  2
80
 70
     0
 62
     3
  6
CONTINUOUS
  0
LAYER
  2
81
 70
     0
 62
     3
  6
CONTINUOUS
  0
LAYER
  2
82
 70
     0
 62
     3
  6
CONTINUOUS
  0
LAYER
  2
83
 70
     0
 62
     3
  6
CONTINUOUS
  0
LAYER
  2
84
 70
     0
 62
     3
  6
CONTINUOUS
  0
LAYER
  2
85
 70
     0
 62
     3
  6
CONTINUOUS
  0
LAYER
  2
86
 70
     0
 62
     3
  6
CONTINUOUS
  0
LAYER
  2
87
 70
     0
 62
     3
  6
CONTINUOUS
  0
LAYER
  2
88
 70
     0
 62
     3
  6
CONTINUOUS
  0
LAYER
  2
89
 70
     0
 62
     3
  6
CONTINUOUS
  0
LAYER
  2
90
 70
     0
 62
     3
  6
CONTINUOUS
  0
LAYER
  2
91
 70
     0
 62
     3
  6
CONTINUOUS
  0
LAYER
  2
92
 70
     0
 62
     3
  6
CONTINUOUS
  0
LAYER
  2
93
 70
     0
 62
     3
  6
CONTINUOUS
  0
LAYER
  2
94
 70
     0
 62
     3
  6
CONTINUOUS
  0
LAYER
  2
95
 70
     0
 62
     3
  6
CONTINUOUS
  0
LAYER
  2
96
 70
     0
 62
     3
  6
CONTINUOUS
  0
LAYER
  2
97
 70
     0
 62
     3
  6
CONTINUOUS
  0
LAYER
  2
98
 70
     0
 62
     3
  6
CONTINUOUS
  0
LAYER
  2
99
 70
     0
 62
     3
  6
CONTINUOUS
  0
ENDTAB
  0
TABLE
  2
STYLE
 70
     2
  0
STYLE
  2
STANDARD
 70
     0
 40
0.0
 41
1.0
 50
0.0
 71
     0
 42
0.2
  3
TXT
  4
BIGFONT
  0
STYLE
  2
KANJI
 70
     0
 40
4.5
 41
1.0
 50
0.0
 71
     0
 42
0.2
  3
TXT
  4
BIGFONT
  0
ENDTAB
  0
TABLE
  2
VIEW
 70
     0
  0
ENDTAB
  0
ENDSEC
  0
SECTION
  2
BLOCKS
  0
BLOCK
  8
0
  2
G0
 70
     0
 10
0
 20
0
  0
LINE
  8
0
 62
     1
  6
CONTINUOUS
 10
3784.000000
 20
2172.624747
 11
3826.179140
 21
2172.624747
  0
SOLID
  8
0
 62
     1
 10
3808.148146
 20
2179.095223
 11
3808.148146
 21
2166.154271
 12
3784.000000
 22
2172.624747
 13
3784.000000
 23
2172.624747
  0
LINE
  8
0
 62
     1
  6
CONTINUOUS
 10
3719.317919
 20
2172.624747
 11
3680.233194
 21
2172.624747
  0
SOLID
  8
0
 62
     1
 10
3695.169773
 20
2166.154271
 11
3695.169773
 21
2179.095223
 12
3719.317919
 22
2172.624747
 13
3719.317919
 23
2172.624747
  0
TEXT
  8
0
 62
     1
 10
3735.525767
 20
2177.958080
 40
32.000000
 50
0.000000E+00
 41
0.56 
  1
65
 72
     5
 11
3771.525767
 21
2177.958080
  0
LINE
  8
0
 62
     1
  6
CONTINUOUS
 10
3784.000000
 20
2092.500000
 11
3784.000000
 21
2187.624747
  0
LINE
  8
0
 62
     1
  6
CONTINUOUS
 10
3719.317919
 20
2172.624747
 11
3784.000000
 21
2172.624747
  0
ENDBLK
  0
BLOCK
  8
0
  2
G1
 70
     0
 10
0
 20
0
  0
LINE
  8
0
 62
     1
  6
CONTINUOUS
 10
3893.324692
 20
2020.000000
 11
3893.324692
 21
1860.000000
  0
LINE
  8
0
 62
     1
  6
CONTINUOUS
 10
3696.500000
 20
1860.000000
 11
3903.324692
 21
1860.000000
  0
TEXT
  8
0
 62
     1
 10
3887.991359
 20
1912.000000
 40
32.000000
 50
90.000000
 41
0.58 
  1
160
 72
     5
 11
3887.991359
 21
1968.000000
  0
LINE
  8
0
 62
     1
  6
CONTINUOUS
 10
3893.324692
 20
2070.000000
 11
3893.324692
 21
2020.000000
  0
SOLID
  8
0
 62
     1
 10
3886.854216
 20
2044.148146
 11
3899.795168
 21
2044.148146
 12
3893.324692
 22
2020.000000
 13
3893.324692
 23
2020.000000
  0
LINE
  8
0
 62
     1
  6
CONTINUOUS
 10
3893.324692
 20
1860.000000
 11
3893.324692
 21
1810.000000
  0
SOLID
  8
0
 62
     1
 10
3899.795168
 20
1835.851854
 11
3886.854216
 21
1835.851854
 12
3893.324692
 22
1860.000000
 13
3893.324692
 23
1860.000000
  0
ENDBLK
  0
BLOCK
  8
0
  2
G2
 70
     0
 10
0
 20
0
  0
LINE
  8
0
 62
     1
  6
CONTINUOUS
 10
3239.337052
 20
1903.027117
 11
3239.337052
 21
918.027117
  0
SOLID
  8
0
 62
     1
 10
3245.807528
 20
1878.878971
 11
3232.866576
 21
1878.878971
 12
3239.337052
 22
1903.027117
 13
3239.337052
 23
1903.027117
  0
SOLID
  8
0
 62
     1
 10
3232.866576
 20
942.175262
 11
3245.807528
 21
942.175262
 12
3239.337052
 22
918.027117
 13
3239.337052
 23
918.027117
  0
LINE
  8
0
 62
     1
  6
CONTINUOUS
 10
3189.337052
 20
1903.027117
 11
3249.337052
 21
1903.027117
  0
LINE
  8
0
 62
     1
  6
CONTINUOUS
 10
3189.337052
 20
918.027117
 11
3249.337052
 21
918.027117
  0
TEXT
  8
0
 62
     1
 10
3234.003719
 20
1374.527117
 40
32.000000
 50
90.000000
 41
0.97 
  1
Ｌｔ
 72
     5
 11
3234.003719
 21
1446.527117
  0
ENDBLK
  0
BLOCK
  8
0
  2
G3
 70
     0
 10
0
 20
0
  0
LINE
  8
0
 62
     1
  6
CONTINUOUS
 10
3179.337052
 20
1828.027117
 11
3179.337052
 21
918.027117
  0
SOLID
  8
0
 62
     1
 10
3185.807528
 20
1803.878971
 11
3172.866576
 21
1803.878971
 12
3179.337052
 22
1828.027117
 13
3179.337052
 23
1828.027117
  0
SOLID
  8
0
 62
     1
 10
3172.866576
 20
942.175262
 11
3185.807528
 21
942.175262
 12
3179.337052
 22
918.027117
 13
3179.337052
 23
918.027117
  0
LINE
  8
0
 62
     1
  6
CONTINUOUS
 10
3129.337052
 20
918.027117
 11
3189.337052
 21
918.027117
  0
TEXT
  8
0
 62
     1
 10
3174.003719
 20
1279.027117
 40
32.000000
 50
90.000000
 41
0.89 
  1
Ｌ（有効長）
 72
     5
 11
3174.003719
 21
1475.027117
  0
ENDBLK
  0
BLOCK
  8
0
  2
G4
 70
     0
 10
0
 20
0
  0
LINE
  8
0
 62
     1
  6
CONTINUOUS
 10
3119.337052
 20
1278.027117
 11
3119.337052
 21
918.027117
  0
SOLID
  8
0
 62
     1
 10
3125.807528
 20
1253.878971
 11
3112.866576
 21
1253.878971
 12
3119.337052
 22
1278.027117
 13
3119.337052
 23
1278.027117
  0
SOLID
  8
0
 62
     1
 10
3112.866576
 20
942.175262
 11
3125.807528
 21
942.175262
 12
3119.337052
 22
918.027117
 13
3119.337052
 23
918.027117
  0
LINE
  8
0
 62
     1
  6
CONTINUOUS
 10
3129.337052
 20
918.027117
 11
3009.337052
 21
918.027117
  0
TEXT
  8
0
 62
     1
 10
3114.003719
 20
1070.027117
 40
32.000000
 50
90.000000
 41
0.58 
  1
360
 72
     5
 11
3114.003719
 21
1126.027117
  0
ENDBLK
  0
BLOCK
  8
0
  2
G5
 70
     0
 10
0
 20
0
  0
LINE
  8
0
 62
     1
  6
CONTINUOUS
 10
2999.337052
 20
1068.027117
 11
2999.337052
 21
918.027117
  0
SOLID
  8
0
 62
     1
 10
3005.807528
 20
1043.878971
 11
2992.866576
 21
1043.878971
 12
2999.337052
 22
1068.027117
 13
2999.337052
 23
1068.027117
  0
SOLID
  8
0
 62
     1
 10
2992.866576
 20
942.175262
 11
3005.807528
 21
942.175262
 12
2999.337052
 22
918.027117
 13
2999.337052
 23
918.027117
  0
LINE
  8
0
 62
     1
  6
CONTINUOUS
 10
2825.260138
 20
918.027117
 11
3009.337052
 21
918.027117
  0
TEXT
  8
0
 62
     1
 10
2994.003719
 20
965.027117
 40
32.000000
 50
90.000000
 41
0.58 
  1
150
 72
     5
 11
2994.003719
 21
1021.027117
  0
ENDBLK
  0
BLOCK
  8
0
  2
G6
 70
     0
 10
0
 20
0
  0
LINE
  8
0
 62
     1
  6
CONTINUOUS
 10
2999.337052
 20
1188.027117
 11
2999.337052
 21
1068.027117
  0
SOLID
  8
0
 62
     1
 10
3005.807528
 20
1163.878971
 11
2992.866576
 21
1163.878971
 12
2999.337052
 22
1188.027117
 13
2999.337052
 23
1188.027117
  0
SOLID
  8
0
 62
     1
 10
2992.866576
 20
1092.175262
 11
3005.807528
 21
1092.175262
 12
2999.337052
 22
1068.027117
 13
2999.337052
 23
1068.027117
  0
LINE
  8
0
 62
     1
  6
CONTINUOUS
 10
2853.009227
 20
1188.027117
 11
3009.337052
 21
1188.027117
  0
LINE
  8
0
 62
     1
  6
CONTINUOUS
 10
2822.511049
 20
1068.027117
 11
3009.337052
 21
1068.027117
  0
TEXT
  8
0
 62
     1
 10
2994.003719
 20
1100.027117
 40
32.000000
 50
90.000000
 41
0.58 
  1
120
 72
     5
 11
2994.003719
 21
1156.027117
  0
ENDBLK
  0
BLOCK
  8
0
  2
G7
 70
     0
 10
0
 20
0
  0
LINE
  8
0
 62
     1
  6
CONTINUOUS
 10
3059.337052
 20
1578.027117
 11
3059.337052
 21
1828.027117
  0
SOLID
  8
0
 62
     1
 10
3051.572481
 20
1607.004891
 11
3067.101623
 21
1607.004891
 12
3059.337052
 22
1578.027117
 13
3059.337052
 23
1578.027117
  0
SOLID
  8
0
 62
     1
 10
3067.101623
 20
1799.049342
 11
3051.572481
 21
1799.049342
 12
3059.337052
 22
1828.027117
 13
3059.337052
 23
1828.027117
  0
LINE
  8
0
 62
     1
  6
CONTINUOUS
 10
3009.337052
 20
1578.027117
 11
3069.337052
 21
1578.027117
  0
LINE
  8
0
 62
     1
  6
CONTINUOUS
 10
2772.260138
 20
1828.027117
 11
3069.337052
 21
1828.027117
  0
TEXT
  8
0
 62
     1
 10
3054.003719
 20
1675.027117
 40
32.000000
 50
90.000000
 41
0.58 
  1
250
 72
     5
 11
3054.003719
 21
1731.027117
  0
ENDBLK
  0
BLOCK
  8
0
  2
G8
 70
     0
 10
0
 20
0
  0
LINE
  8
0
 62
     1
  6
CONTINUOUS
 10
3119.337052
 20
1278.027117
 11
3119.337052
 21
1638.027117
  0
SOLID
  8
0
 62
     1
 10
3111.572481
 20
1307.004891
 11
3127.101623
 21
1307.004891
 12
3119.337052
 22
1278.027117
 13
3119.337052
 23
1278.027117
  0
SOLID
  8
0
 62
     1
 10
3127.101623
 20
1609.049342
 11
3111.572481
 21
1609.049342
 12
3119.337052
 22
1638.027117
 13
3119.337052
 23
1638.027117
  0
LINE
  8
0
 62
     1
  6
CONTINUOUS
 10
3129.337052
 20
1278.027117
 11
3009.337052
 21
1278.027117
  0
TEXT
  8
0
 62
     1
 10
3114.003719
 20
1442.027117
 40
32.000000
 50
90.000000
 41
0.86 
  1
Ｐ
 72
     5
 11
3114.003719
 21
1474.027117
  0
ENDBLK
  0
BLOCK
  8
0
  2
G9
 70
     0
 10
0
 20
0
  0
LINE
  8
0
 62
     1
  6
CONTINUOUS
 10
3179.337052
 20
1903.027117
 11
3179.337052
 21
1828.027117
  0
SOLID
  8
0
 62
     1
 10
3185.807528
 20
1878.878971
 11
3172.866576
 21
1878.878971
 12
3179.337052
 22
1903.027117
 13
3179.337052
 23
1903.027117
  0
SOLID
  8
0
 62
     1
 10
3172.866576
 20
1852.175262
 11
3185.807528
 21
1852.175262
 12
3179.337052
 22
1828.027117
 13
3179.337052
 23
1828.027117
  0
LINE
  8
0
 62
     1
  6
CONTINUOUS
 10
3189.337052
 20
1903.027117
 11
2842.450193
 21
1903.027117
  0
LINE
  8
0
 62
     1
  6
CONTINUOUS
 10
3189.337052
 20
1828.027117
 11
3059.337052
 21
1828.027117
  0
TEXT
  8
0
 62
     1
 10
3174.003719
 20
1847.527117
 40
32.000000
 50
90.000000
 41
0.56 
  1
75
 72
     5
 11
3174.003719
 21
1883.527117
  0
ENDBLK
  0
BLOCK
  8
0
  2
G10
 70
     0
 10
0
 20
0
  0
LINE
  8
0
 62
     1
  6
CONTINUOUS
 10
2995.514825
 20
2183.889268
 11
2995.514825
 21
2118.889268
  0
LINE
  8
0
 62
     1
  6
CONTINUOUS
 10
2832.260138
 20
2183.889268
 11
3005.514825
 21
2183.889268
  0
LINE
  8
0
 62
     1
  6
CONTINUOUS
 10
2834.760138
 20
2118.889268
 11
3055.514825
 21
2118.889268
  0
TEXT
  8
0
 62
     1
 10
2990.181492
 20
2133.389268
 40
32.000000
 50
90.000000
 41
0.56 
  1
65
 72
     5
 11
2990.181492
 21
2169.389268
  0
LINE
  8
0
 62
     1
  6
CONTINUOUS
 10
2995.514825
 20
2233.889268
 11
2995.514825
 21
2183.889268
  0
SOLID
  8
0
 62
     1
 10
2989.044349
 20
2208.037414
 11
3001.985301
 21
2208.037414
 12
2995.514825
 22
2183.889268
 13
2995.514825
 23
2183.889268
  0
LINE
  8
0
 62
     1
  6
CONTINUOUS
 10
2995.514825
 20
2118.889268
 11
2995.514825
 21
2068.889268
  0
SOLID
  8
0
 62
     1
 10
3001.985301
 20
2094.741123
 11
2989.044349
 21
2094.741123
 12
2995.514825
 22
2118.889268
 13
2995.514825
 23
2118.889268
  0
ENDBLK
  0
BLOCK
  8
0
  2
G11
 70
     0
 10
0
 20
0
  0
LINE
  8
0
 62
     1
  6
CONTINUOUS
 10
3464.000000
 20
2234.624747
 11
3624.000000
 21
2234.624747
  0
LINE
  8
0
 62
     1
  6
CONTINUOUS
 10
3464.000000
 20
2187.624747
 11
3464.000000
 21
2244.624747
  0
TEXT
  8
0
 62
     1
 10
3516.000000
 20
2239.958080
 40
32.000000
 50
360.000000
 41
0.58 
  1
160
 72
     5
 11
3572.000000
 21
2239.958080
  0
LINE
  8
0
 62
     1
  6
CONTINUOUS
 10
3464.000000
 20
2234.624747
 11
3414.000000
 21
2234.624747
  0
SOLID
  8
0
 62
     1
 10
3439.851854
 20
2228.154271
 11
3439.851854
 21
2241.095223
 12
3464.000000
 22
2234.624747
 13
3464.000000
 23
2234.624747
  0
ENDBLK
  0
BLOCK
  8
0
  2
G12
 70
     0
 10
0
 20
0
  0
LINE
  8
0
 62
     1
  6
CONTINUOUS
 10
3519.000000
 20
1746.624747
 11
3729.000000
 21
1746.624747
  0
SOLID
  8
0
 62
     1
 10
3543.148146
 20
1753.095223
 11
3543.148146
 21
1740.154271
 12
3519.000000
 22
1746.624747
 13
3519.000000
 23
1746.624747
  0
SOLID
  8
0
 62
     1
 10
3704.851854
 20
1740.154271
 11
3704.851854
 21
1753.095223
 12
3729.000000
 22
1746.624747
 13
3729.000000
 23
1746.624747
  0
TEXT
  8
0
 62
     1
 10
3596.000000
 20
1751.958080
 40
32.000000
 50
0.000000E+00
 41
0.58 
  1
210
 72
     5
 11
3652.000000
 21
1751.958080
  0
ENDBLK
  0
BLOCK
  8
0
  2
G13
 70
     0
 10
0
 20
0
  0
LINE
  8
0
 62
     1
  6
CONTINUOUS
 10
3351.675308
 20
2125.000000
 11
3351.675308
 21
1915.000000
  0
SOLID
  8
0
 62
     1
 10
3358.145784
 20
2100.851854
 11
3345.204832
 21
2100.851854
 12
3351.675308
 22
2125.000000
 13
3351.675308
 23
2125.000000
  0
SOLID
  8
0
 62
     1
 10
3345.204832
 20
1939.148146
 11
3358.145784
 21
1939.148146
 12
3351.675308
 22
1915.000000
 13
3351.675308
 23
1915.000000
  0
LINE
  8
0
 62
     1
  6
CONTINUOUS
 10
3614.000000
 20
2125.000000
 11
3341.675308
 21
2125.000000
  0
TEXT
  8
0
 62
     1
 10
3346.341975
 20
1992.000000
 40
32.000000
 50
90.000000
 41
0.58 
  1
210
 72
     5
 11
3346.341975
 21
2048.000000
  0
ENDBLK
  0
BLOCK
  8
0
  2
G14
 70
     0
 10
0
 20
0
  0
LINE
  8
0
 62
     1
  6
CONTINUOUS
 10
3528.682081
 20
2172.624747
 11
3464.000000
 21
2172.624747
  0
LINE
  8
0
 62
     1
  6
CONTINUOUS
 10
3464.000000
 20
2092.500000
 11
3464.000000
 21
2187.624747
  0
TEXT
  8
0
 62
     1
 10
3476.474233
 20
2177.958080
 40
32.000000
 50
360.000000
 41
0.56 
  1
65
 72
     5
 11
3512.474233
 21
2177.958080
  0
LINE
  8
0
 62
     1
  6
CONTINUOUS
 10
3528.682081
 20
2172.624747
 11
3567.766806
 21
2172.624747
  0
SOLID
  8
0
 62
     1
 10
3552.830227
 20
2179.095223
 11
3552.830227
 21
2166.154271
 12
3528.682081
 22
2172.624747
 13
3528.682081
 23
2172.624747
  0
LINE
  8
0
 62
     1
  6
CONTINUOUS
 10
3464.000000
 20
2172.624747
 11
3421.820860
 21
2172.624747
  0
SOLID
  8
0
 62
     1
 10
3439.851854
 20
2166.154271
 11
3439.851854
 21
2179.095223
 12
3464.000000
 22
2172.624747
 13
3464.000000
 23
2172.624747
  0
ENDBLK
  0
BLOCK
  8
0
  2
G15
 70
     0
 10
0
 20
0
  0
LINE
  8
0
 62
     1
  6
CONTINUOUS
 10
3836.324692
 20
1924.682081
 11
3836.324692
 21
1860.000000
  0
LINE
  8
0
 62
     1
  6
CONTINUOUS
 10
3694.000000
 20
1924.682081
 11
3846.324692
 21
1924.682081
  0
LINE
  8
0
 62
     1
  6
CONTINUOUS
 10
3696.500000
 20
1860.000000
 11
3846.324692
 21
1860.000000
  0
TEXT
  8
0
 62
     1
 10
3830.991359
 20
1874.341041
 40
32.000000
 50
90.000000
 41
0.56 
  1
65
 72
     5
 11
3830.991359
 21
1910.341041
  0
LINE
  8
0
 62
     1
  6
CONTINUOUS
 10
3836.324692
 20
1924.682081
 11
3836.324692
 21
1951.728986
  0
SOLID
  8
0
 62
     1
 10
3829.854216
 20
1948.830227
 11
3842.795168
 21
1948.830227
 12
3836.324692
 22
1924.682081
 13
3836.324692
 23
1924.682081
  0
LINE
  8
0
 62
     1
  6
CONTINUOUS
 10
3836.324692
 20
1860.000000
 11
3836.324692
 21
1810.000000
  0
SOLID
  8
0
 62
     1
 10
3842.795168
 20
1835.851854
 11
3829.854216
 21
1835.851854
 12
3836.324692
 22
1860.000000
 13
3836.324692
 23
1860.000000
  0
ENDBLK
  0
BLOCK
  8
0
  2
G16
 70
     0
 10
0
 20
0
  0
LINE
  8
0
 62
     3
  6
CONTINUOUS
 10
2976.956709
 20
1416.024772
 11
2954.454254
 21
1429.016570
  0
LINE
  8
0
 62
     3
  6
CONTINUOUS
 10
2961.539240
 20
1389.320932
 11
2976.956709
 21
1416.024772
  0
TEXT
  8
0
 62
     3
 10
2949.745957
 20
1356.962715
 40
32.000000
 50
0.000000E+00
 41
0.86 
  1
Ｃ
 72
     5
 11
2981.745957
 21
1356.962715
  0
LINE
  8
0
 62
     3
  6
CONTINUOUS
 10
2961.539240
 20
1436.691181
 11
2961.539240
 21
1389.320932
  0
LINE
  8
0
 62
     3
  6
CONTINUOUS
 10
2961.539240
 20
1436.691181
 11
2881.976677
 21
1436.691181
  0
ENDBLK
  0
BLOCK
  8
0
  2
G17
 70
     0
 10
0
 20
0
  0
LINE
  8
0
 62
     1
  6
CONTINUOUS
 10
3784.000000
 20
2234.624747
 11
3834.000000
 21
2234.624747
  0
SOLID
  8
0
 62
     1
 10
3808.148146
 20
2241.095223
 11
3808.148146
 21
2228.154271
 12
3784.000000
 22
2234.624747
 13
3784.000000
 23
2234.624747
  0
TEXT
  8
0
 62
     1
 10
3676.000000
 20
2239.958080
 40
32.000000
 50
0.000000E+00
 41
0.58 
  1
160
 72
     5
 11
3732.000000
 21
2239.958080
  0
LINE
  8
0
 62
     1
  6
CONTINUOUS
 10
3784.000000
 20
2187.624747
 11
3784.000000
 21
2244.624747
  0
LINE
  8
0
 62
     1
  6
CONTINUOUS
 10
3784.000000
 20
2234.624747
 11
3624.000000
 21
2234.624747
  0
CIRCLE
  8
0
 62
     1
  6
CONTINUOUS
 10
3624.000000
 20
2234.624747
 40
5.000000
  0
CIRCLE
  8
0
 62
     1
  6
CONTINUOUS
 10
3624.000000
 20
2234.624747
 40
2.500000
  0
ENDBLK
  0
BLOCK
  8
0
  2
G18
 70
     0
 10
0
 20
0
  0
TEXT
  8
0
 62
     7
 10
3871.250053
 20
2126.479727
 40
32.000000
 50
0.000000E+00
 41
0.66 
  1
％％ｃ　　　枝管
 72
     5
 11
4063.250053
 21
2126.479727
  0
LINE
  8
0
 62
     3
  6
CONTINUOUS
 10
3870.950986
 20
2116.982140
 11
4032.815228
 21
2116.982140
  0
LINE
  8
0
 62
     3
  6
CONTINUOUS
 10
3870.950986
 20
2108.982140
 11
4032.815228
 21
2108.982140
  0
ENDBLK
  0
BLOCK
  8
0
  2
G19
 70
     0
 10
0
 20
0
  0
LINE
  8
0
 62
     1
  6
CONTINUOUS
 10
3365.769514
 20
1937.131995
 11
3541.131995
 21
1761.769514
  0
SOLID
  8
0
 62
     1
 10
3387.420149
 20
1924.631995
 11
3378.269514
 21
1915.481360
 12
3365.769514
 22
1937.131995
 13
3365.769514
 23
1937.131995
  0
SOLID
  8
0
 62
     1
 10
3519.481360
 20
1774.269514
 11
3528.631995
 21
1783.420149
 12
3541.131995
 22
1761.769514
 13
3541.131995
 23
1761.769514
  0
LINE
  8
0
 62
     1
  6
CONTINUOUS
 10
3529.247691
 20
2100.610173
 11
3358.698446
 21
1930.060928
  0
TEXT
  8
0
 62
     1
 10
3437.423001
 20
1873.020980
 40
32.000000
 50
315.000000
 41
0.58 
  1
248
 72
     5
 11
3477.020980
 21
1833.423001
  0
ENDBLK
  0
BLOCK
  8
0
  2
G20
 70
     0
 10
0
 20
0
  0
TEXT
  8
0
 62
     3
 10
2969.256663
 20
2002.689093
 40
32.000000
 50
0.000000E+00
 41
0.95 
  1
受口深さ　
 72
     5
 11
3145.256663
 21
2002.689093
  0
ENDBLK
  0
BLOCK
  8
0
  2
G21
 70
     0
 10
0
 20
0
  0
LINE
  8
0
 62
     3
  6
CONTINUOUS
 10
2911.277279
 20
2429.195122
 11
2982.093211
 21
2429.195122
  0
SOLID
  8
0
 62
     3
 10
2940.255053
 20
2436.959693
 11
2940.255053
 21
2421.430551
 12
2911.277279
 22
2429.195122
 13
2911.277279
 23
2429.195122
  0
ENDBLK
  0
BLOCK
  8
0
  2
G22
 70
     0
 10
0
 20
0
  0
TEXT
  8
0
 62
     3
 10
2986.933143
 20
2415.364900
 40
32.000000
 50
0.000000E+00
 41
1.02 
  1
受口深さ
 72
     5
 11
3138.933143
 21
2415.364900
  0
ENDBLK
  0
BLOCK
  8
0
  2
G23
 70
     0
 10
0
 20
0
  0
LINE
  8
0
 62
     1
  6
CONTINUOUS
 10
2699.760138
 20
2065.634581
 11
2824.760138
 21
2065.634581
  0
SOLID
  8
0
 62
     1
 10
2723.908284
 20
2072.105058
 11
2723.908284
 21
2059.164105
 12
2699.760138
 22
2065.634581
 13
2699.760138
 23
2065.634581
  0
SOLID
  8
0
 62
     1
 10
2800.611993
 20
2059.164105
 11
2800.611993
 21
2072.105058
 12
2824.760138
 22
2065.634581
 13
2824.760138
 23
2065.634581
  0
LINE
  8
0
 62
     1
  6
CONTINUOUS
 10
2699.760138
 20
2108.889268
 11
2699.760138
 21
2055.634581
  0
LINE
  8
0
 62
     1
  6
CONTINUOUS
 10
2824.760138
 20
2108.889268
 11
2824.760138
 21
2055.634581
  0
TEXT
  8
0
 62
     1
 10
2704.260138
 20
2070.967914
 40
32.000000
 50
0.000000E+00
 41
0.60 
  1
%%c125
 72
     5
 11
2820.260138
 21
2070.967914
  0
ENDBLK
  0
BLOCK
  8
0
  2
G24
 70
     0
 10
0
 20
0
  0
TEXT
  8
0
 62
     7
 10
3771.296802
 20
1684.810921
 40
32.000000
 50
360.000000
 41
0.66 
  1
％％ｃ　　　枝管
 72
     5
 11
3963.296802
 21
1684.810921
  0
LINE
  8
0
 62
     3
  6
CONTINUOUS
 10
3963.595869
 20
1675.313334
 11
3801.731627
 21
1675.313334
  0
LINE
  8
0
 62
     3
  6
CONTINUOUS
 10
3963.595869
 20
1667.313334
 11
3801.731627
 21
1667.313334
  0
ENDBLK
  0
BLOCK
  8
0
  2
G25
 70
     0
 10
0
 20
0
  0
LINE
  8
0
 62
     3
  6
CONTINUOUS
 10
3778.231707
 20
1701.842382
 11
3810.231707
 21
1701.842382
  0
TEXT
  8
0
 62
     3
 10
3778.231707
 20
1707.175715
 40
32.000000
 50
0.000000E+00
 41
0.50 
  1
 
 72
     5
 11
3794.231707
 21
1707.175715
  0
LINE
  8
0
 62
     3
  6
CONTINUOUS
 10
3686.500000
 20
1860.000000
 11
3778.231707
 21
1701.842382
  0
SOLID
  8
0
 62
     3
 10
3700.670199
 20
1845.885984
 11
3691.714745
 21
1840.691804
 12
3686.500000
 22
1860.000000
 13
3686.500000
 23
1860.000000
  0
ENDBLK
  0
BLOCK
  8
0
  2
G26
 70
     0
 10
0
 20
0
  0
LINE
  8
0
 62
     3
  6
CONTINUOUS
 10
3209.477943
 20
2134.254925
 11
3371.342185
 21
2134.254925
  0
LINE
  8
0
 62
     3
  6
CONTINUOUS
 10
3209.477943
 20
2142.254925
 11
3371.342185
 21
2142.254925
  0
TEXT
  8
0
 62
     7
 10
3209.777010
 20
2151.752513
 40
32.000000
 50
0.000000E+00
 41
0.66 
  1
％％ｃ　　　枝管
 72
     5
 11
3401.777010
 21
2151.752513
  0
ENDBLK
  0
BLOCK
  8
0
  2
G27
 70
     0
 10
0
 20
0
  0
LINE
  8
0
 62
     3
  6
CONTINUOUS
 10
3419.896662
 20
2155.404641
 11
3377.573813
 21
2155.404641
  0
TEXT
  8
0
 62
     3
 10
3408.614249
 20
2133.780336
 40
32.000000
 50
0.000000E+00
 41
0.50 
  1
 
 72
     5
 11
3424.614249
 21
2133.780336
  0
LINE
  8
0
 62
     3
  6
CONTINUOUS
 10
3464.000000
 20
2082.500000
 11
3419.896662
 21
2155.404641
  0
SOLID
  8
0
 62
     3
 10
3449.571646
 20
2096.350003
 11
3458.429680
 21
2101.708632
 12
3464.000000
 22
2082.500000
 13
3464.000000
 23
2082.500000
  0
ENDBLK
  0
BLOCK
  8
0
  2
G28
 70
     0
 10
0
 20
0
  0
LINE
  8
0
 62
     3
  6
CONTINUOUS
 10
3400.487805
 20
2214.037504
 11
3379.595635
 21
2214.037504
  0
TEXT
  8
0
 62
     3
 10
3384.487805
 20
2219.370837
 40
32.000000
 50
0.000000E+00
 41
0.50 
  1
 
 72
     5
 11
3400.487805
 21
2219.370837
  0
LINE
  8
0
 62
     3
  6
CONTINUOUS
 10
3468.792244
 20
2186.447250
 11
3400.487805
 21
2214.037504
  0
SOLID
  8
0
 62
     3
 10
3448.941121
 20
2188.883005
 11
3452.818545
 21
2198.482238
 12
3468.792244
 22
2186.447250
 13
3468.792244
 23
2186.447250
  0
ENDBLK
  0
BLOCK
  8
0
  2
G29
 70
     0
 10
0
 20
0
  0
LINE
  8
0
 62
     3
  6
CONTINUOUS
 10
3844.614891
 20
2135.691868
 11
3866.349487
 21
2135.691868
  0
TEXT
  8
0
 62
     3
 10
3844.614891
 20
2141.025201
 40
32.000000
 50
0.000000E+00
 41
0.50 
  1
 
 72
     5
 11
3860.614891
 21
2141.025201
  0
LINE
  8
0
 62
     3
  6
CONTINUOUS
 10
3784.000000
 20
2082.500000
 11
3844.614891
 21
2135.691868
  0
SOLID
  8
0
 62
     3
 10
3795.106127
 20
2099.132917
 11
3801.934647
 21
2091.351465
 12
3784.000000
 22
2082.500000
 13
3784.000000
 23
2082.500000
  0
ENDBLK
  0
BLOCK
  8
0
  2
G30
 70
     0
 10
0
 20
0
  0
LINE
  8
0
 62
     1
  6
CONTINUOUS
 10
2922.260138
 20
2402.143955
 11
2972.260138
 21
2402.143955
  0
SOLID
  8
0
 62
     1
 10
2946.408284
 20
2408.614431
 11
2946.408284
 21
2395.673479
 12
2922.260138
 22
2402.143955
 13
2922.260138
 23
2402.143955
  0
LINE
  8
0
 62
     1
  6
CONTINUOUS
 10
2807.260138
 20
2402.143955
 11
2857.260138
 21
2402.143955
  0
SOLID
  8
0
 62
     1
 10
2833.111993
 20
2395.673479
 11
2833.111993
 21
2408.614431
 12
2857.260138
 22
2402.143955
 13
2857.260138
 23
2402.143955
  0
TEXT
  8
0
 62
     1
 10
2871.760138
 20
2407.477288
 40
32.000000
 50
0.000000E+00
 41
0.56 
  1
65
 72
     5
 11
2907.760138
 21
2407.477288
  0
LINE
  8
0
 62
     1
  6
CONTINUOUS
 10
2922.260138
 20
2351.389268
 11
2922.260138
 21
2462.143955
  0
LINE
  8
0
 62
     1
  6
CONTINUOUS
 10
2857.260138
 20
2348.889268
 11
2857.260138
 21
2412.143955
  0
LINE
  8
0
 62
     1
  6
CONTINUOUS
 10
2857.260138
 20
2402.143955
 11
2922.260138
 21
2402.143955
  0
ENDBLK
  0
BLOCK
  8
0
  2
G31
 70
     0
 10
0
 20
0
  0
LINE
  8
0
 62
     1
  6
CONTINUOUS
 10
2595.183225
 20
1638.027117
 11
2595.183225
 21
1688.027117
  0
SOLID
  8
0
 62
     1
 10
2587.418653
 20
1667.004891
 11
2602.947796
 21
1667.004891
 12
2595.183225
 22
1638.027117
 13
2595.183225
 23
1638.027117
  0
TEXT
  8
0
 62
     1
 10
2589.849892
 20
1590.027117
 40
32.000000
 50
90.000000
 41
0.56 
  1
60
 72
     5
 11
2589.849892
 21
1626.027117
  0
LINE
  8
0
 62
     1
  6
CONTINUOUS
 10
2585.183225
 20
1638.027117
 11
2660.334190
 21
1638.027117
  0
LINE
  8
0
 62
     1
  6
CONTINUOUS
 10
2585.183225
 20
1578.027117
 11
2762.260138
 21
1578.027117
  0
LINE
  8
0
 62
     1
  6
CONTINUOUS
 10
2595.183225
 20
1578.027117
 11
2595.183225
 21
1638.027117
  0
CIRCLE
  8
0
 62
     1
  6
CONTINUOUS
 10
2595.183225
 20
1578.027117
 40
2.500000
  0
CIRCLE
  8
0
 62
     1
  6
CONTINUOUS
 10
2595.183225
 20
1578.027117
 40
1.250000
  0
ENDBLK
  0
BLOCK
  8
0
  2
G32
 70
     0
 10
0
 20
0
  0
LINE
  8
0
 62
     1
  6
CONTINUOUS
 10
2595.183225
 20
1575.527117
 11
2595.183225
 21
1484.944416
  0
SOLID
  8
0
 62
     1
 10
2601.653701
 20
1551.378971
 11
2588.712749
 21
1551.378971
 12
2595.183225
 22
1575.527117
 13
2595.183225
 23
1575.527117
  0
TEXT
  8
0
 62
     1
 10
2589.849892
 20
1489.799037
 40
32.000000
 50
90.000000
 41
0.58 
  1
2.5
 72
     5
 11
2589.849892
 21
1545.799037
  0
LINE
  8
0
 62
     1
  6
CONTINUOUS
 10
2585.183225
 20
1575.527117
 11
2762.260138
 21
1575.527117
  0
LINE
  8
0
 62
     1
  6
CONTINUOUS
 10
2595.183225
 20
1575.527117
 11
2595.183225
 21
1578.027117
  0
ENDBLK
  0
BLOCK
  8
0
  2
G33
 70
     0
 10
0
 20
0
  0
LINE
  8
0
 62
     1
  6
CONTINUOUS
 10
2999.337052
 20
1578.027117
 11
2999.337052
 21
1638.027117
  0
CIRCLE
  8
0
 62
     1
  6
CONTINUOUS
 10
2999.337052
 20
1578.027117
 40
2.500000
  0
CIRCLE
  8
0
 62
     1
  6
CONTINUOUS
 10
2999.337052
 20
1578.027117
 40
1.250000
  0
LINE
  8
0
 62
     1
  6
CONTINUOUS
 10
2927.260138
 20
1578.027117
 11
3009.337052
 21
1578.027117
  0
LINE
  8
0
 62
     1
  6
CONTINUOUS
 10
2938.193844
 20
1638.027117
 11
3009.337052
 21
1638.027117
  0
TEXT
  8
0
 62
     1
 10
2994.003719
 20
1590.027117
 40
32.000000
 50
90.000000
 41
0.56 
  1
60
 72
     5
 11
2994.003719
 21
1626.027117
  0
LINE
  8
0
 62
     1
  6
CONTINUOUS
 10
2999.337052
 20
1638.027117
 11
2999.337052
 21
1688.027117
  0
SOLID
  8
0
 62
     1
 10
2991.572481
 20
1667.004891
 11
3007.101623
 21
1667.004891
 12
2999.337052
 22
1638.027117
 13
2999.337052
 23
1638.027117
  0
ENDBLK
  0
BLOCK
  8
0
  2
G34
 70
     0
 10
0
 20
0
  0
LINE
  8
0
 62
     1
  6
CONTINUOUS
 10
2999.337052
 20
1575.527117
 11
2999.337052
 21
1578.027117
  0
LINE
  8
0
 62
     1
  6
CONTINUOUS
 10
3009.337052
 20
1575.527117
 11
2927.260138
 21
1575.527117
  0
TEXT
  8
0
 62
     1
 10
2994.003719
 20
1489.799037
 40
32.000000
 50
90.000000
 41
0.58 
  1
2.5
 72
     5
 11
2994.003719
 21
1545.799037
  0
LINE
  8
0
 62
     1
  6
CONTINUOUS
 10
2999.337052
 20
1575.527117
 11
2999.337052
 21
1484.944416
  0
SOLID
  8
0
 62
     1
 10
3005.807528
 20
1551.378971
 11
2992.866576
 21
1551.378971
 12
2999.337052
 22
1575.527117
 13
2999.337052
 23
1575.527117
  0
ENDBLK
  0
BLOCK
  8
0
  2
G35
 70
     0
 10
0
 20
0
  0
LINE
  8
0
 62
     1
  6
CONTINUOUS
 10
2995.514825
 20
2216.389268
 11
2995.514825
 21
2341.389268
  0
SOLID
  8
0
 62
     1
 10
2989.044349
 20
2240.537414
 11
3001.985301
 21
2240.537414
 12
2995.514825
 22
2216.389268
 13
2995.514825
 23
2216.389268
  0
SOLID
  8
0
 62
     1
 10
3001.985301
 20
2317.241123
 11
2989.044349
 21
2317.241123
 12
2995.514825
 22
2341.389268
 13
2995.514825
 23
2341.389268
  0
LINE
  8
0
 62
     1
  6
CONTINUOUS
 10
2932.260138
 20
2216.389268
 11
3005.514825
 21
2216.389268
  0
LINE
  8
0
 62
     1
  6
CONTINUOUS
 10
2932.260138
 20
2341.389268
 11
3005.514825
 21
2341.389268
  0
TEXT
  8
0
 62
     1
 10
2990.181492
 20
2220.889268
 40
32.000000
 50
90.000000
 41
0.60 
  1
%%c125
 72
     5
 11
2990.181492
 21
2336.889268
  0
ENDBLK
  0
BLOCK
  8
0
  2
G36
 70
     0
 10
0
 20
0
  0
LINE
  8
0
 62
     7
  6
CONTINUOUS
 10
2667.260138
 20
2350.889268
 11
2667.260138
 21
2471.099426
  0
LINE
  8
0
 62
     7
  6
CONTINUOUS
 10
2762.260138
 20
2397.330428
 11
2762.260138
 21
2471.099426
  0
LINE
  8
0
 62
     7
  6
CONTINUOUS
 10
2667.260138
 20
2461.099426
 11
2762.260138
 21
2461.099426
  0
SOLID
  8
0
 62
     7
 10
2686.578655
 20
2466.275807
 11
2686.578655
 21
2455.923045
 12
2667.260138
 22
2461.099426
 13
2667.260138
 23
2461.099426
  0
SOLID
  8
0
 62
     7
 10
2742.941622
 20
2455.923045
 11
2742.941622
 21
2466.275807
 12
2762.260138
 22
2461.099426
 13
2762.260138
 23
2461.099426
  0
TEXT
  8
0
 62
     7
 10
2696.760138
 20
2466.432756
 40
32.000000
 50
0.000000E+00
 41
0.56 
  1
95
 72
     5
 11
2732.760138
 21
2466.432756
  0
ENDBLK
  0
BLOCK
  8
0
  2
G37
 70
     0
 10
0
 20
0
  0
LINE
  8
0
 62
     7
  6
CONTINUOUS
 10
2762.260138
 20
2380.987720
 11
2762.260138
 21
2471.099426
  0
LINE
  8
0
 62
     7
  6
CONTINUOUS
 10
2922.260138
 20
2361.389268
 11
2922.260138
 21
2471.099426
  0
LINE
  8
0
 62
     7
  6
CONTINUOUS
 10
2762.260138
 20
2461.099426
 11
2922.260138
 21
2461.099426
  0
SOLID
  8
0
 62
     7
 10
2781.578655
 20
2466.275807
 11
2781.578655
 21
2455.923045
 12
2762.260138
 22
2461.099426
 13
2762.260138
 23
2461.099426
  0
SOLID
  8
0
 62
     7
 10
2902.941622
 20
2455.923045
 11
2902.941622
 21
2466.275807
 12
2922.260138
 22
2461.099426
 13
2922.260138
 23
2461.099426
  0
TEXT
  8
0
 62
     7
 10
2814.260138
 20
2466.432756
 40
32.000000
 50
0.000000E+00
 41
0.58 
  1
160
 72
     5
 11
2870.260138
 21
2466.432756
  0
ENDBLK
  0
BLOCK
  8
0
  2
G38
 70
     0
 10
0
 20
0
  0
LINE
  8
0
 62
     7
  6
CONTINUOUS
 10
3000.812620
 20
2278.889268
 11
3063.733918
 21
2278.889268
  0
LINE
  8
0
 62
     7
  6
CONTINUOUS
 10
2844.760138
 20
2118.889268
 11
3063.733918
 21
2118.889268
  0
LINE
  8
0
 62
     7
  6
CONTINUOUS
 10
3053.733918
 20
2278.889268
 11
3053.733918
 21
2118.889268
  0
SOLID
  8
0
 62
     7
 10
3058.910299
 20
2259.570752
 11
3048.557537
 21
2259.570752
 12
3053.733918
 22
2278.889268
 13
3053.733918
 23
2278.889268
  0
SOLID
  8
0
 62
     7
 10
3048.557537
 20
2138.207785
 11
3058.910299
 21
2138.207785
 12
3053.733918
 22
2118.889268
 13
3053.733918
 23
2118.889268
  0
TEXT
  8
0
 62
     7
 10
3048.400588
 20
2170.889268
 40
32.000000
 50
90.000000
 41
0.58 
  1
160
 72
     5
 11
3048.400588
 21
2226.889268
  0
ENDBLK
  0
BLOCK
  8
0
  2
G39
 70
     0
 10
0
 20
0
  0
LINE
  8
0
 62
     7
  6
CONTINUOUS
 10
2687.260138
 20
1913.027117
 11
2687.260138
 21
1956.551724
  0
LINE
  8
0
 62
     7
  6
CONTINUOUS
 10
2837.260138
 20
1913.027117
 11
2837.260138
 21
1956.551724
  0
LINE
  8
0
 62
     7
  6
CONTINUOUS
 10
2687.260138
 20
1946.551724
 11
2837.260138
 21
1946.551724
  0
SOLID
  8
0
 62
     7
 10
2706.578655
 20
1951.728105
 11
2706.578655
 21
1941.375343
 12
2687.260138
 22
1946.551724
 13
2687.260138
 23
1946.551724
  0
SOLID
  8
0
 62
     7
 10
2817.941622
 20
1941.375343
 11
2817.941622
 21
1951.728105
 12
2837.260138
 22
1946.551724
 13
2837.260138
 23
1946.551724
  0
TEXT
  8
0
 62
     7
 10
2704.260138
 20
1951.885054
 40
32.000000
 50
0.000000E+00
 41
0.60 
  1
%%c150
 72
     5
 11
2820.260138
 21
1951.885054
  0
ENDBLK
  0
BLOCK
  8
0
  2
G40
 70
     0
 10
0
 20
0
  0
LINE
  8
0
 62
     7
  6
CONTINUOUS
 10
2676.260138
 20
1733.786486
 11
2676.260138
 21
2018.748668
  0
LINE
  8
0
 62
     7
  6
CONTINUOUS
 10
2848.260138
 20
1723.786486
 11
2848.260138
 21
2018.748668
  0
LINE
  8
0
 62
     7
  6
CONTINUOUS
 10
2676.260138
 20
2008.748668
 11
2848.260138
 21
2008.748668
  0
SOLID
  8
0
 62
     7
 10
2695.578655
 20
2013.925048
 11
2695.578655
 21
2003.572287
 12
2676.260138
 22
2008.748668
 13
2676.260138
 23
2008.748668
  0
SOLID
  8
0
 62
     7
 10
2828.941622
 20
2003.572287
 11
2828.941622
 21
2013.925048
 12
2848.260138
 22
2008.748668
 13
2848.260138
 23
2008.748668
  0
TEXT
  8
0
 62
     7
 10
2704.260138
 20
2014.081997
 40
32.000000
 50
0.000000E+00
 41
0.60 
  1
%%c172
 72
     5
 11
2820.260138
 21
2014.081997
  0
ENDBLK
  0
BLOCK
  8
0
  2
G41
 70
     0
 10
0
 20
0
  0
LINE
  8
0
 62
     7
  6
CONTINUOUS
 10
2707.260138
 20
908.027117
 11
2707.260138
 21
833.392951
  0
LINE
  8
0
 62
     7
  6
CONTINUOUS
 10
2817.260138
 20
908.027117
 11
2817.260138
 21
833.392951
  0
LINE
  8
0
 62
     7
  6
CONTINUOUS
 10
2707.260138
 20
843.392951
 11
2817.260138
 21
843.392951
  0
SOLID
  8
0
 62
     7
 10
2726.578655
 20
848.569332
 11
2726.578655
 21
838.216570
 12
2707.260138
 22
843.392951
 13
2707.260138
 23
843.392951
  0
SOLID
  8
0
 62
     7
 10
2797.941622
 20
838.216570
 11
2797.941622
 21
848.569332
 12
2817.260138
 22
843.392951
 13
2817.260138
 23
843.392951
  0
TEXT
  8
0
 62
     7
 10
2704.260138
 20
848.726280
 40
32.000000
 50
0.000000E+00
 41
0.60 
  1
%%c110
 72
     5
 11
2820.260138
 21
848.726280
  0
ENDBLK
  0
BLOCK
  8
0
  2
G42
 70
     0
 10
0
 20
0
  0
LINE
  8
0
 62
     7
  6
CONTINUOUS
 10
2676.260138
 20
1171.899028
 11
2676.260138
 21
768.748668
  0
LINE
  8
0
 62
     7
  6
CONTINUOUS
 10
2848.260138
 20
1181.899028
 11
2848.260138
 21
768.748668
  0
LINE
  8
0
 62
     7
  6
CONTINUOUS
 10
2676.260138
 20
778.748668
 11
2848.260138
 21
778.748668
  0
SOLID
  8
0
 62
     7
 10
2695.578655
 20
783.925048
 11
2695.578655
 21
773.572287
 12
2676.260138
 22
778.748668
 13
2676.260138
 23
778.748668
  0
SOLID
  8
0
 62
     7
 10
2828.941622
 20
773.572287
 11
2828.941622
 21
783.925048
 12
2848.260138
 22
778.748668
 13
2848.260138
 23
778.748668
  0
TEXT
  8
0
 62
     7
 10
2704.260138
 20
784.081997
 40
32.000000
 50
0.000000E+00
 41
0.60 
  1
%%c172
 72
     5
 11
2820.260138
 21
784.081997
  0
ENDBLK
  0
BLOCK
  8
0
  2
G43
 70
     0
 10
0
 20
0
  0
LINE
  8
0
 62
     2
  6
CONTINUOUS
 10
3679.000000
 20
1865.000000
 11
3679.000000
 21
1860.000000
  0
LINE
  8
0
 62
     2
  6
CONTINUOUS
 10
3569.000000
 20
1865.000000
 11
3569.000000
 21
1860.000000
  0
LINE
  8
0
 62
     2
  6
CONTINUOUS
 10
3675.965398
 20
1865.000000
 11
3675.569710
 21
1921.979167
  0
LINE
  8
0
 62
     2
  6
CONTINUOUS
 10
3572.034602
 20
1865.000000
 11
3572.430290
 21
1921.979167
  0
LINE
  8
0
 62
     2
  6
CONTINUOUS
 10
3569.000000
 20
1865.000000
 11
3679.000000
 21
1865.000000
  0
LINE
  8
0
 62
     2
  6
CONTINUOUS
 10
3679.000000
 20
1860.000000
 11
3569.000000
 21
1860.000000
  0
ENDBLK
  0
BLOCK
  8
0
  2
G44
 70
     0
 10
0
 20
0
  0
LINE
  8
0
 62
     7
  6
CONTINUOUS
 10
3794.000000
 20
2075.000000
 11
3846.324692
 21
2075.000000
  0
LINE
  8
0
 62
     7
  6
CONTINUOUS
 10
3794.000000
 20
1965.000000
 11
3846.324692
 21
1965.000000
  0
LINE
  8
0
 62
     7
  6
CONTINUOUS
 10
3836.324692
 20
2075.000000
 11
3836.324692
 21
1965.000000
  0
SOLID
  8
0
 62
     7
 10
3841.501073
 20
2055.681483
 11
3831.148311
 21
2055.681483
 12
3836.324692
 22
2075.000000
 13
3836.324692
 23
2075.000000
  0
SOLID
  8
0
 62
     7
 10
3831.148311
 20
1984.318517
 11
3841.501073
 21
1984.318517
 12
3836.324692
 22
1965.000000
 13
3836.324692
 23
1965.000000
  0
TEXT
  8
0
 62
     7
 10
3830.991362
 20
2004.000000
 40
32.000000
 50
90.000000
 41
0.86 
  1
Ａ
 72
     5
 11
3830.991362
 21
2036.000000
  0
ENDBLK
  0
BLOCK
  8
0
  2
G45
 70
     0
 10
0
 20
0
  0
LINE
  8
0
 62
     2
  6
CONTINUOUS
 10
3719.000000
 20
2072.000000
 11
3779.000000
 21
2072.000000
  0
LINE
  8
0
 62
     2
  6
CONTINUOUS
 10
3779.000000
 20
1968.000000
 11
3719.000000
 21
1968.000000
  0
LINE
  8
0
 62
     2
  6
CONTINUOUS
 10
3779.000000
 20
2075.000000
 11
3784.000000
 21
2075.000000
  0
LINE
  8
0
 62
     2
  6
CONTINUOUS
 10
3779.000000
 20
1965.000000
 11
3784.000000
 21
1965.000000
  0
LINE
  8
0
 62
     2
  6
CONTINUOUS
 10
3779.000000
 20
1965.000000
 11
3779.000000
 21
2075.000000
  0
LINE
  8
0
 62
     2
  6
CONTINUOUS
 10
3784.000000
 20
1965.000000
 11
3784.000000
 21
2075.000000
  0
ENDBLK
  0
BLOCK
  8
0
  2
G46
 70
     0
 10
0
 20
0
  0
LINE
  8
0
 62
     7
  6
CONTINUOUS
 10
3569.000000
 20
1850.000000
 11
3569.000000
 21
1798.019379
  0
LINE
  8
0
 62
     7
  6
CONTINUOUS
 10
3679.000000
 20
1850.000000
 11
3679.000000
 21
1798.019379
  0
LINE
  8
0
 62
     7
  6
CONTINUOUS
 10
3569.000000
 20
1808.019379
 11
3679.000000
 21
1808.019379
  0
SOLID
  8
0
 62
     7
 10
3588.318517
 20
1813.195760
 11
3588.318517
 21
1802.842998
 12
3569.000000
 22
1808.019379
 13
3569.000000
 23
1808.019379
  0
SOLID
  8
0
 62
     7
 10
3659.681483
 20
1802.842998
 11
3659.681483
 21
1813.195760
 12
3679.000000
 22
1808.019379
 13
3679.000000
 23
1808.019379
  0
TEXT
  8
0
 62
     7
 10
3608.000000
 20
1813.352709
 40
32.000000
 50
0.000000E+00
 41
0.86 
  1
Ａ
 72
     5
 11
3640.000000
 21
1813.352709
  0
ENDBLK
  0
BLOCK
  8
0
  2
G47
 70
     0
 10
0
 20
0
  0
LINE
  8
0
 62
     7
  6
CONTINUOUS
 10
3454.000000
 20
2075.000000
 11
3401.675308
 21
2075.000000
  0
LINE
  8
0
 62
     7
  6
CONTINUOUS
 10
3454.000000
 20
1965.000000
 11
3401.675308
 21
1965.000000
  0
LINE
  8
0
 62
     7
  6
CONTINUOUS
 10
3411.675308
 20
2075.000000
 11
3411.675308
 21
1965.000000
  0
SOLID
  8
0
 62
     7
 10
3416.851689
 20
2055.681483
 11
3406.498927
 21
2055.681483
 12
3411.675308
 22
2075.000000
 13
3411.675308
 23
2075.000000
  0
SOLID
  8
0
 62
     7
 10
3406.498927
 20
1984.318517
 11
3416.851689
 21
1984.318517
 12
3411.675308
 22
1965.000000
 13
3411.675308
 23
1965.000000
  0
TEXT
  8
0
 62
     7
 10
3406.341978
 20
2004.000000
 40
32.000000
 50
90.000000
 41
0.86 
  1
Ａ
 72
     5
 11
3406.341978
 21
2036.000000
  0
ENDBLK
  0
BLOCK
  8
0
  2
G48
 70
     0
 10
0
 20
0
  0
LINE
  8
0
 62
     2
  6
CONTINUOUS
 10
3464.000000
 20
1965.000000
 11
3464.000000
 21
2075.000000
  0
LINE
  8
0
 62
     2
  6
CONTINUOUS
 10
3469.000000
 20
1965.000000
 11
3469.000000
 21
2075.000000
  0
LINE
  8
0
 62
     2
  6
CONTINUOUS
 10
3469.000000
 20
1965.000000
 11
3464.000000
 21
1965.000000
  0
LINE
  8
0
 62
     2
  6
CONTINUOUS
 10
3469.000000
 20
2075.000000
 11
3464.000000
 21
2075.000000
  0
LINE
  8
0
 62
     2
  6
CONTINUOUS
 10
3469.000000
 20
1968.000000
 11
3529.000000
 21
1968.000000
  0
LINE
  8
0
 62
     2
  6
CONTINUOUS
 10
3529.000000
 20
2072.000000
 11
3469.000000
 21
2072.000000
  0
ENDBLK
  0
BLOCK
  8
0
  2
G49
 70
     0
 10
0
 20
0
  0
LINE
  8
0
 62
     7
  6
CONTINUOUS
 10
2931.230312
 20
1329.518419
 11
3009.337052
 21
1329.518419
  0
LINE
  8
0
 62
     7
  6
CONTINUOUS
 10
2932.260138
 20
1278.027117
 11
3009.337052
 21
1278.027117
  0
LINE
  8
0
 62
     7
  6
CONTINUOUS
 10
2999.337052
 20
1329.518419
 11
2999.337052
 21
1278.027117
  0
LINE
  8
0
 62
     7
  6
CONTINUOUS
 10
2999.337052
 20
1329.518419
 11
2999.337052
 21
1379.518419
  0
SOLID
  8
0
 62
     7
 10
2994.160671
 20
1348.836935
 11
3004.513433
 21
1348.836935
 12
2999.337052
 22
1329.518419
 13
2999.337052
 23
1329.518419
  0
LINE
  8
0
 62
     7
  6
CONTINUOUS
 10
2999.337052
 20
1278.027117
 11
2999.337052
 21
1228.027117
  0
SOLID
  8
0
 62
     7
 10
3004.513433
 20
1258.708600
 11
2994.160671
 21
1258.708600
 12
2999.337052
 22
1278.027117
 13
2999.337052
 23
1278.027117
  0
TEXT
  8
0
 62
     7
 10
2994.003722
 20
1287.772768
 40
32.000000
 50
90.000000
 41
0.86 
  1
Ｂ
 72
     5
 11
2994.003722
 21
1319.772768
  0
ENDBLK
  0
BLOCK
  8
0
  2
G50
 70
     0
 10
0
 20
0
  0
POINT
  8
0
 62
     2
 10
2849.230312
 20
1336.078419
  0
LINE
  8
0
 62
     2
  6
CENTER
 10
2932.510141
 20
1329.744015
 11
2849.230312
 21
1328.078419
  0
LINE
  8
0
 62
     2
  6
CONTINUOUS
 10
2915.191520
 20
1381.408042
 11
2857.260138
 21
1380.249414
  0
LINE
  8
0
 62
     2
  6
CONTINUOUS
 10
2857.276488
 20
1276.727444
 11
2922.260138
 21
1278.027117
  0
LINE
  8
0
 62
     2
  6
CONTINUOUS
 10
2915.131532
 20
1384.407442
 11
2920.130532
 21
1384.507422
  0
LINE
  8
0
 62
     2
  6
CONTINUOUS
 10
2920.130532
 20
1384.507422
 11
2922.260138
 21
1278.027117
  0
LINE
  8
0
 62
     2
  6
CONTINUOUS
 10
2915.131532
 20
1384.407442
 11
2917.261138
 21
1277.927137
  0
POINT
  8
0
 62
     2
 10
2921.230312
 20
1329.518419
  0
ENDBLK
  0
BLOCK
  8
0
  2
G51
 70
     0
 10
0
 20
0
  0
CIRCLE
  8
0
 62
     1
  6
CONTINUOUS
 10
2762.260138
 20
1338.027117
 40
62.000000
  0
LINE
  8
0
 62
     2
  6
CONTINUOUS
 10
2780.176261
 20
1278.526996
 11
2744.344015
 21
1278.526996
  0
CIRCLE
  8
0
 62
     2
  6
CONTINUOUS
 10
2762.260138
 20
1330.527117
 40
47.000000
  0
ARC
  8
0
 62
     2
  6
CONTINUOUS
 10
2762.260138
 20
1330.527117
 40
55.000000
 50
289.010880
 51
610.989120
  0
LINE
  8
0
 62
     2
  6
CENTER
 10
2690.546960
 20
1330.527117
 11
2828.258360
 21
1330.527117
  0
CIRCLE
  8
0
 62
     2
  6
CONTINUOUS
 10
2762.260138
 20
1330.527117
 40
35.000000
  0
ENDBLK
  0
BLOCK
  8
0
  2
G52
 70
     0
 10
0
 20
0
  0
LINE
  8
0
 62
     7
  6
CONTINUOUS
 10
2593.289964
 20
1329.518419
 11
2540.908222
 21
1329.518419
  0
LINE
  8
0
 62
     7
  6
CONTINUOUS
 10
2592.260138
 20
1278.027117
 11
2540.908222
 21
1278.027117
  0
LINE
  8
0
 62
     7
  6
CONTINUOUS
 10
2550.908222
 20
1329.518419
 11
2550.908222
 21
1278.027117
  0
LINE
  8
0
 62
     7
  6
CONTINUOUS
 10
2550.908222
 20
1329.518419
 11
2550.908222
 21
1379.518419
  0
SOLID
  8
0
 62
     7
 10
2545.731841
 20
1348.836935
 11
2556.084603
 21
1348.836935
 12
2550.908222
 22
1329.518419
 13
2550.908222
 23
1329.518419
  0
LINE
  8
0
 62
     7
  6
CONTINUOUS
 10
2550.908222
 20
1278.027117
 11
2550.908222
 21
1228.027117
  0
SOLID
  8
0
 62
     7
 10
2556.084603
 20
1258.708600
 11
2545.731841
 21
1258.708600
 12
2550.908222
 22
1278.027117
 13
2550.908222
 23
1278.027117
  0
TEXT
  8
0
 62
     7
 10
2545.574892
 20
1287.772768
 40
32.000000
 50
90.000000
 41
0.86 
  1
Ｂ
 72
     5
 11
2545.574892
 21
1319.772768
  0
ENDBLK
  0
BLOCK
  8
0
  2
G53
 70
     0
 10
0
 20
0
  0
POINT
  8
0
 62
     2
 10
2603.289964
 20
1329.518419
  0
LINE
  8
0
 62
     2
  6
CONTINUOUS
 10
2609.388745
 20
1384.407442
 11
2607.259139
 21
1277.927137
  0
LINE
  8
0
 62
     2
  6
CONTINUOUS
 10
2604.389744
 20
1384.507422
 11
2602.260138
 21
1278.027117
  0
LINE
  8
0
 62
     2
  6
CONTINUOUS
 10
2609.388745
 20
1384.407442
 11
2604.389744
 21
1384.507422
  0
LINE
  8
0
 62
     2
  6
CONTINUOUS
 10
2667.243788
 20
1276.727444
 11
2602.260138
 21
1278.027117
  0
LINE
  8
0
 62
     2
  6
CONTINUOUS
 10
2609.328757
 20
1381.408042
 11
2667.260138
 21
1380.249414
  0
LINE
  8
0
 62
     2
  6
CENTER
 10
2592.010135
 20
1329.744015
 11
2675.289964
 21
1328.078419
  0
POINT
  8
0
 62
     2
 10
2675.289964
 20
1336.078419
  0
ENDBLK
  0
ENDSEC
  0
SECTION
  2
ENTITIES
  0
LINE
  8
0
 62
     1
  6
CONTINUOUS
 10
3729.000000
 20
2010.000000
 11
3729.000000
 21
1831.182154
  0
LINE
  8
0
 62
     1
  6
CONTINUOUS
 10
3729.000000
 20
1736.624747
 11
3729.000000
 21
1831.182154
  0
LINE
  8
0
 62
     1
  6
CONTINUOUS
 10
3614.000000
 20
1915.000000
 11
3436.009987
 21
1915.000000
  0
INSERT
  8
0
  2
G0
 10
0
 20
0
  0
LINE
  8
0
 62
     1
  6
CONTINUOUS
 10
3624.000000
 20
2244.624747
 11
3624.000000
 21
2144.723844
  0
LINE
  8
3
 62
     3
  6
CONTINUOUS
 10
2922.260138
 20
2216.389268
 11
2922.260138
 21
2341.389268
  0
LINE
  8
3
 62
     3
  6
CONTINUOUS
 10
2917.260138
 20
2216.389268
 11
2917.260138
 21
2218.889268
  0
TEXT
  8
0
 62
     3
 10
3480.883203
 20
2036.930278
 40
32.000000
 50
0.000000E+00
 41
0.86 
  1
ｃ
 72
     5
 11
3512.883203
 21
2036.930278
  0
LINE
  8
0
 62
     1
  6
CONTINUOUS
 10
3341.675308
 20
1915.000000
 11
3404.888853
 21
1915.000000
  0
LINE
  8
0
 62
     1
  6
CONTINUOUS
 10
3519.000000
 20
2010.000000
 11
3519.000000
 21
1838.258534
  0
TEXT
  8
0
 62
     6
 10
2913.523107
 20
2630.810698
 40
32.000000
 50
0.000000E+00
 41
0.50 
  1
1
 72
     5
 11
2929.523107
 21
2630.810698
  0
CIRCLE
  8
0
 62
     6
  6
HIDDEN
 10
2921.523107
 20
2646.810698
 40
20.000000
  0
TEXT
  8
0
 62
     6
 10
2913.523107
 20
2582.777279
 40
32.000000
 50
0.000000E+00
 41
0.50 
  1
2
 72
     5
 11
2929.523107
 21
2582.777279
  0
CIRCLE
  8
0
 62
     6
  6
HIDDEN
 10
2921.523107
 20
2598.777279
 40
20.000000
  0
LINE
  8
3
 62
     4
  6
CONTINUOUS
 10
2679.460550
 20
1278.517316
 11
2682.529432
 21
1279.930668
  0
LINE
  8
3
 62
     4
  6
CONTINUOUS
 10
2682.529432
 20
1279.930668
 11
2685.501027
 21
1282.245561
  0
LINE
  8
3
 62
     4
  6
CONTINUOUS
 10
2685.501027
 20
1282.245561
 11
2688.329223
 21
1285.426073
  0
LINE
  8
3
 62
     4
  6
CONTINUOUS
 10
2688.329223
 20
1285.426073
 11
2690.970130
 21
1289.422847
  0
LINE
  8
3
 62
     4
  6
CONTINUOUS
 10
2690.970130
 20
1289.422847
 11
2693.382767
 21
1294.173863
  0
LINE
  8
3
 62
     4
  6
CONTINUOUS
 10
2693.382767
 20
1294.173863
 11
2695.529696
 21
1299.605393
  0
LINE
  8
3
 62
     4
  6
CONTINUOUS
 10
2695.529696
 20
1299.605393
 11
2697.377599
 21
1305.633151
  0
LINE
  8
3
 62
     4
  6
CONTINUOUS
 10
2697.377599
 20
1305.633151
 11
2698.897802
 21
1312.163599
  0
LINE
  8
3
 62
     4
  6
CONTINUOUS
 10
2698.897802
 20
1312.163599
 11
2700.066714
 21
1319.095397
  0
LINE
  8
3
 62
     4
  6
CONTINUOUS
 10
2700.066714
 20
1319.095397
 11
2700.866195
 21
1326.320978
  0
LINE
  8
3
 62
     4
  6
CONTINUOUS
 10
2700.066714
 20
1319.095397
 11
2700.866195
 21
1326.320978
  0
LINE
  8
3
 62
     4
  6
CONTINUOUS
 10
2700.866195
 20
1349.733255
 11
2700.482107
 21
1353.657217
  0
LINE
  8
3
 62
     4
  6
CONTINUOUS
 10
2700.482107
 20
1353.657217
 11
2699.988743
 21
1357.510664
  0
LINE
  8
3
 62
     4
  6
CONTINUOUS
 10
2699.988743
 20
1357.510664
 11
2699.388329
 21
1361.276211
  0
LINE
  8
3
 62
     4
  6
CONTINUOUS
 10
2699.388329
 20
1361.276211
 11
2698.683573
 21
1364.936872
  0
LINE
  8
3
 62
     4
  6
CONTINUOUS
 10
2698.683573
 20
1364.936872
 11
2697.877654
 21
1368.476130
  0
LINE
  8
3
 62
     4
  6
CONTINUOUS
 10
2697.877654
 20
1368.476130
 11
2696.974209
 21
1371.878019
  0
LINE
  8
3
 62
     4
  6
CONTINUOUS
 10
2696.974209
 20
1371.878019
 11
2695.977314
 21
1375.127191
  0
LINE
  8
3
 62
     4
  6
CONTINUOUS
 10
2695.977314
 20
1375.127191
 11
2694.891465
 21
1378.208988
  0
LINE
  8
3
 62
     4
  6
CONTINUOUS
 10
2694.891465
 20
1378.208988
 11
2693.721561
 21
1381.109505
  0
LINE
  8
3
 62
     4
  6
CONTINUOUS
 10
2694.891465
 20
1378.208988
 11
2693.721561
 21
1381.109505
  0
LINE
  8
3
 62
     4
  6
CONTINUOUS
 10
2830.798715
 20
1381.109505
 11
2829.742104
 21
1378.507419
  0
LINE
  8
3
 62
     4
  6
CONTINUOUS
 10
2829.742104
 20
1378.507419
 11
2828.753168
 21
1375.757397
  0
LINE
  8
3
 62
     4
  6
CONTINUOUS
 10
2828.753168
 20
1375.757397
 11
2827.835520
 21
1372.869487
  0
LINE
  8
3
 62
     4
  6
CONTINUOUS
 10
2827.835520
 20
1372.869487
 11
2826.992516
 21
1369.854244
  0
LINE
  8
3
 62
     4
  6
CONTINUOUS
 10
2826.992516
 20
1369.854244
 11
2826.227234
 21
1366.722688
  0
LINE
  8
3
 62
     4
  6
CONTINUOUS
 10
2826.227234
 20
1366.722688
 11
2825.542473
 21
1363.486263
  0
LINE
  8
3
 62
     4
  6
CONTINUOUS
 10
2825.542473
 20
1363.486263
 11
2824.940735
 21
1360.156796
  0
LINE
  8
3
 62
     4
  6
CONTINUOUS
 10
2824.940735
 20
1360.156796
 11
2824.424218
 21
1356.746455
  0
LINE
  8
3
 62
     4
  6
CONTINUOUS
 10
2824.424218
 20
1356.746455
 11
2823.994811
 21
1353.267704
  0
LINE
  8
3
 62
     4
  6
CONTINUOUS
 10
2823.994811
 20
1353.267704
 11
2823.654082
 21
1349.733255
  0
LINE
  8
3
 62
     4
  6
CONTINUOUS
 10
2823.994811
 20
1353.267704
 11
2823.654082
 21
1349.733255
  0
TEXT
  8
0
 62
     3
 10
3579.124629
 20
1872.159553
 40
32.000000
 50
0.000000E+00
 41
0.86 
  1
ｂ
 72
     5
 11
3611.124629
 21
1872.159553
  0
ARC
  8
1
 62
     3
  6
CONTINUOUS
 10
2672.760138
 20
1573.027117
 40
3.000000
 50
0.000000E+00
 51
90.000000
  0
TEXT
  8
0
 62
     3
 10
3750.358913
 20
1575.962518
 40
32.000000
 50
360.000000
 41
0.87 
  1
Ｃ矢視　（下部）
 72
     5
 11
4006.358913
 21
1575.962518
  0
ARC
  8
1
 62
     3
  6
CONTINUOUS
 10
2672.760138
 20
1703.027117
 40
3.000000
 50
270.000000
 51
360.000000
  0
ARC
  8
1
 62
     3
  6
CONTINUOUS
 10
2669.260138
 20
1698.027117
 40
2.000000
 50
90.000000
 51
180.000000
  0
LINE
  8
1
 62
     3
  6
CONTINUOUS
 10
2669.260138
 20
1576.027117
 11
2672.760138
 21
1576.027117
  0
LINE
  8
1
 62
     3
  6
CONTINUOUS
 10
2669.260138
 20
1700.027117
 11
2672.760138
 21
1700.027117
  0
ARC
  8
1
 62
     3
  6
CONTINUOUS
 10
2669.260138
 20
1578.027117
 40
2.000000
 50
180.000000
 51
270.000000
  0
LINE
  8
0
 62
     3
  6
CONTINUOUS
 10
3740.698831
 20
1570.629185
 11
3998.475181
 21
1570.629185
  0
INSERT
  8
0
  2
G1
 10
0
 20
0
  0
LINE
  8
3
 62
     3
  6
CONTINUOUS
 10
2917.260138
 20
2216.389268
 11
2922.260138
 21
2216.389268
  0
LINE
  8
3
 62
     3
  6
CONTINUOUS
 10
2917.260138
 20
2341.389268
 11
2922.260138
 21
2341.389268
  0
LINE
  8
3
 62
     3
  6
CONTINUOUS
 10
2917.260138
 20
2341.389268
 11
2917.260138
 21
2218.889268
  0
LINE
  8
3
 62
     3
  6
CONTINUOUS
 10
2917.260138
 20
2218.889268
 11
2857.260138
 21
2218.889268
  0
CIRCLE
  8
0
 62
     3
  6
CONTINUOUS
 10
2762.260138
 20
2278.889268
 40
86.500000
  0
CIRCLE
  8
0
 62
     3
  6
CONTINUOUS
 10
2762.260138
 20
2278.889268
 40
75.000000
  0
LINE
  8
3
 62
     3
  6
CENTER
 10
2927.736307
 20
2278.889268
 11
2656.066815
 21
2278.889268
  0
LINE
  8
3
 62
     3
  6
CENTER
 10
2762.260138
 20
2380.987720
 11
2762.260138
 21
2105.839191
  0
TEXT
  8
0
 62
     6
 10
3631.418499
 20
2607.505821
 40
32.000000
 50
0.000000E+00
 41
0.97 
  1
枝管のタイプ（呼び径）
 72
     5
 11
4027.418499
 21
2607.505821
  0
TEXT
  8
0
 62
     6
 10
3729.294308
 20
2554.530401
 40
32.000000
 50
0.000000E+00
 41
0.74 
  1
：％％ｃ５０枝管
 72
     5
 11
3941.294308
 21
2554.530401
  0
TEXT
  8
0
 62
     6
 10
3729.294308
 20
2494.530401
 40
32.000000
 50
0.000000E+00
 41
0.74 
  1
：％％ｃ６５枝管
 72
     5
 11
3941.294308
 21
2494.530401
  0
TEXT
  8
0
 62
     6
 10
3729.294308
 20
2434.530401
 40
32.000000
 50
0.000000E+00
 41
0.74 
  1
：％％ｃ７５枝管
 72
     5
 11
3941.294308
 21
2434.530401
  0
TEXT
  8
0
 62
     6
 10
3698.206339
 20
2551.134541
 40
32.000000
 50
0.000000E+00
 41
0.50 
  1
1
 72
     5
 11
3714.206339
 21
2551.134541
  0
TEXT
  8
0
 62
     6
 10
3698.206339
 20
2491.134541
 40
32.000000
 50
0.000000E+00
 41
0.50 
  1
2
 72
     5
 11
3714.206339
 21
2491.134541
  0
TEXT
  8
0
 62
     6
 10
3698.206339
 20
2431.134541
 40
32.000000
 50
0.000000E+00
 41
0.50 
  1
3
 72
     5
 11
3714.206339
 21
2431.134541
  0
TEXT
  8
0
 62
     6
 10
2964.523107
 20
2630.810698
 40
32.000000
 50
0.000000E+00
 41
0.50 
  1
1
 72
     5
 11
2980.523107
 21
2630.810698
  0
CIRCLE
  8
0
 62
     6
  6
HIDDEN
 10
2972.523107
 20
2646.810698
 40
20.000000
  0
TEXT
  8
0
 62
     6
 10
2964.523107
 20
2582.777279
 40
32.000000
 50
0.000000E+00
 41
0.50 
  1
2
 72
     5
 11
2980.523107
 21
2582.777279
  0
CIRCLE
  8
0
 62
     6
  6
HIDDEN
 10
2972.523107
 20
2598.777279
 40
20.000000
  0
INSERT
  8
0
  2
G2
 10
0
 20
0
  0
INSERT
  8
0
  2
G3
 10
0
 20
0
  0
INSERT
  8
0
  2
G4
 10
0
 20
0
  0
INSERT
  8
0
  2
G5
 10
0
 20
0
  0
INSERT
  8
0
  2
G6
 10
0
 20
0
  0
INSERT
  8
0
  2
G7
 10
0
 20
0
  0
LINE
  8
0
 62
     1
  6
CONTINUOUS
 10
3129.337052
 20
1638.027117
 11
2999.337052
 21
1638.027117
  0
LINE
  8
0
 62
     1
  6
CONTINUOUS
 10
2999.337052
 20
1638.027117
 11
3016.213046
 21
1638.027117
  0
INSERT
  8
0
  2
G8
 10
0
 20
0
  0
TEXT
  8
0
 62
     6
 10
2681.990420
 20
2649.959535
 40
32.000000
 50
0.000000E+00
 41
0.97 
  1
上部
 72
     5
 11
2753.990420
 21
2649.959535
  0
TEXT
  8
0
 62
     6
 10
2801.990420
 20
2649.959535
 40
32.000000
 50
0.000000E+00
 41
0.97 
  1
下部
 72
     5
 11
2873.990420
 21
2649.959535
  0
TEXT
  8
0
 62
     6
 10
2840.490420
 20
2584.910129
 40
35.000000
 50
0.000000E+00
 41
0.86 
  1
Ｄ
 72
     5
 11
2875.490420
 21
2584.910129
  0
TEXT
  8
0
 62
     6
 10
2719.816479
 20
2583.910129
 40
35.000000
 50
0.000000E+00
 41
0.86 
  1
Ｃ
 72
     5
 11
2754.816479
 21
2583.910129
  0
INSERT
  8
0
  2
G9
 10
0
 20
0
  0
ARC
  8
0
 62
     4
  6
CONTINUOUS
 10
3624.000000
 20
2020.000000
 40
100.000000
 50
216.038338
 51
233.961662
  0
ARC
  8
3
 62
     4
  6
CONTINUOUS
 10
3624.000000
 20
2020.000000
 40
100.000000
 50
233.109614
 51
306.890386
  0
ARC
  8
3
 62
     4
  6
CONTINUOUS
 10
3624.000000
 20
2020.000000
 40
100.000000
 50
323.109614
 51
396.890386
  0
ARC
  8
3
 62
     4
  6
CONTINUOUS
 10
3624.000000
 20
2020.000000
 40
100.000000
 50
53.109614
 51
126.890386
  0
ARC
  8
3
 62
     4
  6
CENTER
 10
3624.000000
 20
2020.000000
 40
111.000000
 50
37.018997
 51
55.489571
  0
CIRCLE
  8
3
 62
     4
  6
CONTINUOUS
 10
3545.511147
 20
1941.511147
 40
7.000000
  0
CIRCLE
  8
3
 62
     4
  6
CONTINUOUS
 10
3702.488853
 20
1941.511147
 40
7.000000
  0
CIRCLE
  8
3
 62
     4
  6
CONTINUOUS
 10
3702.488853
 20
2098.488853
 40
7.000000
  0
CIRCLE
  8
3
 62
     4
  6
CONTINUOUS
 10
3545.511147
 20
2098.488853
 40
7.000000
  0
LINE
  8
3
 62
     3
  6
CENTER
 10
3624.000000
 20
1845.714592
 11
3624.000000
 21
2135.276543
  0
LINE
  8
3
 62
     3
  6
CENTER
 10
3455.959938
 20
2020.000000
 11
3799.931137
 21
2020.000000
  0
ARC
  8
3
 62
     4
  6
CONTINUOUS
 10
3702.488853
 20
2098.488853
 40
13.000000
 50
10.978618
 51
79.021382
  0
CIRCLE
  8
3
 62
     3
  6
CONTINUOUS
 10
3624.000000
 20
2020.000000
 40
81.000000
  0
ARC
  8
3
 62
     3
  6
CONTINUOUS
 10
3624.000000
 20
2020.000000
 40
105.000000
 50
79.021382
 51
100.978618
  0
LINE
  8
3
 62
     4
  6
CONTINUOUS
 10
3704.964607
 20
2111.250931
 11
3643.996478
 21
2123.078324
  0
LINE
  8
3
 62
     4
  6
CONTINUOUS
 10
3715.250931
 20
2100.964607
 11
3727.453628
 21
2038.061853
  0
LINE
  8
3
 62
     3
  6
CENTER
 10
3691.985865
 20
2087.985865
 11
3713.726559
 21
2109.726559
  0
ARC
  8
3
 62
     4
  6
CONTINUOUS
 10
3545.511147
 20
2098.488853
 40
13.000000
 50
100.978618
 51
169.021382
  0
ARC
  8
3
 62
     4
  6
CONTINUOUS
 10
3545.511147
 20
1941.511147
 40
13.000000
 50
190.978618
 51
259.021382
  0
ARC
  8
3
 62
     4
  6
CONTINUOUS
 10
3702.488853
 20
1941.511147
 40
13.000000
 50
280.978618
 51
349.021382
  0
LINE
  8
3
 62
     4
  6
CONTINUOUS
 10
3715.250931
 20
1939.035393
 11
3727.078324
 21
2000.003522
  0
LINE
  8
3
 62
     3
  6
CENTER
 10
3556.008772
 20
2087.991228
 11
3534.058072
 21
2109.941928
  0
LINE
  8
3
 62
     4
  6
CONTINUOUS
 10
3604.003522
 20
2123.078324
 11
3543.035393
 21
2111.250931
  0
LINE
  8
3
 62
     4
  6
CONTINUOUS
 10
3704.964607
 20
1928.749069
 11
3642.061853
 21
1916.546372
  0
ARC
  8
3
 62
     4
  6
CENTER
 10
3624.000000
 20
2020.000000
 40
111.000000
 50
124.449115
 51
144.970079
  0
ARC
  8
3
 62
     4
  6
CENTER
 10
3624.000000
 20
2020.000000
 40
111.000000
 50
216.069475
 51
234.182385
  0
LINE
  8
3
 62
     3
  6
CENTER
 10
3556.362469
 20
1952.362469
 11
3533.850513
 21
1929.850513
  0
ARC
  8
3
 62
     4
  6
CENTER
 10
3624.000000
 20
2020.000000
 40
111.000000
 50
306.265016
 51
322.275712
  0
LINE
  8
3
 62
     4
  6
CONTINUOUS
 10
3543.035393
 20
1928.749069
 11
3605.938147
 21
1916.546372
  0
LINE
  8
3
 62
     3
  6
CENTER
 10
3692.711757
 20
1951.288243
 11
3713.392933
 21
1930.607067
  0
LINE
  8
3
 62
     4
  6
CONTINUOUS
 10
3532.749069
 20
1939.035393
 11
3520.546372
 21
2001.938147
  0
ARC
  8
3
 62
     3
  6
CONTINUOUS
 10
3624.000000
 20
2020.000000
 40
105.000000
 50
260.096801
 51
279.903199
  0
ARC
  8
3
 62
     3
  6
CONTINUOUS
 10
3624.000000
 20
2020.000000
 40
105.000000
 50
349.021382
 51
369.903199
  0
LINE
  8
3
 62
     4
  6
CONTINUOUS
 10
3532.749069
 20
2100.964607
 11
3520.546372
 21
2038.061853
  0
ARC
  8
3
 62
     4
  6
CONTINUOUS
 10
3624.000000
 20
2020.000000
 40
100.000000
 50
143.109614
 51
216.890386
  0
LINE
  8
3
 62
     3
  6
CONTINUOUS
 10
2678.904332
 20
1578.387137
 11
2682.179724
 21
1579.833664
  0
LINE
  8
3
 62
     3
  6
CONTINUOUS
 10
2682.179724
 20
1579.833664
 11
2685.344644
 21
1582.361380
  0
LINE
  8
3
 62
     3
  6
CONTINUOUS
 10
2685.344644
 20
1582.361380
 11
2688.340291
 21
1585.923324
  0
LINE
  8
3
 62
     3
  6
CONTINUOUS
 10
2688.340291
 20
1585.923324
 11
2691.111008
 21
1590.453317
  0
LINE
  8
3
 62
     3
  6
CONTINUOUS
 10
2691.111008
 20
1590.453317
 11
2693.605317
 21
1595.867195
  0
LINE
  8
3
 62
     3
  6
CONTINUOUS
 10
2693.605317
 20
1595.867195
 11
2695.776877
 21
1602.064373
  0
LINE
  8
3
 62
     3
  6
CONTINUOUS
 10
2695.776877
 20
1602.064373
 11
2697.585340
 21
1608.929711
  0
LINE
  8
3
 62
     3
  6
CONTINUOUS
 10
2697.585340
 20
1608.929711
 11
2698.997108
 21
1616.335657
  0
LINE
  8
3
 62
     3
  6
CONTINUOUS
 10
2698.997108
 20
1616.335657
 11
2699.985950
 21
1624.144613
  0
LINE
  8
3
 62
     3
  6
CONTINUOUS
 10
2699.985950
 20
1624.144613
 11
2700.533494
 21
1632.211496
  0
LINE
  8
3
 62
     3
  6
CONTINUOUS
 10
2699.985950
 20
1624.144613
 11
2700.533494
 21
1632.211496
  0
CIRCLE
  8
3
 62
     4
  6
CONTINUOUS
 10
3624.000000
 20
2020.000000
 40
88.000000
  0
ARC
  8
0
 62
     4
  6
CONTINUOUS
 10
3624.000000
 20
2020.000000
 40
100.000000
 50
306.038338
 51
323.961662
  0
ARC
  8
0
 62
     4
  6
CONTINUOUS
 10
3624.000000
 20
2020.000000
 40
100.000000
 50
36.038338
 51
53.961662
  0
ARC
  8
3
 62
     3
  6
CONTINUOUS
 10
3624.000000
 20
2020.000000
 40
105.000000
 50
170.096801
 51
190.978618
  0
ARC
  8
0
 62
     4
  6
CONTINUOUS
 10
3624.000000
 20
2020.000000
 40
100.000000
 50
126.038338
 51
143.961662
  0
LINE
  8
3
 62
     4
  6
CONTINUOUS
 10
2823.654082
 20
1326.320978
 11
2824.453563
 21
1319.095397
  0
LINE
  8
3
 62
     4
  6
CONTINUOUS
 10
2824.453563
 20
1319.095397
 11
2825.622475
 21
1312.163599
  0
LINE
  8
3
 62
     4
  6
CONTINUOUS
 10
2825.622475
 20
1312.163599
 11
2827.142677
 21
1305.633151
  0
LINE
  8
3
 62
     4
  6
CONTINUOUS
 10
2827.142677
 20
1305.633151
 11
2828.990581
 21
1299.605393
  0
LINE
  8
3
 62
     4
  6
CONTINUOUS
 10
2828.990581
 20
1299.605393
 11
2831.137509
 21
1294.173863
  0
LINE
  8
3
 62
     4
  6
CONTINUOUS
 10
2831.137509
 20
1294.173863
 11
2833.550147
 21
1289.422847
  0
LINE
  8
3
 62
     4
  6
CONTINUOUS
 10
2833.550147
 20
1289.422847
 11
2836.191054
 21
1285.426073
  0
LINE
  8
3
 62
     4
  6
CONTINUOUS
 10
2836.191054
 20
1285.426073
 11
2839.019249
 21
1282.245561
  0
LINE
  8
3
 62
     4
  6
CONTINUOUS
 10
2839.019249
 20
1282.245561
 11
2841.990844
 21
1279.930668
  0
LINE
  8
3
 62
     4
  6
CONTINUOUS
 10
2841.990844
 20
1279.930668
 11
2845.059727
 21
1278.517316
  0
LINE
  8
3
 62
     4
  6
CONTINUOUS
 10
2841.990844
 20
1279.930668
 11
2845.059727
 21
1278.517316
  0
INSERT
  8
0
  2
G10
 10
0
 20
0
  0
INSERT
  8
0
  2
G11
 10
0
 20
0
  0
LINE
  8
0
 62
     1
  6
CONTINUOUS
 10
3519.000000
 20
1807.257250
 11
3519.000000
 21
1736.624747
  0
TEXT
  8
0
 62
     6
 10
2957.392254
 20
2674.451072
 40
32.000000
 50
0.000000E+00
 41
0.86 
  1
ｂ
 72
     5
 11
2989.392254
 21
2674.451072
  0
TEXT
  8
0
 62
     6
 10
3005.066195
 20
2674.451072
 40
32.000000
 50
0.000000E+00
 41
0.86 
  1
ｃ
 72
     5
 11
3037.066195
 21
2674.451072
  0
INSERT
  8
0
  2
G12
 10
0
 20
0
  0
INSERT
  8
0
  2
G13
 10
0
 20
0
  0
LINE
  8
0
 62
     2
  6
CONTINUOUS
 10
2867.260138
 20
1436.528715
 11
2762.260138
 21
1436.528715
  0
LINE
  8
0
 62
     2
  6
CONTINUOUS
 10
2867.260138
 20
1444.528715
 11
2762.260138
 21
1444.528715
  0
ARC
  8
0
 62
     2
  6
CONTINUOUS
 10
2861.260138
 20
1435.528715
 40
1.000000
 50
90.000000
 51
180.000000
  0
LINE
  8
0
 62
     2
  6
CONTINUOUS
 10
2860.260138
 20
1433.528715
 11
2860.260138
 21
1435.528715
  0
LINE
  8
0
 62
     2
  6
CONTINUOUS
 10
2867.260138
 20
1436.528715
 11
2867.260138
 21
1444.528715
  0
LINE
  8
0
 62
     1
  6
CONTINUOUS
 10
3529.000000
 20
2085.638816
 11
3529.000000
 21
2176.624747
  0
INSERT
  8
0
  2
G14
 10
0
 20
0
  0
INSERT
  8
0
  2
G15
 10
0
 20
0
  0
TEXT
  8
0
 62
     6
 10
2536.833607
 20
2583.812443
 40
35.000000
 50
0.000000E+00
 41
0.73 
  1
４ＳＦ－　　　－　　　　　　　　　　　０－Ｐ
 72
     5
 11
3173.833607
 21
2583.812443
  0
POINT
  8
0
 62
     3
 10
2762.260138
 20
1828.027117
  0
LINE
  8
3
 62
     3
  6
CONTINUOUS
 10
2687.260138
 20
1898.027117
 11
2762.260138
 21
1898.027117
  0
LINE
  8
3
 62
     3
  6
CONTINUOUS
 10
2701.290154
 20
1817.543100
 11
2762.260138
 21
1817.543100
  0
LINE
  8
3
 62
     3
  6
CONTINUOUS
 10
2684.521116
 20
1720.903002
 11
2762.260138
 21
1720.903002
  0
LINE
  8
3
 62
     3
  6
CENTER
 10
2762.260138
 20
1910.501565
 11
2762.260138
 21
1457.709326
  0
LINE
  8
0
 62
     2
  6
CONTINUOUS
 10
2657.260138
 20
1444.528715
 11
2762.260138
 21
1444.528715
  0
LINE
  8
0
 62
     3
  6
CONTINUOUS
 10
2848.260138
 20
1713.786486
 11
2848.260138
 21
1703.027117
  0
ARC
  8
0
 62
     3
  6
CONTINUOUS
 10
2813.260138
 20
1713.786486
 40
35.000000
 50
0.000000E+00
 51
17.716492
  0
ARC
  8
1
 62
     3
  6
CONTINUOUS
 10
2851.260138
 20
1573.027117
 40
3.000000
 50
90.000000
 51
180.000000
  0
ARC
  8
1
 62
     3
  6
CONTINUOUS
 10
2851.260138
 20
1703.027117
 40
3.000000
 50
180.000000
 51
270.000000
  0
ARC
  8
1
 62
     3
  6
CONTINUOUS
 10
2855.260138
 20
1698.027117
 40
2.000000
 50
0.000000E+00
 51
90.000000
  0
LINE
  8
1
 62
     3
  6
CONTINUOUS
 10
2855.260138
 20
1576.027117
 11
2851.260138
 21
1576.027117
  0
LINE
  8
1
 62
     3
  6
CONTINUOUS
 10
2855.260138
 20
1700.027117
 11
2851.260138
 21
1700.027117
  0
LINE
  8
3
 62
     3
  6
CONTINUOUS
 10
2922.260138
 20
1700.527117
 11
2922.260138
 21
1575.527117
  0
LINE
  8
3
 62
     3
  6
CONTINUOUS
 10
2917.260138
 20
1700.527117
 11
2917.260138
 21
1698.027117
  0
LINE
  8
3
 62
     3
  6
CONTINUOUS
 10
2917.260138
 20
1700.527117
 11
2922.260138
 21
1700.527117
  0
LINE
  8
3
 62
     3
  6
CONTINUOUS
 10
2917.260138
 20
1578.027117
 11
2857.260138
 21
1578.027117
  0
ARC
  8
1
 62
     3
  6
CONTINUOUS
 10
2855.260138
 20
1578.027117
 40
2.000000
 50
270.000000
 51
360.000000
  0
LINE
  8
3
 62
     3
  6
CONTINUOUS
 10
2917.260138
 20
1698.027117
 11
2857.260138
 21
1698.027117
  0
LINE
  8
3
 62
     3
  6
CONTINUOUS
 10
2917.260138
 20
1575.527117
 11
2922.260138
 21
1575.527117
  0
LINE
  8
3
 62
     3
  6
CONTINUOUS
 10
2917.260138
 20
1575.527117
 11
2917.260138
 21
1698.027117
  0
LINE
  8
0
 62
     2
  6
CONTINUOUS
 10
2664.260138
 20
1451.528715
 11
2860.260138
 21
1451.528715
  0
ARC
  8
0
 62
     2
  6
CONTINUOUS
 10
2663.260138
 20
1435.528715
 40
1.000000
 50
360.000000
 51
450.000000
  0
POINT
  8
0
 62
     3
 10
2762.260138
 20
1388.027117
  0
POINT
  8
0
 62
     3
 10
2762.260138
 20
1410.527117
  0
POINT
  8
0
 62
     3
 10
2762.260138
 20
1425.027117
  0
LINE
  8
1
 62
     4
  6
CONTINUOUS
 10
2667.260138
 20
1398.027117
 11
2667.260138
 21
1278.027117
  0
ARC
  8
1
 62
     4
  6
CONTINUOUS
 10
2656.458821
 20
1372.787309
 40
30.639745
 50
33.671563
 51
62.448001
  0
LINE
  8
1
 62
     4
  6
CONTINUOUS
 10
2673.260138
 20
1276.027117
 11
2669.260138
 21
1276.027117
  0
ARC
  8
1
 62
     4
  6
CONTINUOUS
 10
2673.260138
 20
1273.027117
 40
3.000000
 50
0.000000E+00
 51
90.000000
  0
ARC
  8
1
 62
     4
  6
CONTINUOUS
 10
2669.260138
 20
1398.027117
 40
2.000000
 50
90.000000
 51
180.000000
  0
ARC
  8
1
 62
     4
  6
CONTINUOUS
 10
2669.260138
 20
1278.027117
 40
2.000000
 50
180.000000
 51
270.000000
  0
ARC
  8
3
 62
     4
  6
CONTINUOUS
 10
2822.388321
 20
1409.975616
 40
28.500781
 50
295.487111
 51
314.942399
  0
POINT
  8
3
 62
     7
 10
2676.260138
 20
1398.027117
  0
ARC
  8
3
 62
     4
  6
CONTINUOUS
 10
2702.131956
 20
1409.975616
 40
28.500781
 50
225.057601
 51
244.512889
  0
TEXT
  8
0
 62
     7
 10
2876.114215
 20
1756.390527
 40
32.000000
 50
0.000000E+00
 41
0.78 
  1
７５枝管
 72
     5
 11
2988.114215
 21
1756.390527
  0
LINE
  8
3
 62
     3
  6
CONTINUOUS
 10
2823.986782
 20
1632.211496
 11
2824.534327
 21
1624.144613
  0
LINE
  8
3
 62
     3
  6
CONTINUOUS
 10
2824.534327
 20
1624.144613
 11
2825.523169
 21
1616.335657
  0
LINE
  8
3
 62
     3
  6
CONTINUOUS
 10
2825.523169
 20
1616.335657
 11
2826.934936
 21
1608.929711
  0
LINE
  8
3
 62
     3
  6
CONTINUOUS
 10
2826.934936
 20
1608.929711
 11
2828.743400
 21
1602.064373
  0
LINE
  8
3
 62
     3
  6
CONTINUOUS
 10
2828.743400
 20
1602.064373
 11
2830.914959
 21
1595.867195
  0
LINE
  8
3
 62
     3
  6
CONTINUOUS
 10
2830.914959
 20
1595.867195
 11
2833.409269
 21
1590.453317
  0
LINE
  8
3
 62
     3
  6
CONTINUOUS
 10
2833.409269
 20
1590.453317
 11
2836.179986
 21
1585.923324
  0
LINE
  8
3
 62
     3
  6
CONTINUOUS
 10
2836.179986
 20
1585.923324
 11
2839.175633
 21
1582.361380
  0
LINE
  8
3
 62
     3
  6
CONTINUOUS
 10
2839.175633
 20
1582.361380
 11
2842.340553
 21
1579.833664
  0
LINE
  8
3
 62
     3
  6
CONTINUOUS
 10
2842.340553
 20
1579.833664
 11
2845.615944
 21
1578.387137
  0
LINE
  8
3
 62
     3
  6
CONTINUOUS
 10
2842.340553
 20
1579.833664
 11
2845.615944
 21
1578.387137
  0
LINE
  8
3
 62
     3
  6
CONTINUOUS
 10
2846.073835
 20
1697.780203
 11
2842.743103
 21
1696.460076
  0
LINE
  8
3
 62
     3
  6
CONTINUOUS
 10
2842.743103
 20
1696.460076
 11
2839.518224
 21
1694.024148
  0
LINE
  8
3
 62
     3
  6
CONTINUOUS
 10
2839.518224
 20
1694.024148
 11
2836.460780
 21
1690.518932
  0
LINE
  8
3
 62
     3
  6
CONTINUOUS
 10
2836.460780
 20
1690.518932
 11
2833.629152
 21
1686.011363
  0
LINE
  8
3
 62
     3
  6
CONTINUOUS
 10
2833.629152
 20
1686.011363
 11
2831.077413
 21
1680.587514
  0
LINE
  8
3
 62
     3
  6
CONTINUOUS
 10
2831.077413
 20
1680.587514
 11
2828.854289
 21
1674.350956
  0
LINE
  8
3
 62
     3
  6
CONTINUOUS
 10
2828.854289
 20
1674.350956
 11
2827.002231
 21
1667.420778
  0
LINE
  8
3
 62
     3
  6
CONTINUOUS
 10
2827.002231
 20
1667.420778
 11
2825.556606
 21
1659.929317
  0
LINE
  8
3
 62
     3
  6
CONTINUOUS
 10
2825.556606
 20
1659.929317
 11
2824.545017
 21
1652.019623
  0
LINE
  8
3
 62
     3
  6
CONTINUOUS
 10
2824.545017
 20
1652.019623
 11
2823.986782
 21
1643.842737
  0
LINE
  8
3
 62
     3
  6
CONTINUOUS
 10
2824.545017
 20
1652.019623
 11
2823.986782
 21
1643.842737
  0
TEXT
  8
0
 62
     6
 10
2906.392254
 20
2674.451072
 40
32.000000
 50
0.000000E+00
 41
0.86 
  1
ａ
 72
     5
 11
2938.392254
 21
2674.451072
  0
LINE
  8
3
 62
     3
  6
CONTINUOUS
 10
2700.533494
 20
1643.842737
 11
2699.975260
 21
1652.019623
  0
LINE
  8
3
 62
     3
  6
CONTINUOUS
 10
2699.975260
 20
1652.019623
 11
2698.963671
 21
1659.929317
  0
LINE
  8
3
 62
     3
  6
CONTINUOUS
 10
2698.963671
 20
1659.929317
 11
2697.518045
 21
1667.420778
  0
LINE
  8
3
 62
     3
  6
CONTINUOUS
 10
2697.518045
 20
1667.420778
 11
2695.665988
 21
1674.350956
  0
LINE
  8
3
 62
     3
  6
CONTINUOUS
 10
2695.665988
 20
1674.350956
 11
2693.442863
 21
1680.587514
  0
LINE
  8
3
 62
     3
  6
CONTINUOUS
 10
2693.442863
 20
1680.587514
 11
2690.891124
 21
1686.011363
  0
LINE
  8
3
 62
     3
  6
CONTINUOUS
 10
2690.891124
 20
1686.011363
 11
2688.059497
 21
1690.518932
  0
LINE
  8
3
 62
     3
  6
CONTINUOUS
 10
2688.059497
 20
1690.518932
 11
2685.002053
 21
1694.024148
  0
LINE
  8
3
 62
     3
  6
CONTINUOUS
 10
2685.002053
 20
1694.024148
 11
2681.777174
 21
1696.460076
  0
LINE
  8
3
 62
     3
  6
CONTINUOUS
 10
2681.777174
 20
1696.460076
 11
2678.446442
 21
1697.780203
  0
LINE
  8
3
 62
     3
  6
CONTINUOUS
 10
2681.777174
 20
1696.460076
 11
2678.446442
 21
1697.780203
  0
LINE
  8
0
 62
     3
  6
CONTINUOUS
 10
2667.260138
 20
1698.027117
 11
2667.260138
 21
1578.027117
  0
LINE
  8
0
 62
     7
  6
CONTINUOUS
 10
2909.739696
 20
1744.111644
 11
2909.739696
 21
1702.327305
  0
SOLID
  8
0
 62
     7
 10
2901.975125
 20
1731.305080
 11
2917.504267
 21
1731.305080
 12
2909.739696
 22
1702.327305
 13
2909.739696
 23
1702.327305
  0
INSERT
  8
0
  2
G16
 10
0
 20
0
  0
ARC
  8
2
 62
     3
  6
CONTINUOUS
 10
2837.302064
 20
1804.400741
 40
15.000000
 50
120.111013
 51
197.716492
  0
LINE
  8
0
 62
     3
  6
CONTINUOUS
 10
2676.260138
 20
1573.027117
 11
2676.260138
 21
1451.528715
  0
LINE
  8
0
 62
     2
  6
CONTINUOUS
 10
2664.260138
 20
1451.528715
 11
2657.260138
 21
1444.528715
  0
LINE
  8
3
 62
     4
  6
CENTER
 10
2762.260138
 20
904.939597
 11
2762.260138
 21
1145.631738
  0
LINE
  8
3
 62
     4
  6
CENTER
 10
2762.260138
 20
1145.631738
 11
2762.260138
 21
1457.709326
  0
ARC
  8
2
 62
     3
  6
CONTINUOUS
 10
2687.218213
 20
1804.400741
 40
15.000000
 50
342.283508
 51
419.888987
  0
LINE
  8
0
 62
     3
  6
CONTINUOUS
 10
2823.013455
 20
1799.836132
 11
2846.600226
 21
1724.437240
  0
LINE
  8
0
 62
     3
  6
CONTINUOUS
 10
2701.506822
 20
1799.836132
 11
2677.920051
 21
1724.437240
  0
LINE
  8
3
 62
     3
  6
CONTINUOUS
 10
2823.230122
 20
1817.543100
 11
2762.260138
 21
1817.543100
  0
ARC
  8
0
 62
     3
  6
CONTINUOUS
 10
2711.260138
 20
1713.786486
 40
35.000000
 50
162.283508
 51
180.000000
  0
LINE
  8
0
 62
     3
  6
CONTINUOUS
 10
2676.260138
 20
1713.786486
 11
2676.260138
 21
1703.027117
  0
LINE
  8
3
 62
     4
  6
CONTINUOUS
 10
2657.260138
 20
1433.027117
 11
2657.260138
 21
1418.027117
  0
LINE
  8
3
 62
     4
  6
CONTINUOUS
 10
2658.260138
 20
1418.027117
 11
2657.260138
 21
1418.027117
  0
ARC
  8
3
 62
     4
  6
CONTINUOUS
 10
2658.260138
 20
1416.027117
 40
2.000000
 50
0.000000E+00
 51
90.000000
  0
LINE
  8
3
 62
     4
  6
CONTINUOUS
 10
2660.260138
 20
1416.027117
 11
2660.260138
 21
1414.527117
  0
ARC
  8
3
 62
     4
  6
CONTINUOUS
 10
2661.760138
 20
1414.527117
 40
1.500000
 50
180.000000
 51
270.000000
  0
LINE
  8
3
 62
     4
  6
CONTINUOUS
 10
2665.700990
 20
1413.027117
 11
2669.260138
 21
1408.726479
  0
LINE
  8
3
 62
     4
  6
CONTINUOUS
 10
2669.260138
 20
1408.726479
 11
2669.260138
 21
1400.027117
  0
LINE
  8
3
 62
     4
  6
CONTINUOUS
 10
2855.260138
 20
1408.726479
 11
2855.260138
 21
1400.027117
  0
LINE
  8
3
 62
     4
  6
CONTINUOUS
 10
2858.819287
 20
1413.027117
 11
2855.260138
 21
1408.726479
  0
LINE
  8
3
 62
     4
  6
CONTINUOUS
 10
2862.760138
 20
1413.027117
 11
2661.760138
 21
1413.027117
  0
ARC
  8
3
 62
     4
  6
CONTINUOUS
 10
2862.760138
 20
1414.527117
 40
1.500000
 50
270.000000
 51
360.000000
  0
LINE
  8
3
 62
     4
  6
CONTINUOUS
 10
2829.413514
 20
1383.027117
 11
2805.633517
 21
1383.027117
  0
LINE
  8
3
 62
     4
  6
CONTINUOUS
 10
2864.260138
 20
1416.027117
 11
2864.260138
 21
1414.527117
  0
ARC
  8
3
 62
     4
  6
CONTINUOUS
 10
2866.260138
 20
1416.027117
 40
2.000000
 50
90.000000
 51
180.000000
  0
LINE
  8
3
 62
     3
  6
CENTER
 10
2840.748991
 20
1409.083548
 11
2840.748991
 21
1439.574319
  0
LINE
  8
3
 62
     3
  6
CENTER
 10
2683.771286
 20
1409.083548
 11
2683.771286
 21
1439.574319
  0
LINE
  8
3
 62
     4
  6
CONTINUOUS
 10
2866.260138
 20
1418.027117
 11
2867.260138
 21
1418.027117
  0
LINE
  8
3
 62
     4
  6
CONTINUOUS
 10
2867.260138
 20
1433.027117
 11
2867.260138
 21
1418.027117
  0
ARC
  8
3
 62
     4
  6
CONTINUOUS
 10
2815.260138
 20
920.027117
 40
2.000000
 50
270.000000
 51
360.000000
  0
ARC
  8
3
 62
     4
  6
CONTINUOUS
 10
2709.260138
 20
920.027117
 40
2.000000
 50
180.000000
 51
270.000000
  0
LINE
  8
3
 62
     4
  6
CONTINUOUS
 10
2867.260138
 20
1433.027117
 11
2657.260138
 21
1433.027117
  0
LINE
  8
3
 62
     4
  6
CONTINUOUS
 10
2658.260138
 20
1418.027117
 11
2866.260138
 21
1418.027117
  0
LINE
  8
3
 62
     4
  6
CONTINUOUS
 10
2848.260138
 20
1191.899028
 11
2848.260138
 21
1273.027117
  0
LINE
  8
3
 62
     4
  6
CONTINUOUS
 10
2855.260138
 20
1408.726479
 11
2669.260138
 21
1408.726479
  0
LINE
  8
3
 62
     4
  6
CONTINUOUS
 10
2676.260138
 20
1188.027117
 11
2676.260138
 21
1273.027117
  0
LINE
  8
3
 62
     4
  6
CONTINUOUS
 10
2681.511049
 20
1188.027117
 11
2843.009227
 21
1188.027117
  0
LINE
  8
3
 62
     4
  6
CONTINUOUS
 10
2712.009227
 20
1068.027117
 11
2812.511049
 21
1068.027117
  0
LINE
  8
3
 62
     4
  6
CONTINUOUS
 10
2815.260138
 20
918.027117
 11
2709.260138
 21
918.027117
  0
LINE
  8
3
 62
     4
  6
CONTINUOUS
 10
2817.260138
 20
1064.155205
 11
2817.260138
 21
920.027117
  0
ARC
  8
3
 62
     4
  6
CONTINUOUS
 10
2813.260138
 20
1191.899028
 40
35.000000
 50
345.291696
 51
360.000000
  0
LINE
  8
3
 62
     4
  6
CONTINUOUS
 10
2847.113222
 20
1183.012593
 11
2818.079364
 21
1070.502658
  0
ARC
  8
3
 62
     4
  6
CONTINUOUS
 10
2842.260138
 20
1064.155205
 40
25.000000
 50
165.291696
 51
180.000000
  0
LINE
  8
3
 62
     4
  6
CONTINUOUS
 10
2707.260138
 20
1064.155205
 11
2707.260138
 21
920.027117
  0
ARC
  8
3
 62
     4
  6
CONTINUOUS
 10
2711.260138
 20
1191.899028
 40
35.000000
 50
180.000000
 51
194.708304
  0
LINE
  8
3
 62
     4
  6
CONTINUOUS
 10
2677.407055
 20
1183.012593
 11
2706.440912
 21
1070.502658
  0
ARC
  8
3
 62
     4
  6
CONTINUOUS
 10
2682.260138
 20
1064.155205
 40
25.000000
 50
0.000000E+00
 51
14.708304
  0
LINE
  8
1
 62
     4
  6
CONTINUOUS
 10
2857.260138
 20
1398.027117
 11
2857.260138
 21
1278.027117
  0
ARC
  8
1
 62
     4
  6
CONTINUOUS
 10
2855.260138
 20
1398.027117
 40
2.000000
 50
0.000000E+00
 51
90.000000
  0
ARC
  8
1
 62
     4
  6
CONTINUOUS
 10
2855.260138
 20
1278.027117
 40
2.000000
 50
270.000000
 51
360.000000
  0
LINE
  8
3
 62
     3
  6
CONTINUOUS
 10
2839.999161
 20
1720.903002
 11
2762.260138
 21
1720.903002
  0
ARC
  8
3
 62
     3
  6
CONTINUOUS
 10
2839.260138
 20
1893.444541
 40
5.000000
 50
113.578178
 51
180.000000
  0
ARC
  8
0
 62
     3
  6
CONTINUOUS
 10
2813.260138
 20
1713.786486
 40
35.000000
 50
0.000000E+00
 51
17.716492
  0
LINE
  8
3
 62
     3
  6
CONTINUOUS
 10
2837.260138
 20
1903.027117
 11
2837.260138
 21
1898.027117
  0
ARC
  8
3
 62
     3
  6
CONTINUOUS
 10
2685.260138
 20
1893.444541
 40
5.000000
 50
360.000000
 51
426.421822
  0
LINE
  8
0
 62
     2
  6
CONTINUOUS
 10
2860.260138
 20
1451.528715
 11
2867.260138
 21
1444.528715
  0
LINE
  8
3
 62
     3
  6
CENTER
 10
2928.193844
 20
1638.027117
 11
2660.334190
 21
1638.027117
  0
ARC
  8
3
 62
     3
  6
CONTINUOUS
 10
2700.260138
 20
1826.027117
 40
10.000000
 50
180.000000
 51
238.038250
  0
LINE
  8
3
 62
     3
  6
CONTINUOUS
 10
2834.260138
 20
1893.444541
 11
2834.260138
 21
1826.027117
  0
LINE
  8
3
 62
     3
  6
CONTINUOUS
 10
2690.260138
 20
1893.444541
 11
2690.260138
 21
1826.027117
  0
ARC
  8
3
 62
     3
  6
CONTINUOUS
 10
2824.260138
 20
1826.027117
 40
10.000000
 50
302.527138
 51
360.000000
  0
LINE
  8
0
 62
     3
  6
CONTINUOUS
 10
2848.260138
 20
1573.027117
 11
2848.260138
 21
1451.528715
  0
LINE
  8
3
 62
     3
  6
CONTINUOUS
 10
2687.260138
 20
1903.027117
 11
2687.260138
 21
1898.027117
  0
LINE
  8
3
 62
     3
  6
CONTINUOUS
 10
2687.260138
 20
1903.027117
 11
2837.260138
 21
1903.027117
  0
LINE
  8
3
 62
     3
  6
CONTINUOUS
 10
2837.260138
 20
1898.027117
 11
2762.260138
 21
1898.027117
  0
LINE
  8
0
 62
     3
  6
CONTINUOUS
 10
2848.260138
 20
1703.027117
 11
2848.260138
 21
1713.786486
  0
LINE
  8
0
 62
     2
  6
CONTINUOUS
 10
2657.260138
 20
1436.528715
 11
2657.260138
 21
1444.528715
  0
LINE
  8
0
 62
     2
  6
CONTINUOUS
 10
2664.260138
 20
1433.528715
 11
2860.260138
 21
1433.528715
  0
LINE
  8
0
 62
     2
  6
CONTINUOUS
 10
2657.260138
 20
1436.528715
 11
2762.260138
 21
1436.528715
  0
LINE
  8
0
 62
     2
  6
CONTINUOUS
 10
2664.260138
 20
1433.528715
 11
2664.260138
 21
1435.528715
  0
LINE
  8
3
 62
     4
  6
CONTINUOUS
 10
2695.106763
 20
1383.027117
 11
2718.886759
 21
1383.027117
  0
ARC
  8
3
 62
     4
  6
CONTINUOUS
 10
2855.260138
 20
1398.027117
 40
2.000000
 50
0.000000E+00
 51
90.000000
  0
LINE
  8
3
 62
     4
  6
CONTINUOUS
 10
2857.260138
 20
1278.027117
 11
2857.260138
 21
1398.027117
  0
ARC
  8
3
 62
     4
  6
CONTINUOUS
 10
2855.260138
 20
1278.027117
 40
2.000000
 50
270.000000
 51
360.000000
  0
LINE
  8
3
 62
     4
  6
CONTINUOUS
 10
2855.260138
 20
1276.027117
 11
2851.260138
 21
1276.027117
  0
ARC
  8
3
 62
     4
  6
CONTINUOUS
 10
2851.260138
 20
1273.027117
 40
3.000000
 50
90.000000
 51
180.000000
  0
POINT
  8
3
 62
     4
 10
2848.260138
 20
1276.027117
  0
POINT
  8
3
 62
     7
 10
2848.260138
 20
1398.027117
  0
ARC
  8
1
 62
     4
  6
CONTINUOUS
 10
2868.061456
 20
1372.787309
 40
30.639745
 50
117.551999
 51
146.346996
  0
TEXT
  8
0
 62
     6
 10
3198.587629
 20
2603.485825
 40
35.000000
 50
0.000000E+00
 41
0.60 
  1
240,260,280
 72
     5
 11
3431.087629
 21
2603.485825
  0
TEXT
  8
0
 62
     6
 10
3200.448131
 20
2561.370812
 40
35.000000
 50
0.000000E+00
 41
0.60 
  1
300,340,360
 72
     5
 11
3432.948131
 21
2561.370812
  0
LINE
  8
0
 62
     1
  6
CONTINUOUS
 10
3903.324692
 20
2020.000000
 11
3832.321883
 21
2020.000000
  0
TEXT
  8
0
 62
     3
 10
3735.116797
 20
2041.647865
 40
32.000000
 50
0.000000E+00
 41
0.86 
  1
ａ
 72
     5
 11
3767.116797
 21
2041.647865
  0
LINE
  8
0
 62
     1
  6
CONTINUOUS
 10
3719.000000
 20
2085.638816
 11
3719.000000
 21
2176.624747
  0
INSERT
  8
0
  2
G17
 10
0
 20
0
  0
TEXT
  8
0
 62
     3
 10
3229.930181
 20
2205.188859
 40
32.000000
 50
0.000000E+00
 41
1.02 
  1
受口深さ
 72
     5
 11
3381.930181
 21
2205.188859
  0
CIRCLE
  8
0
 62
     6
  6
HIDDEN
 10
3020.197047
 20
2598.777279
 40
20.000000
  0
TEXT
  8
0
 62
     6
 10
3012.197047
 20
2582.777279
 40
32.000000
 50
0.000000E+00
 41
0.50 
  1
2
 72
     5
 11
3028.197047
 21
2582.777279
  0
CIRCLE
  8
0
 62
     6
  6
HIDDEN
 10
3020.197047
 20
2646.810698
 40
20.000000
  0
TEXT
  8
0
 62
     6
 10
3012.197047
 20
2630.810698
 40
32.000000
 50
0.000000E+00
 41
0.50 
  1
1
 72
     5
 11
3028.197047
 21
2630.810698
  0
CIRCLE
  8
0
 62
     6
  6
HIDDEN
 10
2972.523107
 20
2598.777279
 40
20.000000
  0
TEXT
  8
0
 62
     6
 10
2964.523107
 20
2582.777279
 40
32.000000
 50
0.000000E+00
 41
0.50 
  1
2
 72
     5
 11
2980.523107
 21
2582.777279
  0
CIRCLE
  8
0
 62
     6
  6
HIDDEN
 10
2972.523107
 20
2646.810698
 40
20.000000
  0
TEXT
  8
0
 62
     6
 10
2964.523107
 20
2630.810698
 40
32.000000
 50
0.000000E+00
 41
0.50 
  1
1
 72
     5
 11
2980.523107
 21
2630.810698
  0
INSERT
  8
0
  2
G18
 10
0
 20
0
  0
TEXT
  8
0
 62
     3
 10
3852.466785
 20
2179.542851
 40
32.000000
 50
0.000000E+00
 41
1.02 
  1
受口深さ
 72
     5
 11
4004.466785
 21
2179.542851
  0
LINE
  8
0
 62
     3
  6
CONTINUOUS
 10
3783.804623
 20
2196.556364
 11
3850.561379
 21
2196.556364
  0
SOLID
  8
0
 62
     3
 10
3812.782397
 20
2204.320936
 11
3812.782397
 21
2188.791793
 12
3783.804623
 22
2196.556364
 13
3783.804623
 23
2196.556364
  0
TEXT
  8
0
 62
     3
 10
3797.424447
 20
1741.534296
 40
32.000000
 50
0.000000E+00
 41
1.02 
  1
受口深さ
 72
     5
 11
3949.424447
 21
1741.534296
  0
LINE
  8
0
 62
     3
  6
CONTINUOUS
 10
3814.437960
 20
1862.196458
 11
3814.437960
 21
1787.010130
  0
SOLID
  8
0
 62
     3
 10
3822.202531
 20
1833.218683
 11
3806.673389
 21
1833.218683
 12
3814.437960
 22
1862.196458
 13
3814.437960
 23
1862.196458
  0
LINE
  8
0
 62
     3
  6
CONTINUOUS
 10
3151.418919
 20
1896.711276
 11
3151.418919
 21
2011.754884
  0
SOLID
  8
0
 62
     3
 10
3143.654348
 20
1925.689050
 11
3159.183490
 21
1925.689050
 12
3151.418919
 22
1896.711276
 13
3151.418919
 23
1896.711276
  0
INSERT
  8
0
  2
G19
 10
0
 20
0
  0
LINE
  8
0
 62
     1
  6
CONTINUOUS
 10
3704.610173
 20
1925.247691
 11
3562.155705
 21
1782.793224
  0
LINE
  8
3
 62
     3
  6
CONTINUOUS
 10
2917.260138
 20
2338.889268
 11
2857.260138
 21
2338.889268
  0
LINE
  8
0
 62
     3
  6
CONTINUOUS
 10
2857.260138
 20
2218.889268
 11
2857.260138
 21
2338.889268
  0
LINE
  8
0
 62
     3
  6
CONTINUOUS
 10
2855.260138
 20
2216.889268
 11
2827.260138
 21
2216.889268
  0
ARC
  8
0
 62
     3
  6
CONTINUOUS
 10
2855.260138
 20
2218.889268
 40
2.000000
 50
270.000000
 51
360.000000
  0
LINE
  8
0
 62
     3
  6
CONTINUOUS
 10
2855.260138
 20
2340.889268
 11
2822.578046
 21
2340.889268
  0
ARC
  8
0
 62
     3
  6
CONTINUOUS
 10
2855.260138
 20
2338.889268
 40
2.000000
 50
0.000000E+00
 51
90.000000
  0
CIRCLE
  8
0
 62
     3
  6
CONTINUOUS
 10
2762.260138
 20
2278.889268
 40
52.000000
  0
CIRCLE
  8
0
 62
     3
  6
CONTINUOUS
 10
2762.260138
 20
2278.889268
 40
67.000000
  0
ARC
  8
0
 62
     3
  6
CONTINUOUS
 10
2697.260138
 20
2213.889268
 40
3.000000
 50
0.000000E+00
 51
90.000000
  0
ARC
  8
0
 62
     3
  6
CONTINUOUS
 10
2827.260138
 20
2213.889268
 40
3.000000
 50
90.000000
 51
180.000000
  0
LINE
  8
0
 62
     3
  6
CONTINUOUS
 10
2667.260138
 20
2338.889268
 11
2667.260138
 21
2218.889268
  0
LINE
  8
0
 62
     3
  6
CONTINUOUS
 10
2669.260138
 20
2340.889268
 11
2701.942231
 21
2340.889268
  0
ARC
  8
0
 62
     3
  6
CONTINUOUS
 10
2669.260138
 20
2338.889268
 40
2.000000
 50
90.000000
 51
180.000000
  0
LINE
  8
0
 62
     3
  6
CONTINUOUS
 10
2669.260138
 20
2216.889268
 11
2697.260138
 21
2216.889268
  0
ARC
  8
0
 62
     3
  6
CONTINUOUS
 10
2669.260138
 20
2218.889268
 40
2.000000
 50
180.000000
 51
270.000000
  0
LINE
  8
0
 62
     3
  6
CONTINUOUS
 10
2822.260138
 20
2183.889268
 11
2702.260138
 21
2183.889268
  0
LINE
  8
0
 62
     3
  6
CONTINUOUS
 10
2824.260138
 20
2185.889268
 11
2824.260138
 21
2213.889268
  0
ARC
  8
0
 62
     3
  6
CONTINUOUS
 10
2822.260138
 20
2185.889268
 40
2.000000
 50
270.000000
 51
360.000000
  0
LINE
  8
0
 62
     3
  6
CONTINUOUS
 10
2700.260138
 20
2185.889268
 11
2700.260138
 21
2213.889268
  0
ARC
  8
0
 62
     3
  6
CONTINUOUS
 10
2702.260138
 20
2185.889268
 40
2.000000
 50
180.000000
 51
270.000000
  0
LINE
  8
0
 62
     1
  6
CONTINUOUS
 10
2932.486475
 20
2278.889268
 11
2958.284660
 21
2278.889268
  0
INSERT
  8
0
  2
G20
 10
0
 20
0
  0
INSERT
  8
0
  2
G21
 10
0
 20
0
  0
INSERT
  8
0
  2
G22
 10
0
 20
0
  0
LINE
  8
3
 62
     3
  6
CONTINUOUS
 10
2824.760138
 20
2123.889268
 11
2702.260138
 21
2123.889268
  0
LINE
  8
3
 62
     3
  6
CONTINUOUS
 10
2824.760138
 20
2123.889268
 11
2824.760138
 21
2118.889268
  0
LINE
  8
3
 62
     3
  6
CONTINUOUS
 10
2699.760138
 20
2123.889268
 11
2699.760138
 21
2118.889268
  0
LINE
  8
3
 62
     3
  6
CONTINUOUS
 10
2699.760138
 20
2123.889268
 11
2702.260138
 21
2123.889268
  0
LINE
  8
3
 62
     3
  6
CONTINUOUS
 10
2699.760138
 20
2118.889268
 11
2824.760138
 21
2118.889268
  0
LINE
  8
0
 62
     3
  6
CONTINUOUS
 10
2968.056804
 20
2128.753184
 11
2968.056804
 21
2038.072365
  0
SOLID
  8
0
 62
     3
 10
2975.821375
 20
2099.775409
 11
2960.292232
 21
2099.775409
 12
2968.056804
 22
2128.753184
 13
2968.056804
 23
2128.753184
  0
LINE
  8
3
 62
     3
  6
CONTINUOUS
 10
2822.260138
 20
2123.889268
 11
2822.260138
 21
2183.889268
  0
LINE
  8
3
 62
     3
  6
CONTINUOUS
 10
2702.260138
 20
2123.889268
 11
2702.260138
 21
2183.889268
  0
INSERT
  8
0
  2
G23
 10
0
 20
0
  0
CIRCLE
  8
0
 62
     3
  6
CONTINUOUS
 10
2762.260138
 20
1638.027117
 40
54.000000
  0
CIRCLE
  8
0
 62
     3
  6
CONTINUOUS
 10
2762.260138
 20
1638.027117
 40
40.000000
  0
CIRCLE
  8
0
 62
     3
  6
CONTINUOUS
 10
2762.260138
 20
1638.027117
 40
62.000000
  0
INSERT
  8
0
  2
G24
 10
0
 20
0
  0
INSERT
  8
0
  2
G25
 10
0
 20
0
  0
LINE
  8
0
 62
     1
  6
CONTINUOUS
 10
3547.329004
 20
1767.966523
 11
3534.060928
 21
1754.698446
  0
INSERT
  8
0
  2
G26
 10
0
 20
0
  0
INSERT
  8
0
  2
G27
 10
0
 20
0
  0
INSERT
  8
0
  2
G28
 10
0
 20
0
  0
INSERT
  8
0
  2
G29
 10
0
 20
0
  0
INSERT
  8
0
  2
G30
 10
0
 20
0
  0
INSERT
  8
0
  2
G31
 10
0
 20
0
  0
INSERT
  8
0
  2
G32
 10
0
 20
0
  0
INSERT
  8
0
  2
G33
 10
0
 20
0
  0
INSERT
  8
0
  2
G34
 10
0
 20
0
  0
LINE
  8
0
 62
     3
  6
CONTINUOUS
 10
3151.418919
 20
2011.754884
 11
3114.481314
 21
2011.754884
  0
TEXT
  8
0
 62
     3
 10
3311.553615
 20
579.564184
 40
32.000000
 50
0.000000E+00
 41
0.94 
  1
対応可能Ｐ寸法　２４０～３６０
 72
     5
 11
3837.267923
 21
579.564184
  0
LINE
  8
0
 62
     2
  6
CONTINUOUS
 10
3244.712419
 20
640.281646
 11
4024.114339
 21
640.281646
  0
TEXT
  8
0
 62
     2
 10
3733.220431
 20
667.585896
 40
30.000000
 50
0.000000E+00
 41
0.61 
  1
925
 72
     5
 11
3788.220431
 21
667.585896
  0
TEXT
  8
0
 62
     2
 10
3630.421191
 20
667.585896
 40
30.000000
 50
0.000000E+00
 41
0.61 
  1
905
 72
     5
 11
3685.421191
 21
667.585896
  0
TEXT
  8
0
 62
     2
 10
3530.968711
 20
669.313032
 40
30.000000
 50
0.000000E+00
 41
0.61 
  1
885
 72
     5
 11
3585.968711
 21
669.313032
  0
TEXT
  8
0
 62
     2
 10
3836.729671
 20
669.313032
 40
30.000000
 50
0.000000E+00
 41
0.61 
  1
965
 72
     5
 11
3891.729671
 21
669.313032
  0
TEXT
  8
0
 62
     2
 10
3429.049031
 20
760.753032
 40
30.000000
 50
0.000000E+00
 41
0.61 
  1
790
 72
     5
 11
3484.049031
 21
760.753032
  0
TEXT
  8
0
 62
     2
 10
3941.182151
 20
667.585896
 40
30.000000
 50
0.000000E+00
 41
0.61 
  1
985
 72
     5
 11
3996.182151
 21
667.585896
  0
TEXT
  8
0
 62
     2
 10
3429.049031
 20
669.313032
 40
30.000000
 50
0.000000E+00
 41
0.61 
  1
865
 72
     5
 11
3484.049031
 21
669.313032
  0
TEXT
  8
0
 62
     2
 10
3836.490686
 20
837.196846
 40
30.000000
 50
0.000000E+00
 41
0.61 
  1
340
 72
     5
 11
3891.490686
 21
837.196846
  0
TEXT
  8
0
 62
     2
 10
3734.570046
 20
837.196846
 40
30.000000
 50
0.000000E+00
 41
0.61 
  1
300
 72
     5
 11
3789.570046
 21
837.196846
  0
TEXT
  8
0
 62
     2
 10
3632.649406
 20
837.196846
 40
30.000000
 50
0.000000E+00
 41
0.61 
  1
280
 72
     5
 11
3687.649406
 21
837.196846
  0
TEXT
  8
0
 62
     2
 10
3428.810046
 20
837.196846
 40
30.000000
 50
0.000000E+00
 41
0.61 
  1
240
 72
     5
 11
3483.810046
 21
837.196846
  0
LINE
  8
0
 62
     2
  6
CONTINUOUS
 10
3810.274019
 20
884.601646
 11
3810.274019
 21
640.281646
  0
TEXT
  8
0
 62
     2
 10
3255.240523
 20
673.627725
 40
30.000000
 50
0.000000E+00
 41
0.72 
  1
Ｌｔ（全長）
 72
     5
 11
3405.240523
 21
673.627725
  0
LINE
  8
0
 62
     2
  6
CONTINUOUS
 10
3244.712419
 20
731.721646
 11
4024.114339
 21
731.721646
  0
TEXT
  8
0
 62
     2
 10
3941.182151
 20
759.025896
 40
30.000000
 50
0.000000E+00
 41
0.61 
  1
910
 72
     5
 11
3996.182151
 21
759.025896
  0
LINE
  8
0
 62
     2
  6
CONTINUOUS
 10
3244.712419
 20
884.601646
 11
4024.114339
 21
884.601646
  0
TEXT
  8
0
 62
     2
 10
3836.729671
 20
760.753032
 40
30.000000
 50
0.000000E+00
 41
0.61 
  1
890
 72
     5
 11
3891.729671
 21
760.753032
  0
LINE
  8
0
 62
     2
  6
CONTINUOUS
 10
3402.593379
 20
884.601646
 11
3402.593379
 21
640.281646
  0
LINE
  8
0
 62
     2
  6
CONTINUOUS
 10
3504.513059
 20
884.601646
 11
3504.513059
 21
640.281646
  0
LINE
  8
0
 62
     2
  6
CONTINUOUS
 10
3606.432739
 20
884.601646
 11
3606.432739
 21
640.281646
  0
LINE
  8
0
 62
     2
  6
CONTINUOUS
 10
3708.353379
 20
884.601646
 11
3708.353379
 21
640.281646
  0
LINE
  8
0
 62
     2
  6
CONTINUOUS
 10
4024.114339
 20
884.601646
 11
4024.114339
 21
640.281646
  0
LINE
  8
0
 62
     2
  6
CONTINUOUS
 10
3912.193699
 20
884.601646
 11
3912.193699
 21
640.281646
  0
TEXT
  8
0
 62
     2
 10
3943.410366
 20
837.196846
 40
30.000000
 50
0.000000E+00
 41
0.61 
  1
360
 72
     5
 11
3998.410366
 21
837.196846
  0
LINE
  8
0
 62
     2
  6
CONTINUOUS
 10
3244.712419
 20
823.161646
 11
4024.114339
 21
823.161646
  0
TEXT
  8
0
 62
     2
 10
3255.240523
 20
765.067725
 40
30.000000
 50
0.000000E+00
 41
0.72 
  1
Ｌ（有効長）
 72
     5
 11
3405.240523
 21
765.067725
  0
LINE
  8
0
 62
     2
  6
CONTINUOUS
 10
3244.712419
 20
884.601646
 11
3244.712419
 21
640.281646
  0
LINE
  8
0
 62
     2
  6
CONTINUOUS
 10
4022.541101
 20
871.364597
 11
4022.541101
 21
871.364405
  0
TEXT
  8
0
 62
     2
 10
3530.968711
 20
760.753032
 40
30.000000
 50
0.000000E+00
 41
0.61 
  1
810
 72
     5
 11
3585.968711
 21
760.753032
  0
TEXT
  8
0
 62
     2
 10
3630.421191
 20
759.025896
 40
30.000000
 50
0.000000E+00
 41
0.61 
  1
830
 72
     5
 11
3685.421191
 21
759.025896
  0
TEXT
  8
0
 62
     2
 10
3530.729726
 20
837.196846
 40
30.000000
 50
0.000000E+00
 41
0.61 
  1
260
 72
     5
 11
3585.729726
 21
837.196846
  0
TEXT
  8
0
 62
     2
 10
3314.281517
 20
837.217257
 40
30.000000
 50
0.000000E+00
 41
0.86 
  1
Ｐ
 72
     5
 11
3344.281517
 21
837.217257
  0
TEXT
  8
0
 62
     2
 10
3733.220431
 20
759.025896
 40
30.000000
 50
0.000000E+00
 41
0.61 
  1
850
 72
     5
 11
3788.220431
 21
759.025896
  0
TEXT
  8
0
 62
     2
 10
3948.410366
 20
938.636846
 40
30.000000
 50
0.000000E+00
 41
0.58 
  1
44
 72
     5
 11
3983.410366
 21
938.636846
  0
TEXT
  8
0
 62
     2
 10
3836.489726
 20
938.636846
 40
30.000000
 50
0.000000E+00
 41
0.58 
  1
52
 72
     5
 11
3871.489726
 21
938.636846
  0
TEXT
  8
0
 62
     2
 10
3737.498474
 20
1121.253863
 40
25.600000
 50
0.000000E+00
 41
0.55 
  1
100
 72
     5
 11
3779.555619
 21
1121.253863
  0
TEXT
  8
0
 62
     2
 10
3720.968180
 20
1159.938571
 40
18.400000
 50
0.000000E+00
 41
0.89 
  1
立管受口
 72
     5
 11
3796.968179
 21
1159.938571
  0
TEXT
  8
0
 62
     2
 10
3948.410366
 20
1061.516846
 40
30.000000
 50
0.000000E+00
 41
0.58 
  1
65
 72
     5
 11
3983.410366
 21
1061.516846
  0
TEXT
  8
0
 62
     2
 10
3836.489726
 20
1061.516846
 40
30.000000
 50
0.000000E+00
 41
0.58 
  1
65
 72
     5
 11
3871.489726
 21
1061.516846
  0
TEXT
  8
0
 62
     2
 10
3744.570046
 20
1061.516846
 40
30.000000
 50
0.000000E+00
 41
0.58 
  1
75
 72
     5
 11
3779.570046
 21
1061.516846
  0
LINE
  8
0
 62
     2
  6
CONTINUOUS
 10
3800.273059
 20
986.041646
 11
3718.353379
 21
924.601646
  0
LINE
  8
0
 62
     2
  6
CONTINUOUS
 10
4024.114339
 20
1190.846702
 11
4024.114339
 21
924.601646
  0
TEXT
  8
0
 62
     2
 10
3607.250523
 20
942.947725
 40
30.000000
 50
0.000000E+00
 41
0.86 
  1
Ｂ寸法
 72
     5
 11
3697.250523
 21
942.947725
  0
LINE
  8
0
 62
     2
  6
CONTINUOUS
 10
3595.472419
 20
986.041646
 11
4024.114339
 21
986.041646
  0
LINE
  8
0
 62
     2
  6
CONTINUOUS
 10
3800.273059
 20
1149.881678
 11
4024.114339
 21
1149.881678
  0
LINE
  8
0
 62
     2
  6
CONTINUOUS
 10
3595.472419
 20
1108.921646
 11
4024.114339
 21
1108.921646
  0
TEXT
  8
0
 62
     2
 10
3811.487268
 20
1154.795013
 40
30.000000
 50
0.000000E+00
 41
0.72 
  1
下部横枝管サイズ
 72
     5
 11
4011.487268
 21
1154.795013
  0
LINE
  8
0
 62
     2
  6
CONTINUOUS
 10
3718.353379
 20
1189.607822
 11
3718.353379
 21
924.601646
  0
LINE
  8
0
 62
     2
  6
CONTINUOUS
 10
3800.273059
 20
1189.607822
 11
3800.273059
 21
924.601646
  0
LINE
  8
0
 62
     2
  6
CONTINUOUS
 10
3800.273059
 20
1047.481646
 11
3718.353379
 21
986.041646
  0
LINE
  8
0
 62
     2
  6
CONTINUOUS
 10
3912.193699
 20
1149.881486
 11
3912.193699
 21
924.601646
  0
LINE
  8
0
 62
     2
  6
CONTINUOUS
 10
3595.472419
 20
924.601646
 11
4024.114339
 21
924.601646
  0
TEXT
  8
0
 62
     2
 10
3816.535645
 20
1114.716379
 40
30.000000
 50
0.000000E+00
 41
0.63 
  1
65(2)
 72
     5
 11
3911.535645
 21
1114.716379
  0
TEXT
  8
0
 62
     2
 10
3928.456285
 20
1114.716379
 40
30.000000
 50
0.000000E+00
 41
0.63 
  1
50(1)
 72
     5
 11
4023.456285
 21
1114.716379
  0
LINE
  8
0
 62
     2
  6
CONTINUOUS
 10
3595.472419
 20
1149.881678
 11
3595.472419
 21
924.601646
  0
LINE
  8
0
 62
     2
  6
CONTINUOUS
 10
3595.472419
 20
1047.481646
 11
4024.114339
 21
1047.481646
  0
TEXT
  8
0
 62
     2
 10
3607.250523
 20
1004.387725
 40
30.000000
 50
0.000000E+00
 41
0.86 
  1
Ａ寸法
 72
     5
 11
3697.250523
 21
1004.387725
  0
LINE
  8
0
 62
     2
  6
CONTINUOUS
 10
3595.472419
 20
1149.881678
 11
3595.472419
 21
1190.846702
  0
LINE
  8
0
 62
     2
  6
CONTINUOUS
 10
3595.472419
 20
1190.846702
 11
4024.114339
 21
1190.846702
  0
LINE
  8
0
 62
     2
  6
CONTINUOUS
 10
3994.113379
 20
1149.881678
 11
3994.113379
 21
1149.881486
  0
TEXT
  8
0
 62
     2
 10
3824.261511
 20
1000.076846
 40
30.000000
 50
0.000000E+00
 41
0.61 
  1
110
 72
     5
 11
3879.261511
 21
1000.076846
  0
TEXT
  8
0
 62
     2
 10
3600.041517
 20
1061.537257
 40
30.000000
 50
0.000000E+00
 41
0.86 
  1
受口深さ
 72
     5
 11
3720.041517
 21
1061.537257
  0
LINE
  8
0
 62
     2
  6
CONTINUOUS
 10
3595.472419
 20
1190.846702
 11
3718.353379
 21
1108.921646
  0
TEXT
  8
0
 62
     2
 10
3948.410366
 20
1000.076846
 40
30.000000
 50
0.000000E+00
 41
0.58 
  1
94
 72
     5
 11
3983.410366
 21
1000.076846
  0
INSERT
  8
0
  2
G35
 10
0
 20
0
  0
INSERT
  8
0
  2
G36
 10
0
 20
0
  0
INSERT
  8
0
  2
G37
 10
0
 20
0
  0
INSERT
  8
0
  2
G38
 10
0
 20
0
  0
INSERT
  8
0
  2
G39
 10
0
 20
0
  0
INSERT
  8
0
  2
G40
 10
0
 20
0
  0
INSERT
  8
0
  2
G41
 10
0
 20
0
  0
INSERT
  8
0
  2
G42
 10
0
 20
0
  0
INSERT
  8
0
  2
G43
 10
0
 20
0
  0
INSERT
  8
0
  2
G44
 10
0
 20
0
  0
INSERT
  8
0
  2
G45
 10
0
 20
0
  0
INSERT
  8
0
  2
G46
 10
0
 20
0
  0
INSERT
  8
0
  2
G47
 10
0
 20
0
  0
INSERT
  8
0
  2
G48
 10
0
 20
0
  0
INSERT
  8
0
  2
G49
 10
0
 20
0
  0
INSERT
  8
0
  2
G50
 10
0
 20
0
  0
INSERT
  8
0
  2
G51
 10
0
 20
0
  0
INSERT
  8
0
  2
G52
 10
0
 20
0
  0
INSERT
  8
0
  2
G53
 10
0
 20
0
  0
ENDSEC
  0
EOF
