  0
SECTION
  2
HEADER
  9
$INSBASE
 10
0
 20
0
  9
$EXTMIN
 10
0
 20
0
  9
$EXTMAX
 10
4200.000000
 20
2970.000000
  9
$LIMMIN
 10
0
 20
0
  9
$LIMMAX
 10
4200.000000
 20
2970.000000
  9
$VIEWCTR
 10
2100.000000
 20
1485.000000
  9
$DIMASZ
 40
30.000000
  9
$DIMDLI
 40
80.000000
  9
$DIMEXE
 40
10.000000
  9
$DIMEXO
 40
10.000000
  9
$DIMTXT
 40
32.000000
  9
$TEXTSIZE
 40
32.000000
  9
$ANGBASE
 50
0.0
  9
$ANGDIR
 70
     0
  9
$ATTMODE
 70
     1
  9
$AUNITS
 70
     1
  9
$AUPREC
 70
     2
  9
$AXISMODE
 70
     0
  9
$AXISUNIT
 10
0.0
 20
0.0
  9
$BLIPMODE
 70
     1
  9
$CECOLOR
 62
   256
  9
$CELTYPE
  6
BYLAYER
  9
$CHAMFERA
 40
0.0
  9
$CHAMFERB
 40
0.0
  9
$CLAYER
  8
0
  9
$COORDS
 70
     0
  9
$DIMALT
 70
     0
  9
$DIMALTD
 70
     2
  9
$DIMALTF
 40
25.4
  9
$DIMDLE
 40
0.0
  9
$DIMLFAC
 40
1.0
  9
$DIMLIM
 70
     0
  9
$DIMRND
 40
0.0
  9
$DIMSCALE
 40
1.0
  9
$DIMSE1
 70
     0
  9
$DIMSE2
 70
     0
  9
$DIMTAD
 70
     1
  9
$DIMTIH
 70
     0
  9
$DIMTM
 40
0.0
  9
$DIMTOH
 70
     0
  9
$DIMTOL
 70
     0
  9
$DIMTP
 40
0.0
  9
$DIMTSZ
 40
0.0
  9
$DIMZIN
 70
     0
  9
$DRAGMODE
 70
     2
  9
$ELEVATION
 40
0.0
  9
$FASTZOOM
 70
     1
  9
$FILLETRAD
 40
0.0
  9
$FILLMODE
 70
     1
  9
$GRIDMODE
 70
     0
  9
$GRIDUNIT
 10
0.0
 20
0.0
  9
$LTSCALE
 40
1.0
  9
$LUNITS
 70
     2
  9
$LUPREC
 70
     2
  9
$MENU
  1
ACAD
  9
$ORTHOMODE
 70
     0
  9
$OSMODE
 70
     0
  9
$PDMODE
 70
     0
  9
$PDSIZE
 40
0.0
  9
$PLINEWID
 40
0.0
  9
$QTEXTMODE
 70
     0
  9
$REGENMODE
 70
     1
  9
$SKETCHINC
 40
0.1
  9
$SKPOLY
 70
     0
  9
$SNAPBASE
 10
0.0
 20
0.0
  9
$SNAPISOPAIR
 70
     0
  9
$SNAPMODE
 70
     0
  9
$SNAPSTYLE
 70
     0
  9
$SNAPUNIT
 10
0.0
 20
0.0
  9
$TEXTSTYLE
  7
KANJI
  9
$THICKNESS
 40
0.0
  9
$TRACEWID
 40
0.05
  9
$VIEWDIR
 10
0.0
 20
0.0
 30
1.0
  9
$VIEWSIZE
 40
0.0
  0
ENDSEC
  0
SECTION
  2
TABLES
  0
TABLE
  2
LTYPE
 70
     9
  0
LTYPE
  2
CONTINUOUS
 70
    64
  3
Solid line
 72
    65
 73
     0
 40
0.0
  0
LTYPE
  2
DASHED
 70
    64
  3
__ __ __ __ __ __ __ __ __ __ __ __ __ __ __
 72
    65
 73
     2
 40
0.75
 49
0.5
 49
-0.25
  0
LTYPE
  2
HIDDEN
 70
    64
  3
_ _ _ _ _ _ _ _ _ _ _ _ _ _ _ _ _ _ _ _ _ _ _
 72
    65
 73
     2
 40
0.375
 49
0.25
 49
-0.125
  0
LTYPE
  2
CENTER
 70
    64
  3
____ _ ____ _ ____ _ ____ _ ____ _ ____ _ ____
 72
    65
 73
     4
 40
2.0
 49
1.25
 49
-0.25
 49
0.25
 49
-0.25
  0
LTYPE
  2
PHANTOM
 70
    64
  3
_____ _ _ _____ _ _ _____ _ _ _____ _ _ ____
 72
    65
 73
     6
 40
2.5
 49
1.25
 49
-0.25
 49
0.25
 49
-0.25
 49
0.25
 49
-0.25
  0
LTYPE
  2
DOT
 70
    64
  3
...............................................
 72
    65
 73
     2
 40
0.25
 49
0.0
 49
-0.25
  0
LTYPE
  2
DASHDOT
 70
    64
  3
__ . __ . __ . __ . __ . __ . __ . __ . __ . __
 72
    65
 73
     4
 40
1.0
 49
0.5
 49
-0.25
 49
0.0
 49
-0.25
  0
LTYPE
  2
BORDER
 70
    64
  3
__ __ . __ __ . __ __ . __ __ . __ __ . __ __
 72
    65
 73
     6
 40
1.75
 49
0.5
 49
-0.25
 49
0.5
 49
-0.25
 49
0.0
 49
-0.25
  0
LTYPE
  2
DIVIDE
 70
    64
  3
__ . . __ . . __ . . __ . . __ . . __ . . __
 72
    65
 73
     6
 40
1.25
 49
0.5
 49
-0.25
 49
0.0
 49
-0.25
 49
0.0
 49
-0.25
  0
ENDTAB
  0
TABLE
  2
LAYER
 70
   100
  0
LAYER
  2
0
 70
     0
 62
     3
  6
CONTINUOUS
  0
LAYER
  2
1
 70
     0
 62
     3
  6
CONTINUOUS
  0
LAYER
  2
2
 70
     0
 62
     3
  6
CONTINUOUS
  0
LAYER
  2
3
 70
     0
 62
     3
  6
CONTINUOUS
  0
LAYER
  2
4
 70
     0
 62
     3
  6
CONTINUOUS
  0
LAYER
  2
5
 70
     0
 62
     3
  6
CONTINUOUS
  0
LAYER
  2
6
 70
     0
 62
     3
  6
CONTINUOUS
  0
LAYER
  2
7
 70
     0
 62
     3
  6
CONTINUOUS
  0
LAYER
  2
8
 70
     0
 62
     3
  6
CONTINUOUS
  0
LAYER
  2
9
 70
     0
 62
     3
  6
CONTINUOUS
  0
LAYER
  2
10
 70
     0
 62
     3
  6
CONTINUOUS
  0
LAYER
  2
11
 70
     0
 62
     3
  6
CONTINUOUS
  0
LAYER
  2
12
 70
     0
 62
     3
  6
CONTINUOUS
  0
LAYER
  2
13
 70
     0
 62
     3
  6
CONTINUOUS
  0
LAYER
  2
14
 70
     0
 62
     3
  6
CONTINUOUS
  0
LAYER
  2
15
 70
     0
 62
     3
  6
CONTINUOUS
  0
LAYER
  2
16
 70
     0
 62
     3
  6
CONTINUOUS
  0
LAYER
  2
17
 70
     0
 62
     3
  6
CONTINUOUS
  0
LAYER
  2
18
 70
     0
 62
     3
  6
CONTINUOUS
  0
LAYER
  2
19
 70
     0
 62
     3
  6
CONTINUOUS
  0
LAYER
  2
20
 70
     0
 62
     3
  6
CONTINUOUS
  0
LAYER
  2
21
 70
     0
 62
     3
  6
CONTINUOUS
  0
LAYER
  2
22
 70
     0
 62
     3
  6
CONTINUOUS
  0
LAYER
  2
23
 70
     0
 62
     3
  6
CONTINUOUS
  0
LAYER
  2
24
 70
     0
 62
     3
  6
CONTINUOUS
  0
LAYER
  2
25
 70
     0
 62
     3
  6
CONTINUOUS
  0
LAYER
  2
26
 70
     0
 62
     3
  6
CONTINUOUS
  0
LAYER
  2
27
 70
     0
 62
     3
  6
CONTINUOUS
  0
LAYER
  2
28
 70
     0
 62
     3
  6
CONTINUOUS
  0
LAYER
  2
29
 70
     0
 62
     3
  6
CONTINUOUS
  0
LAYER
  2
30
 70
     0
 62
     3
  6
CONTINUOUS
  0
LAYER
  2
31
 70
     0
 62
     3
  6
CONTINUOUS
  0
LAYER
  2
32
 70
     0
 62
     3
  6
CONTINUOUS
  0
LAYER
  2
33
 70
     0
 62
     3
  6
CONTINUOUS
  0
LAYER
  2
34
 70
     0
 62
     3
  6
CONTINUOUS
  0
LAYER
  2
35
 70
     0
 62
     3
  6
CONTINUOUS
  0
LAYER
  2
36
 70
     0
 62
     3
  6
CONTINUOUS
  0
LAYER
  2
37
 70
     0
 62
     3
  6
CONTINUOUS
  0
LAYER
  2
38
 70
     0
 62
     3
  6
CONTINUOUS
  0
LAYER
  2
39
 70
     0
 62
     3
  6
CONTINUOUS
  0
LAYER
  2
40
 70
     0
 62
     3
  6
CONTINUOUS
  0
LAYER
  2
41
 70
     0
 62
     3
  6
CONTINUOUS
  0
LAYER
  2
42
 70
     0
 62
     3
  6
CONTINUOUS
  0
LAYER
  2
43
 70
     0
 62
     3
  6
CONTINUOUS
  0
LAYER
  2
44
 70
     0
 62
     3
  6
CONTINUOUS
  0
LAYER
  2
45
 70
     0
 62
     3
  6
CONTINUOUS
  0
LAYER
  2
46
 70
     0
 62
     3
  6
CONTINUOUS
  0
LAYER
  2
47
 70
     0
 62
     3
  6
CONTINUOUS
  0
LAYER
  2
48
 70
     0
 62
     3
  6
CONTINUOUS
  0
LAYER
  2
49
 70
     0
 62
     3
  6
CONTINUOUS
  0
LAYER
  2
50
 70
     0
 62
     3
  6
CONTINUOUS
  0
LAYER
  2
51
 70
     0
 62
     3
  6
CONTINUOUS
  0
LAYER
  2
52
 70
     0
 62
     3
  6
CONTINUOUS
  0
LAYER
  2
53
 70
     0
 62
     3
  6
CONTINUOUS
  0
LAYER
  2
54
 70
     0
 62
     3
  6
CONTINUOUS
  0
LAYER
  2
55
 70
     0
 62
     3
  6
CONTINUOUS
  0
LAYER
  2
56
 70
     0
 62
     3
  6
CONTINUOUS
  0
LAYER
  2
57
 70
     0
 62
     3
  6
CONTINUOUS
  0
LAYER
  2
58
 70
     0
 62
     3
  6
CONTINUOUS
  0
LAYER
  2
59
 70
     0
 62
     3
  6
CONTINUOUS
  0
LAYER
  2
60
 70
     0
 62
     3
  6
CONTINUOUS
  0
LAYER
  2
61
 70
     0
 62
     3
  6
CONTINUOUS
  0
LAYER
  2
62
 70
     0
 62
     3
  6
CONTINUOUS
  0
LAYER
  2
63
 70
     0
 62
     3
  6
CONTINUOUS
  0
LAYER
  2
64
 70
     0
 62
     3
  6
CONTINUOUS
  0
LAYER
  2
65
 70
     0
 62
     3
  6
CONTINUOUS
  0
LAYER
  2
66
 70
     0
 62
     3
  6
CONTINUOUS
  0
LAYER
  2
67
 70
     0
 62
     3
  6
CONTINUOUS
  0
LAYER
  2
68
 70
     0
 62
     3
  6
CONTINUOUS
  0
LAYER
  2
69
 70
     0
 62
     3
  6
CONTINUOUS
  0
LAYER
  2
70
 70
     0
 62
     3
  6
CONTINUOUS
  0
LAYER
  2
71
 70
     0
 62
     3
  6
CONTINUOUS
  0
LAYER
  2
72
 70
     0
 62
     3
  6
CONTINUOUS
  0
LAYER
  2
73
 70
     0
 62
     3
  6
CONTINUOUS
  0
LAYER
  2
74
 70
     0
 62
     3
  6
CONTINUOUS
  0
LAYER
  2
75
 70
     0
 62
     3
  6
CONTINUOUS
  0
LAYER
  2
76
 70
     0
 62
     3
  6
CONTINUOUS
  0
LAYER
  2
77
 70
     0
 62
     3
  6
CONTINUOUS
  0
LAYER
  2
78
 70
     0
 62
     3
  6
CONTINUOUS
  0
LAYER
  2
79
 70
     0
 62
     3
  6
CONTINUOUS
  0
LAYER
  2
80
 70
     0
 62
     3
  6
CONTINUOUS
  0
LAYER
  2
81
 70
     0
 62
     3
  6
CONTINUOUS
  0
LAYER
  2
82
 70
     0
 62
     3
  6
CONTINUOUS
  0
LAYER
  2
83
 70
     0
 62
     3
  6
CONTINUOUS
  0
LAYER
  2
84
 70
     0
 62
     3
  6
CONTINUOUS
  0
LAYER
  2
85
 70
     0
 62
     3
  6
CONTINUOUS
  0
LAYER
  2
86
 70
     0
 62
     3
  6
CONTINUOUS
  0
LAYER
  2
87
 70
     0
 62
     3
  6
CONTINUOUS
  0
LAYER
  2
88
 70
     0
 62
     3
  6
CONTINUOUS
  0
LAYER
  2
89
 70
     0
 62
     3
  6
CONTINUOUS
  0
LAYER
  2
90
 70
     0
 62
     3
  6
CONTINUOUS
  0
LAYER
  2
91
 70
     0
 62
     3
  6
CONTINUOUS
  0
LAYER
  2
92
 70
     0
 62
     3
  6
CONTINUOUS
  0
LAYER
  2
93
 70
     0
 62
     3
  6
CONTINUOUS
  0
LAYER
  2
94
 70
     0
 62
     3
  6
CONTINUOUS
  0
LAYER
  2
95
 70
     0
 62
     3
  6
CONTINUOUS
  0
LAYER
  2
96
 70
     0
 62
     3
  6
CONTINUOUS
  0
LAYER
  2
97
 70
     0
 62
     3
  6
CONTINUOUS
  0
LAYER
  2
98
 70
     0
 62
     3
  6
CONTINUOUS
  0
LAYER
  2
99
 70
     0
 62
     3
  6
CONTINUOUS
  0
ENDTAB
  0
TABLE
  2
STYLE
 70
     2
  0
STYLE
  2
STANDARD
 70
     0
 40
0.0
 41
1.0
 50
0.0
 71
     0
 42
0.2
  3
TXT
  4
BIGFONT
  0
STYLE
  2
KANJI
 70
     0
 40
4.5
 41
1.0
 50
0.0
 71
     0
 42
0.2
  3
TXT
  4
BIGFONT
  0
ENDTAB
  0
TABLE
  2
VIEW
 70
     0
  0
ENDTAB
  0
ENDSEC
  0
SECTION
  2
BLOCKS
  0
BLOCK
  8
0
  2
G0
 70
     0
 10
0
 20
0
  0
POINT
  8
0
 62
     4
 10
270.000000
 20
1315.000000
  0
POINT
  8
0
 62
     4
 10
-1830.000000
 20
1315.000000
  0
ENDBLK
  0
BLOCK
  8
0
  2
G1
 70
     0
 10
0
 20
0
  0
LINE
  8
0
 62
     1
  6
CONTINUOUS
 10
-406.000000
 20
235.675308
 11
-356.000000
 21
235.675308
  0
SOLID
  8
0
 62
     1
 10
-381.851854
 20
242.145784
 11
-381.851854
 21
229.204832
 12
-406.000000
 22
235.675308
 13
-406.000000
 23
235.675308
  0
TEXT
  8
0
 62
     1
 10
-514.000000
 20
241.008641
 40
32.000000
 50
0.000000E+00
 41
0.58 
  1
160
 72
     5
 11
-458.000000
 21
241.008641
  0
LINE
  8
0
 62
     1
  6
CONTINUOUS
 10
-406.000000
 20
292.675308
 11
-406.000000
 21
295.675308
  0
LINE
  8
0
 62
     1
  6
CONTINUOUS
 10
-406.000000
 20
235.675308
 11
-566.000000
 21
235.675308
  0
LINE
  8
0
 62
     1
  6
CONTINUOUS
 10
-566.000000
 20
235.675308
 11
-616.000000
 21
235.675308
  0
SOLID
  8
0
 62
     1
 10
-590.148146
 20
229.204832
 11
-590.148146
 21
242.145784
 12
-566.000000
 22
235.675308
 13
-566.000000
 23
235.675308
  0
ENDBLK
  0
BLOCK
  8
0
  2
G2
 70
     0
 10
0
 20
0
  0
LINE
  8
0
 62
     1
  6
CONTINUOUS
 10
-406.000000
 20
302.675308
 11
-356.824324
 21
302.675308
  0
SOLID
  8
0
 62
     1
 10
-381.851854
 20
309.145784
 11
-381.851854
 21
296.204832
 12
-406.000000
 22
302.675308
 13
-406.000000
 23
302.675308
  0
LINE
  8
0
 62
     1
  6
CONTINUOUS
 10
-470.682081
 20
302.675308
 11
-499.896755
 21
302.675308
  0
SOLID
  8
0
 62
     1
 10
-494.830227
 20
296.204832
 11
-494.830227
 21
309.145784
 12
-470.682081
 22
302.675308
 13
-470.682081
 23
302.675308
  0
TEXT
  8
0
 62
     1
 10
-454.474233
 20
308.008641
 40
32.000000
 50
0.000000E+00
 41
0.56 
  1
65
 72
     5
 11
-418.474233
 21
308.008641
  0
LINE
  8
0
 62
     1
  6
CONTINUOUS
 10
-406.000000
 20
442.500000
 11
-406.000000
 21
229.620191
  0
LINE
  8
0
 62
     1
  6
CONTINUOUS
 10
-470.682081
 20
302.675308
 11
-406.000000
 21
302.675308
  0
ENDBLK
  0
BLOCK
  8
0
  2
G3
 70
     0
 10
0
 20
0
  0
LINE
  8
0
 62
     1
  6
CONTINUOUS
 10
-283.675308
 20
620.000000
 11
-283.675308
 21
410.000000
  0
SOLID
  8
0
 62
     1
 10
-277.204832
 20
595.851854
 11
-290.145784
 21
595.851854
 12
-283.675308
 22
620.000000
 13
-283.675308
 23
620.000000
  0
SOLID
  8
0
 62
     1
 10
-290.145784
 20
434.148146
 11
-277.204832
 21
434.148146
 12
-283.675308
 22
410.000000
 13
-283.675308
 23
410.000000
  0
LINE
  8
0
 62
     1
  6
CONTINUOUS
 10
-556.000000
 20
620.000000
 11
-273.675308
 21
620.000000
  0
LINE
  8
0
 62
     1
  6
CONTINUOUS
 10
-556.000000
 20
410.000000
 11
-273.675308
 21
410.000000
  0
TEXT
  8
0
 62
     1
 10
-246.341975
 20
487.000000
 40
32.000000
 50
90.000000
 41
0.58 
  1
210
 72
     5
 11
-246.341975
 21
543.000000
  0
ENDBLK
  0
BLOCK
  8
0
  2
G4
 70
     0
 10
0
 20
0
  0
LINE
  8
0
 62
     1
  6
CONTINUOUS
 10
-671.000000
 20
788.375253
 11
-461.000000
 21
788.375253
  0
SOLID
  8
0
 62
     1
 10
-646.851854
 20
794.845729
 11
-646.851854
 21
781.904777
 12
-671.000000
 22
788.375253
 13
-671.000000
 23
788.375253
  0
SOLID
  8
0
 62
     1
 10
-485.148146
 20
781.904777
 11
-485.148146
 21
794.845729
 12
-461.000000
 22
788.375253
 13
-461.000000
 23
788.375253
  0
LINE
  8
0
 62
     1
  6
CONTINUOUS
 10
-671.000000
 20
525.000000
 11
-671.000000
 21
798.375253
  0
LINE
  8
0
 62
     1
  6
CONTINUOUS
 10
-461.000000
 20
525.000000
 11
-461.000000
 21
798.375253
  0
TEXT
  8
0
 62
     1
 10
-594.000000
 20
793.708586
 40
32.000000
 50
0.000000E+00
 41
0.58 
  1
210
 72
     5
 11
-538.000000
 21
793.708586
  0
ENDBLK
  0
BLOCK
  8
0
  2
G5
 70
     0
 10
0
 20
0
  0
LINE
  8
0
 62
     1
  6
CONTINUOUS
 10
-1574.213438
 20
88.727117
 11
-1574.213438
 21
91.227117
  0
LINE
  8
0
 62
     1
  6
CONTINUOUS
 10
-1584.213438
 20
88.727117
 11
-1407.136524
 21
88.727117
  0
TEXT
  8
0
 62
     1
 10
-1579.546771
 20
2.999037
 40
32.000000
 50
90.000000
 41
0.58 
  1
2.5
 72
     5
 11
-1579.546771
 21
58.999037
  0
LINE
  8
0
 62
     1
  6
CONTINUOUS
 10
-1574.213438
 20
88.727117
 11
-1574.213438
 21
-1.855584
  0
SOLID
  8
0
 62
     1
 10
-1567.742962
 20
64.578971
 11
-1580.683914
 21
64.578971
 12
-1574.213438
 22
88.727117
 13
-1574.213438
 23
88.727117
  0
ENDBLK
  0
BLOCK
  8
0
  2
G6
 70
     0
 10
0
 20
0
  0
LINE
  8
0
 62
     1
  6
CONTINUOUS
 10
-1574.213438
 20
91.227117
 11
-1574.213438
 21
151.227117
  0
CIRCLE
  8
0
 62
     1
  6
CONTINUOUS
 10
-1574.213438
 20
91.227117
 40
2.500000
  0
CIRCLE
  8
0
 62
     1
  6
CONTINUOUS
 10
-1574.213438
 20
91.227117
 40
1.250000
  0
LINE
  8
0
 62
     1
  6
CONTINUOUS
 10
-1584.213438
 20
91.227117
 11
-1407.136524
 21
91.227117
  0
LINE
  8
0
 62
     1
  6
CONTINUOUS
 10
-1584.213438
 20
151.227117
 11
-1509.062473
 21
151.227117
  0
TEXT
  8
0
 62
     1
 10
-1579.546771
 20
103.227117
 40
32.000000
 50
90.000000
 41
0.56 
  1
60
 72
     5
 11
-1579.546771
 21
139.227117
  0
LINE
  8
0
 62
     1
  6
CONTINUOUS
 10
-1574.213438
 20
151.227117
 11
-1574.213438
 21
201.227117
  0
SOLID
  8
0
 62
     1
 10
-1581.978009
 20
180.204891
 11
-1566.448866
 21
180.204891
 12
-1574.213438
 22
151.227117
 13
-1574.213438
 23
151.227117
  0
ENDBLK
  0
BLOCK
  8
0
  2
G7
 70
     0
 10
0
 20
0
  0
TEXT
  8
0
 62
     1
 10
-935.392943
 20
-112.272883
 40
32.000000
 50
90.000000
 41
0.97 
  1
Ｌｔ
 72
     5
 11
-935.392943
 21
-40.272883
  0
LINE
  8
0
 62
     1
  6
CONTINUOUS
 10
-980.059610
 20
-568.772883
 11
-920.059610
 21
-568.772883
  0
LINE
  8
0
 62
     1
  6
CONTINUOUS
 10
-980.059610
 20
416.227117
 11
-920.059610
 21
416.227117
  0
LINE
  8
0
 62
     1
  6
CONTINUOUS
 10
-930.059610
 20
416.227117
 11
-930.059610
 21
-568.772883
  0
SOLID
  8
0
 62
     1
 10
-923.589134
 20
392.078971
 11
-936.530087
 21
392.078971
 12
-930.059610
 22
416.227117
 13
-930.059610
 23
416.227117
  0
SOLID
  8
0
 62
     1
 10
-936.530087
 20
-544.624738
 11
-923.589134
 21
-544.624738
 12
-930.059610
 22
-568.772883
 13
-930.059610
 23
-568.772883
  0
ENDBLK
  0
BLOCK
  8
0
  2
G8
 70
     0
 10
0
 20
0
  0
TEXT
  8
0
 62
     1
 10
-995.392943
 20
-207.772883
 40
32.000000
 50
90.000000
 41
0.89 
  1
Ｌ（有効長）
 72
     5
 11
-995.392943
 21
-11.772883
  0
LINE
  8
0
 62
     1
  6
CONTINUOUS
 10
-1040.059610
 20
-568.772883
 11
-980.059610
 21
-568.772883
  0
LINE
  8
0
 62
     1
  6
CONTINUOUS
 10
-990.059610
 20
341.227117
 11
-990.059610
 21
-568.772883
  0
SOLID
  8
0
 62
     1
 10
-983.589134
 20
317.078971
 11
-996.530087
 21
317.078971
 12
-990.059610
 22
341.227117
 13
-990.059610
 23
341.227117
  0
SOLID
  8
0
 62
     1
 10
-996.530087
 20
-544.624738
 11
-983.589134
 21
-544.624738
 12
-990.059610
 22
-568.772883
 13
-990.059610
 23
-568.772883
  0
ENDBLK
  0
BLOCK
  8
0
  2
G9
 70
     0
 10
0
 20
0
  0
TEXT
  8
0
 62
     1
 10
-1055.392943
 20
-416.772883
 40
32.000000
 50
90.000000
 41
0.58 
  1
360
 72
     5
 11
-1055.392943
 21
-360.772883
  0
LINE
  8
0
 62
     1
  6
CONTINUOUS
 10
-1040.059610
 20
-568.772883
 11
-1160.059610
 21
-568.772883
  0
LINE
  8
0
 62
     1
  6
CONTINUOUS
 10
-1050.059610
 20
-208.772883
 11
-1050.059610
 21
-568.772883
  0
SOLID
  8
0
 62
     1
 10
-1043.589134
 20
-232.921029
 11
-1056.530087
 21
-232.921029
 12
-1050.059610
 22
-208.772883
 13
-1050.059610
 23
-208.772883
  0
SOLID
  8
0
 62
     1
 10
-1056.530087
 20
-544.624738
 11
-1043.589134
 21
-544.624738
 12
-1050.059610
 22
-568.772883
 13
-1050.059610
 23
-568.772883
  0
ENDBLK
  0
BLOCK
  8
0
  2
G10
 70
     0
 10
0
 20
0
  0
TEXT
  8
0
 62
     1
 10
-1175.392943
 20
-521.772883
 40
32.000000
 50
90.000000
 41
0.58 
  1
150
 72
     5
 11
-1175.392943
 21
-465.772883
  0
LINE
  8
0
 62
     1
  6
CONTINUOUS
 10
-1344.136524
 20
-568.772883
 11
-1160.059610
 21
-568.772883
  0
LINE
  8
0
 62
     1
  6
CONTINUOUS
 10
-1170.059610
 20
-418.772883
 11
-1170.059610
 21
-568.772883
  0
SOLID
  8
0
 62
     1
 10
-1163.589134
 20
-442.921029
 11
-1176.530087
 21
-442.921029
 12
-1170.059610
 22
-418.772883
 13
-1170.059610
 23
-418.772883
  0
SOLID
  8
0
 62
     1
 10
-1176.530087
 20
-544.624738
 11
-1163.589134
 21
-544.624738
 12
-1170.059610
 22
-568.772883
 13
-1170.059610
 23
-568.772883
  0
ENDBLK
  0
BLOCK
  8
0
  2
G11
 70
     0
 10
0
 20
0
  0
TEXT
  8
0
 62
     1
 10
-1175.392943
 20
-386.772883
 40
32.000000
 50
90.000000
 41
0.58 
  1
120
 72
     5
 11
-1175.392943
 21
-330.772883
  0
LINE
  8
0
 62
     1
  6
CONTINUOUS
 10
-1346.885613
 20
-418.772883
 11
-1160.059610
 21
-418.772883
  0
LINE
  8
0
 62
     1
  6
CONTINUOUS
 10
-1316.387435
 20
-298.772883
 11
-1160.059610
 21
-298.772883
  0
LINE
  8
0
 62
     1
  6
CONTINUOUS
 10
-1170.059610
 20
-298.772883
 11
-1170.059610
 21
-418.772883
  0
SOLID
  8
0
 62
     1
 10
-1163.589134
 20
-322.921029
 11
-1176.530087
 21
-322.921029
 12
-1170.059610
 22
-298.772883
 13
-1170.059610
 23
-298.772883
  0
SOLID
  8
0
 62
     1
 10
-1176.530087
 20
-394.624738
 11
-1163.589134
 21
-394.624738
 12
-1170.059610
 22
-418.772883
 13
-1170.059610
 23
-418.772883
  0
ENDBLK
  0
BLOCK
  8
0
  2
G12
 70
     0
 10
0
 20
0
  0
TEXT
  8
0
 62
     1
 10
-1115.392943
 20
188.227117
 40
32.000000
 50
90.000000
 41
0.58 
  1
250
 72
     5
 11
-1115.392943
 21
244.227117
  0
LINE
  8
0
 62
     1
  6
CONTINUOUS
 10
-1397.136524
 20
341.227117
 11
-1100.059610
 21
341.227117
  0
LINE
  8
0
 62
     1
  6
CONTINUOUS
 10
-1160.059610
 20
91.227117
 11
-1100.059610
 21
91.227117
  0
LINE
  8
0
 62
     1
  6
CONTINUOUS
 10
-1110.059610
 20
91.227117
 11
-1110.059610
 21
341.227117
  0
SOLID
  8
0
 62
     1
 10
-1117.824182
 20
120.204891
 11
-1102.295039
 21
120.204891
 12
-1110.059610
 22
91.227117
 13
-1110.059610
 23
91.227117
  0
SOLID
  8
0
 62
     1
 10
-1102.295039
 20
312.249342
 11
-1117.824182
 21
312.249342
 12
-1110.059610
 22
341.227117
 13
-1110.059610
 23
341.227117
  0
ENDBLK
  0
BLOCK
  8
0
  2
G13
 70
     0
 10
0
 20
0
  0
TEXT
  8
0
 62
     1
 10
-1055.392943
 20
-44.772883
 40
32.000000
 50
90.000000
 41
0.86 
  1
Ｐ
 72
     5
 11
-1055.392943
 21
-12.772883
  0
LINE
  8
0
 62
     1
  6
CONTINUOUS
 10
-1040.059610
 20
-208.772883
 11
-1160.059610
 21
-208.772883
  0
LINE
  8
0
 62
     1
  6
CONTINUOUS
 10
-1050.059610
 20
-208.772883
 11
-1050.059610
 21
151.227117
  0
SOLID
  8
0
 62
     1
 10
-1057.824182
 20
-179.795109
 11
-1042.295039
 21
-179.795109
 12
-1050.059610
 22
-208.772883
 13
-1050.059610
 23
-208.772883
  0
SOLID
  8
0
 62
     1
 10
-1042.295039
 20
122.249342
 11
-1057.824182
 21
122.249342
 12
-1050.059610
 22
151.227117
 13
-1050.059610
 23
151.227117
  0
ENDBLK
  0
BLOCK
  8
0
  2
G14
 70
     0
 10
0
 20
0
  0
TEXT
  8
0
 62
     1
 10
-995.392943
 20
360.727117
 40
32.000000
 50
90.000000
 41
0.56 
  1
75
 72
     5
 11
-995.392943
 21
396.727117
  0
LINE
  8
0
 62
     1
  6
CONTINUOUS
 10
-980.059610
 20
341.227117
 11
-1110.059610
 21
341.227117
  0
LINE
  8
0
 62
     1
  6
CONTINUOUS
 10
-980.059610
 20
416.227117
 11
-1326.946470
 21
416.227117
  0
LINE
  8
0
 62
     1
  6
CONTINUOUS
 10
-990.059610
 20
416.227117
 11
-990.059610
 21
341.227117
  0
SOLID
  8
0
 62
     1
 10
-983.589134
 20
392.078971
 11
-996.530087
 21
392.078971
 12
-990.059610
 22
416.227117
 13
-990.059610
 23
416.227117
  0
SOLID
  8
0
 62
     1
 10
-996.530087
 20
365.375262
 11
-983.589134
 21
365.375262
 12
-990.059610
 22
341.227117
 13
-990.059610
 23
341.227117
  0
ENDBLK
  0
BLOCK
  8
0
  2
G15
 70
     0
 10
0
 20
0
  0
LINE
  8
0
 62
     1
  6
CONTINUOUS
 10
-314.840581
 20
590.796937
 11
-490.203063
 21
766.159419
  0
SOLID
  8
0
 62
     1
 10
-336.491217
 20
603.296937
 11
-327.340581
 21
612.447572
 12
-314.840581
 22
590.796937
 13
-314.840581
 23
590.796937
  0
SOLID
  8
0
 62
     1
 10
-468.552428
 20
753.659419
 11
-477.703063
 21
744.508783
 12
-490.203063
 22
766.159419
 13
-490.203063
 23
766.159419
  0
LINE
  8
0
 62
     1
  6
CONTINUOUS
 10
-646.610173
 20
609.752309
 11
-483.131995
 21
773.230486
  0
TEXT
  8
0
 62
     1
 10
-418.549576
 20
702.048404
 40
32.000000
 50
315.000000
 41
0.58 
  1
248
 72
     5
 11
-378.951596
 21
662.450424
  0
ENDBLK
  0
BLOCK
  8
0
  2
G16
 70
     0
 10
0
 20
0
  0
TEXT
  8
0
 62
     3
 10
-820.142543
 20
239.378460
 40
32.000000
 50
0.000000E+00
 41
0.95 
  1
受口深さ　
 72
     5
 11
-644.142543
 21
239.378460
  0
ENDBLK
  0
BLOCK
  8
0
  2
G17
 70
     0
 10
0
 20
0
  0
LINE
  8
0
 62
     1
  6
CONTINUOUS
 10
-1312.136524
 20
923.343955
 11
-1247.136524
 21
923.343955
  0
LINE
  8
0
 62
     1
  6
CONTINUOUS
 10
-1312.136524
 20
870.089268
 11
-1312.136524
 21
933.343955
  0
LINE
  8
0
 62
     1
  6
CONTINUOUS
 10
-1247.136524
 20
872.589268
 11
-1247.136524
 21
983.343955
  0
TEXT
  8
0
 62
     1
 10
-1297.636524
 20
928.677288
 40
32.000000
 50
0.000000E+00
 41
0.56 
  1
65
 72
     5
 11
-1261.636524
 21
928.677288
  0
LINE
  8
0
 62
     1
  6
CONTINUOUS
 10
-1362.136524
 20
923.343955
 11
-1312.136524
 21
923.343955
  0
SOLID
  8
0
 62
     1
 10
-1336.284670
 20
916.873479
 11
-1336.284670
 21
929.814431
 12
-1312.136524
 22
923.343955
 13
-1312.136524
 23
923.343955
  0
LINE
  8
0
 62
     1
  6
CONTINUOUS
 10
-1247.136524
 20
923.343955
 11
-1197.136524
 21
923.343955
  0
SOLID
  8
0
 62
     1
 10
-1222.988378
 20
929.814431
 11
-1222.988378
 21
916.873479
 12
-1247.136524
 22
923.343955
 13
-1247.136524
 23
923.343955
  0
ENDBLK
  0
BLOCK
  8
0
  2
G18
 70
     0
 10
0
 20
0
  0
TEXT
  8
0
 62
     1
 10
-1465.136524
 20
592.167914
 40
32.000000
 50
0.000000E+00
 41
0.60 
  1
%%c125
 72
     5
 11
-1349.136524
 21
592.167914
  0
LINE
  8
0
 62
     1
  6
CONTINUOUS
 10
-1344.636524
 20
630.089268
 11
-1344.636524
 21
576.834581
  0
LINE
  8
0
 62
     1
  6
CONTINUOUS
 10
-1469.636524
 20
630.089268
 11
-1469.636524
 21
576.834581
  0
LINE
  8
0
 62
     1
  6
CONTINUOUS
 10
-1469.636524
 20
586.834581
 11
-1344.636524
 21
586.834581
  0
SOLID
  8
0
 62
     1
 10
-1445.488378
 20
593.305058
 11
-1445.488378
 21
580.364105
 12
-1469.636524
 22
586.834581
 13
-1469.636524
 23
586.834581
  0
SOLID
  8
0
 62
     1
 10
-1368.784670
 20
580.364105
 11
-1368.784670
 21
593.305058
 12
-1344.636524
 22
586.834581
 13
-1344.636524
 23
586.834581
  0
ENDBLK
  0
BLOCK
  8
0
  2
G19
 70
     0
 10
0
 20
0
  0
LINE
  8
0
 62
     3
  6
CONTINUOUS
 10
-628.500000
 20
355.000000
 11
-657.211168
 21
191.895556
  0
SOLID
  8
0
 62
     3
 10
-624.835324
 20
325.224672
 11
-642.111998
 21
328.265874
 12
-628.500000
 22
355.000000
 13
-628.500000
 23
355.000000
  0
TEXT
  8
0
 62
     3
 10
-667.819641
 20
222.164704
 40
32.000000
 50
0.000000E+00
 41
0.50 
  1
 
 72
     5
 11
-651.819641
 21
222.164704
  0
LINE
  8
0
 62
     3
  6
CONTINUOUS
 10
-657.211168
 20
191.895556
 11
-689.211168
 21
191.895556
  0
ENDBLK
  0
BLOCK
  8
0
  2
G20
 70
     0
 10
0
 20
0
  0
TEXT
  8
0
 62
     3
 10
-1182.463519
 20
936.564900
 40
32.000000
 50
0.000000E+00
 41
1.02 
  1
受口深さ
 72
     5
 11
-1030.463519
 21
936.564900
  0
ENDBLK
  0
BLOCK
  8
0
  2
G21
 70
     0
 10
0
 20
0
  0
LINE
  8
0
 62
     3
  6
CONTINUOUS
 10
-1258.119384
 20
950.395122
 11
-1187.303451
 21
950.395122
  0
SOLID
  8
0
 62
     3
 10
-1229.141609
 20
958.159693
 11
-1229.141609
 21
942.630551
 12
-1258.119384
 22
950.395122
 13
-1258.119384
 23
950.395122
  0
ENDBLK
  0
BLOCK
  8
0
  2
G22
 70
     0
 10
0
 20
0
  0
TEXT
  8
0
 62
     3
 10
-1209.466059
 20
523.889093
 40
32.000000
 50
0.000000E+00
 41
0.95 
  1
受口深さ　
 72
     5
 11
-1033.466059
 21
523.889093
  0
ENDBLK
  0
BLOCK
  8
0
  2
G23
 70
     0
 10
0
 20
0
  0
TEXT
  8
0
 62
     1
 10
-1179.215170
 20
742.089268
 40
32.000000
 50
90.000000
 41
0.60 
  1
%%c125
 72
     5
 11
-1179.215170
 21
858.089268
  0
LINE
  8
0
 62
     1
  6
CONTINUOUS
 10
-1237.136524
 20
862.589268
 11
-1163.881837
 21
862.589268
  0
LINE
  8
0
 62
     1
  6
CONTINUOUS
 10
-1237.136524
 20
737.589268
 11
-1163.881837
 21
737.589268
  0
LINE
  8
0
 62
     1
  6
CONTINUOUS
 10
-1173.881837
 20
737.589268
 11
-1173.881837
 21
862.589268
  0
SOLID
  8
0
 62
     1
 10
-1180.352313
 20
761.737414
 11
-1167.411361
 21
761.737414
 12
-1173.881837
 22
737.589268
 13
-1173.881837
 23
737.589268
  0
SOLID
  8
0
 62
     1
 10
-1167.411361
 20
838.441123
 11
-1180.352313
 21
838.441123
 12
-1173.881837
 22
862.589268
 13
-1173.881837
 23
862.589268
  0
ENDBLK
  0
BLOCK
  8
0
  2
G24
 70
     0
 10
0
 20
0
  0
LINE
  8
0
 62
     3
  6
CONTINUOUS
 10
-1192.439953
 20
-70.775228
 11
-1214.942408
 21
-57.783430
  0
LINE
  8
0
 62
     3
  6
CONTINUOUS
 10
-1207.857422
 20
-97.479068
 11
-1192.439953
 21
-70.775228
  0
TEXT
  8
0
 62
     3
 10
-1219.650706
 20
-129.837285
 40
32.000000
 50
0.000000E+00
 41
0.86 
  1
Ｃ
 72
     5
 11
-1187.650706
 21
-129.837285
  0
LINE
  8
0
 62
     3
  6
CONTINUOUS
 10
-1207.857422
 20
-50.108819
 11
-1207.857422
 21
-97.479068
  0
LINE
  8
0
 62
     3
  6
CONTINUOUS
 10
-1207.857422
 20
-50.108819
 11
-1287.419986
 21
-50.108819
  0
ENDBLK
  0
BLOCK
  8
0
  2
G25
 70
     0
 10
0
 20
0
  0
LINE
  8
0
 62
     1
  6
CONTINUOUS
 10
-723.624747
 20
355.000000
 11
-723.624747
 21
419.682081
  0
LINE
  8
0
 62
     1
  6
CONTINUOUS
 10
-638.500000
 20
355.000000
 11
-733.624747
 21
355.000000
  0
LINE
  8
0
 62
     1
  6
CONTINUOUS
 10
-636.000000
 20
419.682081
 11
-733.624747
 21
419.682081
  0
TEXT
  8
0
 62
     1
 10
-728.958080
 20
369.341041
 40
32.000000
 50
90.000000
 41
0.56 
  1
65
 72
     5
 11
-728.958080
 21
405.341041
  0
LINE
  8
0
 62
     1
  6
CONTINUOUS
 10
-723.624747
 20
305.000000
 11
-723.624747
 21
355.000000
  0
SOLID
  8
0
 62
     1
 10
-717.154271
 20
330.851854
 11
-730.095223
 21
330.851854
 12
-723.624747
 22
355.000000
 13
-723.624747
 23
355.000000
  0
LINE
  8
0
 62
     1
  6
CONTINUOUS
 10
-723.624747
 20
419.682081
 11
-723.624747
 21
469.682081
  0
SOLID
  8
0
 62
     1
 10
-730.095223
 20
443.830227
 11
-717.154271
 21
443.830227
 12
-723.624747
 22
419.682081
 13
-723.624747
 23
419.682081
  0
ENDBLK
  0
BLOCK
  8
0
  2
G26
 70
     0
 10
0
 20
0
  0
LINE
  8
0
 62
     1
  6
CONTINUOUS
 10
-780.624747
 20
355.000000
 11
-780.624747
 21
515.000000
  0
CIRCLE
  8
0
 62
     1
  6
CONTINUOUS
 10
-780.624747
 20
515.000000
 40
5.000000
  0
CIRCLE
  8
0
 62
     1
  6
CONTINUOUS
 10
-780.624747
 20
515.000000
 40
2.500000
  0
LINE
  8
0
 62
     1
  6
CONTINUOUS
 10
-733.624747
 20
355.000000
 11
-790.624747
 21
355.000000
  0
LINE
  8
0
 62
     1
  6
CONTINUOUS
 10
-692.419075
 20
515.000000
 11
-790.624747
 21
515.000000
  0
TEXT
  8
0
 62
     1
 10
-785.958080
 20
407.000000
 40
32.000000
 50
90.000000
 41
0.58 
  1
160
 72
     5
 11
-785.958080
 21
463.000000
  0
LINE
  8
0
 62
     1
  6
CONTINUOUS
 10
-780.624747
 20
305.000000
 11
-780.624747
 21
355.000000
  0
SOLID
  8
0
 62
     1
 10
-774.154271
 20
330.851854
 11
-787.095223
 21
330.851854
 12
-780.624747
 22
355.000000
 13
-780.624747
 23
355.000000
  0
ENDBLK
  0
BLOCK
  8
0
  2
G27
 70
     0
 10
0
 20
0
  0
LINE
  8
0
 62
     1
  6
CONTINUOUS
 10
-1173.881837
 20
640.089268
 11
-1173.881837
 21
590.089268
  0
SOLID
  8
0
 62
     1
 10
-1167.411361
 20
615.941123
 11
-1180.352313
 21
615.941123
 12
-1173.881837
 22
640.089268
 13
-1173.881837
 23
640.089268
  0
LINE
  8
0
 62
     1
  6
CONTINUOUS
 10
-1173.881837
 20
755.089268
 11
-1173.881837
 21
705.089268
  0
SOLID
  8
0
 62
     1
 10
-1180.352313
 20
729.237414
 11
-1167.411361
 21
729.237414
 12
-1173.881837
 22
705.089268
 13
-1173.881837
 23
705.089268
  0
TEXT
  8
0
 62
     1
 10
-1179.215170
 20
654.589268
 40
32.000000
 50
90.000000
 41
0.56 
  1
65
 72
     5
 11
-1179.215170
 21
690.589268
  0
LINE
  8
0
 62
     1
  6
CONTINUOUS
 10
-1334.636524
 20
640.089268
 11
-1113.881837
 21
640.089268
  0
LINE
  8
0
 62
     1
  6
CONTINUOUS
 10
-1337.136524
 20
705.089268
 11
-1163.881837
 21
705.089268
  0
LINE
  8
0
 62
     1
  6
CONTINUOUS
 10
-1173.881837
 20
705.089268
 11
-1173.881837
 21
640.089268
  0
ENDBLK
  0
BLOCK
  8
0
  2
G28
 70
     0
 10
0
 20
0
  0
TEXT
  8
0
 62
     3
 10
-359.957011
 20
247.655516
 40
32.000000
 50
0.000000E+00
 41
0.89 
  1
　け口深さ　
 72
     5
 11
-163.957011
 21
247.655516
  0
ENDBLK
  0
BLOCK
  8
0
  2
G29
 70
     0
 10
0
 20
0
  0
LINE
  8
0
 62
     1
  6
CONTINUOUS
 10
-723.624747
 20
610.317919
 11
-723.624747
 21
560.317919
  0
SOLID
  8
0
 62
     1
 10
-717.154271
 20
586.169773
 11
-730.095223
 21
586.169773
 12
-723.624747
 22
610.317919
 13
-723.624747
 23
610.317919
  0
LINE
  8
0
 62
     1
  6
CONTINUOUS
 10
-723.624747
 20
725.000000
 11
-723.624747
 21
675.000000
  0
SOLID
  8
0
 62
     1
 10
-730.095223
 20
699.148146
 11
-717.154271
 21
699.148146
 12
-723.624747
 22
675.000000
 13
-723.624747
 23
675.000000
  0
TEXT
  8
0
 62
     1
 10
-728.958080
 20
624.658959
 40
32.000000
 50
90.000000
 41
0.56 
  1
65
 72
     5
 11
-728.958080
 21
660.658959
  0
LINE
  8
0
 62
     1
  6
CONTINUOUS
 10
-638.500000
 20
675.000000
 11
-733.624747
 21
675.000000
  0
LINE
  8
0
 62
     1
  6
CONTINUOUS
 10
-723.624747
 20
675.000000
 11
-723.624747
 21
610.317919
  0
ENDBLK
  0
BLOCK
  8
0
  2
G30
 70
     0
 10
0
 20
0
  0
LINE
  8
0
 62
     1
  6
CONTINUOUS
 10
-780.624747
 20
725.000000
 11
-780.624747
 21
675.000000
  0
SOLID
  8
0
 62
     1
 10
-787.095223
 20
699.148146
 11
-774.154271
 21
699.148146
 12
-780.624747
 22
675.000000
 13
-780.624747
 23
675.000000
  0
TEXT
  8
0
 62
     1
 10
-785.958080
 20
567.000000
 40
32.000000
 50
90.000000
 41
0.58 
  1
160
 72
     5
 11
-785.958080
 21
623.000000
  0
LINE
  8
0
 62
     1
  6
CONTINUOUS
 10
-692.419075
 20
515.000000
 11
-790.624747
 21
515.000000
  0
LINE
  8
0
 62
     1
  6
CONTINUOUS
 10
-733.624747
 20
675.000000
 11
-790.624747
 21
675.000000
  0
LINE
  8
0
 62
     1
  6
CONTINUOUS
 10
-780.624747
 20
675.000000
 11
-780.624747
 21
515.000000
  0
ENDBLK
  0
BLOCK
  8
0
  2
G31
 70
     0
 10
0
 20
0
  0
LINE
  8
0
 62
     3
  6
CONTINUOUS
 10
-406.000000
 20
452.500000
 11
-352.586761
 21
340.956170
  0
SOLID
  8
0
 62
     3
 10
-385.698489
 20
430.412703
 11
-401.520344
 21
422.836341
 12
-406.000000
 22
452.500000
 13
-406.000000
 23
452.500000
  0
TEXT
  8
0
 62
     3
 10
-352.586761
 20
346.289503
 40
32.000000
 50
0.000000E+00
 41
0.50 
  1
 
 72
     5
 11
-336.586761
 21
346.289503
  0
LINE
  8
0
 62
     3
  6
CONTINUOUS
 10
-352.586761
 20
340.956170
 11
-333.354756
 21
340.956170
  0
ENDBLK
  0
BLOCK
  8
0
  2
G32
 70
     0
 10
0
 20
0
  0
TEXT
  8
0
 62
     7
 10
-891.151994
 20
184.412717
 40
32.000000
 50
360.000000
 41
0.66 
  1
％％ｃ　　　枝管
 72
     5
 11
-699.151994
 21
184.412717
  0
LINE
  8
0
 62
     3
  6
CONTINUOUS
 10
-698.852927
 20
174.915129
 11
-860.717169
 21
174.915129
  0
LINE
  8
0
 62
     3
  6
CONTINUOUS
 10
-698.852927
 20
166.915129
 11
-860.717169
 21
166.915129
  0
ENDBLK
  0
BLOCK
  8
0
  2
G33
 70
     0
 10
0
 20
0
  0
LINE
  8
0
 62
     3
  6
CONTINUOUS
 10
-172.399363
 20
310.384857
 11
-334.263605
 21
310.384857
  0
LINE
  8
0
 62
     3
  6
CONTINUOUS
 10
-172.399363
 20
318.384857
 11
-334.263605
 21
318.384857
  0
TEXT
  8
0
 62
     7
 10
-364.698430
 20
327.882444
 40
32.000000
 50
360.000000
 41
0.66 
  1
％％ｃ　　　枝管
 72
     5
 11
-172.698430
 21
327.882444
  0
ENDBLK
  0
BLOCK
  8
0
  2
G34
 70
     0
 10
0
 20
0
  0
LINE
  8
0
 62
     3
  6
CONTINUOUS
 10
-713.897856
 20
816.247607
 11
-875.762098
 21
816.247607
  0
LINE
  8
0
 62
     3
  6
CONTINUOUS
 10
-713.897856
 20
824.247607
 11
-875.762098
 21
824.247607
  0
TEXT
  8
0
 62
     7
 10
-906.196923
 20
833.745194
 40
32.000000
 50
360.000000
 41
0.66 
  1
％％ｃ　　　枝管
 72
     5
 11
-714.196923
 21
833.745194
  0
ENDBLK
  0
BLOCK
  8
0
  2
G35
 70
     0
 10
0
 20
0
  0
LINE
  8
0
 62
     3
  6
CONTINUOUS
 10
-410.015522
 20
323.142383
 11
-356.635604
 21
257.954884
  0
SOLID
  8
0
 62
     3
 10
-385.053143
 20
306.502682
 11
-398.625575
 21
295.388661
 12
-410.015522
 22
323.142383
 13
-410.015522
 23
323.142383
  0
TEXT
  8
0
 62
     3
 10
-356.635604
 20
263.288217
 40
32.000000
 50
0.000000E+00
 41
0.50 
  1
 
 72
     5
 11
-340.635604
 21
263.288217
  0
LINE
  8
0
 62
     3
  6
CONTINUOUS
 10
-356.635604
 20
257.954884
 11
-343.814267
 21
257.954884
  0
ENDBLK
  0
BLOCK
  8
0
  2
G36
 70
     0
 10
0
 20
0
  0
LINE
  8
0
 62
     3
  6
CONTINUOUS
 10
-628.500000
 20
675.000000
 11
-690.909383
 21
835.956170
  0
SOLID
  8
0
 62
     3
 10
-647.049527
 20
698.577851
 11
-630.693688
 21
704.919688
 12
-628.500000
 22
675.000000
 13
-628.500000
 23
675.000000
  0
TEXT
  8
0
 62
     3
 10
-706.909383
 20
841.289503
 40
32.000000
 50
0.000000E+00
 41
0.50 
  1
 
 72
     5
 11
-690.909383
 21
841.289503
  0
LINE
  8
0
 62
     3
  6
CONTINUOUS
 10
-690.909383
 20
835.956170
 11
-706.429949
 21
835.956170
  0
ENDBLK
  0
BLOCK
  8
0
  2
G37
 70
     0
 10
0
 20
0
  0
LINE
  8
0
 62
     1
  6
CONTINUOUS
 10
-1170.059610
 20
151.227117
 11
-1170.059610
 21
201.227117
  0
SOLID
  8
0
 62
     1
 10
-1177.824182
 20
180.204891
 11
-1162.295039
 21
180.204891
 12
-1170.059610
 22
151.227117
 13
-1170.059610
 23
151.227117
  0
TEXT
  8
0
 62
     1
 10
-1175.392943
 20
103.227117
 40
32.000000
 50
90.000000
 41
0.56 
  1
60
 72
     5
 11
-1175.392943
 21
139.227117
  0
LINE
  8
0
 62
     1
  6
CONTINUOUS
 10
-1231.202818
 20
151.227117
 11
-1160.059610
 21
151.227117
  0
LINE
  8
0
 62
     1
  6
CONTINUOUS
 10
-1242.136524
 20
91.227117
 11
-1160.059610
 21
91.227117
  0
LINE
  8
0
 62
     1
  6
CONTINUOUS
 10
-1170.059610
 20
91.227117
 11
-1170.059610
 21
151.227117
  0
CIRCLE
  8
0
 62
     1
  6
CONTINUOUS
 10
-1170.059610
 20
91.227117
 40
2.500000
  0
CIRCLE
  8
0
 62
     1
  6
CONTINUOUS
 10
-1170.059610
 20
91.227117
 40
1.250000
  0
ENDBLK
  0
BLOCK
  8
0
  2
G38
 70
     0
 10
0
 20
0
  0
LINE
  8
0
 62
     1
  6
CONTINUOUS
 10
-1170.059610
 20
88.727117
 11
-1170.059610
 21
-1.855584
  0
SOLID
  8
0
 62
     1
 10
-1163.589134
 20
64.578971
 11
-1176.530087
 21
64.578971
 12
-1170.059610
 22
88.727117
 13
-1170.059610
 23
88.727117
  0
TEXT
  8
0
 62
     1
 10
-1175.392943
 20
2.999037
 40
32.000000
 50
90.000000
 41
0.58 
  1
2.5
 72
     5
 11
-1175.392943
 21
58.999037
  0
LINE
  8
0
 62
     1
  6
CONTINUOUS
 10
-1160.059610
 20
88.727117
 11
-1242.136524
 21
88.727117
  0
LINE
  8
0
 62
     1
  6
CONTINUOUS
 10
-1170.059610
 20
88.727117
 11
-1170.059610
 21
91.227117
  0
ENDBLK
  0
BLOCK
  8
0
  2
G39
 70
     0
 10
0
 20
0
  0
LINE
  8
0
 62
     7
  6
CONTINUOUS
 10
-1482.136524
 20
426.227117
 11
-1482.136524
 21
469.751724
  0
LINE
  8
0
 62
     7
  6
CONTINUOUS
 10
-1332.136524
 20
426.227117
 11
-1332.136524
 21
469.751724
  0
LINE
  8
0
 62
     7
  6
CONTINUOUS
 10
-1482.136524
 20
459.751724
 11
-1332.136524
 21
459.751724
  0
SOLID
  8
0
 62
     7
 10
-1453.447381
 20
468.522875
 11
-1453.447381
 21
450.980573
 12
-1482.136524
 22
459.751724
 13
-1482.136524
 23
459.751724
  0
SOLID
  8
0
 62
     7
 10
-1360.825667
 20
450.980573
 11
-1360.825667
 21
468.522875
 12
-1332.136524
 22
459.751724
 13
-1332.136524
 23
459.751724
  0
TEXT
  8
0
 62
     7
 10
-1465.136524
 20
465.085054
 40
32.000000
 50
0.000000E+00
 41
0.60 
  1
%%c150
 72
     5
 11
-1349.136524
 21
465.085054
  0
ENDBLK
  0
BLOCK
  8
0
  2
G40
 70
     0
 10
0
 20
0
  0
LINE
  8
0
 62
     7
  6
CONTINUOUS
 10
-1493.136524
 20
246.986486
 11
-1493.136524
 21
531.948668
  0
LINE
  8
0
 62
     7
  6
CONTINUOUS
 10
-1321.136524
 20
236.986486
 11
-1321.136524
 21
531.948668
  0
LINE
  8
0
 62
     7
  6
CONTINUOUS
 10
-1493.136524
 20
521.948668
 11
-1321.136524
 21
521.948668
  0
SOLID
  8
0
 62
     7
 10
-1464.447381
 20
530.719819
 11
-1464.447381
 21
513.177516
 12
-1493.136524
 22
521.948668
 13
-1493.136524
 23
521.948668
  0
SOLID
  8
0
 62
     7
 10
-1349.825667
 20
513.177516
 11
-1349.825667
 21
530.719819
 12
-1321.136524
 22
521.948668
 13
-1321.136524
 23
521.948668
  0
TEXT
  8
0
 62
     7
 10
-1465.136524
 20
527.281997
 40
32.000000
 50
0.000000E+00
 41
0.60 
  1
%%c172
 72
     5
 11
-1349.136524
 21
527.281997
  0
ENDBLK
  0
BLOCK
  8
0
  2
G41
 70
     0
 10
0
 20
0
  0
LINE
  8
0
 62
     7
  6
CONTINUOUS
 10
-1462.136524
 20
-578.772883
 11
-1462.136524
 21
-653.407049
  0
LINE
  8
0
 62
     7
  6
CONTINUOUS
 10
-1352.136524
 20
-578.772883
 11
-1352.136524
 21
-653.407049
  0
LINE
  8
0
 62
     7
  6
CONTINUOUS
 10
-1462.136524
 20
-643.407049
 11
-1352.136524
 21
-643.407049
  0
SOLID
  8
0
 62
     7
 10
-1433.447381
 20
-634.635898
 11
-1433.447381
 21
-652.178201
 12
-1462.136524
 22
-643.407049
 13
-1462.136524
 23
-643.407049
  0
SOLID
  8
0
 62
     7
 10
-1380.825667
 20
-652.178201
 11
-1380.825667
 21
-634.635898
 12
-1352.136524
 22
-643.407049
 13
-1352.136524
 23
-643.407049
  0
TEXT
  8
0
 62
     7
 10
-1465.136524
 20
-638.073720
 40
32.000000
 50
0.000000E+00
 41
0.60 
  1
%%c110
 72
     5
 11
-1349.136524
 21
-638.073720
  0
ENDBLK
  0
BLOCK
  8
0
  2
G42
 70
     0
 10
0
 20
0
  0
LINE
  8
0
 62
     7
  6
CONTINUOUS
 10
-1493.136524
 20
-314.900972
 11
-1493.136524
 21
-718.051332
  0
LINE
  8
0
 62
     7
  6
CONTINUOUS
 10
-1321.136524
 20
-304.900972
 11
-1321.136524
 21
-718.051332
  0
LINE
  8
0
 62
     7
  6
CONTINUOUS
 10
-1493.136524
 20
-708.051332
 11
-1321.136524
 21
-708.051332
  0
SOLID
  8
0
 62
     7
 10
-1464.447381
 20
-699.280181
 11
-1464.447381
 21
-716.822484
 12
-1493.136524
 22
-708.051332
 13
-1493.136524
 23
-708.051332
  0
SOLID
  8
0
 62
     7
 10
-1349.825667
 20
-716.822484
 11
-1349.825667
 21
-699.280181
 12
-1321.136524
 22
-708.051332
 13
-1321.136524
 23
-708.051332
  0
TEXT
  8
0
 62
     7
 10
-1465.136524
 20
-702.718003
 40
32.000000
 50
0.000000E+00
 41
0.60 
  1
%%c172
 72
     5
 11
-1349.136524
 21
-702.718003
  0
ENDBLK
  0
BLOCK
  8
0
  2
G43
 70
     0
 10
0
 20
0
  0
LINE
  8
0
 62
     7
  6
CONTINUOUS
 10
-1502.136524
 20
872.089268
 11
-1502.136524
 21
992.299426
  0
LINE
  8
0
 62
     7
  6
CONTINUOUS
 10
-1407.136524
 20
918.530428
 11
-1407.136524
 21
992.299426
  0
LINE
  8
0
 62
     7
  6
CONTINUOUS
 10
-1502.136524
 20
982.299426
 11
-1407.136524
 21
982.299426
  0
SOLID
  8
0
 62
     7
 10
-1473.447381
 20
991.070578
 11
-1473.447381
 21
973.528275
 12
-1502.136524
 22
982.299426
 13
-1502.136524
 23
982.299426
  0
SOLID
  8
0
 62
     7
 10
-1435.825667
 20
973.528275
 11
-1435.825667
 21
991.070578
 12
-1407.136524
 22
982.299426
 13
-1407.136524
 23
982.299426
  0
TEXT
  8
0
 62
     7
 10
-1472.636524
 20
987.632756
 40
32.000000
 50
0.000000E+00
 41
0.56 
  1
95
 72
     5
 11
-1436.636524
 21
987.632756
  0
ENDBLK
  0
BLOCK
  8
0
  2
G44
 70
     0
 10
0
 20
0
  0
LINE
  8
0
 62
     7
  6
CONTINUOUS
 10
-1407.136524
 20
902.187720
 11
-1407.136524
 21
992.299426
  0
LINE
  8
0
 62
     7
  6
CONTINUOUS
 10
-1247.136524
 20
882.589268
 11
-1247.136524
 21
992.299426
  0
LINE
  8
0
 62
     7
  6
CONTINUOUS
 10
-1407.136524
 20
982.299426
 11
-1247.136524
 21
982.299426
  0
SOLID
  8
0
 62
     7
 10
-1378.447381
 20
991.070578
 11
-1378.447381
 21
973.528275
 12
-1407.136524
 22
982.299426
 13
-1407.136524
 23
982.299426
  0
SOLID
  8
0
 62
     7
 10
-1275.825667
 20
973.528275
 11
-1275.825667
 21
991.070578
 12
-1247.136524
 22
982.299426
 13
-1247.136524
 23
982.299426
  0
TEXT
  8
0
 62
     7
 10
-1355.136524
 20
987.632756
 40
32.000000
 50
0.000000E+00
 41
0.58 
  1
160
 72
     5
 11
-1299.136524
 21
987.632756
  0
ENDBLK
  0
BLOCK
  8
0
  2
G45
 70
     0
 10
0
 20
0
  0
LINE
  8
0
 62
     7
  6
CONTINUOUS
 10
-1168.584043
 20
800.089268
 11
-1105.662744
 21
800.089268
  0
LINE
  8
0
 62
     7
  6
CONTINUOUS
 10
-1324.636524
 20
640.089268
 11
-1105.662744
 21
640.089268
  0
LINE
  8
0
 62
     7
  6
CONTINUOUS
 10
-1115.662744
 20
800.089268
 11
-1115.662744
 21
640.089268
  0
SOLID
  8
0
 62
     7
 10
-1106.891593
 20
771.400126
 11
-1124.433895
 21
771.400126
 12
-1115.662744
 22
800.089268
 13
-1115.662744
 23
800.089268
  0
SOLID
  8
0
 62
     7
 10
-1124.433895
 20
668.778411
 11
-1106.891593
 21
668.778411
 12
-1115.662744
 22
640.089268
 13
-1115.662744
 23
640.089268
  0
TEXT
  8
0
 62
     7
 10
-1120.996074
 20
692.089268
 40
32.000000
 50
90.000000
 41
0.58 
  1
160
 72
     5
 11
-1120.996074
 21
748.089268
  0
ENDBLK
  0
BLOCK
  8
0
  2
G46
 70
     0
 10
0
 20
0
  0
LINE
  8
0
 62
     7
  6
CONTINUOUS
 10
-1238.166350
 20
-157.281581
 11
-1160.059610
 21
-157.281581
  0
LINE
  8
0
 62
     7
  6
CONTINUOUS
 10
-1237.136524
 20
-208.772883
 11
-1160.059610
 21
-208.772883
  0
LINE
  8
0
 62
     7
  6
CONTINUOUS
 10
-1170.059610
 20
-157.281581
 11
-1170.059610
 21
-208.772883
  0
LINE
  8
0
 62
     7
  6
CONTINUOUS
 10
-1170.059610
 20
-157.281581
 11
-1170.059610
 21
-107.281581
  0
SOLID
  8
0
 62
     7
 10
-1178.830762
 20
-128.592438
 11
-1161.288459
 21
-128.592438
 12
-1170.059610
 22
-157.281581
 13
-1170.059610
 23
-157.281581
  0
LINE
  8
0
 62
     7
  6
CONTINUOUS
 10
-1170.059610
 20
-208.772883
 11
-1170.059610
 21
-258.772883
  0
SOLID
  8
0
 62
     7
 10
-1161.288459
 20
-237.462026
 11
-1178.830762
 21
-237.462026
 12
-1170.059610
 22
-208.772883
 13
-1170.059610
 23
-208.772883
  0
TEXT
  8
0
 62
     7
 10
-1175.392940
 20
-199.027232
 40
32.000000
 50
90.000000
 41
0.86 
  1
Ｂ
 72
     5
 11
-1175.392940
 21
-167.027232
  0
ENDBLK
  0
BLOCK
  8
0
  2
G47
 70
     0
 10
0
 20
0
  0
POINT
  8
0
 62
     2
 10
-1248.166350
 20
-157.281581
  0
LINE
  8
0
 62
     2
  6
CONTINUOUS
 10
-1254.265130
 20
-102.392558
 11
-1252.135524
 21
-208.872863
  0
LINE
  8
0
 62
     2
  6
CONTINUOUS
 10
-1249.266130
 20
-102.292578
 11
-1247.136524
 21
-208.772883
  0
LINE
  8
0
 62
     2
  6
CONTINUOUS
 10
-1254.265130
 20
-102.392558
 11
-1249.266130
 21
-102.292578
  0
LINE
  8
0
 62
     2
  6
CONTINUOUS
 10
-1312.120174
 20
-210.072556
 11
-1247.136524
 21
-208.772883
  0
LINE
  8
0
 62
     2
  6
CONTINUOUS
 10
-1254.205142
 20
-105.391958
 11
-1312.136524
 21
-106.550586
  0
LINE
  8
0
 62
     2
  6
CENTER
 10
-1236.886521
 20
-157.055985
 11
-1320.166350
 21
-158.721581
  0
POINT
  8
0
 62
     2
 10
-1320.166350
 20
-150.721581
  0
ENDBLK
  0
BLOCK
  8
0
  2
G48
 70
     0
 10
0
 20
0
  0
CIRCLE
  8
0
 62
     2
  6
CONTINUOUS
 10
-1407.136524
 20
-156.272883
 40
35.000000
  0
LINE
  8
0
 62
     2
  6
CENTER
 10
-1478.849702
 20
-156.272883
 11
-1341.138303
 21
-156.272883
  0
ARC
  8
0
 62
     2
  6
CONTINUOUS
 10
-1407.136524
 20
-156.272883
 40
55.000000
 50
289.010880
 51
610.989120
  0
CIRCLE
  8
0
 62
     2
  6
CONTINUOUS
 10
-1407.136524
 20
-156.272883
 40
47.000000
  0
LINE
  8
0
 62
     2
  6
CONTINUOUS
 10
-1389.220401
 20
-208.273004
 11
-1425.052647
 21
-208.273004
  0
CIRCLE
  8
0
 62
     1
  6
CONTINUOUS
 10
-1407.136524
 20
-148.772883
 40
62.000000
  0
ENDBLK
  0
BLOCK
  8
0
  2
G49
 70
     0
 10
0
 20
0
  0
LINE
  8
0
 62
     7
  6
CONTINUOUS
 10
-1488.849702
 20
-156.272883
 11
-1560.943030
 21
-156.272883
  0
LINE
  8
0
 62
     7
  6
CONTINUOUS
 10
-1435.052647
 20
-208.273004
 11
-1560.943030
 21
-208.273004
  0
LINE
  8
0
 62
     7
  6
CONTINUOUS
 10
-1550.943030
 20
-156.272883
 11
-1550.943030
 21
-208.273004
  0
LINE
  8
0
 62
     7
  6
CONTINUOUS
 10
-1550.943030
 20
-156.272883
 11
-1550.943030
 21
-106.272883
  0
SOLID
  8
0
 62
     7
 10
-1559.714181
 20
-127.583741
 11
-1542.171878
 21
-127.583741
 12
-1550.943030
 22
-156.272883
 13
-1550.943030
 23
-156.272883
  0
LINE
  8
0
 62
     7
  6
CONTINUOUS
 10
-1550.943030
 20
-208.273004
 11
-1550.943030
 21
-258.273004
  0
SOLID
  8
0
 62
     7
 10
-1542.171878
 20
-236.962147
 11
-1559.714181
 21
-236.962147
 12
-1550.943030
 22
-208.273004
 13
-1550.943030
 23
-208.273004
  0
TEXT
  8
0
 62
     7
 10
-1556.276359
 20
-198.272944
 40
32.000000
 50
90.000000
 41
0.86 
  1
Ｂ
 72
     5
 11
-1556.276359
 21
-166.272944
  0
ENDBLK
  0
BLOCK
  8
0
  2
G50
 70
     0
 10
0
 20
0
  0
LINE
  8
0
 62
     2
  6
CONTINUOUS
 10
-511.000000
 20
355.000000
 11
-621.000000
 21
355.000000
  0
LINE
  8
0
 62
     2
  6
CONTINUOUS
 10
-621.000000
 20
360.000000
 11
-511.000000
 21
360.000000
  0
LINE
  8
0
 62
     2
  6
CONTINUOUS
 10
-617.965398
 20
360.000000
 11
-617.569710
 21
416.979167
  0
LINE
  8
0
 62
     2
  6
CONTINUOUS
 10
-514.034602
 20
360.000000
 11
-514.430290
 21
416.979167
  0
LINE
  8
0
 62
     2
  6
CONTINUOUS
 10
-621.000000
 20
360.000000
 11
-621.000000
 21
355.000000
  0
LINE
  8
0
 62
     2
  6
CONTINUOUS
 10
-511.000000
 20
360.000000
 11
-511.000000
 21
355.000000
  0
ENDBLK
  0
BLOCK
  8
0
  2
G51
 70
     0
 10
0
 20
0
  0
LINE
  8
0
 62
     7
  6
CONTINUOUS
 10
-396.000000
 20
570.000000
 11
-343.675308
 21
570.000000
  0
LINE
  8
0
 62
     7
  6
CONTINUOUS
 10
-396.000000
 20
460.000000
 11
-343.675308
 21
460.000000
  0
LINE
  8
0
 62
     7
  6
CONTINUOUS
 10
-353.675308
 20
570.000000
 11
-353.675308
 21
460.000000
  0
SOLID
  8
0
 62
     7
 10
-344.904157
 20
541.310857
 11
-362.446459
 21
541.310857
 12
-353.675308
 22
570.000000
 13
-353.675308
 23
570.000000
  0
SOLID
  8
0
 62
     7
 10
-362.446459
 20
488.689143
 11
-344.904157
 21
488.689143
 12
-353.675308
 22
460.000000
 13
-353.675308
 23
460.000000
  0
TEXT
  8
0
 62
     7
 10
-359.008638
 20
499.000000
 40
32.000000
 50
90.000000
 41
0.86 
  1
Ａ
 72
     5
 11
-359.008638
 21
531.000000
  0
ENDBLK
  0
BLOCK
  8
0
  2
G52
 70
     0
 10
0
 20
0
  0
LINE
  8
0
 62
     2
  6
CONTINUOUS
 10
-406.000000
 20
460.000000
 11
-406.000000
 21
570.000000
  0
LINE
  8
0
 62
     2
  6
CONTINUOUS
 10
-411.000000
 20
460.000000
 11
-411.000000
 21
570.000000
  0
LINE
  8
0
 62
     2
  6
CONTINUOUS
 10
-411.000000
 20
460.000000
 11
-406.000000
 21
460.000000
  0
LINE
  8
0
 62
     2
  6
CONTINUOUS
 10
-411.000000
 20
570.000000
 11
-406.000000
 21
570.000000
  0
LINE
  8
0
 62
     2
  6
CONTINUOUS
 10
-411.000000
 20
463.000000
 11
-471.000000
 21
463.000000
  0
LINE
  8
0
 62
     2
  6
CONTINUOUS
 10
-471.000000
 20
567.000000
 11
-411.000000
 21
567.000000
  0
ENDBLK
  0
BLOCK
  8
0
  2
G53
 70
     0
 10
0
 20
0
  0
LINE
  8
0
 62
     7
  6
CONTINUOUS
 10
-621.000000
 20
345.000000
 11
-621.000000
 21
293.019379
  0
LINE
  8
0
 62
     7
  6
CONTINUOUS
 10
-511.000000
 20
345.000000
 11
-511.000000
 21
293.019379
  0
LINE
  8
0
 62
     7
  6
CONTINUOUS
 10
-621.000000
 20
303.019379
 11
-511.000000
 21
303.019379
  0
SOLID
  8
0
 62
     7
 10
-592.310857
 20
311.790530
 11
-592.310857
 21
294.248228
 12
-621.000000
 22
303.019379
 13
-621.000000
 23
303.019379
  0
SOLID
  8
0
 62
     7
 10
-539.689143
 20
294.248228
 11
-539.689143
 21
311.790530
 12
-511.000000
 22
303.019379
 13
-511.000000
 23
303.019379
  0
TEXT
  8
0
 62
     7
 10
-582.000000
 20
308.352709
 40
32.000000
 50
0.000000E+00
 41
0.86 
  1
Ａ
 72
     5
 11
-550.000000
 21
308.352709
  0
ENDBLK
  0
BLOCK
  8
0
  2
G54
 70
     0
 10
0
 20
0
  0
LINE
  8
0
 62
     2
  6
CONTINUOUS
 10
-511.000000
 20
670.000000
 11
-511.000000
 21
675.000000
  0
LINE
  8
0
 62
     2
  6
CONTINUOUS
 10
-621.000000
 20
670.000000
 11
-621.000000
 21
675.000000
  0
LINE
  8
0
 62
     2
  6
CONTINUOUS
 10
-514.034602
 20
670.000000
 11
-514.430290
 21
613.020833
  0
LINE
  8
0
 62
     2
  6
CONTINUOUS
 10
-617.965398
 20
670.000000
 11
-617.569710
 21
613.020833
  0
LINE
  8
0
 62
     2
  6
CONTINUOUS
 10
-621.000000
 20
670.000000
 11
-511.000000
 21
670.000000
  0
LINE
  8
0
 62
     2
  6
CONTINUOUS
 10
-511.000000
 20
675.000000
 11
-621.000000
 21
675.000000
  0
ENDBLK
  0
BLOCK
  8
0
  2
G55
 70
     0
 10
0
 20
0
  0
LINE
  8
0
 62
     7
  6
CONTINUOUS
 10
-621.000000
 20
685.000000
 11
-621.000000
 21
736.980621
  0
LINE
  8
0
 62
     7
  6
CONTINUOUS
 10
-511.000000
 20
685.000000
 11
-511.000000
 21
736.980621
  0
LINE
  8
0
 62
     7
  6
CONTINUOUS
 10
-621.000000
 20
726.980621
 11
-511.000000
 21
726.980621
  0
SOLID
  8
0
 62
     7
 10
-592.310857
 20
735.751772
 11
-592.310857
 21
718.209470
 12
-621.000000
 22
726.980621
 13
-621.000000
 23
726.980621
  0
SOLID
  8
0
 62
     7
 10
-539.689143
 20
718.209470
 11
-539.689143
 21
735.751772
 12
-511.000000
 22
726.980621
 13
-511.000000
 23
726.980621
  0
TEXT
  8
0
 62
     7
 10
-582.000000
 20
732.313951
 40
32.000000
 50
0.000000E+00
 41
0.86 
  1
Ａ
 72
     5
 11
-550.000000
 21
732.313951
  0
ENDBLK
  0
ENDSEC
  0
SECTION
  2
ENTITIES
  0
INSERT
  8
0
  2
G0
 10
0
 20
0
  0
INSERT
  8
0
  2
G1
 10
0
 20
0
  0
INSERT
  8
0
  2
G2
 10
0
 20
0
  0
LINE
  8
0
 62
     1
  6
CONTINUOUS
 10
-471.000000
 20
449.361184
 11
-471.000000
 21
298.675308
  0
INSERT
  8
0
  2
G3
 10
0
 20
0
  0
LINE
  8
3
 62
     4
  6
CONTINUOUS
 10
-1324.336936
 20
-208.282684
 11
-1327.741659
 21
-206.656104
  0
LINE
  8
3
 62
     4
  6
CONTINUOUS
 10
-1327.741659
 20
-206.656104
 11
-1331.019878
 21
-203.920933
  0
LINE
  8
3
 62
     4
  6
CONTINUOUS
 10
-1331.019878
 20
-203.920933
 11
-1334.108810
 21
-200.129554
  0
LINE
  8
3
 62
     4
  6
CONTINUOUS
 10
-1334.108810
 20
-200.129554
 11
-1336.949294
 21
-195.354583
  0
LINE
  8
3
 62
     4
  6
CONTINUOUS
 10
-1336.949294
 20
-195.354583
 11
-1339.486929
 21
-189.687469
  0
LINE
  8
3
 62
     4
  6
CONTINUOUS
 10
-1339.486929
 20
-189.687469
 11
-1341.673113
 21
-183.236750
  0
LINE
  8
3
 62
     4
  6
CONTINUOUS
 10
-1341.673113
 20
-183.236750
 11
-1343.465976
 21
-176.125973
  0
LINE
  8
3
 62
     4
  6
CONTINUOUS
 10
-1343.465976
 20
-176.125973
 11
-1344.831181
 21
-168.491323
  0
LINE
  8
3
 62
     4
  6
CONTINUOUS
 10
-1344.831181
 20
-168.491323
 11
-1345.742580
 21
-160.479022
  0
LINE
  8
3
 62
     4
  6
CONTINUOUS
 10
-1344.831181
 20
-168.491323
 11
-1345.742580
 21
-160.479022
  0
INSERT
  8
0
  2
G4
 10
0
 20
0
  0
LINE
  8
3
 62
     4
  6
CONTINUOUS
 10
-1503.695672
 20
-73.772883
 11
-1500.136524
 21
-78.073521
  0
ARC
  8
3
 62
     4
  6
CONTINUOUS
 10
-1507.636524
 20
-72.272883
 40
1.500000
 50
180.000000
 51
270.000000
  0
LINE
  8
3
 62
     4
  6
CONTINUOUS
 10
-1509.136524
 20
-70.772883
 11
-1509.136524
 21
-72.272883
  0
INSERT
  8
0
  2
G5
 10
0
 20
0
  0
LINE
  8
0
 62
     2
  6
CONTINUOUS
 10
-1505.136524
 20
-53.271285
 11
-1505.136524
 21
-51.271285
  0
LINE
  8
0
 62
     2
  6
CONTINUOUS
 10
-1512.136524
 20
-50.271285
 11
-1407.136524
 21
-50.271285
  0
LINE
  8
0
 62
     2
  6
CONTINUOUS
 10
-1505.136524
 20
-53.271285
 11
-1309.136524
 21
-53.271285
  0
LINE
  8
0
 62
     2
  6
CONTINUOUS
 10
-1512.136524
 20
-50.271285
 11
-1512.136524
 21
-42.271285
  0
LINE
  8
0
 62
     3
  6
CONTINUOUS
 10
-1321.136524
 20
216.227117
 11
-1321.136524
 21
226.986486
  0
LINE
  8
3
 62
     3
  6
CONTINUOUS
 10
-1332.136524
 20
411.227117
 11
-1407.136524
 21
411.227117
  0
LINE
  8
3
 62
     3
  6
CONTINUOUS
 10
-1482.136524
 20
416.227117
 11
-1332.136524
 21
416.227117
  0
LINE
  8
3
 62
     3
  6
CONTINUOUS
 10
-1482.136524
 20
416.227117
 11
-1482.136524
 21
411.227117
  0
LINE
  8
0
 62
     3
  6
CONTINUOUS
 10
-1321.136524
 20
86.227117
 11
-1321.136524
 21
-35.271285
  0
ARC
  8
3
 62
     3
  6
CONTINUOUS
 10
-1345.136524
 20
339.227117
 40
10.000000
 50
-57.472862
 51
0.000000E+00
  0
LINE
  8
3
 62
     3
  6
CONTINUOUS
 10
-1479.136524
 20
406.644541
 11
-1479.136524
 21
339.227117
  0
LINE
  8
3
 62
     3
  6
CONTINUOUS
 10
-1335.136524
 20
406.644541
 11
-1335.136524
 21
339.227117
  0
ARC
  8
3
 62
     3
  6
CONTINUOUS
 10
-1469.136524
 20
339.227117
 40
10.000000
 50
180.000000
 51
238.038250
  0
LINE
  8
3
 62
     3
  6
CENTER
 10
-1241.202818
 20
151.227117
 11
-1509.062473
 21
151.227117
  0
LINE
  8
0
 62
     2
  6
CONTINUOUS
 10
-1309.136524
 20
-35.271285
 11
-1302.136524
 21
-42.271285
  0
ARC
  8
3
 62
     3
  6
CONTINUOUS
 10
-1484.136524
 20
406.644541
 40
5.000000
 50
0.000000E+00
 51
66.421822
  0
LINE
  8
3
 62
     3
  6
CONTINUOUS
 10
-1332.136524
 20
416.227117
 11
-1332.136524
 21
411.227117
  0
ARC
  8
0
 62
     3
  6
CONTINUOUS
 10
-1356.136524
 20
226.986486
 40
35.000000
 50
0.000000E+00
 51
17.716492
  0
ARC
  8
3
 62
     3
  6
CONTINUOUS
 10
-1330.136524
 20
406.644541
 40
5.000000
 50
113.578178
 51
180.000000
  0
LINE
  8
3
 62
     3
  6
CONTINUOUS
 10
-1329.397502
 20
234.103002
 11
-1407.136524
 21
234.103002
  0
ARC
  8
3
 62
     4
  6
CONTINUOUS
 10
-1487.136524
 20
-422.644795
 40
25.000000
 50
0.000000E+00
 51
14.708304
  0
LINE
  8
3
 62
     4
  6
CONTINUOUS
 10
-1491.989608
 20
-303.787407
 11
-1462.955750
 21
-416.297342
  0
ARC
  8
3
 62
     4
  6
CONTINUOUS
 10
-1458.136524
 20
-294.900972
 40
35.000000
 50
180.000000
 51
194.708304
  0
LINE
  8
3
 62
     4
  6
CONTINUOUS
 10
-1462.136524
 20
-422.644795
 11
-1462.136524
 21
-566.772883
  0
ARC
  8
3
 62
     4
  6
CONTINUOUS
 10
-1327.136524
 20
-422.644795
 40
25.000000
 50
165.291696
 51
180.000000
  0
LINE
  8
3
 62
     4
  6
CONTINUOUS
 10
-1322.283440
 20
-303.787407
 11
-1351.317298
 21
-416.297342
  0
ARC
  8
3
 62
     4
  6
CONTINUOUS
 10
-1356.136524
 20
-294.900972
 40
35.000000
 50
-14.708304
 51
0.000000E+00
  0
LINE
  8
3
 62
     4
  6
CONTINUOUS
 10
-1352.136524
 20
-422.644795
 11
-1352.136524
 21
-566.772883
  0
LINE
  8
3
 62
     4
  6
CONTINUOUS
 10
-1354.136524
 20
-568.772883
 11
-1460.136524
 21
-568.772883
  0
LINE
  8
3
 62
     4
  6
CONTINUOUS
 10
-1457.387435
 20
-418.772883
 11
-1356.885613
 21
-418.772883
  0
LINE
  8
3
 62
     4
  6
CONTINUOUS
 10
-1487.885613
 20
-298.772883
 11
-1326.387435
 21
-298.772883
  0
LINE
  8
3
 62
     4
  6
CONTINUOUS
 10
-1500.136524
 20
-78.073521
 11
-1314.136524
 21
-78.073521
  0
LINE
  8
3
 62
     4
  6
CONTINUOUS
 10
-1321.136524
 20
-294.900972
 11
-1321.136524
 21
-213.772883
  0
LINE
  8
3
 62
     4
  6
CONTINUOUS
 10
-1511.136524
 20
-68.772883
 11
-1303.136524
 21
-68.772883
  0
LINE
  8
3
 62
     4
  6
CONTINUOUS
 10
-1302.136524
 20
-53.772883
 11
-1512.136524
 21
-53.772883
  0
ARC
  8
3
 62
     4
  6
CONTINUOUS
 10
-1460.136524
 20
-566.772883
 40
2.000000
 50
180.000000
 51
270.000000
  0
ARC
  8
3
 62
     4
  6
CONTINUOUS
 10
-1354.136524
 20
-566.772883
 40
2.000000
 50
-90.000000
 51
0.000000E+00
  0
LINE
  8
3
 62
     4
  6
CONTINUOUS
 10
-1302.136524
 20
-53.772883
 11
-1302.136524
 21
-68.772883
  0
LINE
  8
3
 62
     4
  6
CONTINUOUS
 10
-1303.136524
 20
-68.772883
 11
-1302.136524
 21
-68.772883
  0
LINE
  8
3
 62
     3
  6
CENTER
 10
-1485.625377
 20
-77.716452
 11
-1485.625377
 21
-47.225681
  0
LINE
  8
3
 62
     3
  6
CENTER
 10
-1328.647671
 20
-77.716452
 11
-1328.647671
 21
-47.225681
  0
ARC
  8
3
 62
     4
  6
CONTINUOUS
 10
-1303.136524
 20
-70.772883
 40
2.000000
 50
90.000000
 51
180.000000
  0
LINE
  8
3
 62
     4
  6
CONTINUOUS
 10
-1305.136524
 20
-70.772883
 11
-1305.136524
 21
-72.272883
  0
ARC
  8
3
 62
     4
  6
CONTINUOUS
 10
-1306.636524
 20
-72.272883
 40
1.500000
 50
-90.000000
 51
0.000000E+00
  0
LINE
  8
3
 62
     4
  6
CONTINUOUS
 10
-1306.636524
 20
-73.772883
 11
-1507.636524
 21
-73.772883
  0
TEXT
  8
0
 62
     6
 10
-1227.802953
 20
1134.359096
 40
32.000000
 50
0.000000E+00
 41
0.50 
  1
1
 72
     5
 11
-1211.802953
 21
1134.359096
  0
ARC
  8
3
 62
     4
  6
CONTINUOUS
 10
-1507.636524
 20
-72.272883
 40
1.500000
 50
180.000000
 51
270.000000
  0
LINE
  8
3
 62
     4
  6
CONTINUOUS
 10
-1509.136524
 20
-70.772883
 11
-1509.136524
 21
-72.272883
  0
ARC
  8
3
 62
     4
  6
CONTINUOUS
 10
-1511.136524
 20
-70.772883
 40
2.000000
 50
0.000000E+00
 51
90.000000
  0
LINE
  8
3
 62
     4
  6
CONTINUOUS
 10
-1511.136524
 20
-68.772883
 11
-1512.136524
 21
-68.772883
  0
LINE
  8
3
 62
     4
  6
CONTINUOUS
 10
-1512.136524
 20
-53.772883
 11
-1512.136524
 21
-68.772883
  0
LINE
  8
0
 62
     3
  6
CONTINUOUS
 10
-1493.136524
 20
226.986486
 11
-1493.136524
 21
216.227117
  0
ARC
  8
0
 62
     3
  6
CONTINUOUS
 10
-1458.136524
 20
226.986486
 40
35.000000
 50
162.283508
 51
180.000000
  0
LINE
  8
3
 62
     3
  6
CONTINUOUS
 10
-1346.166540
 20
330.743100
 11
-1407.136524
 21
330.743100
  0
LINE
  8
0
 62
     3
  6
CONTINUOUS
 10
-1467.889841
 20
313.036132
 11
-1491.476612
 21
237.637240
  0
LINE
  8
0
 62
     3
  6
CONTINUOUS
 10
-1346.383207
 20
313.036132
 11
-1322.796437
 21
237.637240
  0
ARC
  8
2
 62
     3
  6
CONTINUOUS
 10
-1482.178450
 20
317.600741
 40
15.000000
 50
-17.716492
 51
59.888987
  0
LINE
  8
3
 62
     4
  6
CENTER
 10
-1407.136524
 20
-581.860403
 11
-1407.136524
 21
-341.168262
  0
LINE
  8
0
 62
     2
  6
CONTINUOUS
 10
-1505.136524
 20
-35.271285
 11
-1512.136524
 21
-42.271285
  0
LINE
  8
0
 62
     3
  6
CONTINUOUS
 10
-1493.136524
 20
86.227117
 11
-1493.136524
 21
-35.271285
  0
ARC
  8
2
 62
     3
  6
CONTINUOUS
 10
-1332.094599
 20
317.600741
 40
15.000000
 50
120.111013
 51
197.716492
  0
LINE
  8
0
 62
     7
  6
CONTINUOUS
 10
-1259.656966
 20
257.311644
 11
-1259.656966
 21
215.527305
  0
SOLID
  8
0
 62
     7
 10
-1267.421538
 20
244.505080
 11
-1251.892395
 21
244.505080
 12
-1259.656966
 22
215.527305
 13
-1259.656966
 23
215.527305
  0
LINE
  8
3
 62
     3
  6
CONTINUOUS
 10
-1323.322828
 20
210.980203
 11
-1327.018255
 21
209.443850
  0
LINE
  8
3
 62
     3
  6
CONTINUOUS
 10
-1327.018255
 20
209.443850
 11
-1330.574454
 21
206.535574
  0
LINE
  8
3
 62
     3
  6
CONTINUOUS
 10
-1330.574454
 20
206.535574
 11
-1333.907619
 21
202.323910
  0
LINE
  8
3
 62
     3
  6
CONTINUOUS
 10
-1333.907619
 20
202.323910
 11
-1336.939202
 21
196.908111
  0
LINE
  8
3
 62
     3
  6
CONTINUOUS
 10
-1336.939202
 20
196.908111
 11
-1339.597761
 21
190.415803
  0
LINE
  8
3
 62
     3
  6
CONTINUOUS
 10
-1339.597761
 20
190.415803
 11
-1341.820645
 21
182.999983
  0
LINE
  8
3
 62
     3
  6
CONTINUOUS
 10
-1341.820645
 20
182.999983
 11
-1343.555471
 21
174.835411
  0
LINE
  8
3
 62
     3
  6
CONTINUOUS
 10
-1343.555471
 20
174.835411
 11
-1344.761355
 21
166.114490
  0
LINE
  8
3
 62
     3
  6
CONTINUOUS
 10
-1344.761355
 20
166.114490
 11
-1345.409880
 21
157.042737
  0
LINE
  8
3
 62
     3
  6
CONTINUOUS
 10
-1344.761355
 20
166.114490
 11
-1345.409880
 21
157.042737
  0
LINE
  8
3
 62
     3
  6
CONTINUOUS
 10
-1323.780718
 20
91.587137
 11
-1327.414320
 21
93.261817
  0
LINE
  8
3
 62
     3
  6
CONTINUOUS
 10
-1327.414320
 20
93.261817
 11
-1330.903374
 21
96.265583
  0
LINE
  8
3
 62
     3
  6
CONTINUOUS
 10
-1330.903374
 20
96.265583
 11
-1334.167879
 21
100.529561
  0
LINE
  8
3
 62
     3
  6
CONTINUOUS
 10
-1334.167879
 20
100.529561
 11
-1337.132984
 21
105.955983
  0
LINE
  8
3
 62
     3
  6
CONTINUOUS
 10
-1337.132984
 20
105.955983
 11
-1339.730702
 21
112.420426
  0
LINE
  8
3
 62
     3
  6
CONTINUOUS
 10
-1339.730702
 20
112.420426
 11
-1341.901469
 21
119.774668
  0
LINE
  8
3
 62
     3
  6
CONTINUOUS
 10
-1341.901469
 20
119.774668
 11
-1343.595513
 21
127.850083
  0
LINE
  8
3
 62
     3
  6
CONTINUOUS
 10
-1343.595513
 20
127.850083
 11
-1344.773991
 21
136.461509
  0
LINE
  8
3
 62
     3
  6
CONTINUOUS
 10
-1344.773991
 20
136.461509
 11
-1345.409880
 21
145.411496
  0
LINE
  8
3
 62
     3
  6
CONTINUOUS
 10
-1344.773991
 20
136.461509
 11
-1345.409880
 21
145.411496
  0
TEXT
  8
0
 62
     3
 10
-454.628325
 20
134.070347
 40
32.000000
 50
0.000000E+00
 41
0.87 
  1
Ｃ矢視　（下部）
 72
     5
 11
-198.628325
 21
134.070347
  0
LINE
  8
0
 62
     3
  6
CONTINUOUS
 10
-458.628325
 20
128.737014
 11
-204.724190
 21
128.737014
  0
TEXT
  8
0
 62
     7
 10
-1298.673975
 20
264.590527
 40
32.000000
 50
0.000000E+00
 41
0.78 
  1
７５枝管
 72
     5
 11
-1186.673975
 21
264.590527
  0
TEXT
  8
0
 62
     3
 10
-452.856919
 20
525.702571
 40
32.000000
 50
360.000000
 41
0.86 
  1
ａ
 72
     5
 11
-420.856919
 21
525.702571
  0
TEXT
  8
0
 62
     3
 10
-606.343778
 20
630.055789
 40
32.000000
 50
0.000000E+00
 41
0.86 
  1
ｃ
 72
     5
 11
-574.343778
 21
630.055789
  0
POINT
  8
0
 62
     3
 10
-1407.136524
 20
-61.772883
  0
POINT
  8
0
 62
     3
 10
-1407.136524
 20
-76.272883
  0
POINT
  8
0
 62
     3
 10
-1407.136524
 20
-98.772883
  0
ARC
  8
0
 62
     2
  6
CONTINUOUS
 10
-1506.136524
 20
-51.271285
 40
1.000000
 50
360.000000
 51
450.000000
  0
LINE
  8
0
 62
     2
  6
CONTINUOUS
 10
-1505.136524
 20
-35.271285
 11
-1309.136524
 21
-35.271285
  0
LINE
  8
3
 62
     3
  6
CONTINUOUS
 10
-1252.136524
 20
88.727117
 11
-1252.136524
 21
211.227117
  0
LINE
  8
3
 62
     3
  6
CONTINUOUS
 10
-1252.136524
 20
88.727117
 11
-1247.136524
 21
88.727117
  0
LINE
  8
3
 62
     3
  6
CONTINUOUS
 10
-1252.136524
 20
211.227117
 11
-1312.136524
 21
211.227117
  0
ARC
  8
1
 62
     3
  6
CONTINUOUS
 10
-1314.136524
 20
91.227117
 40
2.000000
 50
-90.000000
 51
0.000000E+00
  0
LINE
  8
3
 62
     3
  6
CONTINUOUS
 10
-1252.136524
 20
91.227117
 11
-1312.136524
 21
91.227117
  0
LINE
  8
3
 62
     3
  6
CONTINUOUS
 10
-1252.136524
 20
213.727117
 11
-1247.136524
 21
213.727117
  0
LINE
  8
3
 62
     3
  6
CONTINUOUS
 10
-1252.136524
 20
213.727117
 11
-1252.136524
 21
211.227117
  0
LINE
  8
3
 62
     3
  6
CONTINUOUS
 10
-1247.136524
 20
213.727117
 11
-1247.136524
 21
88.727117
  0
LINE
  8
1
 62
     3
  6
CONTINUOUS
 10
-1314.136524
 20
213.227117
 11
-1318.136524
 21
213.227117
  0
LINE
  8
1
 62
     3
  6
CONTINUOUS
 10
-1314.136524
 20
89.227117
 11
-1318.136524
 21
89.227117
  0
ARC
  8
1
 62
     3
  6
CONTINUOUS
 10
-1314.136524
 20
211.227117
 40
2.000000
 50
0.000000E+00
 51
90.000000
  0
ARC
  8
1
 62
     3
  6
CONTINUOUS
 10
-1318.136524
 20
216.227117
 40
3.000000
 50
180.000000
 51
270.000000
  0
ARC
  8
1
 62
     3
  6
CONTINUOUS
 10
-1318.136524
 20
86.227117
 40
3.000000
 50
90.000000
 51
180.000000
  0
ARC
  8
0
 62
     3
  6
CONTINUOUS
 10
-1356.136524
 20
226.986486
 40
35.000000
 50
0.000000E+00
 51
17.716492
  0
LINE
  8
0
 62
     3
  6
CONTINUOUS
 10
-1321.136524
 20
226.986486
 11
-1321.136524
 21
216.227117
  0
LINE
  8
0
 62
     2
  6
CONTINUOUS
 10
-1512.136524
 20
-42.271285
 11
-1407.136524
 21
-42.271285
  0
LINE
  8
3
 62
     3
  6
CENTER
 10
-1407.136524
 20
423.701565
 11
-1407.136524
 21
-29.090674
  0
LINE
  8
3
 62
     3
  6
CONTINUOUS
 10
-1484.875547
 20
234.103002
 11
-1407.136524
 21
234.103002
  0
LINE
  8
3
 62
     3
  6
CONTINUOUS
 10
-1468.106508
 20
330.743100
 11
-1407.136524
 21
330.743100
  0
LINE
  8
3
 62
     3
  6
CONTINUOUS
 10
-1482.136524
 20
411.227117
 11
-1407.136524
 21
411.227117
  0
POINT
  8
0
 62
     3
 10
-1407.136524
 20
341.227117
  0
INSERT
  8
0
  2
G6
 10
0
 20
0
  0
TEXT
  8
0
 62
     6
 10
-1663.166393
 20
1083.812443
 40
35.000000
 50
0.000000E+00
 41
0.73 
  1
４ＳＦ－　　　－　　　　　　　　　０　　－Ｐ
 72
     5
 11
-1026.166393
 21
1083.812443
  0
INSERT
  8
0
  2
G7
 10
0
 20
0
  0
LINE
  8
0
 62
     2
  6
CONTINUOUS
 10
-1302.136524
 20
-50.271285
 11
-1302.136524
 21
-42.271285
  0
LINE
  8
0
 62
     2
  6
CONTINUOUS
 10
-1309.136524
 20
-53.271285
 11
-1309.136524
 21
-51.271285
  0
ARC
  8
0
 62
     2
  6
CONTINUOUS
 10
-1308.136524
 20
-51.271285
 40
1.000000
 50
90.000000
 51
180.000000
  0
LINE
  8
0
 62
     2
  6
CONTINUOUS
 10
-1302.136524
 20
-42.271285
 11
-1407.136524
 21
-42.271285
  0
LINE
  8
0
 62
     2
  6
CONTINUOUS
 10
-1302.136524
 20
-50.271285
 11
-1407.136524
 21
-50.271285
  0
INSERT
  8
0
  2
G8
 10
0
 20
0
  0
INSERT
  8
0
  2
G9
 10
0
 20
0
  0
INSERT
  8
0
  2
G10
 10
0
 20
0
  0
INSERT
  8
0
  2
G11
 10
0
 20
0
  0
INSERT
  8
0
  2
G12
 10
0
 20
0
  0
LINE
  8
0
 62
     1
  6
CONTINUOUS
 10
-1040.059610
 20
151.227117
 11
-1160.059610
 21
151.227117
  0
LINE
  8
0
 62
     1
  6
CONTINUOUS
 10
-1170.059610
 20
151.227117
 11
-1153.183616
 21
151.227117
  0
INSERT
  8
0
  2
G13
 10
0
 20
0
  0
ARC
  8
0
 62
     4
  6
CONTINUOUS
 10
-566.000000
 20
515.000000
 40
100.000000
 50
36.038338
 51
53.961662
  0
ARC
  8
3
 62
     3
  6
CONTINUOUS
 10
-566.000000
 20
515.000000
 40
105.000000
 50
80.096801
 51
100.978618
  0
ARC
  8
0
 62
     4
  6
CONTINUOUS
 10
-566.000000
 20
515.000000
 40
100.000000
 50
306.038338
 51
323.961662
  0
ARC
  8
0
 62
     4
  6
CONTINUOUS
 10
-566.000000
 20
515.000000
 40
100.000000
 50
216.038338
 51
233.961662
  0
CIRCLE
  8
3
 62
     4
  6
CONTINUOUS
 10
-566.000000
 20
515.000000
 40
88.000000
  0
ARC
  8
3
 62
     4
  6
CONTINUOUS
 10
-566.000000
 20
515.000000
 40
100.000000
 50
53.109614
 51
126.890386
  0
LINE
  8
3
 62
     4
  6
CONTINUOUS
 10
-485.035393
 20
606.250931
 11
-547.938147
 21
618.453628
  0
ARC
  8
3
 62
     3
  6
CONTINUOUS
 10
-566.000000
 20
515.000000
 40
105.000000
 50
259.021382
 51
279.903199
  0
ARC
  8
3
 62
     3
  6
CONTINUOUS
 10
-566.000000
 20
515.000000
 40
105.000000
 50
170.096801
 51
189.903199
  0
LINE
  8
3
 62
     4
  6
CONTINUOUS
 10
-646.964607
 20
606.250931
 11
-584.061853
 21
618.453628
  0
LINE
  8
3
 62
     3
  6
CENTER
 10
-634.711757
 20
446.288243
 11
-655.392933
 21
425.607067
  0
LINE
  8
3
 62
     4
  6
CONTINUOUS
 10
-657.250931
 20
595.964607
 11
-669.453628
 21
533.061853
  0
ARC
  8
3
 62
     4
  6
CENTER
 10
-566.000000
 20
515.000000
 40
111.000000
 50
216.265016
 51
232.275712
  0
LINE
  8
3
 62
     3
  6
CENTER
 10
-633.637531
 20
582.637531
 11
-656.149487
 21
605.149487
  0
ARC
  8
3
 62
     4
  6
CENTER
 10
-566.000000
 20
515.000000
 40
111.000000
 50
126.069475
 51
144.182385
  0
ARC
  8
3
 62
     4
  6
CENTER
 10
-566.000000
 20
515.000000
 40
111.000000
 50
34.449115
 51
54.970079
  0
LINE
  8
3
 62
     4
  6
CONTINUOUS
 10
-657.250931
 20
434.035393
 11
-669.453628
 21
496.938147
  0
LINE
  8
3
 62
     4
  6
CONTINUOUS
 10
-462.921676
 20
534.996478
 11
-474.749069
 21
595.964607
  0
LINE
  8
3
 62
     3
  6
CENTER
 10
-498.008772
 20
582.991228
 11
-476.058072
 21
604.941928
  0
LINE
  8
3
 62
     4
  6
CONTINUOUS
 10
-646.964607
 20
423.749069
 11
-585.996478
 21
411.921676
  0
ARC
  8
3
 62
     4
  6
CONTINUOUS
 10
-644.488853
 20
436.511147
 40
13.000000
 50
190.978618
 51
259.021382
  0
ARC
  8
3
 62
     4
  6
CONTINUOUS
 10
-644.488853
 20
593.488853
 40
13.000000
 50
100.978618
 51
169.021382
  0
ARC
  8
3
 62
     4
  6
CONTINUOUS
 10
-487.511147
 20
593.488853
 40
13.000000
 50
10.978618
 51
79.021382
  0
LINE
  8
3
 62
     3
  6
CENTER
 10
-498.014135
 20
447.014135
 11
-476.273441
 21
425.273441
  0
LINE
  8
3
 62
     4
  6
CONTINUOUS
 10
-485.035393
 20
423.749069
 11
-547.938147
 21
411.546372
  0
LINE
  8
3
 62
     4
  6
CONTINUOUS
 10
-474.749069
 20
434.035393
 11
-462.921676
 21
495.003522
  0
ARC
  8
3
 62
     3
  6
CONTINUOUS
 10
-566.000000
 20
515.000000
 40
105.000000
 50
-10.978618
 51
10.978618
  0
CIRCLE
  8
3
 62
     3
  6
CONTINUOUS
 10
-566.000000
 20
515.000000
 40
81.000000
  0
ARC
  8
3
 62
     4
  6
CONTINUOUS
 10
-487.511147
 20
436.511147
 40
13.000000
 50
280.978618
 51
349.021382
  0
LINE
  8
3
 62
     3
  6
CENTER
 10
-566.000000
 20
686.590491
 11
-566.000000
 21
344.195580
  0
LINE
  8
3
 62
     3
  6
CENTER
 10
-682.419075
 20
515.000000
 11
-400.520286
 21
515.000000
  0
CIRCLE
  8
3
 62
     4
  6
CONTINUOUS
 10
-487.511147
 20
593.488853
 40
7.000000
  0
CIRCLE
  8
3
 62
     4
  6
CONTINUOUS
 10
-487.511147
 20
436.511147
 40
7.000000
  0
CIRCLE
  8
3
 62
     4
  6
CONTINUOUS
 10
-644.488853
 20
436.511147
 40
7.000000
  0
CIRCLE
  8
3
 62
     4
  6
CONTINUOUS
 10
-644.488853
 20
593.488853
 40
7.000000
  0
ARC
  8
3
 62
     4
  6
CENTER
 10
-566.000000
 20
515.000000
 40
111.000000
 50
307.018997
 51
325.489571
  0
ARC
  8
3
 62
     4
  6
CONTINUOUS
 10
-566.000000
 20
515.000000
 40
100.000000
 50
323.109614
 51
396.890386
  0
ARC
  8
3
 62
     4
  6
CONTINUOUS
 10
-566.000000
 20
515.000000
 40
100.000000
 50
233.109614
 51
306.890386
  0
ARC
  8
3
 62
     4
  6
CONTINUOUS
 10
-566.000000
 20
515.000000
 40
100.000000
 50
143.109614
 51
216.890386
  0
ARC
  8
0
 62
     4
  6
CONTINUOUS
 10
-566.000000
 20
515.000000
 40
100.000000
 50
126.038338
 51
143.961662
  0
INSERT
  8
0
  2
G14
 10
0
 20
0
  0
TEXT
  8
0
 62
     6
 10
-1001.412371
 20
1103.485825
 40
35.000000
 50
0.000000E+00
 41
0.60 
  1
240,260,280
 72
     5
 11
-768.912371
 21
1103.485825
  0
TEXT
  8
0
 62
     6
 10
-999.551869
 20
1061.370812
 40
35.000000
 50
0.000000E+00
 41
0.60 
  1
300,340,360
 72
     5
 11
-767.051869
 21
1061.370812
  0
TEXT
  8
0
 62
     6
 10
-1480.183521
 20
1083.910129
 40
35.000000
 50
0.000000E+00
 41
0.86 
  1
Ｃ
 72
     5
 11
-1445.183521
 21
1083.910129
  0
TEXT
  8
0
 62
     6
 10
-1359.509580
 20
1084.910129
 40
35.000000
 50
0.000000E+00
 41
0.86 
  1
Ｄ
 72
     5
 11
-1324.509580
 21
1084.910129
  0
TEXT
  8
0
 62
     6
 10
-1398.009580
 20
1149.959535
 40
32.000000
 50
0.000000E+00
 41
0.97 
  1
下部
 72
     5
 11
-1326.009580
 21
1149.959535
  0
TEXT
  8
0
 62
     6
 10
-1518.009580
 20
1149.959535
 40
32.000000
 50
0.000000E+00
 41
0.97 
  1
上部
 72
     5
 11
-1446.009580
 21
1149.959535
  0
INSERT
  8
0
  2
G15
 10
0
 20
0
  0
INSERT
  8
0
  2
G16
 10
0
 20
0
  0
TEXT
  8
0
 62
     6
 10
-1144.933805
 20
1177.999470
 40
32.000000
 50
0.000000E+00
 41
0.86 
  1
ｃ
 72
     5
 11
-1112.933805
 21
1177.999470
  0
CIRCLE
  8
0
 62
     6
  6
HIDDEN
 10
-1219.802953
 20
1150.359096
 40
20.000000
  0
TEXT
  8
0
 62
     6
 10
-1227.802953
 20
1086.325677
 40
32.000000
 50
0.000000E+00
 41
0.50 
  1
2
 72
     5
 11
-1211.802953
 21
1086.325677
  0
CIRCLE
  8
0
 62
     6
  6
HIDDEN
 10
-1219.802953
 20
1102.325677
 40
20.000000
  0
TEXT
  8
0
 62
     6
 10
-501.793661
 20
966.134541
 40
32.000000
 50
0.000000E+00
 41
0.50 
  1
3
 72
     5
 11
-485.793661
 21
966.134541
  0
TEXT
  8
0
 62
     6
 10
-501.793661
 20
1026.134541
 40
32.000000
 50
0.000000E+00
 41
0.50 
  1
2
 72
     5
 11
-485.793661
 21
1026.134541
  0
TEXT
  8
0
 62
     6
 10
-501.793661
 20
1086.134541
 40
32.000000
 50
0.000000E+00
 41
0.50 
  1
1
 72
     5
 11
-485.793661
 21
1086.134541
  0
TEXT
  8
0
 62
     6
 10
-470.705692
 20
969.530401
 40
32.000000
 50
0.000000E+00
 41
0.74 
  1
：％％ｃ７５枝管
 72
     5
 11
-258.705692
 21
969.530401
  0
TEXT
  8
0
 62
     6
 10
-470.705692
 20
1029.530401
 40
32.000000
 50
0.000000E+00
 41
0.74 
  1
：％％ｃ６５枝管
 72
     5
 11
-258.705692
 21
1029.530401
  0
TEXT
  8
0
 62
     6
 10
-470.705692
 20
1089.530401
 40
32.000000
 50
0.000000E+00
 41
0.74 
  1
：％％ｃ５０枝管
 72
     5
 11
-258.705692
 21
1089.530401
  0
TEXT
  8
0
 62
     6
 10
-568.581501
 20
1142.505821
 40
32.000000
 50
0.000000E+00
 41
0.97 
  1
枝管のタイプ（呼び径）
 72
     5
 11
-172.581501
 21
1142.505821
  0
POINT
  8
0
 62
     4
 10
-1407.136524
 20
-98.772883
  0
POINT
  8
0
 62
     4
 10
-1407.136524
 20
-148.772883
  0
LINE
  8
3
 62
     4
  6
CONTINUOUS
 10
-1503.695672
 20
-73.772883
 11
-1500.136524
 21
-78.073521
  0
LINE
  8
0
 62
     3
  6
CONTINUOUS
 10
-1011.485879
 20
538.526958
 11
-1049.663030
 21
538.526958
  0
CIRCLE
  8
0
 62
     3
  6
CONTINUOUS
 10
-1407.136524
 20
151.227117
 40
62.000000
  0
CIRCLE
  8
0
 62
     3
  6
CONTINUOUS
 10
-1407.136524
 20
151.227117
 40
40.000000
  0
CIRCLE
  8
0
 62
     3
  6
CONTINUOUS
 10
-1407.136524
 20
151.227117
 40
54.000000
  0
INSERT
  8
0
  2
G17
 10
0
 20
0
  0
LINE
  8
3
 62
     4
  6
CONTINUOUS
 10
-1449.786260
 20
-103.772883
 11
-1473.640886
 21
-103.772883
  0
LINE
  8
3
 62
     4
  6
CONTINUOUS
 10
-1310.577376
 20
-73.772883
 11
-1314.136524
 21
-78.073521
  0
LINE
  8
3
 62
     4
  6
CONTINUOUS
 10
-1310.577376
 20
-73.772883
 11
-1314.136524
 21
-78.073521
  0
INSERT
  8
0
  2
G18
 10
0
 20
0
  0
LINE
  8
0
 62
     1
  6
CONTINUOUS
 10
-566.000000
 20
295.671831
 11
-566.000000
 21
229.620191
  0
LINE
  8
3
 62
     3
  6
CONTINUOUS
 10
-1467.136524
 20
645.089268
 11
-1467.136524
 21
705.089268
  0
LINE
  8
3
 62
     3
  6
CONTINUOUS
 10
-1347.136524
 20
645.089268
 11
-1347.136524
 21
705.089268
  0
LINE
  8
0
 62
     3
  6
CONTINUOUS
 10
-1201.339859
 20
649.953184
 11
-1201.339859
 21
562.451861
  0
SOLID
  8
0
 62
     3
 10
-1193.575287
 20
620.975409
 11
-1209.104430
 21
620.975409
 12
-1201.339859
 22
649.953184
 13
-1201.339859
 23
649.953184
  0
LINE
  8
3
 62
     3
  6
CONTINUOUS
 10
-1469.636524
 20
640.089268
 11
-1344.636524
 21
640.089268
  0
LINE
  8
3
 62
     3
  6
CONTINUOUS
 10
-1469.636524
 20
645.089268
 11
-1467.136524
 21
645.089268
  0
LINE
  8
3
 62
     3
  6
CONTINUOUS
 10
-1469.636524
 20
645.089268
 11
-1469.636524
 21
640.089268
  0
LINE
  8
3
 62
     3
  6
CONTINUOUS
 10
-1344.636524
 20
645.089268
 11
-1344.636524
 21
640.089268
  0
LINE
  8
3
 62
     3
  6
CONTINUOUS
 10
-1344.636524
 20
645.089268
 11
-1467.136524
 21
645.089268
  0
INSERT
  8
0
  2
G19
 10
0
 20
0
  0
LINE
  8
0
 62
     3
  6
CONTINUOUS
 10
-746.508344
 20
361.391705
 11
-746.508344
 21
283.214554
  0
SOLID
  8
0
 62
     3
 10
-738.743773
 20
332.413930
 11
-754.272915
 21
332.413930
 12
-746.508344
 22
361.391705
 13
-746.508344
 23
361.391705
  0
LINE
  8
0
 62
     3
  6
CONTINUOUS
 10
-1011.485879
 20
408.795427
 11
-1011.485879
 21
538.526958
  0
SOLID
  8
0
 62
     3
 10
-1019.250451
 20
437.773202
 11
-1003.721308
 21
437.773202
 12
-1011.485879
 22
408.795427
 13
-1011.485879
 23
408.795427
  0
INSERT
  8
0
  2
G20
 10
0
 20
0
  0
INSERT
  8
0
  2
G21
 10
0
 20
0
  0
INSERT
  8
0
  2
G22
 10
0
 20
0
  0
INSERT
  8
0
  2
G23
 10
0
 20
0
  0
LINE
  8
0
 62
     1
  6
CONTINUOUS
 10
-1236.910188
 20
800.089268
 11
-1211.112003
 21
800.089268
  0
ARC
  8
0
 62
     3
  6
CONTINUOUS
 10
-1467.136524
 20
707.089268
 40
2.000000
 50
180.000000
 51
270.000000
  0
LINE
  8
0
 62
     3
  6
CONTINUOUS
 10
-1469.136524
 20
707.089268
 11
-1469.136524
 21
735.089268
  0
ARC
  8
0
 62
     3
  6
CONTINUOUS
 10
-1347.136524
 20
707.089268
 40
2.000000
 50
270.000000
 51
360.000000
  0
LINE
  8
0
 62
     3
  6
CONTINUOUS
 10
-1345.136524
 20
707.089268
 11
-1345.136524
 21
735.089268
  0
LINE
  8
0
 62
     3
  6
CONTINUOUS
 10
-1347.136524
 20
705.089268
 11
-1467.136524
 21
705.089268
  0
ARC
  8
0
 62
     3
  6
CONTINUOUS
 10
-1500.136524
 20
740.089268
 40
2.000000
 50
180.000000
 51
270.000000
  0
LINE
  8
0
 62
     3
  6
CONTINUOUS
 10
-1500.136524
 20
738.089268
 11
-1472.136524
 21
738.089268
  0
ARC
  8
0
 62
     3
  6
CONTINUOUS
 10
-1500.136524
 20
860.089268
 40
2.000000
 50
90.000000
 51
180.000000
  0
LINE
  8
0
 62
     3
  6
CONTINUOUS
 10
-1500.136524
 20
862.089268
 11
-1467.454432
 21
862.089268
  0
LINE
  8
0
 62
     3
  6
CONTINUOUS
 10
-1502.136524
 20
860.089268
 11
-1502.136524
 21
740.089268
  0
ARC
  8
0
 62
     3
  6
CONTINUOUS
 10
-1342.136524
 20
735.089268
 40
3.000000
 50
90.000000
 51
180.000000
  0
ARC
  8
0
 62
     3
  6
CONTINUOUS
 10
-1472.136524
 20
735.089268
 40
3.000000
 50
0.000000E+00
 51
90.000000
  0
CIRCLE
  8
0
 62
     3
  6
CONTINUOUS
 10
-1407.136524
 20
800.089268
 40
67.000000
  0
CIRCLE
  8
0
 62
     3
  6
CONTINUOUS
 10
-1407.136524
 20
800.089268
 40
52.000000
  0
ARC
  8
0
 62
     3
  6
CONTINUOUS
 10
-1314.136524
 20
860.089268
 40
2.000000
 50
0.000000E+00
 51
90.000000
  0
LINE
  8
0
 62
     3
  6
CONTINUOUS
 10
-1314.136524
 20
862.089268
 11
-1346.818616
 21
862.089268
  0
ARC
  8
0
 62
     3
  6
CONTINUOUS
 10
-1314.136524
 20
740.089268
 40
2.000000
 50
-90.000000
 51
0.000000E+00
  0
LINE
  8
0
 62
     3
  6
CONTINUOUS
 10
-1314.136524
 20
738.089268
 11
-1342.136524
 21
738.089268
  0
LINE
  8
0
 62
     3
  6
CONTINUOUS
 10
-1312.136524
 20
740.089268
 11
-1312.136524
 21
860.089268
  0
LINE
  8
3
 62
     3
  6
CONTINUOUS
 10
-1252.136524
 20
860.089268
 11
-1312.136524
 21
860.089268
  0
LINE
  8
3
 62
     3
  6
CONTINUOUS
 10
-1247.136524
 20
737.589268
 11
-1247.136524
 21
862.589268
  0
LINE
  8
3
 62
     3
  6
CONTINUOUS
 10
-1252.136524
 20
737.589268
 11
-1252.136524
 21
740.089268
  0
LINE
  8
3
 62
     3
  6
CONTINUOUS
 10
-1252.136524
 20
737.589268
 11
-1247.136524
 21
737.589268
  0
LINE
  8
3
 62
     3
  6
CONTINUOUS
 10
-1252.136524
 20
862.589268
 11
-1247.136524
 21
862.589268
  0
LINE
  8
3
 62
     3
  6
CONTINUOUS
 10
-1252.136524
 20
862.589268
 11
-1252.136524
 21
740.089268
  0
LINE
  8
3
 62
     3
  6
CONTINUOUS
 10
-1252.136524
 20
740.089268
 11
-1312.136524
 21
740.089268
  0
CIRCLE
  8
0
 62
     3
  6
CONTINUOUS
 10
-1407.136524
 20
800.089268
 40
86.500000
  0
CIRCLE
  8
0
 62
     3
  6
CONTINUOUS
 10
-1407.136524
 20
800.089268
 40
75.000000
  0
TEXT
  8
0
 62
     6
 10
-1234.933805
 20
1177.999470
 40
32.000000
 50
0.000000E+00
 41
0.86 
  1
ｂ
 72
     5
 11
-1202.933805
 21
1177.999470
  0
TEXT
  8
0
 62
     6
 10
-1296.933805
 20
1177.999470
 40
32.000000
 50
0.000000E+00
 41
0.86 
  1
ａ
 72
     5
 11
-1264.933805
 21
1177.999470
  0
LINE
  8
3
 62
     3
  6
CENTER
 10
-1241.660356
 20
800.089268
 11
-1513.329848
 21
800.089268
  0
LINE
  8
3
 62
     3
  6
CENTER
 10
-1407.136524
 20
902.187720
 11
-1407.136524
 21
627.039191
  0
INSERT
  8
0
  2
G24
 10
0
 20
0
  0
ARC
  8
1
 62
     3
  6
CONTINUOUS
 10
-1496.636524
 20
86.227117
 40
3.000000
 50
0.000000E+00
 51
90.000000
  0
ARC
  8
1
 62
     3
  6
CONTINUOUS
 10
-1496.636524
 20
216.227117
 40
3.000000
 50
270.000000
 51
360.000000
  0
ARC
  8
1
 62
     3
  6
CONTINUOUS
 10
-1500.136524
 20
211.227117
 40
2.000000
 50
90.000000
 51
180.000000
  0
LINE
  8
1
 62
     3
  6
CONTINUOUS
 10
-1500.136524
 20
89.227117
 11
-1496.636524
 21
89.227117
  0
LINE
  8
1
 62
     3
  6
CONTINUOUS
 10
-1500.136524
 20
213.227117
 11
-1496.636524
 21
213.227117
  0
ARC
  8
1
 62
     3
  6
CONTINUOUS
 10
-1500.136524
 20
91.227117
 40
2.000000
 50
180.000000
 51
270.000000
  0
LINE
  8
3
 62
     3
  6
CONTINUOUS
 10
-1490.492330
 20
91.587137
 11
-1486.858728
 21
93.261817
  0
LINE
  8
3
 62
     3
  6
CONTINUOUS
 10
-1486.858728
 20
93.261817
 11
-1483.369675
 21
96.265583
  0
LINE
  8
3
 62
     3
  6
CONTINUOUS
 10
-1483.369675
 20
96.265583
 11
-1480.105169
 21
100.529561
  0
LINE
  8
3
 62
     3
  6
CONTINUOUS
 10
-1480.105169
 20
100.529561
 11
-1477.140064
 21
105.955983
  0
LINE
  8
3
 62
     3
  6
CONTINUOUS
 10
-1477.140064
 20
105.955983
 11
-1474.542347
 21
112.420426
  0
LINE
  8
3
 62
     3
  6
CONTINUOUS
 10
-1474.542347
 20
112.420426
 11
-1472.371579
 21
119.774668
  0
LINE
  8
3
 62
     3
  6
CONTINUOUS
 10
-1472.371579
 20
119.774668
 11
-1470.677535
 21
127.850083
  0
LINE
  8
3
 62
     3
  6
CONTINUOUS
 10
-1470.677535
 20
127.850083
 11
-1469.499058
 21
136.461509
  0
LINE
  8
3
 62
     3
  6
CONTINUOUS
 10
-1469.499058
 20
136.461509
 11
-1468.863168
 21
145.411496
  0
LINE
  8
3
 62
     3
  6
CONTINUOUS
 10
-1469.499058
 20
136.461509
 11
-1468.863168
 21
145.411496
  0
LINE
  8
3
 62
     3
  6
CONTINUOUS
 10
-1490.950221
 20
210.980203
 11
-1487.619488
 21
209.660076
  0
LINE
  8
3
 62
     3
  6
CONTINUOUS
 10
-1487.619488
 20
209.660076
 11
-1484.394610
 21
207.224148
  0
LINE
  8
3
 62
     3
  6
CONTINUOUS
 10
-1484.394610
 20
207.224148
 11
-1481.337165
 21
203.718932
  0
LINE
  8
3
 62
     3
  6
CONTINUOUS
 10
-1481.337165
 20
203.718932
 11
-1478.505538
 21
199.211363
  0
LINE
  8
3
 62
     3
  6
CONTINUOUS
 10
-1478.505538
 20
199.211363
 11
-1475.953799
 21
193.787514
  0
LINE
  8
3
 62
     3
  6
CONTINUOUS
 10
-1475.953799
 20
193.787514
 11
-1473.730675
 21
187.550956
  0
LINE
  8
3
 62
     3
  6
CONTINUOUS
 10
-1473.730675
 20
187.550956
 11
-1471.878617
 21
180.620778
  0
LINE
  8
3
 62
     3
  6
CONTINUOUS
 10
-1471.878617
 20
180.620778
 11
-1470.432991
 21
173.129317
  0
LINE
  8
3
 62
     3
  6
CONTINUOUS
 10
-1470.432991
 20
173.129317
 11
-1469.421403
 21
165.219623
  0
LINE
  8
3
 62
     3
  6
CONTINUOUS
 10
-1469.421403
 20
165.219623
 11
-1468.863168
 21
157.042737
  0
LINE
  8
3
 62
     3
  6
CONTINUOUS
 10
-1469.421403
 20
165.219623
 11
-1468.863168
 21
157.042737
  0
LINE
  8
0
 62
     3
  6
CONTINUOUS
 10
-1502.136524
 20
211.227117
 11
-1502.136524
 21
91.227117
  0
LINE
  8
3
 62
     4
  6
CONTINUOUS
 10
-1338.597947
 20
-105.690495
 11
-1339.767851
 21
-108.591012
  0
LINE
  8
3
 62
     4
  6
CONTINUOUS
 10
-1339.767851
 20
-108.591012
 11
-1340.853699
 21
-111.672809
  0
LINE
  8
3
 62
     4
  6
CONTINUOUS
 10
-1340.853699
 20
-111.672809
 11
-1341.850595
 21
-114.921981
  0
LINE
  8
3
 62
     4
  6
CONTINUOUS
 10
-1341.850595
 20
-114.921981
 11
-1342.754040
 21
-118.323870
  0
LINE
  8
3
 62
     4
  6
CONTINUOUS
 10
-1342.754040
 20
-118.323870
 11
-1343.559959
 21
-121.863128
  0
LINE
  8
3
 62
     4
  6
CONTINUOUS
 10
-1343.559959
 20
-121.863128
 11
-1344.264715
 21
-125.523789
  0
LINE
  8
3
 62
     4
  6
CONTINUOUS
 10
-1344.264715
 20
-125.523789
 11
-1344.865129
 21
-129.289336
  0
LINE
  8
3
 62
     4
  6
CONTINUOUS
 10
-1344.865129
 20
-129.289336
 11
-1345.358493
 21
-133.142783
  0
LINE
  8
3
 62
     4
  6
CONTINUOUS
 10
-1345.358493
 20
-133.142783
 11
-1345.742580
 21
-137.066745
  0
LINE
  8
3
 62
     4
  6
CONTINUOUS
 10
-1345.358493
 20
-133.142783
 11
-1345.742580
 21
-137.066745
  0
LINE
  8
3
 62
     4
  6
CONTINUOUS
 10
-1493.136524
 20
-298.772883
 11
-1493.136524
 21
-78.073521
  0
LINE
  8
0
 62
     1
  6
CONTINUOUS
 10
-307.769514
 20
597.868005
 11
-468.056763
 21
437.580756
  0
INSERT
  8
0
  2
G25
 10
0
 20
0
  0
INSERT
  8
0
  2
G26
 10
0
 20
0
  0
LINE
  8
1
 62
     4
  6
CONTINUOUS
 10
-1312.136524
 20
-88.772883
 11
-1312.136524
 21
-208.772883
  0
ARC
  8
1
 62
     4
  6
CONTINUOUS
 10
-1301.335207
 20
-114.012691
 40
30.639745
 50
117.551999
 51
146.328437
  0
LINE
  8
1
 62
     4
  6
CONTINUOUS
 10
-1318.136524
 20
-210.772883
 11
-1314.136524
 21
-210.772883
  0
ARC
  8
1
 62
     4
  6
CONTINUOUS
 10
-1318.136524
 20
-213.772883
 40
3.000000
 50
90.000000
 51
180.000000
  0
POINT
  8
3
 62
     4
 10
-1321.136524
 20
-210.772883
  0
POINT
  8
3
 62
     7
 10
-1321.136524
 20
-88.772883
  0
LINE
  8
3
 62
     4
  6
CONTINUOUS
 10
-1314.136524
 20
-78.073521
 11
-1314.136524
 21
-86.772883
  0
ARC
  8
3
 62
     4
  6
CONTINUOUS
 10
-1347.008341
 20
-76.824384
 40
28.500781
 50
295.487111
 51
314.942399
  0
POINT
  8
3
 62
     7
 10
-1321.136524
 20
-88.772883
  0
ARC
  8
1
 62
     4
  6
CONTINUOUS
 10
-1314.136524
 20
-208.772883
 40
2.000000
 50
-90.000000
 51
0.000000E+00
  0
LINE
  8
3
 62
     4
  6
CONTINUOUS
 10
-1364.486788
 20
-103.772883
 11
-1340.632162
 21
-103.772883
  0
ARC
  8
1
 62
     4
  6
CONTINUOUS
 10
-1314.136524
 20
-88.772883
 40
2.000000
 50
0.000000E+00
 51
90.000000
  0
LINE
  8
1
 62
     4
  6
CONTINUOUS
 10
-1312.136524
 20
-88.772883
 11
-1312.136524
 21
-208.772883
  0
ARC
  8
1
 62
     4
  6
CONTINUOUS
 10
-1314.136524
 20
-88.772883
 40
2.000000
 50
0.000000E+00
 51
90.000000
  0
ARC
  8
1
 62
     4
  6
CONTINUOUS
 10
-1314.136524
 20
-208.772883
 40
2.000000
 50
-90.000000
 51
0.000000E+00
  0
ARC
  8
3
 62
     4
  6
CONTINUOUS
 10
-1314.136524
 20
-88.772883
 40
2.000000
 50
0.000000E+00
 51
90.000000
  0
LINE
  8
3
 62
     4
  6
CONTINUOUS
 10
-1312.136524
 20
-208.772883
 11
-1312.136524
 21
-88.772883
  0
ARC
  8
3
 62
     4
  6
CONTINUOUS
 10
-1314.136524
 20
-208.772883
 40
2.000000
 50
-90.000000
 51
0.000000E+00
  0
INSERT
  8
0
  2
G27
 10
0
 20
0
  0
TEXT
  8
0
 62
     3
 10
-836.724501
 20
763.332512
 40
32.000000
 50
360.000000
 41
1.02 
  1
受口深さ
 72
     5
 11
-684.724501
 21
763.332512
  0
LINE
  8
0
 62
     3
  6
CONTINUOUS
 10
-701.738015
 20
674.670349
 11
-701.738015
 21
749.856678
  0
SOLID
  8
0
 62
     3
 10
-709.502586
 20
703.648124
 11
-693.973443
 21
703.648124
 12
-701.738015
 22
674.670349
 13
-701.738015
 23
674.670349
  0
INSERT
  8
0
  2
G28
 10
0
 20
0
  0
CIRCLE
  8
0
 62
     6
  6
HIDDEN
 10
-1281.802953
 20
1102.325677
 40
20.000000
  0
TEXT
  8
0
 62
     6
 10
-1289.802953
 20
1086.325677
 40
32.000000
 50
0.000000E+00
 41
0.50 
  1
2
 72
     5
 11
-1273.802953
 21
1086.325677
  0
CIRCLE
  8
0
 62
     6
  6
HIDDEN
 10
-1281.802953
 20
1150.359096
 40
20.000000
  0
TEXT
  8
0
 62
     6
 10
-1289.802953
 20
1134.359096
 40
32.000000
 50
0.000000E+00
 41
0.50 
  1
1
 72
     5
 11
-1273.802953
 21
1134.359096
  0
CIRCLE
  8
0
 62
     6
  6
HIDDEN
 10
-1129.802953
 20
1102.325677
 40
20.000000
  0
TEXT
  8
0
 62
     6
 10
-1137.802953
 20
1086.325677
 40
32.000000
 50
0.000000E+00
 41
0.50 
  1
2
 72
     5
 11
-1121.802953
 21
1086.325677
  0
CIRCLE
  8
0
 62
     6
  6
HIDDEN
 10
-1129.802953
 20
1150.359096
 40
20.000000
  0
TEXT
  8
0
 62
     6
 10
-1137.802953
 20
1134.359096
 40
32.000000
 50
0.000000E+00
 41
0.50 
  1
1
 72
     5
 11
-1121.802953
 21
1134.359096
  0
CIRCLE
  8
0
 62
     6
  6
HIDDEN
 10
-1219.802953
 20
1102.325677
 40
20.000000
  0
TEXT
  8
0
 62
     6
 10
-1227.802953
 20
1086.325677
 40
32.000000
 50
0.000000E+00
 41
0.50 
  1
2
 72
     5
 11
-1211.802953
 21
1086.325677
  0
CIRCLE
  8
0
 62
     6
  6
HIDDEN
 10
-1219.802953
 20
1150.359096
 40
20.000000
  0
TEXT
  8
0
 62
     6
 10
-1227.802953
 20
1134.359096
 40
32.000000
 50
0.000000E+00
 41
0.50 
  1
1
 72
     5
 11
-1211.802953
 21
1134.359096
  0
TEXT
  8
0
 62
     3
 10
-606.343778
 20
367.944211
 40
32.000000
 50
0.000000E+00
 41
0.86 
  1
ｂ
 72
     5
 11
-574.343778
 21
367.944211
  0
LINE
  8
3
 62
     4
  6
CONTINUOUS
 10
-628.500000
 20
360.000000
 11
-628.500000
 21
355.000000
  0
INSERT
  8
0
  2
G29
 10
0
 20
0
  0
LINE
  8
0
 62
     1
  6
CONTINUOUS
 10
-631.638816
 20
610.000000
 11
-727.624747
 21
610.000000
  0
INSERT
  8
0
  2
G30
 10
0
 20
0
  0
INSERT
  8
0
  2
G31
 10
0
 20
0
  0
INSERT
  8
0
  2
G32
 10
0
 20
0
  0
INSERT
  8
0
  2
G33
 10
0
 20
0
  0
INSERT
  8
0
  2
G34
 10
0
 20
0
  0
INSERT
  8
0
  2
G35
 10
0
 20
0
  0
INSERT
  8
0
  2
G36
 10
0
 20
0
  0
INSERT
  8
0
  2
G37
 10
0
 20
0
  0
INSERT
  8
0
  2
G38
 10
0
 20
0
  0
TEXT
  8
0
 62
     3
 10
-888.446385
 20
-905.435816
 40
32.000000
 50
0.000000E+00
 41
0.94 
  1
対応可能Ｐ寸法　２４０～３６０
 72
     5
 11
-362.732077
 21
-905.435816
  0
LINE
  8
0
 62
     2
  6
CONTINUOUS
 10
-955.287581
 20
-844.718354
 11
-175.885661
 21
-844.718354
  0
TEXT
  8
0
 62
     2
 10
-466.779569
 20
-817.414104
 40
30.000000
 50
0.000000E+00
 41
0.61 
  1
925
 72
     5
 11
-411.779569
 21
-817.414104
  0
TEXT
  8
0
 62
     2
 10
-569.578809
 20
-817.414104
 40
30.000000
 50
0.000000E+00
 41
0.61 
  1
905
 72
     5
 11
-514.578809
 21
-817.414104
  0
TEXT
  8
0
 62
     2
 10
-669.031289
 20
-815.686968
 40
30.000000
 50
0.000000E+00
 41
0.61 
  1
885
 72
     5
 11
-614.031289
 21
-815.686968
  0
TEXT
  8
0
 62
     2
 10
-363.270329
 20
-815.686968
 40
30.000000
 50
0.000000E+00
 41
0.61 
  1
965
 72
     5
 11
-308.270329
 21
-815.686968
  0
TEXT
  8
0
 62
     2
 10
-770.950969
 20
-724.246968
 40
30.000000
 50
0.000000E+00
 41
0.61 
  1
790
 72
     5
 11
-715.950969
 21
-724.246968
  0
TEXT
  8
0
 62
     2
 10
-258.817849
 20
-817.414104
 40
30.000000
 50
0.000000E+00
 41
0.61 
  1
985
 72
     5
 11
-203.817849
 21
-817.414104
  0
TEXT
  8
0
 62
     2
 10
-770.950969
 20
-815.686968
 40
30.000000
 50
0.000000E+00
 41
0.61 
  1
865
 72
     5
 11
-715.950969
 21
-815.686968
  0
TEXT
  8
0
 62
     2
 10
-363.509314
 20
-647.803154
 40
30.000000
 50
0.000000E+00
 41
0.61 
  1
340
 72
     5
 11
-308.509314
 21
-647.803154
  0
TEXT
  8
0
 62
     2
 10
-465.429954
 20
-647.803154
 40
30.000000
 50
0.000000E+00
 41
0.61 
  1
300
 72
     5
 11
-410.429954
 21
-647.803154
  0
TEXT
  8
0
 62
     2
 10
-567.350594
 20
-647.803154
 40
30.000000
 50
0.000000E+00
 41
0.61 
  1
280
 72
     5
 11
-512.350594
 21
-647.803154
  0
TEXT
  8
0
 62
     2
 10
-771.189954
 20
-647.803154
 40
30.000000
 50
0.000000E+00
 41
0.61 
  1
240
 72
     5
 11
-716.189954
 21
-647.803154
  0
LINE
  8
0
 62
     2
  6
CONTINUOUS
 10
-389.725981
 20
-600.398354
 11
-389.725981
 21
-844.718354
  0
TEXT
  8
0
 62
     2
 10
-944.759477
 20
-811.372275
 40
30.000000
 50
0.000000E+00
 41
0.72 
  1
Ｌｔ（全長）
 72
     5
 11
-794.759477
 21
-811.372275
  0
LINE
  8
0
 62
     2
  6
CONTINUOUS
 10
-955.287581
 20
-753.278354
 11
-175.885661
 21
-753.278354
  0
TEXT
  8
0
 62
     2
 10
-258.817849
 20
-725.974104
 40
30.000000
 50
0.000000E+00
 41
0.61 
  1
910
 72
     5
 11
-203.817849
 21
-725.974104
  0
LINE
  8
0
 62
     2
  6
CONTINUOUS
 10
-955.287581
 20
-600.398354
 11
-175.885661
 21
-600.398354
  0
TEXT
  8
0
 62
     2
 10
-363.270329
 20
-724.246968
 40
30.000000
 50
0.000000E+00
 41
0.61 
  1
890
 72
     5
 11
-308.270329
 21
-724.246968
  0
LINE
  8
0
 62
     2
  6
CONTINUOUS
 10
-797.406621
 20
-600.398354
 11
-797.406621
 21
-844.718354
  0
LINE
  8
0
 62
     2
  6
CONTINUOUS
 10
-695.486941
 20
-600.398354
 11
-695.486941
 21
-844.718354
  0
LINE
  8
0
 62
     2
  6
CONTINUOUS
 10
-593.567261
 20
-600.398354
 11
-593.567261
 21
-844.718354
  0
LINE
  8
0
 62
     2
  6
CONTINUOUS
 10
-491.646621
 20
-600.398354
 11
-491.646621
 21
-844.718354
  0
LINE
  8
0
 62
     2
  6
CONTINUOUS
 10
-175.885661
 20
-600.398354
 11
-175.885661
 21
-844.718354
  0
LINE
  8
0
 62
     2
  6
CONTINUOUS
 10
-287.806301
 20
-600.398354
 11
-287.806301
 21
-844.718354
  0
TEXT
  8
0
 62
     2
 10
-256.589634
 20
-647.803154
 40
30.000000
 50
0.000000E+00
 41
0.61 
  1
360
 72
     5
 11
-201.589634
 21
-647.803154
  0
LINE
  8
0
 62
     2
  6
CONTINUOUS
 10
-955.287581
 20
-661.838354
 11
-175.885661
 21
-661.838354
  0
TEXT
  8
0
 62
     2
 10
-944.759477
 20
-719.932275
 40
30.000000
 50
0.000000E+00
 41
0.72 
  1
Ｌ（有効長）
 72
     5
 11
-794.759477
 21
-719.932275
  0
LINE
  8
0
 62
     2
  6
CONTINUOUS
 10
-955.287581
 20
-600.398354
 11
-955.287581
 21
-844.718354
  0
LINE
  8
0
 62
     2
  6
CONTINUOUS
 10
-177.458899
 20
-613.635403
 11
-177.458899
 21
-613.635595
  0
TEXT
  8
0
 62
     2
 10
-669.031289
 20
-724.246968
 40
30.000000
 50
0.000000E+00
 41
0.61 
  1
810
 72
     5
 11
-614.031289
 21
-724.246968
  0
TEXT
  8
0
 62
     2
 10
-569.578809
 20
-725.974104
 40
30.000000
 50
0.000000E+00
 41
0.61 
  1
830
 72
     5
 11
-514.578809
 21
-725.974104
  0
TEXT
  8
0
 62
     2
 10
-669.270274
 20
-647.803154
 40
30.000000
 50
0.000000E+00
 41
0.61 
  1
260
 72
     5
 11
-614.270274
 21
-647.803154
  0
TEXT
  8
0
 62
     2
 10
-885.718483
 20
-647.782743
 40
30.000000
 50
0.000000E+00
 41
0.86 
  1
Ｐ
 72
     5
 11
-855.718483
 21
-647.782743
  0
TEXT
  8
0
 62
     2
 10
-466.779569
 20
-725.974104
 40
30.000000
 50
0.000000E+00
 41
0.61 
  1
850
 72
     5
 11
-411.779569
 21
-725.974104
  0
TEXT
  8
0
 62
     2
 10
-251.589634
 20
-546.363154
 40
30.000000
 50
0.000000E+00
 41
0.58 
  1
44
 72
     5
 11
-216.589634
 21
-546.363154
  0
TEXT
  8
0
 62
     2
 10
-363.510274
 20
-546.363154
 40
30.000000
 50
0.000000E+00
 41
0.58 
  1
52
 72
     5
 11
-328.510274
 21
-546.363154
  0
TEXT
  8
0
 62
     2
 10
-462.501526
 20
-363.746137
 40
25.600000
 50
0.000000E+00
 41
0.55 
  1
100
 72
     5
 11
-420.444381
 21
-363.746137
  0
TEXT
  8
0
 62
     2
 10
-479.031820
 20
-325.061429
 40
18.400000
 50
0.000000E+00
 41
0.89 
  1
立管受口
 72
     5
 11
-403.031821
 21
-325.061429
  0
TEXT
  8
0
 62
     2
 10
-251.589634
 20
-423.483154
 40
30.000000
 50
0.000000E+00
 41
0.58 
  1
65
 72
     5
 11
-216.589634
 21
-423.483154
  0
TEXT
  8
0
 62
     2
 10
-363.510274
 20
-423.483154
 40
30.000000
 50
0.000000E+00
 41
0.58 
  1
65
 72
     5
 11
-328.510274
 21
-423.483154
  0
TEXT
  8
0
 62
     2
 10
-455.429954
 20
-423.483154
 40
30.000000
 50
0.000000E+00
 41
0.58 
  1
75
 72
     5
 11
-420.429954
 21
-423.483154
  0
LINE
  8
0
 62
     2
  6
CONTINUOUS
 10
-399.726941
 20
-498.958354
 11
-481.646621
 21
-560.398354
  0
LINE
  8
0
 62
     2
  6
CONTINUOUS
 10
-175.885661
 20
-294.153298
 11
-175.885661
 21
-560.398354
  0
TEXT
  8
0
 62
     2
 10
-592.749477
 20
-542.052275
 40
30.000000
 50
0.000000E+00
 41
0.86 
  1
Ｂ寸法
 72
     5
 11
-502.749477
 21
-542.052275
  0
LINE
  8
0
 62
     2
  6
CONTINUOUS
 10
-604.527581
 20
-498.958354
 11
-175.885661
 21
-498.958354
  0
LINE
  8
0
 62
     2
  6
CONTINUOUS
 10
-399.726941
 20
-335.118322
 11
-175.885661
 21
-335.118322
  0
LINE
  8
0
 62
     2
  6
CONTINUOUS
 10
-604.527581
 20
-376.078354
 11
-175.885661
 21
-376.078354
  0
TEXT
  8
0
 62
     2
 10
-388.512732
 20
-330.204987
 40
30.000000
 50
0.000000E+00
 41
0.72 
  1
下部横枝管サイズ
 72
     5
 11
-188.512732
 21
-330.204987
  0
LINE
  8
0
 62
     2
  6
CONTINUOUS
 10
-481.646621
 20
-295.392178
 11
-481.646621
 21
-560.398354
  0
LINE
  8
0
 62
     2
  6
CONTINUOUS
 10
-399.726941
 20
-295.392178
 11
-399.726941
 21
-560.398354
  0
LINE
  8
0
 62
     2
  6
CONTINUOUS
 10
-399.726941
 20
-437.518354
 11
-481.646621
 21
-498.958354
  0
LINE
  8
0
 62
     2
  6
CONTINUOUS
 10
-287.806301
 20
-335.118514
 11
-287.806301
 21
-560.398354
  0
LINE
  8
0
 62
     2
  6
CONTINUOUS
 10
-604.527581
 20
-560.398354
 11
-175.885661
 21
-560.398354
  0
TEXT
  8
0
 62
     2
 10
-383.464355
 20
-370.283621
 40
30.000000
 50
0.000000E+00
 41
0.63 
  1
65(2)
 72
     5
 11
-288.464355
 21
-370.283621
  0
TEXT
  8
0
 62
     2
 10
-271.543715
 20
-370.283621
 40
30.000000
 50
0.000000E+00
 41
0.63 
  1
50(1)
 72
     5
 11
-176.543715
 21
-370.283621
  0
LINE
  8
0
 62
     2
  6
CONTINUOUS
 10
-604.527581
 20
-335.118322
 11
-604.527581
 21
-560.398354
  0
LINE
  8
0
 62
     2
  6
CONTINUOUS
 10
-604.527581
 20
-437.518354
 11
-175.885661
 21
-437.518354
  0
TEXT
  8
0
 62
     2
 10
-592.749477
 20
-480.612275
 40
30.000000
 50
0.000000E+00
 41
0.86 
  1
Ａ寸法
 72
     5
 11
-502.749477
 21
-480.612275
  0
LINE
  8
0
 62
     2
  6
CONTINUOUS
 10
-604.527581
 20
-335.118322
 11
-604.527581
 21
-294.153298
  0
LINE
  8
0
 62
     2
  6
CONTINUOUS
 10
-604.527581
 20
-294.153298
 11
-175.885661
 21
-294.153298
  0
LINE
  8
0
 62
     2
  6
CONTINUOUS
 10
-205.886621
 20
-335.118322
 11
-205.886621
 21
-335.118514
  0
TEXT
  8
0
 62
     2
 10
-375.738489
 20
-484.923154
 40
30.000000
 50
0.000000E+00
 41
0.61 
  1
110
 72
     5
 11
-320.738489
 21
-484.923154
  0
TEXT
  8
0
 62
     2
 10
-599.958483
 20
-423.462743
 40
30.000000
 50
0.000000E+00
 41
0.86 
  1
受口深さ
 72
     5
 11
-479.958483
 21
-423.462743
  0
LINE
  8
0
 62
     2
  6
CONTINUOUS
 10
-604.527581
 20
-294.153298
 11
-481.646621
 21
-376.078354
  0
TEXT
  8
0
 62
     2
 10
-251.589634
 20
-484.923154
 40
30.000000
 50
0.000000E+00
 41
0.58 
  1
94
 72
     5
 11
-216.589634
 21
-484.923154
  0
INSERT
  8
0
  2
G39
 10
0
 20
0
  0
INSERT
  8
0
  2
G40
 10
0
 20
0
  0
INSERT
  8
0
  2
G41
 10
0
 20
0
  0
INSERT
  8
0
  2
G42
 10
0
 20
0
  0
INSERT
  8
0
  2
G43
 10
0
 20
0
  0
INSERT
  8
0
  2
G44
 10
0
 20
0
  0
INSERT
  8
0
  2
G45
 10
0
 20
0
  0
LINE
  8
3
 62
     4
  6
CENTER
 10
-1407.136524
 20
-341.168262
 11
-1407.136524
 21
-29.090674
  0
INSERT
  8
0
  2
G46
 10
0
 20
0
  0
INSERT
  8
0
  2
G47
 10
0
 20
0
  0
INSERT
  8
0
  2
G48
 10
0
 20
0
  0
INSERT
  8
0
  2
G49
 10
0
 20
0
  0
INSERT
  8
0
  2
G50
 10
0
 20
0
  0
INSERT
  8
0
  2
G51
 10
0
 20
0
  0
INSERT
  8
0
  2
G52
 10
0
 20
0
  0
INSERT
  8
0
  2
G53
 10
0
 20
0
  0
INSERT
  8
0
  2
G54
 10
0
 20
0
  0
INSERT
  8
0
  2
G55
 10
0
 20
0
  0
ENDSEC
  0
EOF
