  0
SECTION
  2
HEADER
  9
$INSBASE
 10
0
 20
0
  9
$EXTMIN
 10
0
 20
0
  9
$EXTMAX
 10
4200.000000
 20
2970.000000
  9
$LIMMIN
 10
0
 20
0
  9
$LIMMAX
 10
4200.000000
 20
2970.000000
  9
$VIEWCTR
 10
2100.000000
 20
1485.000000
  9
$DIMASZ
 40
30.000000
  9
$DIMDLI
 40
80.000000
  9
$DIMEXE
 40
10.000000
  9
$DIMEXO
 40
10.000000
  9
$DIMTXT
 40
32.000000
  9
$TEXTSIZE
 40
32.000000
  9
$ANGBASE
 50
0.0
  9
$ANGDIR
 70
     0
  9
$ATTMODE
 70
     1
  9
$AUNITS
 70
     1
  9
$AUPREC
 70
     2
  9
$AXISMODE
 70
     0
  9
$AXISUNIT
 10
0.0
 20
0.0
  9
$BLIPMODE
 70
     1
  9
$CECOLOR
 62
   256
  9
$CELTYPE
  6
BYLAYER
  9
$CHAMFERA
 40
0.0
  9
$CHAMFERB
 40
0.0
  9
$CLAYER
  8
0
  9
$COORDS
 70
     0
  9
$DIMALT
 70
     0
  9
$DIMALTD
 70
     2
  9
$DIMALTF
 40
25.4
  9
$DIMDLE
 40
0.0
  9
$DIMLFAC
 40
1.0
  9
$DIMLIM
 70
     0
  9
$DIMRND
 40
0.0
  9
$DIMSCALE
 40
1.0
  9
$DIMSE1
 70
     0
  9
$DIMSE2
 70
     0
  9
$DIMTAD
 70
     1
  9
$DIMTIH
 70
     0
  9
$DIMTM
 40
0.0
  9
$DIMTOH
 70
     0
  9
$DIMTOL
 70
     0
  9
$DIMTP
 40
0.0
  9
$DIMTSZ
 40
0.0
  9
$DIMZIN
 70
     0
  9
$DRAGMODE
 70
     2
  9
$ELEVATION
 40
0.0
  9
$FASTZOOM
 70
     1
  9
$FILLETRAD
 40
0.0
  9
$FILLMODE
 70
     1
  9
$GRIDMODE
 70
     0
  9
$GRIDUNIT
 10
0.0
 20
0.0
  9
$LTSCALE
 40
1.0
  9
$LUNITS
 70
     2
  9
$LUPREC
 70
     2
  9
$MENU
  1
ACAD
  9
$ORTHOMODE
 70
     0
  9
$OSMODE
 70
     0
  9
$PDMODE
 70
     0
  9
$PDSIZE
 40
0.0
  9
$PLINEWID
 40
0.0
  9
$QTEXTMODE
 70
     0
  9
$REGENMODE
 70
     1
  9
$SKETCHINC
 40
0.1
  9
$SKPOLY
 70
     0
  9
$SNAPBASE
 10
0.0
 20
0.0
  9
$SNAPISOPAIR
 70
     0
  9
$SNAPMODE
 70
     0
  9
$SNAPSTYLE
 70
     0
  9
$SNAPUNIT
 10
0.0
 20
0.0
  9
$TEXTSTYLE
  7
KANJI
  9
$THICKNESS
 40
0.0
  9
$TRACEWID
 40
0.05
  9
$VIEWDIR
 10
0.0
 20
0.0
 30
1.0
  9
$VIEWSIZE
 40
0.0
  0
ENDSEC
  0
SECTION
  2
TABLES
  0
TABLE
  2
LTYPE
 70
     9
  0
LTYPE
  2
CONTINUOUS
 70
    64
  3
Solid line
 72
    65
 73
     0
 40
0.0
  0
LTYPE
  2
DASHED
 70
    64
  3
__ __ __ __ __ __ __ __ __ __ __ __ __ __ __
 72
    65
 73
     2
 40
0.75
 49
0.5
 49
-0.25
  0
LTYPE
  2
HIDDEN
 70
    64
  3
_ _ _ _ _ _ _ _ _ _ _ _ _ _ _ _ _ _ _ _ _ _ _
 72
    65
 73
     2
 40
0.375
 49
0.25
 49
-0.125
  0
LTYPE
  2
CENTER
 70
    64
  3
____ _ ____ _ ____ _ ____ _ ____ _ ____ _ ____
 72
    65
 73
     4
 40
2.0
 49
1.25
 49
-0.25
 49
0.25
 49
-0.25
  0
LTYPE
  2
PHANTOM
 70
    64
  3
_____ _ _ _____ _ _ _____ _ _ _____ _ _ ____
 72
    65
 73
     6
 40
2.5
 49
1.25
 49
-0.25
 49
0.25
 49
-0.25
 49
0.25
 49
-0.25
  0
LTYPE
  2
DOT
 70
    64
  3
...............................................
 72
    65
 73
     2
 40
0.25
 49
0.0
 49
-0.25
  0
LTYPE
  2
DASHDOT
 70
    64
  3
__ . __ . __ . __ . __ . __ . __ . __ . __ . __
 72
    65
 73
     4
 40
1.0
 49
0.5
 49
-0.25
 49
0.0
 49
-0.25
  0
LTYPE
  2
BORDER
 70
    64
  3
__ __ . __ __ . __ __ . __ __ . __ __ . __ __
 72
    65
 73
     6
 40
1.75
 49
0.5
 49
-0.25
 49
0.5
 49
-0.25
 49
0.0
 49
-0.25
  0
LTYPE
  2
DIVIDE
 70
    64
  3
__ . . __ . . __ . . __ . . __ . . __ . . __
 72
    65
 73
     6
 40
1.25
 49
0.5
 49
-0.25
 49
0.0
 49
-0.25
 49
0.0
 49
-0.25
  0
ENDTAB
  0
TABLE
  2
LAYER
 70
   100
  0
LAYER
  2
0
 70
     0
 62
     3
  6
CONTINUOUS
  0
LAYER
  2
1
 70
     0
 62
     3
  6
CONTINUOUS
  0
LAYER
  2
2
 70
     0
 62
     3
  6
CONTINUOUS
  0
LAYER
  2
3
 70
     0
 62
     3
  6
CONTINUOUS
  0
LAYER
  2
4
 70
     0
 62
     3
  6
CONTINUOUS
  0
LAYER
  2
5
 70
     0
 62
     3
  6
CONTINUOUS
  0
LAYER
  2
6
 70
     0
 62
     3
  6
CONTINUOUS
  0
LAYER
  2
7
 70
     0
 62
     3
  6
CONTINUOUS
  0
LAYER
  2
8
 70
     0
 62
     3
  6
CONTINUOUS
  0
LAYER
  2
9
 70
     0
 62
     3
  6
CONTINUOUS
  0
LAYER
  2
10
 70
     0
 62
     3
  6
CONTINUOUS
  0
LAYER
  2
11
 70
     0
 62
     3
  6
CONTINUOUS
  0
LAYER
  2
12
 70
     0
 62
     3
  6
CONTINUOUS
  0
LAYER
  2
13
 70
     0
 62
     3
  6
CONTINUOUS
  0
LAYER
  2
14
 70
     0
 62
     3
  6
CONTINUOUS
  0
LAYER
  2
15
 70
     0
 62
     3
  6
CONTINUOUS
  0
LAYER
  2
16
 70
     0
 62
     3
  6
CONTINUOUS
  0
LAYER
  2
17
 70
     0
 62
     3
  6
CONTINUOUS
  0
LAYER
  2
18
 70
     0
 62
     3
  6
CONTINUOUS
  0
LAYER
  2
19
 70
     0
 62
     3
  6
CONTINUOUS
  0
LAYER
  2
20
 70
     0
 62
     3
  6
CONTINUOUS
  0
LAYER
  2
21
 70
     0
 62
     3
  6
CONTINUOUS
  0
LAYER
  2
22
 70
     0
 62
     3
  6
CONTINUOUS
  0
LAYER
  2
23
 70
     0
 62
     3
  6
CONTINUOUS
  0
LAYER
  2
24
 70
     0
 62
     3
  6
CONTINUOUS
  0
LAYER
  2
25
 70
     0
 62
     3
  6
CONTINUOUS
  0
LAYER
  2
26
 70
     0
 62
     3
  6
CONTINUOUS
  0
LAYER
  2
27
 70
     0
 62
     3
  6
CONTINUOUS
  0
LAYER
  2
28
 70
     0
 62
     3
  6
CONTINUOUS
  0
LAYER
  2
29
 70
     0
 62
     3
  6
CONTINUOUS
  0
LAYER
  2
30
 70
     0
 62
     3
  6
CONTINUOUS
  0
LAYER
  2
31
 70
     0
 62
     3
  6
CONTINUOUS
  0
LAYER
  2
32
 70
     0
 62
     3
  6
CONTINUOUS
  0
LAYER
  2
33
 70
     0
 62
     3
  6
CONTINUOUS
  0
LAYER
  2
34
 70
     0
 62
     3
  6
CONTINUOUS
  0
LAYER
  2
35
 70
     0
 62
     3
  6
CONTINUOUS
  0
LAYER
  2
36
 70
     0
 62
     3
  6
CONTINUOUS
  0
LAYER
  2
37
 70
     0
 62
     3
  6
CONTINUOUS
  0
LAYER
  2
38
 70
     0
 62
     3
  6
CONTINUOUS
  0
LAYER
  2
39
 70
     0
 62
     3
  6
CONTINUOUS
  0
LAYER
  2
40
 70
     0
 62
     3
  6
CONTINUOUS
  0
LAYER
  2
41
 70
     0
 62
     3
  6
CONTINUOUS
  0
LAYER
  2
42
 70
     0
 62
     3
  6
CONTINUOUS
  0
LAYER
  2
43
 70
     0
 62
     3
  6
CONTINUOUS
  0
LAYER
  2
44
 70
     0
 62
     3
  6
CONTINUOUS
  0
LAYER
  2
45
 70
     0
 62
     3
  6
CONTINUOUS
  0
LAYER
  2
46
 70
     0
 62
     3
  6
CONTINUOUS
  0
LAYER
  2
47
 70
     0
 62
     3
  6
CONTINUOUS
  0
LAYER
  2
48
 70
     0
 62
     3
  6
CONTINUOUS
  0
LAYER
  2
49
 70
     0
 62
     3
  6
CONTINUOUS
  0
LAYER
  2
50
 70
     0
 62
     3
  6
CONTINUOUS
  0
LAYER
  2
51
 70
     0
 62
     3
  6
CONTINUOUS
  0
LAYER
  2
52
 70
     0
 62
     3
  6
CONTINUOUS
  0
LAYER
  2
53
 70
     0
 62
     3
  6
CONTINUOUS
  0
LAYER
  2
54
 70
     0
 62
     3
  6
CONTINUOUS
  0
LAYER
  2
55
 70
     0
 62
     3
  6
CONTINUOUS
  0
LAYER
  2
56
 70
     0
 62
     3
  6
CONTINUOUS
  0
LAYER
  2
57
 70
     0
 62
     3
  6
CONTINUOUS
  0
LAYER
  2
58
 70
     0
 62
     3
  6
CONTINUOUS
  0
LAYER
  2
59
 70
     0
 62
     3
  6
CONTINUOUS
  0
LAYER
  2
60
 70
     0
 62
     3
  6
CONTINUOUS
  0
LAYER
  2
61
 70
     0
 62
     3
  6
CONTINUOUS
  0
LAYER
  2
62
 70
     0
 62
     3
  6
CONTINUOUS
  0
LAYER
  2
63
 70
     0
 62
     3
  6
CONTINUOUS
  0
LAYER
  2
64
 70
     0
 62
     3
  6
CONTINUOUS
  0
LAYER
  2
65
 70
     0
 62
     3
  6
CONTINUOUS
  0
LAYER
  2
66
 70
     0
 62
     3
  6
CONTINUOUS
  0
LAYER
  2
67
 70
     0
 62
     3
  6
CONTINUOUS
  0
LAYER
  2
68
 70
     0
 62
     3
  6
CONTINUOUS
  0
LAYER
  2
69
 70
     0
 62
     3
  6
CONTINUOUS
  0
LAYER
  2
70
 70
     0
 62
     3
  6
CONTINUOUS
  0
LAYER
  2
71
 70
     0
 62
     3
  6
CONTINUOUS
  0
LAYER
  2
72
 70
     0
 62
     3
  6
CONTINUOUS
  0
LAYER
  2
73
 70
     0
 62
     3
  6
CONTINUOUS
  0
LAYER
  2
74
 70
     0
 62
     3
  6
CONTINUOUS
  0
LAYER
  2
75
 70
     0
 62
     3
  6
CONTINUOUS
  0
LAYER
  2
76
 70
     0
 62
     3
  6
CONTINUOUS
  0
LAYER
  2
77
 70
     0
 62
     3
  6
CONTINUOUS
  0
LAYER
  2
78
 70
     0
 62
     3
  6
CONTINUOUS
  0
LAYER
  2
79
 70
     0
 62
     3
  6
CONTINUOUS
  0
LAYER
  2
80
 70
     0
 62
     3
  6
CONTINUOUS
  0
LAYER
  2
81
 70
     0
 62
     3
  6
CONTINUOUS
  0
LAYER
  2
82
 70
     0
 62
     3
  6
CONTINUOUS
  0
LAYER
  2
83
 70
     0
 62
     3
  6
CONTINUOUS
  0
LAYER
  2
84
 70
     0
 62
     3
  6
CONTINUOUS
  0
LAYER
  2
85
 70
     0
 62
     3
  6
CONTINUOUS
  0
LAYER
  2
86
 70
     0
 62
     3
  6
CONTINUOUS
  0
LAYER
  2
87
 70
     0
 62
     3
  6
CONTINUOUS
  0
LAYER
  2
88
 70
     0
 62
     3
  6
CONTINUOUS
  0
LAYER
  2
89
 70
     0
 62
     3
  6
CONTINUOUS
  0
LAYER
  2
90
 70
     0
 62
     3
  6
CONTINUOUS
  0
LAYER
  2
91
 70
     0
 62
     3
  6
CONTINUOUS
  0
LAYER
  2
92
 70
     0
 62
     3
  6
CONTINUOUS
  0
LAYER
  2
93
 70
     0
 62
     3
  6
CONTINUOUS
  0
LAYER
  2
94
 70
     0
 62
     3
  6
CONTINUOUS
  0
LAYER
  2
95
 70
     0
 62
     3
  6
CONTINUOUS
  0
LAYER
  2
96
 70
     0
 62
     3
  6
CONTINUOUS
  0
LAYER
  2
97
 70
     0
 62
     3
  6
CONTINUOUS
  0
LAYER
  2
98
 70
     0
 62
     3
  6
CONTINUOUS
  0
LAYER
  2
99
 70
     0
 62
     3
  6
CONTINUOUS
  0
ENDTAB
  0
TABLE
  2
STYLE
 70
     2
  0
STYLE
  2
STANDARD
 70
     0
 40
0.0
 41
1.0
 50
0.0
 71
     0
 42
0.2
  3
TXT
  4
BIGFONT
  0
STYLE
  2
KANJI
 70
     0
 40
4.5
 41
1.0
 50
0.0
 71
     0
 42
0.2
  3
TXT
  4
BIGFONT
  0
ENDTAB
  0
TABLE
  2
VIEW
 70
     0
  0
ENDTAB
  0
ENDSEC
  0
SECTION
  2
BLOCKS
  0
BLOCK
  8
0
  2
G0
 70
     0
 10
0
 20
0
  0
POINT
  8
0
 62
     4
 10
270.000000
 20
1315.000000
  0
POINT
  8
0
 62
     4
 10
-1830.000000
 20
1315.000000
  0
ENDBLK
  0
BLOCK
  8
0
  2
G1
 70
     0
 10
0
 20
0
  0
TEXT
  8
0
 62
     1
 10
-855.996281
 20
-110.472883
 40
32.000000
 50
90.000000
 41
0.97 
  1
Ｌｔ
 72
     5
 11
-855.996281
 21
-38.472883
  0
LINE
  8
0
 62
     1
  6
CONTINUOUS
 10
-900.662948
 20
-566.972883
 11
-840.662948
 21
-566.972883
  0
LINE
  8
0
 62
     1
  6
CONTINUOUS
 10
-900.662948
 20
418.027117
 11
-840.662948
 21
418.027117
  0
LINE
  8
0
 62
     1
  6
CONTINUOUS
 10
-850.662948
 20
418.027117
 11
-850.662948
 21
-566.972883
  0
SOLID
  8
0
 62
     1
 10
-844.192472
 20
393.878971
 11
-857.133424
 21
393.878971
 12
-850.662948
 22
418.027117
 13
-850.662948
 23
418.027117
  0
SOLID
  8
0
 62
     1
 10
-857.133424
 20
-542.824738
 11
-844.192472
 21
-542.824738
 12
-850.662948
 22
-566.972883
 13
-850.662948
 23
-566.972883
  0
ENDBLK
  0
BLOCK
  8
0
  2
G2
 70
     0
 10
0
 20
0
  0
LINE
  8
0
 62
     1
  6
CONTINUOUS
 10
-1094.485175
 20
741.389268
 11
-1094.485175
 21
866.389268
  0
SOLID
  8
0
 62
     1
 10
-1100.955651
 20
765.537414
 11
-1088.014699
 21
765.537414
 12
-1094.485175
 22
741.389268
 13
-1094.485175
 23
741.389268
  0
SOLID
  8
0
 62
     1
 10
-1088.014699
 20
842.241123
 11
-1100.955651
 21
842.241123
 12
-1094.485175
 22
866.389268
 13
-1094.485175
 23
866.389268
  0
LINE
  8
0
 62
     1
  6
CONTINUOUS
 10
-1157.739862
 20
741.389268
 11
-1084.485175
 21
741.389268
  0
LINE
  8
0
 62
     1
  6
CONTINUOUS
 10
-1157.739862
 20
866.389268
 11
-1084.485175
 21
866.389268
  0
TEXT
  8
0
 62
     1
 10
-1099.818508
 20
745.889268
 40
32.000000
 50
90.000000
 41
0.60 
  1
%%c125
 72
     5
 11
-1099.818508
 21
861.889268
  0
ENDBLK
  0
BLOCK
  8
0
  2
G3
 70
     0
 10
0
 20
0
  0
LINE
  8
0
 62
     1
  6
CONTINUOUS
 10
-1090.662948
 20
90.527117
 11
-1090.662948
 21
-0.055584
  0
SOLID
  8
0
 62
     1
 10
-1084.192472
 20
66.378971
 11
-1097.133424
 21
66.378971
 12
-1090.662948
 22
90.527117
 13
-1090.662948
 23
90.527117
  0
TEXT
  8
0
 62
     1
 10
-1095.996281
 20
4.799037
 40
32.000000
 50
90.000000
 41
0.58 
  1
2.5
 72
     5
 11
-1095.996281
 21
60.799037
  0
LINE
  8
0
 62
     1
  6
CONTINUOUS
 10
-1080.662948
 20
90.527117
 11
-1162.739862
 21
90.527117
  0
LINE
  8
0
 62
     1
  6
CONTINUOUS
 10
-1090.662948
 20
90.527117
 11
-1090.662948
 21
93.027117
  0
ENDBLK
  0
BLOCK
  8
0
  2
G4
 70
     0
 10
0
 20
0
  0
TEXT
  8
0
 62
     1
 10
-915.996281
 20
-205.972883
 40
32.000000
 50
90.000000
 41
0.89 
  1
Ｌ（有効長）
 72
     5
 11
-915.996281
 21
-9.972883
  0
LINE
  8
0
 62
     1
  6
CONTINUOUS
 10
-960.662948
 20
-566.972883
 11
-900.662948
 21
-566.972883
  0
LINE
  8
0
 62
     1
  6
CONTINUOUS
 10
-910.662948
 20
343.027117
 11
-910.662948
 21
-566.972883
  0
SOLID
  8
0
 62
     1
 10
-904.192472
 20
318.878971
 11
-917.133424
 21
318.878971
 12
-910.662948
 22
343.027117
 13
-910.662948
 23
343.027117
  0
SOLID
  8
0
 62
     1
 10
-917.133424
 20
-542.824738
 11
-904.192472
 21
-542.824738
 12
-910.662948
 22
-566.972883
 13
-910.662948
 23
-566.972883
  0
ENDBLK
  0
BLOCK
  8
0
  2
G5
 70
     0
 10
0
 20
0
  0
TEXT
  8
0
 62
     1
 10
-975.996281
 20
-414.972883
 40
32.000000
 50
90.000000
 41
0.58 
  1
360
 72
     5
 11
-975.996281
 21
-358.972883
  0
LINE
  8
0
 62
     1
  6
CONTINUOUS
 10
-960.662948
 20
-566.972883
 11
-1080.662948
 21
-566.972883
  0
LINE
  8
0
 62
     1
  6
CONTINUOUS
 10
-970.662948
 20
-206.972883
 11
-970.662948
 21
-566.972883
  0
SOLID
  8
0
 62
     1
 10
-964.192472
 20
-231.121029
 11
-977.133424
 21
-231.121029
 12
-970.662948
 22
-206.972883
 13
-970.662948
 23
-206.972883
  0
SOLID
  8
0
 62
     1
 10
-977.133424
 20
-542.824738
 11
-964.192472
 21
-542.824738
 12
-970.662948
 22
-566.972883
 13
-970.662948
 23
-566.972883
  0
ENDBLK
  0
BLOCK
  8
0
  2
G6
 70
     0
 10
0
 20
0
  0
TEXT
  8
0
 62
     1
 10
-1095.996281
 20
-519.972883
 40
32.000000
 50
90.000000
 41
0.58 
  1
150
 72
     5
 11
-1095.996281
 21
-463.972883
  0
LINE
  8
0
 62
     1
  6
CONTINUOUS
 10
-1264.739862
 20
-566.972883
 11
-1080.662948
 21
-566.972883
  0
LINE
  8
0
 62
     1
  6
CONTINUOUS
 10
-1090.662948
 20
-416.972883
 11
-1090.662948
 21
-566.972883
  0
SOLID
  8
0
 62
     1
 10
-1084.192472
 20
-441.121029
 11
-1097.133424
 21
-441.121029
 12
-1090.662948
 22
-416.972883
 13
-1090.662948
 23
-416.972883
  0
SOLID
  8
0
 62
     1
 10
-1097.133424
 20
-542.824738
 11
-1084.192472
 21
-542.824738
 12
-1090.662948
 22
-566.972883
 13
-1090.662948
 23
-566.972883
  0
ENDBLK
  0
BLOCK
  8
0
  2
G7
 70
     0
 10
0
 20
0
  0
TEXT
  8
0
 62
     1
 10
-1095.996281
 20
-384.972883
 40
32.000000
 50
90.000000
 41
0.58 
  1
120
 72
     5
 11
-1095.996281
 21
-328.972883
  0
LINE
  8
0
 62
     1
  6
CONTINUOUS
 10
-1267.488951
 20
-416.972883
 11
-1080.662948
 21
-416.972883
  0
LINE
  8
0
 62
     1
  6
CONTINUOUS
 10
-1236.990773
 20
-296.972883
 11
-1080.662948
 21
-296.972883
  0
LINE
  8
0
 62
     1
  6
CONTINUOUS
 10
-1090.662948
 20
-296.972883
 11
-1090.662948
 21
-416.972883
  0
SOLID
  8
0
 62
     1
 10
-1084.192472
 20
-321.121029
 11
-1097.133424
 21
-321.121029
 12
-1090.662948
 22
-296.972883
 13
-1090.662948
 23
-296.972883
  0
SOLID
  8
0
 62
     1
 10
-1097.133424
 20
-392.824738
 11
-1084.192472
 21
-392.824738
 12
-1090.662948
 22
-416.972883
 13
-1090.662948
 23
-416.972883
  0
ENDBLK
  0
BLOCK
  8
0
  2
G8
 70
     0
 10
0
 20
0
  0
TEXT
  8
0
 62
     3
 10
-1080.069396
 20
488.253919
 40
32.000000
 50
0.000000E+00
 41
0.95 
  1
受口深さ　
 72
     5
 11
-904.069396
 21
488.253919
  0
ENDBLK
  0
BLOCK
  8
0
  2
G9
 70
     0
 10
0
 20
0
  0
LINE
  8
0
 62
     3
  6
CONTINUOUS
 10
-1178.722721
 20
954.195122
 11
-1107.906789
 21
954.195122
  0
SOLID
  8
0
 62
     3
 10
-1149.744947
 20
961.959693
 11
-1149.744947
 21
946.430551
 12
-1178.722721
 22
954.195122
 13
-1178.722721
 23
954.195122
  0
ENDBLK
  0
BLOCK
  8
0
  2
G10
 70
     0
 10
0
 20
0
  0
TEXT
  8
0
 62
     3
 10
-1103.066857
 20
940.364900
 40
32.000000
 50
0.000000E+00
 41
1.02 
  1
受口深さ
 72
     5
 11
-951.066857
 21
940.364900
  0
ENDBLK
  0
BLOCK
  8
0
  2
G11
 70
     0
 10
0
 20
0
  0
LINE
  8
0
 62
     1
  6
CONTINUOUS
 10
-1090.662948
 20
153.027117
 11
-1090.662948
 21
203.027117
  0
SOLID
  8
0
 62
     1
 10
-1098.427519
 20
182.004891
 11
-1082.898377
 21
182.004891
 12
-1090.662948
 22
153.027117
 13
-1090.662948
 23
153.027117
  0
TEXT
  8
0
 62
     1
 10
-1095.996281
 20
105.027117
 40
32.000000
 50
90.000000
 41
0.56 
  1
60
 72
     5
 11
-1095.996281
 21
141.027117
  0
LINE
  8
0
 62
     1
  6
CONTINUOUS
 10
-1151.806156
 20
153.027117
 11
-1080.662948
 21
153.027117
  0
LINE
  8
0
 62
     1
  6
CONTINUOUS
 10
-1162.739862
 20
93.027117
 11
-1080.662948
 21
93.027117
  0
LINE
  8
0
 62
     1
  6
CONTINUOUS
 10
-1090.662948
 20
93.027117
 11
-1090.662948
 21
153.027117
  0
CIRCLE
  8
0
 62
     1
  6
CONTINUOUS
 10
-1090.662948
 20
93.027117
 40
2.500000
  0
CIRCLE
  8
0
 62
     1
  6
CONTINUOUS
 10
-1090.662948
 20
93.027117
 40
1.250000
  0
ENDBLK
  0
BLOCK
  8
0
  2
G12
 70
     0
 10
0
 20
0
  0
LINE
  8
0
 62
     1
  6
CONTINUOUS
 10
-648.844040
 20
743.206521
 11
-824.206521
 21
567.844040
  0
SOLID
  8
0
 62
     1
 10
-661.344040
 20
721.555886
 11
-670.494675
 21
730.706521
 12
-648.844040
 22
743.206521
 13
-648.844040
 23
743.206521
  0
SOLID
  8
0
 62
     1
 10
-811.706521
 20
589.494675
 11
-802.555886
 21
580.344040
 12
-824.206521
 22
567.844040
 13
-824.206521
 23
567.844040
  0
LINE
  8
0
 62
     1
  6
CONTINUOUS
 10
-690.752309
 20
434.389827
 11
-831.277589
 21
574.915108
  0
TEXT
  8
0
 62
     1
 10
-760.095506
 20
639.497527
 40
32.000000
 50
45.000000
 41
0.58 
  1
248
 72
     5
 11
-720.497527
 21
679.095506
  0
ENDBLK
  0
BLOCK
  8
0
  2
G13
 70
     0
 10
0
 20
0
  0
LINE
  8
0
 62
     1
  6
CONTINUOUS
 10
-701.000000
 20
658.375253
 11
-491.000000
 21
658.375253
  0
SOLID
  8
0
 62
     1
 10
-676.851854
 20
664.845729
 11
-676.851854
 21
651.904777
 12
-701.000000
 22
658.375253
 13
-701.000000
 23
658.375253
  0
SOLID
  8
0
 62
     1
 10
-515.148146
 20
651.904777
 11
-515.148146
 21
664.845729
 12
-491.000000
 22
658.375253
 13
-491.000000
 23
658.375253
  0
LINE
  8
0
 62
     1
  6
CONTINUOUS
 10
-701.000000
 20
525.000000
 11
-701.000000
 21
668.375253
  0
LINE
  8
0
 62
     1
  6
CONTINUOUS
 10
-491.000000
 20
525.000000
 11
-491.000000
 21
668.375253
  0
TEXT
  8
0
 62
     1
 10
-624.000000
 20
663.708586
 40
32.000000
 50
0.000000E+00
 41
0.58 
  1
210
 72
     5
 11
-568.000000
 21
663.708586
  0
ENDBLK
  0
BLOCK
  8
0
  2
G14
 70
     0
 10
0
 20
0
  0
LINE
  8
0
 62
     1
  6
CONTINUOUS
 10
-1494.816775
 20
93.027117
 11
-1494.816775
 21
153.027117
  0
CIRCLE
  8
0
 62
     1
  6
CONTINUOUS
 10
-1494.816775
 20
93.027117
 40
2.500000
  0
CIRCLE
  8
0
 62
     1
  6
CONTINUOUS
 10
-1494.816775
 20
93.027117
 40
1.250000
  0
LINE
  8
0
 62
     1
  6
CONTINUOUS
 10
-1504.816775
 20
93.027117
 11
-1327.739862
 21
93.027117
  0
LINE
  8
0
 62
     1
  6
CONTINUOUS
 10
-1504.816775
 20
153.027117
 11
-1429.665810
 21
153.027117
  0
TEXT
  8
0
 62
     1
 10
-1500.150108
 20
105.027117
 40
32.000000
 50
90.000000
 41
0.56 
  1
60
 72
     5
 11
-1500.150108
 21
141.027117
  0
LINE
  8
0
 62
     1
  6
CONTINUOUS
 10
-1494.816775
 20
153.027117
 11
-1494.816775
 21
203.027117
  0
SOLID
  8
0
 62
     1
 10
-1502.581347
 20
182.004891
 11
-1487.052204
 21
182.004891
 12
-1494.816775
 22
153.027117
 13
-1494.816775
 23
153.027117
  0
ENDBLK
  0
BLOCK
  8
0
  2
G15
 70
     0
 10
0
 20
0
  0
LINE
  8
0
 62
     3
  6
CONTINUOUS
 10
-1113.043291
 20
-68.975228
 11
-1135.545746
 21
-55.983430
  0
LINE
  8
0
 62
     3
  6
CONTINUOUS
 10
-1128.460760
 20
-95.679068
 11
-1113.043291
 21
-68.975228
  0
TEXT
  8
0
 62
     3
 10
-1140.254043
 20
-128.037285
 40
32.000000
 50
0.000000E+00
 41
0.86 
  1
Ｃ
 72
     5
 11
-1108.254043
 21
-128.037285
  0
LINE
  8
0
 62
     3
  6
CONTINUOUS
 10
-1128.460760
 20
-48.308819
 11
-1128.460760
 21
-95.679068
  0
LINE
  8
0
 62
     3
  6
CONTINUOUS
 10
-1128.460760
 20
-48.308819
 11
-1208.023323
 21
-48.308819
  0
ENDBLK
  0
BLOCK
  8
0
  2
G16
 70
     0
 10
0
 20
0
  0
LINE
  8
0
 62
     1
  6
CONTINUOUS
 10
-1094.485175
 20
708.889268
 11
-1094.485175
 21
643.889268
  0
LINE
  8
0
 62
     1
  6
CONTINUOUS
 10
-1257.739862
 20
708.889268
 11
-1084.485175
 21
708.889268
  0
LINE
  8
0
 62
     1
  6
CONTINUOUS
 10
-1255.239862
 20
643.889268
 11
-1034.485175
 21
643.889268
  0
TEXT
  8
0
 62
     1
 10
-1099.818508
 20
658.389268
 40
32.000000
 50
90.000000
 41
0.56 
  1
65
 72
     5
 11
-1099.818508
 21
694.389268
  0
LINE
  8
0
 62
     1
  6
CONTINUOUS
 10
-1094.485175
 20
708.889268
 11
-1094.485175
 21
735.935090
  0
SOLID
  8
0
 62
     1
 10
-1100.955651
 20
733.037414
 11
-1088.014699
 21
733.037414
 12
-1094.485175
 22
708.889268
 13
-1094.485175
 23
708.889268
  0
LINE
  8
0
 62
     1
  6
CONTINUOUS
 10
-1094.485175
 20
643.889268
 11
-1094.485175
 21
593.889268
  0
SOLID
  8
0
 62
     1
 10
-1088.014699
 20
619.741123
 11
-1100.955651
 21
619.741123
 12
-1094.485175
 22
643.889268
 13
-1094.485175
 23
643.889268
  0
ENDBLK
  0
BLOCK
  8
0
  2
G17
 70
     0
 10
0
 20
0
  0
LINE
  8
0
 62
     1
  6
CONTINUOUS
 10
-1494.816775
 20
90.527117
 11
-1494.816775
 21
93.027117
  0
LINE
  8
0
 62
     1
  6
CONTINUOUS
 10
-1504.816775
 20
90.527117
 11
-1327.739862
 21
90.527117
  0
TEXT
  8
0
 62
     1
 10
-1500.150108
 20
4.799037
 40
32.000000
 50
90.000000
 41
0.58 
  1
2.5
 72
     5
 11
-1500.150108
 21
60.799037
  0
LINE
  8
0
 62
     1
  6
CONTINUOUS
 10
-1494.816775
 20
90.527117
 11
-1494.816775
 21
-0.055584
  0
SOLID
  8
0
 62
     1
 10
-1488.346299
 20
66.378971
 11
-1501.287251
 21
66.378971
 12
-1494.816775
 22
90.527117
 13
-1494.816775
 23
90.527117
  0
ENDBLK
  0
BLOCK
  8
0
  2
G18
 70
     0
 10
0
 20
0
  0
LINE
  8
0
 62
     1
  6
CONTINUOUS
 10
-1390.239862
 20
590.634581
 11
-1265.239862
 21
590.634581
  0
SOLID
  8
0
 62
     1
 10
-1366.091716
 20
597.105058
 11
-1366.091716
 21
584.164105
 12
-1390.239862
 22
590.634581
 13
-1390.239862
 23
590.634581
  0
SOLID
  8
0
 62
     1
 10
-1289.388007
 20
584.164105
 11
-1289.388007
 21
597.105058
 12
-1265.239862
 22
590.634581
 13
-1265.239862
 23
590.634581
  0
LINE
  8
0
 62
     1
  6
CONTINUOUS
 10
-1390.239862
 20
633.889268
 11
-1390.239862
 21
580.634581
  0
LINE
  8
0
 62
     1
  6
CONTINUOUS
 10
-1265.239862
 20
633.889268
 11
-1265.239862
 21
580.634581
  0
TEXT
  8
0
 62
     1
 10
-1385.739862
 20
595.967914
 40
32.000000
 50
0.000000E+00
 41
0.60 
  1
%%c125
 72
     5
 11
-1269.739862
 21
595.967914
  0
ENDBLK
  0
BLOCK
  8
0
  2
G19
 70
     0
 10
0
 20
0
  0
LINE
  8
0
 62
     1
  6
CONTINUOUS
 10
-1232.739862
 20
927.143955
 11
-1167.739862
 21
927.143955
  0
LINE
  8
0
 62
     1
  6
CONTINUOUS
 10
-1232.739862
 20
873.889268
 11
-1232.739862
 21
937.143955
  0
LINE
  8
0
 62
     1
  6
CONTINUOUS
 10
-1167.739862
 20
876.389268
 11
-1167.739862
 21
987.143955
  0
TEXT
  8
0
 62
     1
 10
-1218.239862
 20
932.477288
 40
32.000000
 50
0.000000E+00
 41
0.56 
  1
65
 72
     5
 11
-1182.239862
 21
932.477288
  0
LINE
  8
0
 62
     1
  6
CONTINUOUS
 10
-1282.739862
 20
927.143955
 11
-1232.739862
 21
927.143955
  0
SOLID
  8
0
 62
     1
 10
-1256.888007
 20
920.673479
 11
-1256.888007
 21
933.614431
 12
-1232.739862
 22
927.143955
 13
-1232.739862
 23
927.143955
  0
LINE
  8
0
 62
     1
  6
CONTINUOUS
 10
-1167.739862
 20
927.143955
 11
-1117.739862
 21
927.143955
  0
SOLID
  8
0
 62
     1
 10
-1143.591716
 20
933.614431
 11
-1143.591716
 21
920.673479
 12
-1167.739862
 22
927.143955
 13
-1167.739862
 23
927.143955
  0
ENDBLK
  0
BLOCK
  8
0
  2
G20
 70
     0
 10
0
 20
0
  0
TEXT
  8
0
 62
     1
 10
-1035.996281
 20
190.027117
 40
32.000000
 50
90.000000
 41
0.58 
  1
250
 72
     5
 11
-1035.996281
 21
246.027117
  0
LINE
  8
0
 62
     1
  6
CONTINUOUS
 10
-1317.739862
 20
343.027117
 11
-1020.662948
 21
343.027117
  0
LINE
  8
0
 62
     1
  6
CONTINUOUS
 10
-1080.662948
 20
93.027117
 11
-1020.662948
 21
93.027117
  0
LINE
  8
0
 62
     1
  6
CONTINUOUS
 10
-1030.662948
 20
93.027117
 11
-1030.662948
 21
343.027117
  0
SOLID
  8
0
 62
     1
 10
-1038.427519
 20
122.004891
 11
-1022.898377
 21
122.004891
 12
-1030.662948
 22
93.027117
 13
-1030.662948
 23
93.027117
  0
SOLID
  8
0
 62
     1
 10
-1022.898377
 20
314.049342
 11
-1038.427519
 21
314.049342
 12
-1030.662948
 22
343.027117
 13
-1030.662948
 23
343.027117
  0
ENDBLK
  0
BLOCK
  8
0
  2
G21
 70
     0
 10
0
 20
0
  0
TEXT
  8
0
 62
     1
 10
-975.996281
 20
-42.972883
 40
32.000000
 50
90.000000
 41
0.86 
  1
Ｐ
 72
     5
 11
-975.996281
 21
-10.972883
  0
LINE
  8
0
 62
     1
  6
CONTINUOUS
 10
-960.662948
 20
-206.972883
 11
-1229.942234
 21
-206.972883
  0
LINE
  8
0
 62
     1
  6
CONTINUOUS
 10
-970.662948
 20
-206.972883
 11
-970.662948
 21
153.027117
  0
SOLID
  8
0
 62
     1
 10
-978.427519
 20
-177.995109
 11
-962.898377
 21
-177.995109
 12
-970.662948
 22
-206.972883
 13
-970.662948
 23
-206.972883
  0
SOLID
  8
0
 62
     1
 10
-962.898377
 20
124.049342
 11
-978.427519
 21
124.049342
 12
-970.662948
 22
153.027117
 13
-970.662948
 23
153.027117
  0
ENDBLK
  0
BLOCK
  8
0
  2
G22
 70
     0
 10
0
 20
0
  0
TEXT
  8
0
 62
     1
 10
-915.996281
 20
362.527117
 40
32.000000
 50
90.000000
 41
0.56 
  1
75
 72
     5
 11
-915.996281
 21
398.527117
  0
LINE
  8
0
 62
     1
  6
CONTINUOUS
 10
-900.662948
 20
343.027117
 11
-1030.662948
 21
343.027117
  0
LINE
  8
0
 62
     1
  6
CONTINUOUS
 10
-900.662948
 20
418.027117
 11
-1247.549807
 21
418.027117
  0
LINE
  8
0
 62
     1
  6
CONTINUOUS
 10
-910.662948
 20
418.027117
 11
-910.662948
 21
343.027117
  0
SOLID
  8
0
 62
     1
 10
-904.192472
 20
393.878971
 11
-917.133424
 21
393.878971
 12
-910.662948
 22
418.027117
 13
-910.662948
 23
418.027117
  0
SOLID
  8
0
 62
     1
 10
-917.133424
 20
367.175262
 11
-904.192472
 21
367.175262
 12
-910.662948
 22
343.027117
 13
-910.662948
 23
343.027117
  0
ENDBLK
  0
BLOCK
  8
0
  2
G23
 70
     0
 10
0
 20
0
  0
LINE
  8
0
 62
     7
  6
CONTINUOUS
 10
-1422.739862
 20
875.889268
 11
-1422.739862
 21
996.099426
  0
LINE
  8
0
 62
     7
  6
CONTINUOUS
 10
-1327.739862
 20
922.330428
 11
-1327.739862
 21
996.099426
  0
LINE
  8
0
 62
     7
  6
CONTINUOUS
 10
-1422.739862
 20
986.099426
 11
-1327.739862
 21
986.099426
  0
SOLID
  8
0
 62
     7
 10
-1394.050719
 20
994.870578
 11
-1394.050719
 21
977.328275
 12
-1422.739862
 22
986.099426
 13
-1422.739862
 23
986.099426
  0
SOLID
  8
0
 62
     7
 10
-1356.429004
 20
977.328275
 11
-1356.429004
 21
994.870578
 12
-1327.739862
 22
986.099426
 13
-1327.739862
 23
986.099426
  0
TEXT
  8
0
 62
     7
 10
-1393.239862
 20
991.432756
 40
32.000000
 50
0.000000E+00
 41
0.56 
  1
95
 72
     5
 11
-1357.239862
 21
991.432756
  0
ENDBLK
  0
BLOCK
  8
0
  2
G24
 70
     0
 10
0
 20
0
  0
LINE
  8
0
 62
     7
  6
CONTINUOUS
 10
-1327.739862
 20
905.987720
 11
-1327.739862
 21
996.099426
  0
LINE
  8
0
 62
     7
  6
CONTINUOUS
 10
-1167.739862
 20
886.389268
 11
-1167.739862
 21
996.099426
  0
LINE
  8
0
 62
     7
  6
CONTINUOUS
 10
-1327.739862
 20
986.099426
 11
-1167.739862
 21
986.099426
  0
SOLID
  8
0
 62
     7
 10
-1299.050719
 20
994.870578
 11
-1299.050719
 21
977.328275
 12
-1327.739862
 22
986.099426
 13
-1327.739862
 23
986.099426
  0
SOLID
  8
0
 62
     7
 10
-1196.429004
 20
977.328275
 11
-1196.429004
 21
994.870578
 12
-1167.739862
 22
986.099426
 13
-1167.739862
 23
986.099426
  0
TEXT
  8
0
 62
     7
 10
-1275.739862
 20
991.432756
 40
32.000000
 50
0.000000E+00
 41
0.58 
  1
160
 72
     5
 11
-1219.739862
 21
991.432756
  0
ENDBLK
  0
BLOCK
  8
0
  2
G25
 70
     0
 10
0
 20
0
  0
LINE
  8
0
 62
     7
  6
CONTINUOUS
 10
-1089.187380
 20
803.889268
 11
-1026.266082
 21
803.889268
  0
LINE
  8
0
 62
     7
  6
CONTINUOUS
 10
-1245.239862
 20
643.889268
 11
-1026.266082
 21
643.889268
  0
LINE
  8
0
 62
     7
  6
CONTINUOUS
 10
-1036.266082
 20
803.889268
 11
-1036.266082
 21
643.889268
  0
SOLID
  8
0
 62
     7
 10
-1027.494931
 20
775.200126
 11
-1045.037233
 21
775.200126
 12
-1036.266082
 22
803.889268
 13
-1036.266082
 23
803.889268
  0
SOLID
  8
0
 62
     7
 10
-1045.037233
 20
672.578411
 11
-1027.494931
 21
672.578411
 12
-1036.266082
 22
643.889268
 13
-1036.266082
 23
643.889268
  0
TEXT
  8
0
 62
     7
 10
-1041.599412
 20
695.889268
 40
32.000000
 50
90.000000
 41
0.58 
  1
160
 72
     5
 11
-1041.599412
 21
751.889268
  0
ENDBLK
  0
BLOCK
  8
0
  2
G26
 70
     0
 10
0
 20
0
  0
LINE
  8
0
 62
     7
  6
CONTINUOUS
 10
-1402.739862
 20
428.027117
 11
-1402.739862
 21
471.551724
  0
LINE
  8
0
 62
     7
  6
CONTINUOUS
 10
-1252.739862
 20
428.027117
 11
-1252.739862
 21
471.551724
  0
LINE
  8
0
 62
     7
  6
CONTINUOUS
 10
-1402.739862
 20
461.551724
 11
-1252.739862
 21
461.551724
  0
SOLID
  8
0
 62
     7
 10
-1374.050719
 20
470.322875
 11
-1374.050719
 21
452.780573
 12
-1402.739862
 22
461.551724
 13
-1402.739862
 23
461.551724
  0
SOLID
  8
0
 62
     7
 10
-1281.429004
 20
452.780573
 11
-1281.429004
 21
470.322875
 12
-1252.739862
 22
461.551724
 13
-1252.739862
 23
461.551724
  0
TEXT
  8
0
 62
     7
 10
-1385.739862
 20
466.885054
 40
32.000000
 50
0.000000E+00
 41
0.60 
  1
%%c150
 72
     5
 11
-1269.739862
 21
466.885054
  0
ENDBLK
  0
BLOCK
  8
0
  2
G27
 70
     0
 10
0
 20
0
  0
LINE
  8
0
 62
     7
  6
CONTINUOUS
 10
-1413.739862
 20
248.786486
 11
-1413.739862
 21
533.748668
  0
LINE
  8
0
 62
     7
  6
CONTINUOUS
 10
-1241.739862
 20
238.786486
 11
-1241.739862
 21
533.748668
  0
LINE
  8
0
 62
     7
  6
CONTINUOUS
 10
-1413.739862
 20
523.748668
 11
-1241.739862
 21
523.748668
  0
SOLID
  8
0
 62
     7
 10
-1385.050719
 20
532.519819
 11
-1385.050719
 21
514.977516
 12
-1413.739862
 22
523.748668
 13
-1413.739862
 23
523.748668
  0
SOLID
  8
0
 62
     7
 10
-1270.429004
 20
514.977516
 11
-1270.429004
 21
532.519819
 12
-1241.739862
 22
523.748668
 13
-1241.739862
 23
523.748668
  0
TEXT
  8
0
 62
     7
 10
-1385.739862
 20
529.081997
 40
32.000000
 50
0.000000E+00
 41
0.60 
  1
%%c172
 72
     5
 11
-1269.739862
 21
529.081997
  0
ENDBLK
  0
BLOCK
  8
0
  2
G28
 70
     0
 10
0
 20
0
  0
LINE
  8
0
 62
     7
  6
CONTINUOUS
 10
-1382.739862
 20
-576.972883
 11
-1382.739862
 21
-651.607049
  0
LINE
  8
0
 62
     7
  6
CONTINUOUS
 10
-1272.739862
 20
-576.972883
 11
-1272.739862
 21
-651.607049
  0
LINE
  8
0
 62
     7
  6
CONTINUOUS
 10
-1382.739862
 20
-641.607049
 11
-1272.739862
 21
-641.607049
  0
SOLID
  8
0
 62
     7
 10
-1354.050719
 20
-632.835898
 11
-1354.050719
 21
-650.378201
 12
-1382.739862
 22
-641.607049
 13
-1382.739862
 23
-641.607049
  0
SOLID
  8
0
 62
     7
 10
-1301.429004
 20
-650.378201
 11
-1301.429004
 21
-632.835898
 12
-1272.739862
 22
-641.607049
 13
-1272.739862
 23
-641.607049
  0
TEXT
  8
0
 62
     7
 10
-1385.739862
 20
-636.273720
 40
32.000000
 50
0.000000E+00
 41
0.60 
  1
%%c110
 72
     5
 11
-1269.739862
 21
-636.273720
  0
ENDBLK
  0
BLOCK
  8
0
  2
G29
 70
     0
 10
0
 20
0
  0
LINE
  8
0
 62
     7
  6
CONTINUOUS
 10
-1413.739862
 20
-313.100972
 11
-1413.739862
 21
-716.251332
  0
LINE
  8
0
 62
     7
  6
CONTINUOUS
 10
-1241.739862
 20
-303.100972
 11
-1241.739862
 21
-716.251332
  0
LINE
  8
0
 62
     7
  6
CONTINUOUS
 10
-1413.739862
 20
-706.251332
 11
-1241.739862
 21
-706.251332
  0
SOLID
  8
0
 62
     7
 10
-1385.050719
 20
-697.480181
 11
-1385.050719
 21
-715.022484
 12
-1413.739862
 22
-706.251332
 13
-1413.739862
 23
-706.251332
  0
SOLID
  8
0
 62
     7
 10
-1270.429004
 20
-715.022484
 11
-1270.429004
 21
-697.480181
 12
-1241.739862
 22
-706.251332
 13
-1241.739862
 23
-706.251332
  0
TEXT
  8
0
 62
     7
 10
-1385.739862
 20
-700.918003
 40
32.000000
 50
0.000000E+00
 41
0.60 
  1
%%c172
 72
     5
 11
-1269.739862
 21
-700.918003
  0
ENDBLK
  0
ENDSEC
  0
SECTION
  2
ENTITIES
  0
LINE
  8
3
 62
     4
  6
CONTINUOUS
 10
-1410.539450
 20
-206.482684
 11
-1407.387088
 21
-205.017441
  0
LINE
  8
3
 62
     4
  6
CONTINUOUS
 10
-1407.387088
 20
-205.017441
 11
-1404.338814
 21
-202.601159
  0
LINE
  8
3
 62
     4
  6
CONTINUOUS
 10
-1404.338814
 20
-202.601159
 11
-1401.444572
 21
-199.273430
  0
LINE
  8
3
 62
     4
  6
CONTINUOUS
 10
-1401.444572
 20
-199.273430
 11
-1398.751784
 21
-195.088775
  0
LINE
  8
3
 62
     4
  6
CONTINUOUS
 10
-1398.751784
 20
-195.088775
 11
-1396.304570
 21
-190.115760
  0
LINE
  8
3
 62
     4
  6
CONTINUOUS
 10
-1396.304570
 20
-190.115760
 11
-1394.143026
 21
-184.435866
  0
LINE
  8
3
 62
     4
  6
CONTINUOUS
 10
-1394.143026
 20
-184.435866
 11
-1392.302569
 21
-178.142155
  0
LINE
  8
3
 62
     4
  6
CONTINUOUS
 10
-1392.302569
 20
-178.142155
 11
-1390.813354
 21
-171.337747
  0
LINE
  8
3
 62
     4
  6
CONTINUOUS
 10
-1390.813354
 20
-171.337747
 11
-1389.699782
 21
-164.134130
  0
LINE
  8
3
 62
     4
  6
CONTINUOUS
 10
-1389.699782
 20
-164.134130
 11
-1388.980096
 21
-156.649332
  0
LINE
  8
3
 62
     4
  6
CONTINUOUS
 10
-1389.699782
 20
-164.134130
 11
-1388.980096
 21
-156.649332
  0
ARC
  8
1
 62
     4
  6
CONTINUOUS
 10
-1221.938544
 20
-112.212691
 40
30.639745
 50
117.551999
 51
146.346996
  0
POINT
  8
3
 62
     7
 10
-1241.739862
 20
-86.972883
  0
POINT
  8
3
 62
     4
 10
-1241.739862
 20
-208.972883
  0
ARC
  8
3
 62
     4
  6
CONTINUOUS
 10
-1238.739862
 20
-211.972883
 40
3.000000
 50
90.000000
 51
180.000000
  0
LINE
  8
3
 62
     4
  6
CONTINUOUS
 10
-1234.739862
 20
-208.972883
 11
-1238.739862
 21
-208.972883
  0
ARC
  8
3
 62
     4
  6
CONTINUOUS
 10
-1234.739862
 20
-206.972883
 40
2.000000
 50
-90.000000
 51
0.000000E+00
  0
LINE
  8
3
 62
     4
  6
CONTINUOUS
 10
-1232.739862
 20
-206.972883
 11
-1232.739862
 21
-86.972883
  0
ARC
  8
3
 62
     4
  6
CONTINUOUS
 10
-1234.739862
 20
-86.972883
 40
2.000000
 50
0.000000E+00
 51
90.000000
  0
LINE
  8
3
 62
     4
  6
CONTINUOUS
 10
-1394.893237
 20
-101.972883
 11
-1370.389598
 21
-101.972883
  0
LINE
  8
0
 62
     2
  6
CONTINUOUS
 10
-1425.739862
 20
-51.471285
 11
-1425.739862
 21
-49.471285
  0
LINE
  8
0
 62
     2
  6
CONTINUOUS
 10
-1432.739862
 20
-48.471285
 11
-1327.739862
 21
-48.471285
  0
LINE
  8
0
 62
     2
  6
CONTINUOUS
 10
-1425.739862
 20
-51.471285
 11
-1229.739862
 21
-51.471285
  0
LINE
  8
0
 62
     2
  6
CONTINUOUS
 10
-1432.739862
 20
-48.471285
 11
-1432.739862
 21
-40.471285
  0
LINE
  8
0
 62
     3
  6
CONTINUOUS
 10
-1241.739862
 20
218.027117
 11
-1241.739862
 21
228.786486
  0
LINE
  8
3
 62
     3
  6
CONTINUOUS
 10
-1252.739862
 20
413.027117
 11
-1327.739862
 21
413.027117
  0
LINE
  8
3
 62
     3
  6
CONTINUOUS
 10
-1402.739862
 20
418.027117
 11
-1252.739862
 21
418.027117
  0
LINE
  8
3
 62
     3
  6
CONTINUOUS
 10
-1402.739862
 20
418.027117
 11
-1402.739862
 21
413.027117
  0
LINE
  8
0
 62
     3
  6
CONTINUOUS
 10
-1241.739862
 20
88.027117
 11
-1241.739862
 21
-33.471285
  0
ARC
  8
3
 62
     3
  6
CONTINUOUS
 10
-1265.739862
 20
341.027117
 40
10.000000
 50
-57.472862
 51
0.000000E+00
  0
LINE
  8
3
 62
     3
  6
CONTINUOUS
 10
-1399.739862
 20
408.444541
 11
-1399.739862
 21
341.027117
  0
LINE
  8
3
 62
     3
  6
CONTINUOUS
 10
-1255.739862
 20
408.444541
 11
-1255.739862
 21
341.027117
  0
ARC
  8
3
 62
     3
  6
CONTINUOUS
 10
-1389.739862
 20
341.027117
 40
10.000000
 50
180.000000
 51
238.038250
  0
LINE
  8
3
 62
     3
  6
CENTER
 10
-1161.806156
 20
153.027117
 11
-1429.665810
 21
153.027117
  0
LINE
  8
0
 62
     2
  6
CONTINUOUS
 10
-1229.739862
 20
-33.471285
 11
-1222.739862
 21
-40.471285
  0
ARC
  8
3
 62
     3
  6
CONTINUOUS
 10
-1404.739862
 20
408.444541
 40
5.000000
 50
0.000000E+00
 51
66.421822
  0
LINE
  8
3
 62
     3
  6
CONTINUOUS
 10
-1252.739862
 20
418.027117
 11
-1252.739862
 21
413.027117
  0
ARC
  8
0
 62
     3
  6
CONTINUOUS
 10
-1276.739862
 20
228.786486
 40
35.000000
 50
0.000000E+00
 51
17.716492
  0
ARC
  8
3
 62
     3
  6
CONTINUOUS
 10
-1250.739862
 20
408.444541
 40
5.000000
 50
113.578178
 51
180.000000
  0
LINE
  8
3
 62
     3
  6
CONTINUOUS
 10
-1250.000839
 20
235.903002
 11
-1327.739862
 21
235.903002
  0
ARC
  8
1
 62
     4
  6
CONTINUOUS
 10
-1234.739862
 20
-206.972883
 40
2.000000
 50
-90.000000
 51
0.000000E+00
  0
ARC
  8
1
 62
     4
  6
CONTINUOUS
 10
-1234.739862
 20
-86.972883
 40
2.000000
 50
0.000000E+00
 51
90.000000
  0
LINE
  8
1
 62
     4
  6
CONTINUOUS
 10
-1232.739862
 20
-86.972883
 11
-1232.739862
 21
-206.972883
  0
ARC
  8
3
 62
     4
  6
CONTINUOUS
 10
-1407.739862
 20
-420.844795
 40
25.000000
 50
0.000000E+00
 51
14.708304
  0
LINE
  8
3
 62
     4
  6
CONTINUOUS
 10
-1412.592945
 20
-301.987407
 11
-1383.559088
 21
-414.497342
  0
ARC
  8
3
 62
     4
  6
CONTINUOUS
 10
-1378.739862
 20
-293.100972
 40
35.000000
 50
180.000000
 51
194.708304
  0
LINE
  8
3
 62
     4
  6
CONTINUOUS
 10
-1382.739862
 20
-420.844795
 11
-1382.739862
 21
-564.972883
  0
ARC
  8
3
 62
     4
  6
CONTINUOUS
 10
-1247.739862
 20
-420.844795
 40
25.000000
 50
165.291696
 51
180.000000
  0
LINE
  8
3
 62
     4
  6
CONTINUOUS
 10
-1242.886778
 20
-301.987407
 11
-1271.920636
 21
-414.497342
  0
ARC
  8
3
 62
     4
  6
CONTINUOUS
 10
-1276.739862
 20
-293.100972
 40
35.000000
 50
-14.708304
 51
0.000000E+00
  0
LINE
  8
3
 62
     4
  6
CONTINUOUS
 10
-1272.739862
 20
-420.844795
 11
-1272.739862
 21
-564.972883
  0
LINE
  8
3
 62
     4
  6
CONTINUOUS
 10
-1274.739862
 20
-566.972883
 11
-1380.739862
 21
-566.972883
  0
LINE
  8
3
 62
     4
  6
CONTINUOUS
 10
-1377.990773
 20
-416.972883
 11
-1277.488951
 21
-416.972883
  0
LINE
  8
3
 62
     4
  6
CONTINUOUS
 10
-1408.488951
 20
-296.972883
 11
-1246.990773
 21
-296.972883
  0
LINE
  8
3
 62
     4
  6
CONTINUOUS
 10
-1413.739862
 20
-296.972883
 11
-1413.739862
 21
-211.972883
  0
LINE
  8
3
 62
     4
  6
CONTINUOUS
 10
-1234.739862
 20
-76.273521
 11
-1420.739862
 21
-76.273521
  0
LINE
  8
3
 62
     4
  6
CONTINUOUS
 10
-1241.739862
 20
-293.100972
 11
-1241.739862
 21
-211.972883
  0
LINE
  8
3
 62
     4
  6
CONTINUOUS
 10
-1431.739862
 20
-66.972883
 11
-1223.739862
 21
-66.972883
  0
LINE
  8
3
 62
     4
  6
CONTINUOUS
 10
-1222.739862
 20
-51.972883
 11
-1432.739862
 21
-51.972883
  0
ARC
  8
3
 62
     4
  6
CONTINUOUS
 10
-1380.739862
 20
-564.972883
 40
2.000000
 50
180.000000
 51
270.000000
  0
ARC
  8
3
 62
     4
  6
CONTINUOUS
 10
-1274.739862
 20
-564.972883
 40
2.000000
 50
-90.000000
 51
0.000000E+00
  0
LINE
  8
3
 62
     4
  6
CONTINUOUS
 10
-1222.739862
 20
-51.972883
 11
-1222.739862
 21
-66.972883
  0
LINE
  8
3
 62
     4
  6
CONTINUOUS
 10
-1223.739862
 20
-66.972883
 11
-1222.739862
 21
-66.972883
  0
LINE
  8
3
 62
     4
  6
CENTER
 10
-1431.247146
 20
-146.972883
 11
-1219.496149
 21
-146.972883
  0
LINE
  8
3
 62
     3
  6
CENTER
 10
-1406.228714
 20
-75.916452
 11
-1406.228714
 21
-45.425681
  0
LINE
  8
3
 62
     3
  6
CENTER
 10
-1249.251009
 20
-75.916452
 11
-1249.251009
 21
-45.425681
  0
ARC
  8
3
 62
     4
  6
CONTINUOUS
 10
-1223.739862
 20
-68.972883
 40
2.000000
 50
90.000000
 51
180.000000
  0
LINE
  8
3
 62
     4
  6
CONTINUOUS
 10
-1225.739862
 20
-68.972883
 11
-1225.739862
 21
-70.472883
  0
LINE
  8
3
 62
     4
  6
CONTINUOUS
 10
-1260.586486
 20
-101.972883
 11
-1285.090125
 21
-101.972883
  0
ARC
  8
3
 62
     4
  6
CONTINUOUS
 10
-1227.239862
 20
-70.472883
 40
1.500000
 50
-90.000000
 51
0.000000E+00
  0
LINE
  8
3
 62
     4
  6
CONTINUOUS
 10
-1227.239862
 20
-71.972883
 11
-1428.239862
 21
-71.972883
  0
LINE
  8
3
 62
     4
  6
CONTINUOUS
 10
-1231.180713
 20
-71.972883
 11
-1234.739862
 21
-76.273521
  0
LINE
  8
3
 62
     4
  6
CONTINUOUS
 10
-1234.739862
 20
-76.273521
 11
-1234.739862
 21
-84.972883
  0
LINE
  8
3
 62
     4
  6
CONTINUOUS
 10
-1420.739862
 20
-76.273521
 11
-1420.739862
 21
-84.972883
  0
LINE
  8
3
 62
     4
  6
CONTINUOUS
 10
-1424.299010
 20
-71.972883
 11
-1420.739862
 21
-76.273521
  0
ARC
  8
3
 62
     4
  6
CONTINUOUS
 10
-1428.239862
 20
-70.472883
 40
1.500000
 50
180.000000
 51
270.000000
  0
LINE
  8
3
 62
     4
  6
CONTINUOUS
 10
-1429.739862
 20
-68.972883
 11
-1429.739862
 21
-70.472883
  0
ARC
  8
3
 62
     4
  6
CONTINUOUS
 10
-1431.739862
 20
-68.972883
 40
2.000000
 50
0.000000E+00
 51
90.000000
  0
LINE
  8
3
 62
     4
  6
CONTINUOUS
 10
-1431.739862
 20
-66.972883
 11
-1432.739862
 21
-66.972883
  0
LINE
  8
3
 62
     4
  6
CONTINUOUS
 10
-1432.739862
 20
-51.972883
 11
-1432.739862
 21
-66.972883
  0
LINE
  8
0
 62
     3
  6
CONTINUOUS
 10
-1413.739862
 20
228.786486
 11
-1413.739862
 21
218.027117
  0
ARC
  8
0
 62
     3
  6
CONTINUOUS
 10
-1378.739862
 20
228.786486
 40
35.000000
 50
162.283508
 51
180.000000
  0
LINE
  8
3
 62
     3
  6
CONTINUOUS
 10
-1266.769878
 20
332.543100
 11
-1327.739862
 21
332.543100
  0
LINE
  8
0
 62
     3
  6
CONTINUOUS
 10
-1388.493178
 20
314.836132
 11
-1412.079949
 21
239.437240
  0
LINE
  8
0
 62
     3
  6
CONTINUOUS
 10
-1266.986545
 20
314.836132
 11
-1243.399774
 21
239.437240
  0
ARC
  8
2
 62
     3
  6
CONTINUOUS
 10
-1402.781787
 20
319.400741
 40
15.000000
 50
-17.716492
 51
59.888987
  0
LINE
  8
3
 62
     4
  6
CENTER
 10
-1327.739862
 20
-339.368262
 11
-1327.739862
 21
-27.290674
  0
LINE
  8
3
 62
     4
  6
CENTER
 10
-1327.739862
 20
-580.060403
 11
-1327.739862
 21
-339.368262
  0
LINE
  8
0
 62
     2
  6
CONTINUOUS
 10
-1425.739862
 20
-33.471285
 11
-1432.739862
 21
-40.471285
  0
LINE
  8
0
 62
     3
  6
CONTINUOUS
 10
-1413.739862
 20
88.027117
 11
-1413.739862
 21
-33.471285
  0
ARC
  8
2
 62
     3
  6
CONTINUOUS
 10
-1252.697936
 20
319.400741
 40
15.000000
 50
120.111013
 51
197.716492
  0
LINE
  8
3
 62
     3
  6
CONTINUOUS
 10
-1244.384056
 20
93.387137
 11
-1247.540366
 21
94.760961
  0
LINE
  8
3
 62
     3
  6
CONTINUOUS
 10
-1247.540366
 20
94.760961
 11
-1250.596236
 21
97.139142
  0
LINE
  8
3
 62
     3
  6
CONTINUOUS
 10
-1250.596236
 20
97.139142
 11
-1253.498990
 21
100.480685
  0
LINE
  8
3
 62
     3
  6
CONTINUOUS
 10
-1253.498990
 20
100.480685
 11
-1256.198594
 21
104.727991
  0
LINE
  8
3
 62
     3
  6
CONTINUOUS
 10
-1256.198594
 20
104.727991
 11
-1258.648513
 21
109.807849
  0
LINE
  8
3
 62
     3
  6
CONTINUOUS
 10
-1258.648513
 20
109.807849
 11
-1260.806516
 21
115.632694
  0
LINE
  8
3
 62
     3
  6
CONTINUOUS
 10
-1260.806516
 20
115.632694
 11
-1262.635405
 21
122.102121
  0
LINE
  8
3
 62
     3
  6
CONTINUOUS
 10
-1262.635405
 20
122.102121
 11
-1264.103655
 21
129.104614
  0
LINE
  8
3
 62
     3
  6
CONTINUOUS
 10
-1264.103655
 20
129.104614
 11
-1265.185958
 21
136.519469
  0
LINE
  8
3
 62
     3
  6
CONTINUOUS
 10
-1265.185958
 20
136.519469
 11
-1265.863656
 21
144.218873
  0
LINE
  8
3
 62
     3
  6
CONTINUOUS
 10
-1265.185958
 20
136.519469
 11
-1265.863656
 21
144.218873
  0
INSERT
  8
0
  2
G0
 10
0
 20
0
  0
LINE
  8
3
 62
     3
  6
CONTINUOUS
 10
-1243.926165
 20
212.780203
 11
-1247.137331
 21
211.527804
  0
LINE
  8
3
 62
     3
  6
CONTINUOUS
 10
-1247.137331
 20
211.527804
 11
-1250.252307
 21
209.237907
  0
LINE
  8
3
 62
     3
  6
CONTINUOUS
 10
-1250.252307
 20
209.237907
 11
-1253.215848
 21
205.951124
  0
LINE
  8
3
 62
     3
  6
CONTINUOUS
 10
-1253.215848
 20
205.951124
 11
-1255.975398
 21
201.725743
  0
LINE
  8
3
 62
     3
  6
CONTINUOUS
 10
-1255.975398
 20
201.725743
 11
-1258.482015
 21
196.636702
  0
LINE
  8
3
 62
     3
  6
CONTINUOUS
 10
-1258.482015
 20
196.636702
 11
-1260.691247
 21
190.774254
  0
LINE
  8
3
 62
     3
  6
CONTINUOUS
 10
-1260.691247
 20
190.774254
 11
-1262.563912
 21
184.242368
  0
LINE
  8
3
 62
     3
  6
CONTINUOUS
 10
-1262.563912
 20
184.242368
 11
-1264.066799
 21
177.156886
  0
LINE
  8
3
 62
     3
  6
CONTINUOUS
 10
-1264.066799
 20
177.156886
 11
-1265.173254
 21
169.643467
  0
LINE
  8
3
 62
     3
  6
CONTINUOUS
 10
-1265.173254
 20
169.643467
 11
-1265.863656
 21
161.835360
  0
LINE
  8
3
 62
     3
  6
CONTINUOUS
 10
-1265.173254
 20
169.643467
 11
-1265.863656
 21
161.835360
  0
LINE
  8
0
 62
     7
  6
CONTINUOUS
 10
-1180.260304
 20
259.111644
 11
-1180.260304
 21
217.327305
  0
SOLID
  8
0
 62
     7
 10
-1188.024875
 20
246.305080
 11
-1172.495733
 21
246.305080
 12
-1180.260304
 22
217.327305
 13
-1180.260304
 23
217.327305
  0
CIRCLE
  8
0
 62
     1
  6
CONTINUOUS
 10
-1327.739862
 20
-146.972883
 40
62.000000
  0
TEXT
  8
0
 62
     7
 10
-1213.885785
 20
266.390527
 40
32.000000
 50
0.000000E+00
 41
0.78 
  1
７５枝管
 72
     5
 11
-1101.885785
 21
266.390527
  0
LINE
  8
3
 62
     4
  6
CONTINUOUS
 10
-1396.278439
 20
-103.890495
 11
-1395.163744
 21
-106.645079
  0
LINE
  8
3
 62
     4
  6
CONTINUOUS
 10
-1395.163744
 20
-106.645079
 11
-1394.124874
 21
-109.564275
  0
LINE
  8
3
 62
     4
  6
CONTINUOUS
 10
-1394.124874
 20
-109.564275
 11
-1393.166069
 21
-112.636166
  0
LINE
  8
3
 62
     4
  6
CONTINUOUS
 10
-1393.166069
 20
-112.636166
 11
-1392.291242
 21
-115.848214
  0
LINE
  8
3
 62
     4
  6
CONTINUOUS
 10
-1392.291242
 20
-115.848214
 11
-1391.503965
 21
-119.187307
  0
LINE
  8
3
 62
     4
  6
CONTINUOUS
 10
-1391.503965
 20
-119.187307
 11
-1390.807451
 21
-122.639816
  0
LINE
  8
3
 62
     4
  6
CONTINUOUS
 10
-1390.807451
 20
-122.639816
 11
-1390.204543
 21
-126.191648
  0
LINE
  8
3
 62
     4
  6
CONTINUOUS
 10
-1390.204543
 20
-126.191648
 11
-1389.697702
 21
-129.828306
  0
LINE
  8
3
 62
     4
  6
CONTINUOUS
 10
-1389.697702
 20
-129.828306
 11
-1389.288997
 21
-133.534945
  0
LINE
  8
3
 62
     4
  6
CONTINUOUS
 10
-1389.288997
 20
-133.534945
 11
-1388.980096
 21
-137.296435
  0
LINE
  8
3
 62
     4
  6
CONTINUOUS
 10
-1389.288997
 20
-133.534945
 11
-1388.980096
 21
-137.296435
  0
ARC
  8
3
 62
     4
  6
CONTINUOUS
 10
-1387.868044
 20
-75.024384
 40
28.500781
 50
225.057601
 51
244.512889
  0
POINT
  8
3
 62
     7
 10
-1413.739862
 20
-86.972883
  0
ARC
  8
3
 62
     4
  6
CONTINUOUS
 10
-1267.611679
 20
-75.024384
 40
28.500781
 50
295.487111
 51
314.942399
  0
ARC
  8
1
 62
     4
  6
CONTINUOUS
 10
-1420.739862
 20
-206.972883
 40
2.000000
 50
180.000000
 51
270.000000
  0
ARC
  8
1
 62
     4
  6
CONTINUOUS
 10
-1420.739862
 20
-86.972883
 40
2.000000
 50
90.000000
 51
180.000000
  0
ARC
  8
1
 62
     4
  6
CONTINUOUS
 10
-1416.739862
 20
-211.972883
 40
3.000000
 50
0.000000E+00
 51
90.000000
  0
LINE
  8
1
 62
     4
  6
CONTINUOUS
 10
-1416.739862
 20
-208.972883
 11
-1420.739862
 21
-208.972883
  0
ARC
  8
1
 62
     4
  6
CONTINUOUS
 10
-1433.541179
 20
-112.212691
 40
30.639745
 50
33.671563
 51
62.448001
  0
LINE
  8
1
 62
     4
  6
CONTINUOUS
 10
-1422.739862
 20
-86.972883
 11
-1422.739862
 21
-206.972883
  0
LINE
  8
3
 62
     4
  6
CONTINUOUS
 10
-1259.201285
 20
-103.890495
 11
-1260.315979
 21
-106.645079
  0
LINE
  8
3
 62
     4
  6
CONTINUOUS
 10
-1260.315979
 20
-106.645079
 11
-1261.354850
 21
-109.564275
  0
LINE
  8
3
 62
     4
  6
CONTINUOUS
 10
-1261.354850
 20
-109.564275
 11
-1262.313655
 21
-112.636166
  0
LINE
  8
3
 62
     4
  6
CONTINUOUS
 10
-1262.313655
 20
-112.636166
 11
-1263.188481
 21
-115.848214
  0
LINE
  8
3
 62
     4
  6
CONTINUOUS
 10
-1263.188481
 20
-115.848214
 11
-1263.975758
 21
-119.187307
  0
LINE
  8
3
 62
     4
  6
CONTINUOUS
 10
-1263.975758
 20
-119.187307
 11
-1264.672272
 21
-122.639816
  0
LINE
  8
3
 62
     4
  6
CONTINUOUS
 10
-1264.672272
 20
-122.639816
 11
-1265.275180
 21
-126.191648
  0
LINE
  8
3
 62
     4
  6
CONTINUOUS
 10
-1265.275180
 20
-126.191648
 11
-1265.782021
 21
-129.828306
  0
LINE
  8
3
 62
     4
  6
CONTINUOUS
 10
-1265.782021
 20
-129.828306
 11
-1266.190726
 21
-133.534945
  0
LINE
  8
3
 62
     4
  6
CONTINUOUS
 10
-1266.190726
 20
-133.534945
 11
-1266.499627
 21
-137.296435
  0
LINE
  8
3
 62
     4
  6
CONTINUOUS
 10
-1266.190726
 20
-133.534945
 11
-1266.499627
 21
-137.296435
  0
LINE
  8
3
 62
     4
  6
CONTINUOUS
 10
-1244.940273
 20
-206.482684
 11
-1248.092635
 21
-205.017441
  0
LINE
  8
3
 62
     4
  6
CONTINUOUS
 10
-1248.092635
 20
-205.017441
 11
-1251.140910
 21
-202.601159
  0
LINE
  8
3
 62
     4
  6
CONTINUOUS
 10
-1251.140910
 20
-202.601159
 11
-1254.035152
 21
-199.273430
  0
LINE
  8
3
 62
     4
  6
CONTINUOUS
 10
-1254.035152
 20
-199.273430
 11
-1256.727940
 21
-195.088775
  0
LINE
  8
3
 62
     4
  6
CONTINUOUS
 10
-1256.727940
 20
-195.088775
 11
-1259.175154
 21
-190.115760
  0
LINE
  8
3
 62
     4
  6
CONTINUOUS
 10
-1259.175154
 20
-190.115760
 11
-1261.336697
 21
-184.435866
  0
LINE
  8
3
 62
     4
  6
CONTINUOUS
 10
-1261.336697
 20
-184.435866
 11
-1263.177154
 21
-178.142155
  0
LINE
  8
3
 62
     4
  6
CONTINUOUS
 10
-1263.177154
 20
-178.142155
 11
-1264.666369
 21
-171.337747
  0
LINE
  8
3
 62
     4
  6
CONTINUOUS
 10
-1264.666369
 20
-171.337747
 11
-1265.779942
 21
-164.134130
  0
LINE
  8
3
 62
     4
  6
CONTINUOUS
 10
-1265.779942
 20
-164.134130
 11
-1266.499627
 21
-156.649332
  0
LINE
  8
3
 62
     4
  6
CONTINUOUS
 10
-1265.779942
 20
-164.134130
 11
-1266.499627
 21
-156.649332
  0
POINT
  8
0
 62
     3
 10
-1327.739862
 20
-59.972883
  0
POINT
  8
0
 62
     3
 10
-1327.739862
 20
-74.472883
  0
POINT
  8
0
 62
     3
 10
-1327.739862
 20
-96.972883
  0
ARC
  8
0
 62
     2
  6
CONTINUOUS
 10
-1426.739862
 20
-49.471285
 40
1.000000
 50
360.000000
 51
450.000000
  0
LINE
  8
0
 62
     2
  6
CONTINUOUS
 10
-1425.739862
 20
-33.471285
 11
-1229.739862
 21
-33.471285
  0
LINE
  8
3
 62
     3
  6
CONTINUOUS
 10
-1172.739862
 20
90.527117
 11
-1172.739862
 21
213.027117
  0
LINE
  8
3
 62
     3
  6
CONTINUOUS
 10
-1172.739862
 20
90.527117
 11
-1167.739862
 21
90.527117
  0
LINE
  8
3
 62
     3
  6
CONTINUOUS
 10
-1172.739862
 20
213.027117
 11
-1232.739862
 21
213.027117
  0
ARC
  8
1
 62
     3
  6
CONTINUOUS
 10
-1234.739862
 20
93.027117
 40
2.000000
 50
-90.000000
 51
0.000000E+00
  0
LINE
  8
3
 62
     3
  6
CONTINUOUS
 10
-1172.739862
 20
93.027117
 11
-1232.739862
 21
93.027117
  0
LINE
  8
3
 62
     3
  6
CONTINUOUS
 10
-1172.739862
 20
215.527117
 11
-1167.739862
 21
215.527117
  0
LINE
  8
3
 62
     3
  6
CONTINUOUS
 10
-1172.739862
 20
215.527117
 11
-1172.739862
 21
213.027117
  0
LINE
  8
3
 62
     3
  6
CONTINUOUS
 10
-1167.739862
 20
215.527117
 11
-1167.739862
 21
90.527117
  0
LINE
  8
1
 62
     3
  6
CONTINUOUS
 10
-1234.739862
 20
215.027117
 11
-1238.739862
 21
215.027117
  0
LINE
  8
1
 62
     3
  6
CONTINUOUS
 10
-1234.739862
 20
91.027117
 11
-1238.739862
 21
91.027117
  0
ARC
  8
1
 62
     3
  6
CONTINUOUS
 10
-1234.739862
 20
213.027117
 40
2.000000
 50
0.000000E+00
 51
90.000000
  0
ARC
  8
1
 62
     3
  6
CONTINUOUS
 10
-1238.739862
 20
218.027117
 40
3.000000
 50
180.000000
 51
270.000000
  0
ARC
  8
1
 62
     3
  6
CONTINUOUS
 10
-1238.739862
 20
88.027117
 40
3.000000
 50
90.000000
 51
180.000000
  0
ARC
  8
0
 62
     3
  6
CONTINUOUS
 10
-1276.739862
 20
228.786486
 40
35.000000
 50
0.000000E+00
 51
17.716492
  0
LINE
  8
0
 62
     3
  6
CONTINUOUS
 10
-1241.739862
 20
228.786486
 11
-1241.739862
 21
218.027117
  0
LINE
  8
0
 62
     2
  6
CONTINUOUS
 10
-1432.739862
 20
-40.471285
 11
-1327.739862
 21
-40.471285
  0
LINE
  8
3
 62
     3
  6
CENTER
 10
-1327.739862
 20
425.501565
 11
-1327.739862
 21
-27.290674
  0
LINE
  8
3
 62
     3
  6
CONTINUOUS
 10
-1405.478884
 20
235.903002
 11
-1327.739862
 21
235.903002
  0
LINE
  8
3
 62
     3
  6
CONTINUOUS
 10
-1388.709846
 20
332.543100
 11
-1327.739862
 21
332.543100
  0
LINE
  8
3
 62
     3
  6
CONTINUOUS
 10
-1402.739862
 20
413.027117
 11
-1327.739862
 21
413.027117
  0
POINT
  8
0
 62
     3
 10
-1327.739862
 20
343.027117
  0
TEXT
  8
0
 62
     6
 10
-1663.166393
 20
1078.812443
 40
35.000000
 50
0.000000E+00
 41
0.84 
  1
４ＳＦ－　　　－　　　　　００００－Ｐ
 72
     5
 11
-1026.166393
 21
1078.812443
  0
LINE
  8
0
 62
     2
  6
CONTINUOUS
 10
-1222.739862
 20
-48.471285
 11
-1222.739862
 21
-40.471285
  0
LINE
  8
0
 62
     2
  6
CONTINUOUS
 10
-1229.739862
 20
-51.471285
 11
-1229.739862
 21
-49.471285
  0
ARC
  8
0
 62
     2
  6
CONTINUOUS
 10
-1228.739862
 20
-49.471285
 40
1.000000
 50
90.000000
 51
180.000000
  0
LINE
  8
0
 62
     2
  6
CONTINUOUS
 10
-1222.739862
 20
-40.471285
 11
-1327.739862
 21
-40.471285
  0
LINE
  8
0
 62
     2
  6
CONTINUOUS
 10
-1222.739862
 20
-48.471285
 11
-1327.739862
 21
-48.471285
  0
INSERT
  8
0
  2
G1
 10
0
 20
0
  0
LINE
  8
3
 62
     3
  6
CENTER
 10
-1327.739862
 20
905.987720
 11
-1327.739862
 21
630.839191
  0
LINE
  8
3
 62
     3
  6
CENTER
 10
-1162.263693
 20
803.889268
 11
-1433.933185
 21
803.889268
  0
CIRCLE
  8
0
 62
     3
  6
CONTINUOUS
 10
-1327.739862
 20
803.889268
 40
75.000000
  0
CIRCLE
  8
0
 62
     3
  6
CONTINUOUS
 10
-1327.739862
 20
803.889268
 40
86.500000
  0
LINE
  8
3
 62
     3
  6
CONTINUOUS
 10
-1172.739862
 20
743.889268
 11
-1232.739862
 21
743.889268
  0
LINE
  8
3
 62
     3
  6
CONTINUOUS
 10
-1172.739862
 20
866.389268
 11
-1172.739862
 21
743.889268
  0
LINE
  8
3
 62
     3
  6
CONTINUOUS
 10
-1172.739862
 20
866.389268
 11
-1167.739862
 21
866.389268
  0
LINE
  8
3
 62
     3
  6
CONTINUOUS
 10
-1172.739862
 20
741.389268
 11
-1167.739862
 21
741.389268
  0
LINE
  8
3
 62
     3
  6
CONTINUOUS
 10
-1172.739862
 20
741.389268
 11
-1172.739862
 21
743.889268
  0
LINE
  8
3
 62
     3
  6
CONTINUOUS
 10
-1167.739862
 20
741.389268
 11
-1167.739862
 21
866.389268
  0
LINE
  8
3
 62
     3
  6
CONTINUOUS
 10
-1172.739862
 20
863.889268
 11
-1232.739862
 21
863.889268
  0
LINE
  8
0
 62
     3
  6
CONTINUOUS
 10
-1232.739862
 20
743.889268
 11
-1232.739862
 21
863.889268
  0
LINE
  8
0
 62
     3
  6
CONTINUOUS
 10
-1234.739862
 20
741.889268
 11
-1262.739862
 21
741.889268
  0
ARC
  8
0
 62
     3
  6
CONTINUOUS
 10
-1234.739862
 20
743.889268
 40
2.000000
 50
-90.000000
 51
0.000000E+00
  0
LINE
  8
0
 62
     3
  6
CONTINUOUS
 10
-1234.739862
 20
865.889268
 11
-1267.421954
 21
865.889268
  0
ARC
  8
0
 62
     3
  6
CONTINUOUS
 10
-1234.739862
 20
863.889268
 40
2.000000
 50
0.000000E+00
 51
90.000000
  0
CIRCLE
  8
0
 62
     3
  6
CONTINUOUS
 10
-1327.739862
 20
803.889268
 40
52.000000
  0
CIRCLE
  8
0
 62
     3
  6
CONTINUOUS
 10
-1327.739862
 20
803.889268
 40
67.000000
  0
ARC
  8
0
 62
     3
  6
CONTINUOUS
 10
-1392.739862
 20
738.889268
 40
3.000000
 50
0.000000E+00
 51
90.000000
  0
ARC
  8
0
 62
     3
  6
CONTINUOUS
 10
-1262.739862
 20
738.889268
 40
3.000000
 50
90.000000
 51
180.000000
  0
LINE
  8
0
 62
     3
  6
CONTINUOUS
 10
-1422.739862
 20
863.889268
 11
-1422.739862
 21
743.889268
  0
LINE
  8
0
 62
     3
  6
CONTINUOUS
 10
-1420.739862
 20
865.889268
 11
-1388.057769
 21
865.889268
  0
ARC
  8
0
 62
     3
  6
CONTINUOUS
 10
-1420.739862
 20
863.889268
 40
2.000000
 50
90.000000
 51
180.000000
  0
LINE
  8
0
 62
     3
  6
CONTINUOUS
 10
-1420.739862
 20
741.889268
 11
-1392.739862
 21
741.889268
  0
ARC
  8
0
 62
     3
  6
CONTINUOUS
 10
-1420.739862
 20
743.889268
 40
2.000000
 50
180.000000
 51
270.000000
  0
LINE
  8
0
 62
     3
  6
CONTINUOUS
 10
-1267.739862
 20
708.889268
 11
-1387.739862
 21
708.889268
  0
LINE
  8
0
 62
     3
  6
CONTINUOUS
 10
-1265.739862
 20
710.889268
 11
-1265.739862
 21
738.889268
  0
ARC
  8
0
 62
     3
  6
CONTINUOUS
 10
-1267.739862
 20
710.889268
 40
2.000000
 50
270.000000
 51
360.000000
  0
LINE
  8
0
 62
     3
  6
CONTINUOUS
 10
-1389.739862
 20
710.889268
 11
-1389.739862
 21
738.889268
  0
ARC
  8
0
 62
     3
  6
CONTINUOUS
 10
-1387.739862
 20
710.889268
 40
2.000000
 50
180.000000
 51
270.000000
  0
LINE
  8
0
 62
     1
  6
CONTINUOUS
 10
-1157.513525
 20
803.889268
 11
-1131.715340
 21
803.889268
  0
INSERT
  8
0
  2
G2
 10
0
 20
0
  0
INSERT
  8
0
  2
G3
 10
0
 20
0
  0
INSERT
  8
0
  2
G4
 10
0
 20
0
  0
INSERT
  8
0
  2
G5
 10
0
 20
0
  0
INSERT
  8
0
  2
G6
 10
0
 20
0
  0
INSERT
  8
0
  2
G7
 10
0
 20
0
  0
TEXT
  8
0
 62
     6
 10
-1480.183521
 20
1078.910129
 40
35.000000
 50
0.000000E+00
 41
0.86 
  1
Ｃ
 72
     5
 11
-1445.183521
 21
1078.910129
  0
TEXT
  8
0
 62
     6
 10
-1349.509580
 20
1079.910129
 40
35.000000
 50
0.000000E+00
 41
0.86 
  1
Ｏ
 72
     5
 11
-1314.509580
 21
1079.910129
  0
TEXT
  8
0
 62
     6
 10
-1380.009580
 20
1144.959535
 40
32.000000
 50
0.000000E+00
 41
0.97 
  1
下部
 72
     5
 11
-1308.009580
 21
1144.959535
  0
TEXT
  8
0
 62
     6
 10
-1510.009580
 20
1144.959535
 40
32.000000
 50
0.000000E+00
 41
0.97 
  1
上部
 72
     5
 11
-1438.009580
 21
1144.959535
  0
LINE
  8
0
 62
     3
  6
CONTINUOUS
 10
-948.581081
 20
410.359991
 11
-948.581081
 21
480.241003
  0
SOLID
  8
0
 62
     3
 10
-956.345652
 20
439.337766
 11
-940.816510
 21
439.337766
 12
-948.581081
 22
410.359991
 13
-948.581081
 23
410.359991
  0
INSERT
  8
0
  2
G8
 10
0
 20
0
  0
INSERT
  8
0
  2
G9
 10
0
 20
0
  0
INSERT
  8
0
  2
G10
 10
0
 20
0
  0
INSERT
  8
0
  2
G11
 10
0
 20
0
  0
INSERT
  8
0
  2
G12
 10
0
 20
0
  0
ARC
  8
0
 62
     4
  6
CONTINUOUS
 10
-596.000000
 20
515.000000
 40
100.000000
 50
36.038338
 51
53.961662
  0
ARC
  8
3
 62
     3
  6
CONTINUOUS
 10
-596.000000
 20
515.000000
 40
105.000000
 50
-10.978618
 51
9.903199
  0
ARC
  8
0
 62
     4
  6
CONTINUOUS
 10
-596.000000
 20
515.000000
 40
100.000000
 50
126.038338
 51
143.961662
  0
ARC
  8
0
 62
     4
  6
CONTINUOUS
 10
-596.000000
 20
515.000000
 40
100.000000
 50
216.038338
 51
233.961662
  0
CIRCLE
  8
3
 62
     4
  6
CONTINUOUS
 10
-596.000000
 20
515.000000
 40
88.000000
  0
INSERT
  8
0
  2
G13
 10
0
 20
0
  0
LINE
  8
0
 62
     1
  6
CONTINUOUS
 10
-605.861643
 20
700.224125
 11
-655.915108
 21
750.277589
  0
LINE
  8
0
 62
     1
  6
CONTINUOUS
 10
-515.389827
 20
609.752309
 11
-559.022747
 21
653.385229
  0
ARC
  8
3
 62
     4
  6
CONTINUOUS
 10
-596.000000
 20
515.000000
 40
100.000000
 50
323.109614
 51
396.890386
  0
LINE
  8
3
 62
     4
  6
CONTINUOUS
 10
-504.749069
 20
595.964607
 11
-492.546372
 21
533.061853
  0
ARC
  8
3
 62
     3
  6
CONTINUOUS
 10
-596.000000
 20
515.000000
 40
105.000000
 50
170.096801
 51
190.978618
  0
ARC
  8
3
 62
     3
  6
CONTINUOUS
 10
-596.000000
 20
515.000000
 40
105.000000
 50
260.096801
 51
279.903199
  0
LINE
  8
3
 62
     4
  6
CONTINUOUS
 10
-504.749069
 20
434.035393
 11
-492.546372
 21
496.938147
  0
LINE
  8
3
 62
     3
  6
CENTER
 10
-664.711757
 20
446.288243
 11
-685.392933
 21
425.607067
  0
LINE
  8
3
 62
     4
  6
CONTINUOUS
 10
-515.035393
 20
423.749069
 11
-577.938147
 21
411.546372
  0
ARC
  8
3
 62
     4
  6
CENTER
 10
-596.000000
 20
515.000000
 40
111.000000
 50
217.724288
 51
233.734984
  0
LINE
  8
3
 62
     3
  6
CENTER
 10
-528.362469
 20
447.362469
 11
-505.850513
 21
424.850513
  0
ARC
  8
3
 62
     4
  6
CENTER
 10
-596.000000
 20
515.000000
 40
111.000000
 50
305.817615
 51
323.930525
  0
ARC
  8
3
 62
     4
  6
CENTER
 10
-596.000000
 20
515.000000
 40
111.000000
 50
35.029921
 51
55.550885
  0
LINE
  8
3
 62
     4
  6
CONTINUOUS
 10
-676.964607
 20
423.749069
 11
-614.061853
 21
411.546372
  0
LINE
  8
3
 62
     4
  6
CONTINUOUS
 10
-576.003522
 20
618.078324
 11
-515.035393
 21
606.250931
  0
LINE
  8
3
 62
     3
  6
CENTER
 10
-528.008772
 20
582.991228
 11
-506.058072
 21
604.941928
  0
LINE
  8
3
 62
     4
  6
CONTINUOUS
 10
-687.250931
 20
434.035393
 11
-699.078324
 21
495.003522
  0
ARC
  8
3
 62
     4
  6
CONTINUOUS
 10
-674.488853
 20
436.511147
 40
13.000000
 50
190.978618
 51
259.021382
  0
ARC
  8
3
 62
     4
  6
CONTINUOUS
 10
-517.511147
 20
436.511147
 40
13.000000
 50
280.978618
 51
349.021382
  0
ARC
  8
3
 62
     4
  6
CONTINUOUS
 10
-517.511147
 20
593.488853
 40
13.000000
 50
10.978618
 51
79.021382
  0
LINE
  8
3
 62
     3
  6
CENTER
 10
-663.985865
 20
582.985865
 11
-685.726559
 21
604.726559
  0
LINE
  8
3
 62
     4
  6
CONTINUOUS
 10
-687.250931
 20
595.964607
 11
-699.453628
 21
533.061853
  0
LINE
  8
3
 62
     4
  6
CONTINUOUS
 10
-676.964607
 20
606.250931
 11
-615.996478
 21
618.078324
  0
ARC
  8
3
 62
     3
  6
CONTINUOUS
 10
-596.000000
 20
515.000000
 40
105.000000
 50
79.021382
 51
100.978618
  0
CIRCLE
  8
3
 62
     3
  6
CONTINUOUS
 10
-596.000000
 20
515.000000
 40
81.000000
  0
ARC
  8
3
 62
     4
  6
CONTINUOUS
 10
-674.488853
 20
593.488853
 40
13.000000
 50
100.978618
 51
169.021382
  0
LINE
  8
3
 62
     3
  6
CENTER
 10
-713.250050
 20
515.000000
 11
-471.084724
 21
515.000000
  0
LINE
  8
3
 62
     3
  6
CENTER
 10
-596.000000
 20
623.997250
 11
-596.000000
 21
398.580925
  0
CIRCLE
  8
3
 62
     4
  6
CONTINUOUS
 10
-517.511147
 20
593.488853
 40
7.000000
  0
CIRCLE
  8
3
 62
     4
  6
CONTINUOUS
 10
-674.488853
 20
593.488853
 40
7.000000
  0
CIRCLE
  8
3
 62
     4
  6
CONTINUOUS
 10
-674.488853
 20
436.511147
 40
7.000000
  0
CIRCLE
  8
3
 62
     4
  6
CONTINUOUS
 10
-517.511147
 20
436.511147
 40
7.000000
  0
ARC
  8
3
 62
     4
  6
CENTER
 10
-596.000000
 20
515.000000
 40
111.000000
 50
124.510429
 51
142.981003
  0
ARC
  8
3
 62
     4
  6
CONTINUOUS
 10
-596.000000
 20
515.000000
 40
100.000000
 50
53.109614
 51
126.890386
  0
ARC
  8
3
 62
     4
  6
CONTINUOUS
 10
-596.000000
 20
515.000000
 40
100.000000
 50
143.109614
 51
216.890386
  0
ARC
  8
3
 62
     4
  6
CONTINUOUS
 10
-596.000000
 20
515.000000
 40
100.000000
 50
233.109614
 51
306.890386
  0
ARC
  8
0
 62
     4
  6
CONTINUOUS
 10
-596.000000
 20
515.000000
 40
100.000000
 50
306.038338
 51
323.961662
  0
LINE
  8
0
 62
     3
  6
CONTINUOUS
 10
-466.367137
 20
369.683954
 11
-212.463003
 21
369.683954
  0
TEXT
  8
0
 62
     3
 10
-462.367137
 20
375.017287
 40
32.000000
 50
0.000000E+00
 41
0.87 
  1
Ｃ矢視　（下部）
 72
     5
 11
-206.367137
 21
375.017287
  0
INSERT
  8
0
  2
G14
 10
0
 20
0
  0
INSERT
  8
0
  2
G15
 10
0
 20
0
  0
INSERT
  8
0
  2
G16
 10
0
 20
0
  0
TEXT
  8
0
 62
     6
 10
-999.551869
 20
1056.370812
 40
35.000000
 50
0.000000E+00
 41
0.60 
  1
300,340,360
 72
     5
 11
-767.051869
 21
1056.370812
  0
ARC
  8
1
 62
     3
  6
CONTINUOUS
 10
-1417.239862
 20
88.027117
 40
3.000000
 50
0.000000E+00
 51
90.000000
  0
ARC
  8
1
 62
     3
  6
CONTINUOUS
 10
-1417.239862
 20
218.027117
 40
3.000000
 50
270.000000
 51
360.000000
  0
ARC
  8
1
 62
     3
  6
CONTINUOUS
 10
-1420.739862
 20
213.027117
 40
2.000000
 50
90.000000
 51
180.000000
  0
LINE
  8
1
 62
     3
  6
CONTINUOUS
 10
-1420.739862
 20
91.027117
 11
-1417.239862
 21
91.027117
  0
LINE
  8
1
 62
     3
  6
CONTINUOUS
 10
-1420.739862
 20
215.027117
 11
-1417.239862
 21
215.027117
  0
ARC
  8
1
 62
     3
  6
CONTINUOUS
 10
-1420.739862
 20
93.027117
 40
2.000000
 50
180.000000
 51
270.000000
  0
LINE
  8
3
 62
     3
  6
CONTINUOUS
 10
-1411.095668
 20
93.387137
 11
-1407.593875
 21
94.976208
  0
LINE
  8
3
 62
     3
  6
CONTINUOUS
 10
-1407.593875
 20
94.976208
 11
-1404.223390
 21
97.800227
  0
LINE
  8
3
 62
     3
  6
CONTINUOUS
 10
-1404.223390
 20
97.800227
 11
-1401.055915
 21
101.799119
  0
LINE
  8
3
 62
     3
  6
CONTINUOUS
 10
-1401.055915
 20
101.799119
 11
-1398.158833
 21
106.887811
  0
LINE
  8
3
 62
     3
  6
CONTINUOUS
 10
-1398.158833
 20
106.887811
 11
-1395.593776
 21
112.958050
  0
LINE
  8
3
 62
     3
  6
CONTINUOUS
 10
-1395.593776
 20
112.958050
 11
-1393.415311
 21
119.880700
  0
LINE
  8
3
 62
     3
  6
CONTINUOUS
 10
-1393.415311
 20
119.880700
 11
-1391.669782
 21
127.508493
  0
LINE
  8
3
 62
     3
  6
CONTINUOUS
 10
-1391.669782
 20
127.508493
 11
-1390.394323
 21
135.679156
  0
LINE
  8
3
 62
     3
  6
CONTINUOUS
 10
-1390.394323
 20
135.679156
 11
-1389.616067
 21
144.218873
  0
LINE
  8
3
 62
     3
  6
CONTINUOUS
 10
-1390.394323
 20
135.679156
 11
-1389.616067
 21
144.218873
  0
LINE
  8
3
 62
     3
  6
CONTINUOUS
 10
-1411.553558
 20
212.780203
 11
-1408.342392
 21
211.527804
  0
LINE
  8
3
 62
     3
  6
CONTINUOUS
 10
-1408.342392
 20
211.527804
 11
-1405.227417
 21
209.237907
  0
LINE
  8
3
 62
     3
  6
CONTINUOUS
 10
-1405.227417
 20
209.237907
 11
-1402.263875
 21
205.951124
  0
LINE
  8
3
 62
     3
  6
CONTINUOUS
 10
-1402.263875
 20
205.951124
 11
-1399.504326
 21
201.725743
  0
LINE
  8
3
 62
     3
  6
CONTINUOUS
 10
-1399.504326
 20
201.725743
 11
-1396.997708
 21
196.636702
  0
LINE
  8
3
 62
     3
  6
CONTINUOUS
 10
-1396.997708
 20
196.636702
 11
-1394.788477
 21
190.774254
  0
LINE
  8
3
 62
     3
  6
CONTINUOUS
 10
-1394.788477
 20
190.774254
 11
-1392.915812
 21
184.242368
  0
LINE
  8
3
 62
     3
  6
CONTINUOUS
 10
-1392.915812
 20
184.242368
 11
-1391.412925
 21
177.156886
  0
LINE
  8
3
 62
     3
  6
CONTINUOUS
 10
-1391.412925
 20
177.156886
 11
-1390.306469
 21
169.643467
  0
LINE
  8
3
 62
     3
  6
CONTINUOUS
 10
-1390.306469
 20
169.643467
 11
-1389.616067
 21
161.835360
  0
LINE
  8
3
 62
     3
  6
CONTINUOUS
 10
-1390.306469
 20
169.643467
 11
-1389.616067
 21
161.835360
  0
LINE
  8
0
 62
     3
  6
CONTINUOUS
 10
-1422.739862
 20
213.027117
 11
-1422.739862
 21
93.027117
  0
TEXT
  8
0
 62
     6
 10
-1001.412371
 20
1098.485825
 40
35.000000
 50
0.000000E+00
 41
0.60 
  1
240,260,280
 72
     5
 11
-768.912371
 21
1098.485825
  0
LINE
  8
3
 62
     3
  6
CONTINUOUS
 10
-1265.239862
 20
648.889268
 11
-1387.739862
 21
648.889268
  0
LINE
  8
3
 62
     3
  6
CONTINUOUS
 10
-1265.239862
 20
648.889268
 11
-1265.239862
 21
643.889268
  0
LINE
  8
3
 62
     3
  6
CONTINUOUS
 10
-1390.239862
 20
648.889268
 11
-1390.239862
 21
643.889268
  0
LINE
  8
3
 62
     3
  6
CONTINUOUS
 10
-1390.239862
 20
648.889268
 11
-1387.739862
 21
648.889268
  0
LINE
  8
3
 62
     3
  6
CONTINUOUS
 10
-1390.239862
 20
643.889268
 11
-1265.239862
 21
643.889268
  0
LINE
  8
0
 62
     3
  6
CONTINUOUS
 10
-1121.943196
 20
653.753184
 11
-1121.943196
 21
581.741645
  0
SOLID
  8
0
 62
     3
 10
-1114.178625
 20
624.775409
 11
-1129.707768
 21
624.775409
 12
-1121.943196
 22
653.753184
 13
-1121.943196
 23
653.753184
  0
INSERT
  8
0
  2
G17
 10
0
 20
0
  0
LINE
  8
3
 62
     3
  6
CONTINUOUS
 10
-1267.739862
 20
648.889268
 11
-1267.739862
 21
708.889268
  0
LINE
  8
3
 62
     3
  6
CONTINUOUS
 10
-1387.739862
 20
648.889268
 11
-1387.739862
 21
708.889268
  0
INSERT
  8
0
  2
G18
 10
0
 20
0
  0
INSERT
  8
0
  2
G19
 10
0
 20
0
  0
CIRCLE
  8
0
 62
     3
  6
CONTINUOUS
 10
-1327.739862
 20
153.027117
 40
54.000000
  0
CIRCLE
  8
0
 62
     3
  6
CONTINUOUS
 10
-1327.739862
 20
153.027117
 40
62.500000
  0
CIRCLE
  8
0
 62
     3
  6
CONTINUOUS
 10
-1327.739862
 20
153.027117
 40
40.000000
  0
INSERT
  8
0
  2
G20
 10
0
 20
0
  0
LINE
  8
0
 62
     1
  6
CONTINUOUS
 10
-960.662948
 20
153.027117
 11
-1090.662948
 21
153.027117
  0
LINE
  8
0
 62
     1
  6
CONTINUOUS
 10
-1090.662948
 20
153.027117
 11
-1073.786954
 21
153.027117
  0
INSERT
  8
0
  2
G21
 10
0
 20
0
  0
INSERT
  8
0
  2
G22
 10
0
 20
0
  0
TEXT
  8
0
 62
     3
 10
-888.446385
 20
-905.435816
 40
32.000000
 50
0.000000E+00
 41
0.94 
  1
対応可能Ｐ寸法　２４０～３６０
 72
     5
 11
-362.732077
 21
-905.435816
  0
TEXT
  8
0
 62
     2
 10
-251.589634
 20
-484.923154
 40
30.000000
 50
0.000000E+00
 41
0.58 
  1
94
 72
     5
 11
-216.589634
 21
-484.923154
  0
LINE
  8
0
 62
     2
  6
CONTINUOUS
 10
-716.447261
 20
-294.153298
 11
-593.566301
 21
-376.078354
  0
TEXT
  8
0
 62
     2
 10
-711.878163
 20
-423.462743
 40
30.000000
 50
0.000000E+00
 41
0.86 
  1
受口深さ
 72
     5
 11
-591.878163
 21
-423.462743
  0
TEXT
  8
0
 62
     2
 10
-475.429954
 20
-423.483154
 40
30.000000
 50
0.000000E+00
 41
0.58 
  1
65
 72
     5
 11
-440.429954
 21
-423.483154
  0
TEXT
  8
0
 62
     2
 10
-375.738489
 20
-484.923154
 40
30.000000
 50
0.000000E+00
 41
0.61 
  1
110
 72
     5
 11
-320.738489
 21
-484.923154
  0
TEXT
  8
0
 62
     2
 10
-485.190969
 20
-483.196018
 40
30.000000
 50
0.000000E+00
 41
0.61 
  1
125
 72
     5
 11
-430.190969
 21
-483.196018
  0
LINE
  8
0
 62
     2
  6
CONTINUOUS
 10
-205.886621
 20
-335.118322
 11
-205.886621
 21
-335.118514
  0
LINE
  8
0
 62
     2
  6
CONTINUOUS
 10
-716.447261
 20
-294.153298
 11
-175.885661
 21
-294.153298
  0
LINE
  8
0
 62
     2
  6
CONTINUOUS
 10
-716.447261
 20
-335.118322
 11
-716.447261
 21
-294.153298
  0
TEXT
  8
0
 62
     2
 10
-704.669157
 20
-480.612275
 40
30.000000
 50
0.000000E+00
 41
0.86 
  1
Ａ寸法
 72
     5
 11
-614.669157
 21
-480.612275
  0
LINE
  8
0
 62
     2
  6
CONTINUOUS
 10
-716.447261
 20
-437.518354
 11
-175.885661
 21
-437.518354
  0
LINE
  8
0
 62
     2
  6
CONTINUOUS
 10
-716.447261
 20
-335.118322
 11
-716.447261
 21
-560.398354
  0
TEXT
  8
0
 62
     2
 10
-271.543715
 20
-370.283621
 40
30.000000
 50
0.000000E+00
 41
0.63 
  1
50(1)
 72
     5
 11
-176.543715
 21
-370.283621
  0
TEXT
  8
0
 62
     2
 10
-383.464355
 20
-370.283621
 40
30.000000
 50
0.000000E+00
 41
0.63 
  1
65(2)
 72
     5
 11
-288.464355
 21
-370.283621
  0
TEXT
  8
0
 62
     2
 10
-495.384035
 20
-370.283621
 40
30.000000
 50
0.000000E+00
 41
0.63 
  1
75(3)
 72
     5
 11
-400.384035
 21
-370.283621
  0
LINE
  8
0
 62
     2
  6
CONTINUOUS
 10
-716.447261
 20
-560.398354
 11
-175.885661
 21
-560.398354
  0
LINE
  8
0
 62
     2
  6
CONTINUOUS
 10
-287.806301
 20
-335.118514
 11
-287.806301
 21
-560.398354
  0
LINE
  8
0
 62
     2
  6
CONTINUOUS
 10
-511.646621
 20
-437.518354
 11
-593.566301
 21
-498.958354
  0
LINE
  8
0
 62
     2
  6
CONTINUOUS
 10
-399.726941
 20
-335.118322
 11
-399.726941
 21
-560.398354
  0
LINE
  8
0
 62
     2
  6
CONTINUOUS
 10
-511.646621
 20
-295.392178
 11
-511.646621
 21
-560.398354
  0
LINE
  8
0
 62
     2
  6
CONTINUOUS
 10
-593.566301
 20
-295.392178
 11
-593.566301
 21
-560.398354
  0
TEXT
  8
0
 62
     2
 10
-466.083287
 20
-330.204987
 40
30.000000
 50
0.000000E+00
 41
0.86 
  1
下部横枝管サイズ
 72
     5
 11
-226.083287
 21
-330.204987
  0
LINE
  8
0
 62
     2
  6
CONTINUOUS
 10
-716.447261
 20
-376.078354
 11
-175.885661
 21
-376.078354
  0
LINE
  8
0
 62
     2
  6
CONTINUOUS
 10
-511.646621
 20
-335.118322
 11
-175.885661
 21
-335.118322
  0
LINE
  8
0
 62
     2
  6
CONTINUOUS
 10
-716.447261
 20
-498.958354
 11
-175.885661
 21
-498.958354
  0
TEXT
  8
0
 62
     2
 10
-704.669157
 20
-542.052275
 40
30.000000
 50
0.000000E+00
 41
0.86 
  1
Ｂ寸法
 72
     5
 11
-614.669157
 21
-542.052275
  0
LINE
  8
0
 62
     2
  6
CONTINUOUS
 10
-175.885661
 20
-294.153298
 11
-175.885661
 21
-560.398354
  0
LINE
  8
0
 62
     2
  6
CONTINUOUS
 10
-511.646621
 20
-498.958354
 11
-593.566301
 21
-560.398354
  0
TEXT
  8
0
 62
     2
 10
-567.349634
 20
-423.483154
 40
30.000000
 50
0.000000E+00
 41
0.58 
  1
75
 72
     5
 11
-532.349634
 21
-423.483154
  0
TEXT
  8
0
 62
     2
 10
-363.510274
 20
-423.483154
 40
30.000000
 50
0.000000E+00
 41
0.58 
  1
65
 72
     5
 11
-328.510274
 21
-423.483154
  0
TEXT
  8
0
 62
     2
 10
-251.589634
 20
-423.483154
 40
30.000000
 50
0.000000E+00
 41
0.58 
  1
65
 72
     5
 11
-216.589634
 21
-423.483154
  0
TEXT
  8
0
 62
     2
 10
-590.951500
 20
-325.061429
 40
18.400000
 50
0.000000E+00
 41
0.89 
  1
立管受口
 72
     5
 11
-514.951501
 21
-325.061429
  0
TEXT
  8
0
 62
     2
 10
-574.421206
 20
-363.746137
 40
25.600000
 50
0.000000E+00
 41
0.55 
  1
100
 72
     5
 11
-532.364061
 21
-363.746137
  0
TEXT
  8
0
 62
     2
 10
-475.429954
 20
-546.363154
 40
30.000000
 50
0.000000E+00
 41
0.58 
  1
60
 72
     5
 11
-440.429954
 21
-546.363154
  0
TEXT
  8
0
 62
     2
 10
-363.510274
 20
-546.363154
 40
30.000000
 50
0.000000E+00
 41
0.58 
  1
52
 72
     5
 11
-328.510274
 21
-546.363154
  0
TEXT
  8
0
 62
     2
 10
-251.589634
 20
-546.363154
 40
30.000000
 50
0.000000E+00
 41
0.58 
  1
44
 72
     5
 11
-216.589634
 21
-546.363154
  0
TEXT
  8
0
 62
     2
 10
-466.779569
 20
-725.974104
 40
30.000000
 50
0.000000E+00
 41
0.61 
  1
850
 72
     5
 11
-411.779569
 21
-725.974104
  0
TEXT
  8
0
 62
     2
 10
-885.718483
 20
-647.782743
 40
30.000000
 50
0.000000E+00
 41
0.86 
  1
Ｐ
 72
     5
 11
-855.718483
 21
-647.782743
  0
TEXT
  8
0
 62
     2
 10
-669.270274
 20
-647.803154
 40
30.000000
 50
0.000000E+00
 41
0.61 
  1
260
 72
     5
 11
-614.270274
 21
-647.803154
  0
TEXT
  8
0
 62
     2
 10
-569.578809
 20
-725.974104
 40
30.000000
 50
0.000000E+00
 41
0.61 
  1
830
 72
     5
 11
-514.578809
 21
-725.974104
  0
TEXT
  8
0
 62
     2
 10
-669.031289
 20
-724.246968
 40
30.000000
 50
0.000000E+00
 41
0.61 
  1
810
 72
     5
 11
-614.031289
 21
-724.246968
  0
LINE
  8
0
 62
     2
  6
CONTINUOUS
 10
-177.458899
 20
-613.635403
 11
-177.458899
 21
-613.635595
  0
LINE
  8
0
 62
     2
  6
CONTINUOUS
 10
-955.287581
 20
-600.398354
 11
-955.287581
 21
-844.718354
  0
TEXT
  8
0
 62
     2
 10
-944.759477
 20
-719.932275
 40
30.000000
 50
0.000000E+00
 41
0.72 
  1
Ｌ（有効長）
 72
     5
 11
-794.759477
 21
-719.932275
  0
LINE
  8
0
 62
     2
  6
CONTINUOUS
 10
-955.287581
 20
-661.838354
 11
-175.885661
 21
-661.838354
  0
TEXT
  8
0
 62
     2
 10
-256.589634
 20
-647.803154
 40
30.000000
 50
0.000000E+00
 41
0.61 
  1
360
 72
     5
 11
-201.589634
 21
-647.803154
  0
LINE
  8
0
 62
     2
  6
CONTINUOUS
 10
-287.806301
 20
-600.398354
 11
-287.806301
 21
-844.718354
  0
LINE
  8
0
 62
     2
  6
CONTINUOUS
 10
-175.885661
 20
-600.398354
 11
-175.885661
 21
-844.718354
  0
LINE
  8
0
 62
     2
  6
CONTINUOUS
 10
-491.646621
 20
-600.398354
 11
-491.646621
 21
-844.718354
  0
LINE
  8
0
 62
     2
  6
CONTINUOUS
 10
-593.567261
 20
-600.398354
 11
-593.567261
 21
-844.718354
  0
LINE
  8
0
 62
     2
  6
CONTINUOUS
 10
-695.486941
 20
-600.398354
 11
-695.486941
 21
-844.718354
  0
LINE
  8
0
 62
     2
  6
CONTINUOUS
 10
-797.406621
 20
-600.398354
 11
-797.406621
 21
-844.718354
  0
TEXT
  8
0
 62
     2
 10
-363.270329
 20
-724.246968
 40
30.000000
 50
0.000000E+00
 41
0.61 
  1
890
 72
     5
 11
-308.270329
 21
-724.246968
  0
LINE
  8
0
 62
     2
  6
CONTINUOUS
 10
-955.287581
 20
-600.398354
 11
-175.885661
 21
-600.398354
  0
TEXT
  8
0
 62
     2
 10
-258.817849
 20
-725.974104
 40
30.000000
 50
0.000000E+00
 41
0.61 
  1
910
 72
     5
 11
-203.817849
 21
-725.974104
  0
LINE
  8
0
 62
     2
  6
CONTINUOUS
 10
-955.287581
 20
-753.278354
 11
-175.885661
 21
-753.278354
  0
TEXT
  8
0
 62
     2
 10
-944.759477
 20
-811.372275
 40
30.000000
 50
0.000000E+00
 41
0.72 
  1
Ｌｔ（全長）
 72
     5
 11
-794.759477
 21
-811.372275
  0
LINE
  8
0
 62
     2
  6
CONTINUOUS
 10
-389.725981
 20
-600.398354
 11
-389.725981
 21
-844.718354
  0
TEXT
  8
0
 62
     2
 10
-771.189954
 20
-647.803154
 40
30.000000
 50
0.000000E+00
 41
0.61 
  1
240
 72
     5
 11
-716.189954
 21
-647.803154
  0
TEXT
  8
0
 62
     2
 10
-567.350594
 20
-647.803154
 40
30.000000
 50
0.000000E+00
 41
0.61 
  1
280
 72
     5
 11
-512.350594
 21
-647.803154
  0
TEXT
  8
0
 62
     2
 10
-465.429954
 20
-647.803154
 40
30.000000
 50
0.000000E+00
 41
0.61 
  1
300
 72
     5
 11
-410.429954
 21
-647.803154
  0
TEXT
  8
0
 62
     2
 10
-363.509314
 20
-647.803154
 40
30.000000
 50
0.000000E+00
 41
0.61 
  1
340
 72
     5
 11
-308.509314
 21
-647.803154
  0
TEXT
  8
0
 62
     2
 10
-770.950969
 20
-815.686968
 40
30.000000
 50
0.000000E+00
 41
0.61 
  1
865
 72
     5
 11
-715.950969
 21
-815.686968
  0
TEXT
  8
0
 62
     2
 10
-258.817849
 20
-817.414104
 40
30.000000
 50
0.000000E+00
 41
0.61 
  1
985
 72
     5
 11
-203.817849
 21
-817.414104
  0
TEXT
  8
0
 62
     2
 10
-770.950969
 20
-724.246968
 40
30.000000
 50
0.000000E+00
 41
0.61 
  1
790
 72
     5
 11
-715.950969
 21
-724.246968
  0
TEXT
  8
0
 62
     2
 10
-363.270329
 20
-815.686968
 40
30.000000
 50
0.000000E+00
 41
0.61 
  1
965
 72
     5
 11
-308.270329
 21
-815.686968
  0
TEXT
  8
0
 62
     2
 10
-669.031289
 20
-815.686968
 40
30.000000
 50
0.000000E+00
 41
0.61 
  1
885
 72
     5
 11
-614.031289
 21
-815.686968
  0
TEXT
  8
0
 62
     2
 10
-569.578809
 20
-817.414104
 40
30.000000
 50
0.000000E+00
 41
0.61 
  1
905
 72
     5
 11
-514.578809
 21
-817.414104
  0
TEXT
  8
0
 62
     2
 10
-466.779569
 20
-817.414104
 40
30.000000
 50
0.000000E+00
 41
0.61 
  1
925
 72
     5
 11
-411.779569
 21
-817.414104
  0
LINE
  8
0
 62
     2
  6
CONTINUOUS
 10
-955.287581
 20
-844.718354
 11
-175.885661
 21
-844.718354
  0
INSERT
  8
0
  2
G23
 10
0
 20
0
  0
INSERT
  8
0
  2
G24
 10
0
 20
0
  0
INSERT
  8
0
  2
G25
 10
0
 20
0
  0
INSERT
  8
0
  2
G26
 10
0
 20
0
  0
INSERT
  8
0
  2
G27
 10
0
 20
0
  0
INSERT
  8
0
  2
G28
 10
0
 20
0
  0
INSERT
  8
0
  2
G29
 10
0
 20
0
  0
ENDSEC
  0
EOF
