  0
SECTION
  2
HEADER
  9
$INSBASE
 10
0
 20
0
  9
$EXTMIN
 10
0
 20
0
  9
$EXTMAX
 10
4200.000000
 20
2970.000000
  9
$LIMMIN
 10
0
 20
0
  9
$LIMMAX
 10
4200.000000
 20
2970.000000
  9
$VIEWCTR
 10
2100.000000
 20
1485.000000
  9
$DIMASZ
 40
20.000000
  9
$DIMDLI
 40
80.000000
  9
$DIMEXE
 40
10.000000
  9
$DIMEXO
 40
10.000000
  9
$DIMTXT
 40
32.000000
  9
$TEXTSIZE
 40
32.000000
  9
$ANGBASE
 50
0.0
  9
$ANGDIR
 70
     0
  9
$ATTMODE
 70
     1
  9
$AUNITS
 70
     1
  9
$AUPREC
 70
     2
  9
$AXISMODE
 70
     0
  9
$AXISUNIT
 10
0.0
 20
0.0
  9
$BLIPMODE
 70
     1
  9
$CECOLOR
 62
   256
  9
$CELTYPE
  6
BYLAYER
  9
$CHAMFERA
 40
0.0
  9
$CHAMFERB
 40
0.0
  9
$CLAYER
  8
0
  9
$COORDS
 70
     0
  9
$DIMALT
 70
     0
  9
$DIMALTD
 70
     2
  9
$DIMALTF
 40
25.4
  9
$DIMDLE
 40
0.0
  9
$DIMLFAC
 40
1.0
  9
$DIMLIM
 70
     0
  9
$DIMRND
 40
0.0
  9
$DIMSCALE
 40
1.0
  9
$DIMSE1
 70
     0
  9
$DIMSE2
 70
     0
  9
$DIMTAD
 70
     1
  9
$DIMTIH
 70
     0
  9
$DIMTM
 40
0.0
  9
$DIMTOH
 70
     0
  9
$DIMTOL
 70
     0
  9
$DIMTP
 40
0.0
  9
$DIMTSZ
 40
0.0
  9
$DIMZIN
 70
     0
  9
$DRAGMODE
 70
     2
  9
$ELEVATION
 40
0.0
  9
$FASTZOOM
 70
     1
  9
$FILLETRAD
 40
0.0
  9
$FILLMODE
 70
     1
  9
$GRIDMODE
 70
     0
  9
$GRIDUNIT
 10
0.0
 20
0.0
  9
$LTSCALE
 40
1.0
  9
$LUNITS
 70
     2
  9
$LUPREC
 70
     2
  9
$MENU
  1
ACAD
  9
$ORTHOMODE
 70
     0
  9
$OSMODE
 70
     0
  9
$PDMODE
 70
     0
  9
$PDSIZE
 40
0.0
  9
$PLINEWID
 40
0.0
  9
$QTEXTMODE
 70
     0
  9
$REGENMODE
 70
     1
  9
$SKETCHINC
 40
0.1
  9
$SKPOLY
 70
     0
  9
$SNAPBASE
 10
0.0
 20
0.0
  9
$SNAPISOPAIR
 70
     0
  9
$SNAPMODE
 70
     0
  9
$SNAPSTYLE
 70
     0
  9
$SNAPUNIT
 10
0.0
 20
0.0
  9
$TEXTSTYLE
  7
KANJI
  9
$THICKNESS
 40
0.0
  9
$TRACEWID
 40
0.05
  9
$VIEWDIR
 10
0.0
 20
0.0
 30
1.0
  9
$VIEWSIZE
 40
0.0
  0
ENDSEC
  0
SECTION
  2
TABLES
  0
TABLE
  2
LTYPE
 70
     9
  0
LTYPE
  2
CONTINUOUS
 70
    64
  3
Solid line
 72
    65
 73
     0
 40
0.0
  0
LTYPE
  2
DASHED
 70
    64
  3
__ __ __ __ __ __ __ __ __ __ __ __ __ __ __
 72
    65
 73
     2
 40
0.75
 49
0.5
 49
-0.25
  0
LTYPE
  2
HIDDEN
 70
    64
  3
_ _ _ _ _ _ _ _ _ _ _ _ _ _ _ _ _ _ _ _ _ _ _
 72
    65
 73
     2
 40
0.375
 49
0.25
 49
-0.125
  0
LTYPE
  2
CENTER
 70
    64
  3
____ _ ____ _ ____ _ ____ _ ____ _ ____ _ ____
 72
    65
 73
     4
 40
2.0
 49
1.25
 49
-0.25
 49
0.25
 49
-0.25
  0
LTYPE
  2
PHANTOM
 70
    64
  3
_____ _ _ _____ _ _ _____ _ _ _____ _ _ ____
 72
    65
 73
     6
 40
2.5
 49
1.25
 49
-0.25
 49
0.25
 49
-0.25
 49
0.25
 49
-0.25
  0
LTYPE
  2
DOT
 70
    64
  3
...............................................
 72
    65
 73
     2
 40
0.25
 49
0.0
 49
-0.25
  0
LTYPE
  2
DASHDOT
 70
    64
  3
__ . __ . __ . __ . __ . __ . __ . __ . __ . __
 72
    65
 73
     4
 40
1.0
 49
0.5
 49
-0.25
 49
0.0
 49
-0.25
  0
LTYPE
  2
BORDER
 70
    64
  3
__ __ . __ __ . __ __ . __ __ . __ __ . __ __
 72
    65
 73
     6
 40
1.75
 49
0.5
 49
-0.25
 49
0.5
 49
-0.25
 49
0.0
 49
-0.25
  0
LTYPE
  2
DIVIDE
 70
    64
  3
__ . . __ . . __ . . __ . . __ . . __ . . __
 72
    65
 73
     6
 40
1.25
 49
0.5
 49
-0.25
 49
0.0
 49
-0.25
 49
0.0
 49
-0.25
  0
ENDTAB
  0
TABLE
  2
LAYER
 70
   100
  0
LAYER
  2
0
 70
     0
 62
     3
  6
CONTINUOUS
  0
LAYER
  2
1
 70
     0
 62
     3
  6
CONTINUOUS
  0
LAYER
  2
2
 70
     0
 62
     3
  6
CONTINUOUS
  0
LAYER
  2
3
 70
     0
 62
     3
  6
CONTINUOUS
  0
LAYER
  2
4
 70
     0
 62
     3
  6
CONTINUOUS
  0
LAYER
  2
5
 70
     0
 62
     3
  6
CONTINUOUS
  0
LAYER
  2
6
 70
     0
 62
     3
  6
CONTINUOUS
  0
LAYER
  2
7
 70
     0
 62
     3
  6
CONTINUOUS
  0
LAYER
  2
8
 70
     0
 62
     3
  6
CONTINUOUS
  0
LAYER
  2
9
 70
     0
 62
     3
  6
CONTINUOUS
  0
LAYER
  2
10
 70
     0
 62
     3
  6
CONTINUOUS
  0
LAYER
  2
11
 70
     0
 62
     3
  6
CONTINUOUS
  0
LAYER
  2
12
 70
     0
 62
     3
  6
CONTINUOUS
  0
LAYER
  2
13
 70
     0
 62
     3
  6
CONTINUOUS
  0
LAYER
  2
14
 70
     0
 62
     3
  6
CONTINUOUS
  0
LAYER
  2
15
 70
     0
 62
     3
  6
CONTINUOUS
  0
LAYER
  2
16
 70
     0
 62
     3
  6
CONTINUOUS
  0
LAYER
  2
17
 70
     0
 62
     3
  6
CONTINUOUS
  0
LAYER
  2
18
 70
     0
 62
     3
  6
CONTINUOUS
  0
LAYER
  2
19
 70
     0
 62
     3
  6
CONTINUOUS
  0
LAYER
  2
20
 70
     0
 62
     3
  6
CONTINUOUS
  0
LAYER
  2
21
 70
     0
 62
     3
  6
CONTINUOUS
  0
LAYER
  2
22
 70
     0
 62
     3
  6
CONTINUOUS
  0
LAYER
  2
23
 70
     0
 62
     3
  6
CONTINUOUS
  0
LAYER
  2
24
 70
     0
 62
     3
  6
CONTINUOUS
  0
LAYER
  2
25
 70
     0
 62
     3
  6
CONTINUOUS
  0
LAYER
  2
26
 70
     0
 62
     3
  6
CONTINUOUS
  0
LAYER
  2
27
 70
     0
 62
     3
  6
CONTINUOUS
  0
LAYER
  2
28
 70
     0
 62
     3
  6
CONTINUOUS
  0
LAYER
  2
29
 70
     0
 62
     3
  6
CONTINUOUS
  0
LAYER
  2
30
 70
     0
 62
     3
  6
CONTINUOUS
  0
LAYER
  2
31
 70
     0
 62
     3
  6
CONTINUOUS
  0
LAYER
  2
32
 70
     0
 62
     3
  6
CONTINUOUS
  0
LAYER
  2
33
 70
     0
 62
     3
  6
CONTINUOUS
  0
LAYER
  2
34
 70
     0
 62
     3
  6
CONTINUOUS
  0
LAYER
  2
35
 70
     0
 62
     3
  6
CONTINUOUS
  0
LAYER
  2
36
 70
     0
 62
     3
  6
CONTINUOUS
  0
LAYER
  2
37
 70
     0
 62
     3
  6
CONTINUOUS
  0
LAYER
  2
38
 70
     0
 62
     3
  6
CONTINUOUS
  0
LAYER
  2
39
 70
     0
 62
     3
  6
CONTINUOUS
  0
LAYER
  2
40
 70
     0
 62
     3
  6
CONTINUOUS
  0
LAYER
  2
41
 70
     0
 62
     3
  6
CONTINUOUS
  0
LAYER
  2
42
 70
     0
 62
     3
  6
CONTINUOUS
  0
LAYER
  2
43
 70
     0
 62
     3
  6
CONTINUOUS
  0
LAYER
  2
44
 70
     0
 62
     3
  6
CONTINUOUS
  0
LAYER
  2
45
 70
     0
 62
     3
  6
CONTINUOUS
  0
LAYER
  2
46
 70
     0
 62
     3
  6
CONTINUOUS
  0
LAYER
  2
47
 70
     0
 62
     3
  6
CONTINUOUS
  0
LAYER
  2
48
 70
     0
 62
     3
  6
CONTINUOUS
  0
LAYER
  2
49
 70
     0
 62
     3
  6
CONTINUOUS
  0
LAYER
  2
50
 70
     0
 62
     3
  6
CONTINUOUS
  0
LAYER
  2
51
 70
     0
 62
     3
  6
CONTINUOUS
  0
LAYER
  2
52
 70
     0
 62
     3
  6
CONTINUOUS
  0
LAYER
  2
53
 70
     0
 62
     3
  6
CONTINUOUS
  0
LAYER
  2
54
 70
     0
 62
     3
  6
CONTINUOUS
  0
LAYER
  2
55
 70
     0
 62
     3
  6
CONTINUOUS
  0
LAYER
  2
56
 70
     0
 62
     3
  6
CONTINUOUS
  0
LAYER
  2
57
 70
     0
 62
     3
  6
CONTINUOUS
  0
LAYER
  2
58
 70
     0
 62
     3
  6
CONTINUOUS
  0
LAYER
  2
59
 70
     0
 62
     3
  6
CONTINUOUS
  0
LAYER
  2
60
 70
     0
 62
     3
  6
CONTINUOUS
  0
LAYER
  2
61
 70
     0
 62
     3
  6
CONTINUOUS
  0
LAYER
  2
62
 70
     0
 62
     3
  6
CONTINUOUS
  0
LAYER
  2
63
 70
     0
 62
     3
  6
CONTINUOUS
  0
LAYER
  2
64
 70
     0
 62
     3
  6
CONTINUOUS
  0
LAYER
  2
65
 70
     0
 62
     3
  6
CONTINUOUS
  0
LAYER
  2
66
 70
     0
 62
     3
  6
CONTINUOUS
  0
LAYER
  2
67
 70
     0
 62
     3
  6
CONTINUOUS
  0
LAYER
  2
68
 70
     0
 62
     3
  6
CONTINUOUS
  0
LAYER
  2
69
 70
     0
 62
     3
  6
CONTINUOUS
  0
LAYER
  2
70
 70
     0
 62
     3
  6
CONTINUOUS
  0
LAYER
  2
71
 70
     0
 62
     3
  6
CONTINUOUS
  0
LAYER
  2
72
 70
     0
 62
     3
  6
CONTINUOUS
  0
LAYER
  2
73
 70
     0
 62
     3
  6
CONTINUOUS
  0
LAYER
  2
74
 70
     0
 62
     3
  6
CONTINUOUS
  0
LAYER
  2
75
 70
     0
 62
     3
  6
CONTINUOUS
  0
LAYER
  2
76
 70
     0
 62
     3
  6
CONTINUOUS
  0
LAYER
  2
77
 70
     0
 62
     3
  6
CONTINUOUS
  0
LAYER
  2
78
 70
     0
 62
     3
  6
CONTINUOUS
  0
LAYER
  2
79
 70
     0
 62
     3
  6
CONTINUOUS
  0
LAYER
  2
80
 70
     0
 62
     3
  6
CONTINUOUS
  0
LAYER
  2
81
 70
     0
 62
     3
  6
CONTINUOUS
  0
LAYER
  2
82
 70
     0
 62
     3
  6
CONTINUOUS
  0
LAYER
  2
83
 70
     0
 62
     3
  6
CONTINUOUS
  0
LAYER
  2
84
 70
     0
 62
     3
  6
CONTINUOUS
  0
LAYER
  2
85
 70
     0
 62
     3
  6
CONTINUOUS
  0
LAYER
  2
86
 70
     0
 62
     3
  6
CONTINUOUS
  0
LAYER
  2
87
 70
     0
 62
     3
  6
CONTINUOUS
  0
LAYER
  2
88
 70
     0
 62
     3
  6
CONTINUOUS
  0
LAYER
  2
89
 70
     0
 62
     3
  6
CONTINUOUS
  0
LAYER
  2
90
 70
     0
 62
     3
  6
CONTINUOUS
  0
LAYER
  2
91
 70
     0
 62
     3
  6
CONTINUOUS
  0
LAYER
  2
92
 70
     0
 62
     3
  6
CONTINUOUS
  0
LAYER
  2
93
 70
     0
 62
     3
  6
CONTINUOUS
  0
LAYER
  2
94
 70
     0
 62
     3
  6
CONTINUOUS
  0
LAYER
  2
95
 70
     0
 62
     3
  6
CONTINUOUS
  0
LAYER
  2
96
 70
     0
 62
     3
  6
CONTINUOUS
  0
LAYER
  2
97
 70
     0
 62
     3
  6
CONTINUOUS
  0
LAYER
  2
98
 70
     0
 62
     3
  6
CONTINUOUS
  0
LAYER
  2
99
 70
     0
 62
     3
  6
CONTINUOUS
  0
ENDTAB
  0
TABLE
  2
STYLE
 70
     2
  0
STYLE
  2
STANDARD
 70
     0
 40
0.0
 41
1.0
 50
0.0
 71
     0
 42
0.2
  3
TXT
  4
BIGFONT
  0
STYLE
  2
KANJI
 70
     0
 40
4.5
 41
1.0
 50
0.0
 71
     0
 42
0.2
  3
TXT
  4
BIGFONT
  0
ENDTAB
  0
TABLE
  2
VIEW
 70
     0
  0
ENDTAB
  0
ENDSEC
  0
SECTION
  2
BLOCKS
  0
BLOCK
  8
0
  2
G0
 70
     0
 10
0
 20
0
  0
TEXT
  8
0
 62
     3
 10
3276.516466
 20
1759.817890
 40
32.000000
 50
0.000000E+00
 41
0.95 
  1
受口深さ　
 72
     5
 11
3452.516466
 21
1759.817890
  0
ENDBLK
  0
BLOCK
  8
0
  2
G1
 70
     0
 10
0
 20
0
  0
LINE
  8
0
 62
     3
  6
CONTINUOUS
 10
3001.539240
 20
1456.691181
 11
2921.976677
 21
1456.691181
  0
LINE
  8
0
 62
     3
  6
CONTINUOUS
 10
3001.539240
 20
1456.691181
 11
3001.539240
 21
1409.320932
  0
TEXT
  8
0
 62
     3
 10
2989.745957
 20
1376.962715
 40
32.000000
 50
0.000000E+00
 41
0.86 
  1
Ｃ
 72
     5
 11
3021.745957
 21
1376.962715
  0
LINE
  8
0
 62
     3
  6
CONTINUOUS
 10
3001.539240
 20
1409.320932
 11
3016.956709
 21
1436.024772
  0
LINE
  8
0
 62
     3
  6
CONTINUOUS
 10
3016.956709
 20
1436.024772
 11
2994.454254
 21
1449.016570
  0
ENDBLK
  0
BLOCK
  8
0
  2
G2
 70
     0
 10
0
 20
0
  0
LINE
  8
0
 62
     1
  6
CONTINUOUS
 10
3484.000000
 20
1815.375253
 11
3644.000000
 21
1815.375253
  0
LINE
  8
0
 62
     1
  6
CONTINUOUS
 10
3484.000000
 20
1862.375253
 11
3484.000000
 21
1805.375253
  0
LINE
  8
0
 62
     1
  6
CONTINUOUS
 10
3644.000000
 20
1805.375253
 11
3644.000000
 21
1908.292397
  0
TEXT
  8
0
 62
     1
 10
3536.000000
 20
1820.708586
 40
32.000000
 50
360.000000
 41
0.58 
  1
160
 72
     5
 11
3592.000000
 21
1820.708586
  0
LINE
  8
0
 62
     1
  6
CONTINUOUS
 10
3484.000000
 20
1815.375253
 11
3434.000000
 21
1815.375253
  0
SOLID
  8
0
 62
     1
 10
3459.851854
 20
1808.904777
 11
3459.851854
 21
1821.845729
 12
3484.000000
 22
1815.375253
 13
3484.000000
 23
1815.375253
  0
ENDBLK
  0
BLOCK
  8
0
  2
G3
 70
     0
 10
0
 20
0
  0
LINE
  8
0
 62
     1
  6
CONTINUOUS
 10
3548.682081
 20
1872.375253
 11
3484.000000
 21
1872.375253
  0
LINE
  8
0
 62
     1
  6
CONTINUOUS
 10
3484.000000
 20
1957.500000
 11
3484.000000
 21
1862.375253
  0
TEXT
  8
0
 62
     1
 10
3496.474233
 20
1877.708586
 40
32.000000
 50
360.000000
 41
0.56 
  1
65
 72
     5
 11
3532.474233
 21
1877.708586
  0
LINE
  8
0
 62
     1
  6
CONTINUOUS
 10
3598.682081
 20
1872.375253
 11
3548.682081
 21
1872.375253
  0
SOLID
  8
0
 62
     1
 10
3572.830227
 20
1878.845729
 11
3572.830227
 21
1865.904777
 12
3548.682081
 22
1872.375253
 13
3548.682081
 23
1872.375253
  0
LINE
  8
0
 62
     1
  6
CONTINUOUS
 10
3484.000000
 20
1872.375253
 11
3434.000000
 21
1872.375253
  0
SOLID
  8
0
 62
     1
 10
3459.851854
 20
1865.904777
 11
3459.851854
 21
1878.845729
 12
3484.000000
 22
1872.375253
 13
3484.000000
 23
1872.375253
  0
ENDBLK
  0
BLOCK
  8
0
  2
G4
 70
     0
 10
0
 20
0
  0
LINE
  8
0
 62
     1
  6
CONTINUOUS
 10
3804.000000
 20
1872.375253
 11
3854.000000
 21
1872.375253
  0
SOLID
  8
0
 62
     1
 10
3828.148146
 20
1878.845729
 11
3828.148146
 21
1865.904777
 12
3804.000000
 22
1872.375253
 13
3804.000000
 23
1872.375253
  0
LINE
  8
0
 62
     1
  6
CONTINUOUS
 10
3689.317919
 20
1872.375253
 11
3739.317919
 21
1872.375253
  0
SOLID
  8
0
 62
     1
 10
3715.169773
 20
1865.904777
 11
3715.169773
 21
1878.845729
 12
3739.317919
 22
1872.375253
 13
3739.317919
 23
1872.375253
  0
TEXT
  8
0
 62
     1
 10
3755.525767
 20
1877.708586
 40
32.000000
 50
0.000000E+00
 41
0.56 
  1
65
 72
     5
 11
3791.525767
 21
1877.708586
  0
LINE
  8
0
 62
     1
  6
CONTINUOUS
 10
3804.000000
 20
1957.500000
 11
3804.000000
 21
1862.375253
  0
LINE
  8
0
 62
     1
  6
CONTINUOUS
 10
3739.317919
 20
1872.375253
 11
3804.000000
 21
1872.375253
  0
ENDBLK
  0
BLOCK
  8
0
  2
G5
 70
     0
 10
0
 20
0
  0
TEXT
  8
0
 62
     1
 10
3479.904494
 20
2154.497527
 40
32.000000
 50
45.000000
 41
0.58 
  1
248
 72
     5
 11
3519.502473
 21
2194.095506
  0
LINE
  8
0
 62
     1
  6
CONTINUOUS
 10
3549.247691
 20
1949.389827
 11
3408.722411
 21
2089.915108
  0
LINE
  8
0
 62
     1
  6
CONTINUOUS
 10
3591.155960
 20
2258.206521
 11
3415.793479
 21
2082.844040
  0
SOLID
  8
0
 62
     1
 10
3578.655960
 20
2236.555886
 11
3569.505325
 21
2245.706521
 12
3591.155960
 22
2258.206521
 13
3591.155960
 23
2258.206521
  0
SOLID
  8
0
 62
     1
 10
3428.293479
 20
2104.494675
 11
3437.444114
 21
2095.344040
 12
3415.793479
 22
2082.844040
 13
3415.793479
 23
2082.844040
  0
ENDBLK
  0
BLOCK
  8
0
  2
G6
 70
     0
 10
0
 20
0
  0
TEXT
  8
0
 62
     1
 10
3910.991359
 20
2002.000000
 40
32.000000
 50
90.000000
 41
0.58 
  1
210
 72
     5
 11
3910.991359
 21
2058.000000
  0
LINE
  8
0
 62
     1
  6
CONTINUOUS
 10
3654.000000
 20
1925.000000
 11
3926.324692
 21
1925.000000
  0
LINE
  8
0
 62
     1
  6
CONTINUOUS
 10
3654.000000
 20
2135.000000
 11
3926.324692
 21
2135.000000
  0
LINE
  8
0
 62
     1
  6
CONTINUOUS
 10
3916.324692
 20
2135.000000
 11
3916.324692
 21
1925.000000
  0
SOLID
  8
0
 62
     1
 10
3922.795168
 20
2110.851854
 11
3909.854216
 21
2110.851854
 12
3916.324692
 22
2135.000000
 13
3916.324692
 23
2135.000000
  0
SOLID
  8
0
 62
     1
 10
3909.854216
 20
1949.148146
 11
3922.795168
 21
1949.148146
 12
3916.324692
 22
1925.000000
 13
3916.324692
 23
1925.000000
  0
ENDBLK
  0
BLOCK
  8
0
  2
G7
 70
     0
 10
0
 20
0
  0
TEXT
  8
0
 62
     1
 10
3616.000000
 20
2178.708586
 40
32.000000
 50
0.000000E+00
 41
0.58 
  1
210
 72
     5
 11
3672.000000
 21
2178.708586
  0
LINE
  8
0
 62
     1
  6
CONTINUOUS
 10
3749.000000
 20
2040.000000
 11
3749.000000
 21
2183.375253
  0
LINE
  8
0
 62
     1
  6
CONTINUOUS
 10
3539.000000
 20
2040.000000
 11
3539.000000
 21
2183.375253
  0
LINE
  8
0
 62
     1
  6
CONTINUOUS
 10
3539.000000
 20
2173.375253
 11
3749.000000
 21
2173.375253
  0
SOLID
  8
0
 62
     1
 10
3563.148146
 20
2179.845729
 11
3563.148146
 21
2166.904777
 12
3539.000000
 22
2173.375253
 13
3539.000000
 23
2173.375253
  0
SOLID
  8
0
 62
     1
 10
3724.851854
 20
2166.904777
 11
3724.851854
 21
2179.845729
 12
3749.000000
 22
2173.375253
 13
3749.000000
 23
2173.375253
  0
ENDBLK
  0
BLOCK
  8
0
  2
G8
 70
     0
 10
0
 20
0
  0
LINE
  8
0
 62
     1
  6
CONTINUOUS
 10
3804.000000
 20
1815.375253
 11
3854.000000
 21
1815.375253
  0
SOLID
  8
0
 62
     1
 10
3828.148146
 20
1821.845729
 11
3828.148146
 21
1808.904777
 12
3804.000000
 22
1815.375253
 13
3804.000000
 23
1815.375253
  0
TEXT
  8
0
 62
     1
 10
3696.000000
 20
1820.708586
 40
32.000000
 50
0.000000E+00
 41
0.58 
  1
160
 72
     5
 11
3752.000000
 21
1820.708586
  0
LINE
  8
0
 62
     1
  6
CONTINUOUS
 10
3644.000000
 20
1805.375253
 11
3644.000000
 21
1908.292397
  0
LINE
  8
0
 62
     1
  6
CONTINUOUS
 10
3804.000000
 20
1862.375253
 11
3804.000000
 21
1805.375253
  0
LINE
  8
0
 62
     1
  6
CONTINUOUS
 10
3804.000000
 20
1815.375253
 11
3644.000000
 21
1815.375253
  0
CIRCLE
  8
0
 62
     1
  6
CONTINUOUS
 10
3644.000000
 20
1815.375253
 40
5.000000
  0
CIRCLE
  8
0
 62
     1
  6
CONTINUOUS
 10
3644.000000
 20
1815.375253
 40
2.500000
  0
ENDBLK
  0
BLOCK
  8
0
  2
G9
 70
     0
 10
0
 20
0
  0
LINE
  8
0
 62
     3
  6
CONTINUOUS
 10
3446.197047
 20
1892.940441
 11
3430.022465
 21
1892.940441
  0
TEXT
  8
0
 62
     3
 10
3430.197047
 20
1898.273774
 40
32.000000
 50
0.000000E+00
 41
0.50 
  1
 
 72
     5
 11
3446.197047
 21
1898.273774
  0
LINE
  8
0
 62
     3
  6
CONTINUOUS
 10
3484.000000
 20
1967.500000
 11
3446.197047
 21
1892.940441
  0
SOLID
  8
0
 62
     3
 10
3479.880775
 20
1947.928797
 11
3470.647045
 21
1952.610454
 12
3484.000000
 22
1967.500000
 13
3484.000000
 23
1967.500000
  0
ENDBLK
  0
BLOCK
  8
0
  2
G10
 70
     0
 10
0
 20
0
  0
TEXT
  8
0
 62
     7
 10
3227.214893
 20
1888.518112
 40
32.000000
 50
360.000000
 41
0.66 
  1
％％ｃ　　　枝管
 72
     5
 11
3419.214893
 21
1888.518112
  0
LINE
  8
0
 62
     3
  6
CONTINUOUS
 10
3419.513960
 20
1879.020525
 11
3257.649717
 21
1879.020525
  0
LINE
  8
0
 62
     3
  6
CONTINUOUS
 10
3419.513960
 20
1871.020525
 11
3257.649717
 21
1871.020525
  0
ENDBLK
  0
BLOCK
  8
0
  2
G11
 70
     0
 10
0
 20
0
  0
LINE
  8
0
 62
     1
  6
CONTINUOUS
 10
3159.337052
 20
1923.027117
 11
3159.337052
 21
1848.027117
  0
SOLID
  8
0
 62
     1
 10
3165.807528
 20
1898.878971
 11
3152.866576
 21
1898.878971
 12
3159.337052
 22
1923.027117
 13
3159.337052
 23
1923.027117
  0
SOLID
  8
0
 62
     1
 10
3152.866576
 20
1872.175262
 11
3165.807528
 21
1872.175262
 12
3159.337052
 22
1848.027117
 13
3159.337052
 23
1848.027117
  0
LINE
  8
0
 62
     1
  6
CONTINUOUS
 10
3169.337052
 20
1923.027117
 11
2882.450193
 21
1923.027117
  0
LINE
  8
0
 62
     1
  6
CONTINUOUS
 10
3169.337052
 20
1848.027117
 11
3049.337052
 21
1848.027117
  0
TEXT
  8
0
 62
     1
 10
3154.003719
 20
1867.527117
 40
32.000000
 50
90.000000
 41
0.56 
  1
75
 72
     5
 11
3154.003719
 21
1903.527117
  0
ENDBLK
  0
BLOCK
  8
0
  2
G12
 70
     0
 10
0
 20
0
  0
LINE
  8
0
 62
     1
  6
CONTINUOUS
 10
3099.337052
 20
1298.027117
 11
3099.337052
 21
1658.027117
  0
SOLID
  8
0
 62
     1
 10
3091.572481
 20
1327.004891
 11
3107.101623
 21
1327.004891
 12
3099.337052
 22
1298.027117
 13
3099.337052
 23
1298.027117
  0
SOLID
  8
0
 62
     1
 10
3107.101623
 20
1629.049342
 11
3091.572481
 21
1629.049342
 12
3099.337052
 22
1658.027117
 13
3099.337052
 23
1658.027117
  0
LINE
  8
0
 62
     1
  6
CONTINUOUS
 10
3109.337052
 20
1298.027117
 11
3049.337052
 21
1298.027117
  0
TEXT
  8
0
 62
     1
 10
3094.003719
 20
1462.027117
 40
32.000000
 50
90.000000
 41
0.86 
  1
Ｐ
 72
     5
 11
3094.003719
 21
1494.027117
  0
ENDBLK
  0
BLOCK
  8
0
  2
G13
 70
     0
 10
0
 20
0
  0
LINE
  8
0
 62
     1
  6
CONTINUOUS
 10
3049.337052
 20
1598.027117
 11
3049.337052
 21
1848.027117
  0
SOLID
  8
0
 62
     1
 10
3041.572481
 20
1627.004891
 11
3057.101623
 21
1627.004891
 12
3049.337052
 22
1598.027117
 13
3049.337052
 23
1598.027117
  0
SOLID
  8
0
 62
     1
 10
3057.101623
 20
1819.049342
 11
3041.572481
 21
1819.049342
 12
3049.337052
 22
1848.027117
 13
3049.337052
 23
1848.027117
  0
LINE
  8
0
 62
     1
  6
CONTINUOUS
 10
3059.337052
 20
1598.027117
 11
2902.905405
 21
1598.027117
  0
LINE
  8
0
 62
     1
  6
CONTINUOUS
 10
2812.260138
 20
1848.027117
 11
3059.337052
 21
1848.027117
  0
TEXT
  8
0
 62
     1
 10
3044.003719
 20
1695.027117
 40
32.000000
 50
90.000000
 41
0.58 
  1
250
 72
     5
 11
3044.003719
 21
1751.027117
  0
ENDBLK
  0
BLOCK
  8
0
  2
G14
 70
     0
 10
0
 20
0
  0
LINE
  8
0
 62
     1
  6
CONTINUOUS
 10
3039.337052
 20
1208.027117
 11
3039.337052
 21
1088.027117
  0
SOLID
  8
0
 62
     1
 10
3045.807528
 20
1183.878971
 11
3032.866576
 21
1183.878971
 12
3039.337052
 22
1208.027117
 13
3039.337052
 23
1208.027117
  0
SOLID
  8
0
 62
     1
 10
3032.866576
 20
1112.175262
 11
3045.807528
 21
1112.175262
 12
3039.337052
 22
1088.027117
 13
3039.337052
 23
1088.027117
  0
LINE
  8
0
 62
     1
  6
CONTINUOUS
 10
2893.009227
 20
1208.027117
 11
3049.337052
 21
1208.027117
  0
LINE
  8
0
 62
     1
  6
CONTINUOUS
 10
2862.511049
 20
1088.027117
 11
3049.337052
 21
1088.027117
  0
TEXT
  8
0
 62
     1
 10
3034.003719
 20
1120.027117
 40
32.000000
 50
90.000000
 41
0.58 
  1
120
 72
     5
 11
3034.003719
 21
1176.027117
  0
ENDBLK
  0
BLOCK
  8
0
  2
G15
 70
     0
 10
0
 20
0
  0
LINE
  8
0
 62
     1
  6
CONTINUOUS
 10
3039.337052
 20
1088.027117
 11
3039.337052
 21
938.027117
  0
SOLID
  8
0
 62
     1
 10
3045.807528
 20
1063.878971
 11
3032.866576
 21
1063.878971
 12
3039.337052
 22
1088.027117
 13
3039.337052
 23
1088.027117
  0
SOLID
  8
0
 62
     1
 10
3032.866576
 20
962.175262
 11
3045.807528
 21
962.175262
 12
3039.337052
 22
938.027117
 13
3039.337052
 23
938.027117
  0
LINE
  8
0
 62
     1
  6
CONTINUOUS
 10
2865.260138
 20
938.027117
 11
3049.337052
 21
938.027117
  0
TEXT
  8
0
 62
     1
 10
3034.003719
 20
985.027117
 40
32.000000
 50
90.000000
 41
0.58 
  1
150
 72
     5
 11
3034.003719
 21
1041.027117
  0
ENDBLK
  0
BLOCK
  8
0
  2
G16
 70
     0
 10
0
 20
0
  0
LINE
  8
0
 62
     1
  6
CONTINUOUS
 10
3099.337052
 20
1298.027117
 11
3099.337052
 21
938.027117
  0
SOLID
  8
0
 62
     1
 10
3105.807528
 20
1273.878971
 11
3092.866576
 21
1273.878971
 12
3099.337052
 22
1298.027117
 13
3099.337052
 23
1298.027117
  0
SOLID
  8
0
 62
     1
 10
3092.866576
 20
962.175262
 11
3105.807528
 21
962.175262
 12
3099.337052
 22
938.027117
 13
3099.337052
 23
938.027117
  0
LINE
  8
0
 62
     1
  6
CONTINUOUS
 10
3109.337052
 20
938.027117
 11
3049.337052
 21
938.027117
  0
TEXT
  8
0
 62
     1
 10
3094.003719
 20
1090.027117
 40
32.000000
 50
90.000000
 41
0.58 
  1
360
 72
     5
 11
3094.003719
 21
1146.027117
  0
ENDBLK
  0
BLOCK
  8
0
  2
G17
 70
     0
 10
0
 20
0
  0
LINE
  8
0
 62
     1
  6
CONTINUOUS
 10
3159.337052
 20
1848.027117
 11
3159.337052
 21
938.027117
  0
SOLID
  8
0
 62
     1
 10
3165.807528
 20
1823.878971
 11
3152.866576
 21
1823.878971
 12
3159.337052
 22
1848.027117
 13
3159.337052
 23
1848.027117
  0
SOLID
  8
0
 62
     1
 10
3152.866576
 20
962.175262
 11
3165.807528
 21
962.175262
 12
3159.337052
 22
938.027117
 13
3159.337052
 23
938.027117
  0
LINE
  8
0
 62
     1
  6
CONTINUOUS
 10
3109.337052
 20
938.027117
 11
3169.337052
 21
938.027117
  0
TEXT
  8
0
 62
     1
 10
3154.003719
 20
1299.027117
 40
32.000000
 50
90.000000
 41
0.89 
  1
Ｌ（有効長）
 72
     5
 11
3154.003719
 21
1495.027117
  0
ENDBLK
  0
BLOCK
  8
0
  2
G18
 70
     0
 10
0
 20
0
  0
LINE
  8
0
 62
     1
  6
CONTINUOUS
 10
3219.337052
 20
1923.027117
 11
3219.337052
 21
938.027117
  0
SOLID
  8
0
 62
     1
 10
3225.807528
 20
1898.878971
 11
3212.866576
 21
1898.878971
 12
3219.337052
 22
1923.027117
 13
3219.337052
 23
1923.027117
  0
SOLID
  8
0
 62
     1
 10
3212.866576
 20
962.175262
 11
3225.807528
 21
962.175262
 12
3219.337052
 22
938.027117
 13
3219.337052
 23
938.027117
  0
LINE
  8
0
 62
     1
  6
CONTINUOUS
 10
3169.337052
 20
1923.027117
 11
3229.337052
 21
1923.027117
  0
LINE
  8
0
 62
     1
  6
CONTINUOUS
 10
3169.337052
 20
938.027117
 11
3229.337052
 21
938.027117
  0
TEXT
  8
0
 62
     1
 10
3214.003719
 20
1394.527117
 40
32.000000
 50
90.000000
 41
0.97 
  1
Ｌｔ
 72
     5
 11
3214.003719
 21
1466.527117
  0
ENDBLK
  0
BLOCK
  8
0
  2
G19
 70
     0
 10
0
 20
0
  0
LINE
  8
0
 62
     3
  6
CONTINUOUS
 10
3993.037708
 20
2174.967893
 11
3831.173466
 21
2174.967893
  0
LINE
  8
0
 62
     3
  6
CONTINUOUS
 10
3993.037708
 20
2182.967893
 11
3831.173466
 21
2182.967893
  0
TEXT
  8
0
 62
     7
 10
3800.738641
 20
2192.465481
 40
32.000000
 50
360.000000
 41
0.66 
  1
％％ｃ　　　枝管
 72
     5
 11
3992.738641
 21
2192.465481
  0
ENDBLK
  0
BLOCK
  8
0
  2
G20
 70
     0
 10
0
 20
0
  0
LINE
  8
0
 62
     3
  6
CONTINUOUS
 10
3812.820924
 20
2198.909632
 11
3844.820924
 21
2198.909632
  0
TEXT
  8
0
 62
     3
 10
3812.820924
 20
2204.242965
 40
32.000000
 50
0.000000E+00
 41
0.50 
  1
 
 72
     5
 11
3828.820924
 21
2204.242965
  0
LINE
  8
0
 62
     3
  6
CONTINUOUS
 10
3766.318999
 20
2088.383316
 11
3812.820924
 21
2198.909632
  0
SOLID
  8
0
 62
     3
 10
3769.039547
 20
2108.197418
 11
3778.582113
 21
2104.182558
 12
3766.318999
 22
2088.383316
 13
3766.318999
 23
2088.383316
  0
ENDBLK
  0
BLOCK
  8
0
  2
G21
 70
     0
 10
0
 20
0
  0
LINE
  8
0
 62
     7
  6
CONTINUOUS
 10
2727.260138
 20
1933.027117
 11
2727.260138
 21
1976.551724
  0
LINE
  8
0
 62
     7
  6
CONTINUOUS
 10
2877.260138
 20
1933.027117
 11
2877.260138
 21
1976.551724
  0
LINE
  8
0
 62
     7
  6
CONTINUOUS
 10
2727.260138
 20
1966.551724
 11
2877.260138
 21
1966.551724
  0
SOLID
  8
0
 62
     7
 10
2746.578655
 20
1971.728105
 11
2746.578655
 21
1961.375343
 12
2727.260138
 22
1966.551724
 13
2727.260138
 23
1966.551724
  0
SOLID
  8
0
 62
     7
 10
2857.941622
 20
1961.375343
 11
2857.941622
 21
1971.728105
 12
2877.260138
 22
1966.551724
 13
2877.260138
 23
1966.551724
  0
TEXT
  8
0
 62
     7
 10
2744.260138
 20
1971.885054
 40
32.000000
 50
0.000000E+00
 41
0.60 
  1
%%c150
 72
     5
 11
2860.260138
 21
1971.885054
  0
ENDBLK
  0
BLOCK
  8
0
  2
G22
 70
     0
 10
0
 20
0
  0
LINE
  8
0
 62
     7
  6
CONTINUOUS
 10
2716.260138
 20
1753.786486
 11
2716.260138
 21
2038.748668
  0
LINE
  8
0
 62
     7
  6
CONTINUOUS
 10
2888.260138
 20
1743.786486
 11
2888.260138
 21
2038.748668
  0
LINE
  8
0
 62
     7
  6
CONTINUOUS
 10
2716.260138
 20
2028.748668
 11
2888.260138
 21
2028.748668
  0
SOLID
  8
0
 62
     7
 10
2735.578655
 20
2033.925048
 11
2735.578655
 21
2023.572287
 12
2716.260138
 22
2028.748668
 13
2716.260138
 23
2028.748668
  0
SOLID
  8
0
 62
     7
 10
2868.941622
 20
2023.572287
 11
2868.941622
 21
2033.925048
 12
2888.260138
 22
2028.748668
 13
2888.260138
 23
2028.748668
  0
TEXT
  8
0
 62
     7
 10
2744.260138
 20
2034.081997
 40
32.000000
 50
0.000000E+00
 41
0.60 
  1
%%c172
 72
     5
 11
2860.260138
 21
2034.081997
  0
ENDBLK
  0
BLOCK
  8
0
  2
G23
 70
     0
 10
0
 20
0
  0
LINE
  8
0
 62
     7
  6
CONTINUOUS
 10
2747.260138
 20
928.027117
 11
2747.260138
 21
853.392951
  0
LINE
  8
0
 62
     7
  6
CONTINUOUS
 10
2857.260138
 20
928.027117
 11
2857.260138
 21
853.392951
  0
LINE
  8
0
 62
     7
  6
CONTINUOUS
 10
2747.260138
 20
863.392951
 11
2857.260138
 21
863.392951
  0
SOLID
  8
0
 62
     7
 10
2766.578655
 20
868.569332
 11
2766.578655
 21
858.216570
 12
2747.260138
 22
863.392951
 13
2747.260138
 23
863.392951
  0
SOLID
  8
0
 62
     7
 10
2837.941622
 20
858.216570
 11
2837.941622
 21
868.569332
 12
2857.260138
 22
863.392951
 13
2857.260138
 23
863.392951
  0
TEXT
  8
0
 62
     7
 10
2744.260138
 20
868.726280
 40
32.000000
 50
0.000000E+00
 41
0.60 
  1
%%c110
 72
     5
 11
2860.260138
 21
868.726280
  0
ENDBLK
  0
BLOCK
  8
0
  2
G24
 70
     0
 10
0
 20
0
  0
LINE
  8
0
 62
     7
  6
CONTINUOUS
 10
2716.260138
 20
1191.899028
 11
2716.260138
 21
788.748668
  0
LINE
  8
0
 62
     7
  6
CONTINUOUS
 10
2888.260138
 20
1201.899028
 11
2888.260138
 21
788.748668
  0
LINE
  8
0
 62
     7
  6
CONTINUOUS
 10
2716.260138
 20
798.748668
 11
2888.260138
 21
798.748668
  0
SOLID
  8
0
 62
     7
 10
2735.578655
 20
803.925048
 11
2735.578655
 21
793.572287
 12
2716.260138
 22
798.748668
 13
2716.260138
 23
798.748668
  0
SOLID
  8
0
 62
     7
 10
2868.941622
 20
793.572287
 11
2868.941622
 21
803.925048
 12
2888.260138
 22
798.748668
 13
2888.260138
 23
798.748668
  0
TEXT
  8
0
 62
     7
 10
2744.260138
 20
804.081997
 40
32.000000
 50
0.000000E+00
 41
0.60 
  1
%%c172
 72
     5
 11
2860.260138
 21
804.081997
  0
ENDBLK
  0
BLOCK
  8
0
  2
G25
 70
     0
 10
0
 20
0
  0
LINE
  8
0
 62
     7
  6
CONTINUOUS
 10
2707.260138
 20
2283.790816
 11
2707.260138
 21
2387.121492
  0
LINE
  8
0
 62
     7
  6
CONTINUOUS
 10
2802.260138
 20
2330.231976
 11
2802.260138
 21
2387.121492
  0
LINE
  8
0
 62
     7
  6
CONTINUOUS
 10
2707.260138
 20
2377.121492
 11
2802.260138
 21
2377.121492
  0
SOLID
  8
0
 62
     7
 10
2726.578655
 20
2382.297873
 11
2726.578655
 21
2371.945112
 12
2707.260138
 22
2377.121492
 13
2707.260138
 23
2377.121492
  0
SOLID
  8
0
 62
     7
 10
2782.941622
 20
2371.945112
 11
2782.941622
 21
2382.297873
 12
2802.260138
 22
2377.121492
 13
2802.260138
 23
2377.121492
  0
TEXT
  8
0
 62
     7
 10
2736.760138
 20
2382.454822
 40
32.000000
 50
0.000000E+00
 41
0.56 
  1
95
 72
     5
 11
2772.760138
 21
2382.454822
  0
ENDBLK
  0
BLOCK
  8
0
  2
G26
 70
     0
 10
0
 20
0
  0
LINE
  8
0
 62
     7
  6
CONTINUOUS
 10
2926.232349
 20
2211.790816
 11
2992.629063
 21
2211.790816
  0
LINE
  8
0
 62
     7
  6
CONTINUOUS
 10
2874.260138
 20
2116.790816
 11
2992.629063
 21
2116.790816
  0
LINE
  8
0
 62
     7
  6
CONTINUOUS
 10
2982.629063
 20
2211.790816
 11
2982.629063
 21
2116.790816
  0
SOLID
  8
0
 62
     7
 10
2987.805444
 20
2192.472300
 11
2977.452682
 21
2192.472300
 12
2982.629063
 22
2211.790816
 13
2982.629063
 23
2211.790816
  0
SOLID
  8
0
 62
     7
 10
2977.452682
 20
2136.109333
 11
2987.805444
 21
2136.109333
 12
2982.629063
 22
2116.790816
 13
2982.629063
 23
2116.790816
  0
TEXT
  8
0
 62
     7
 10
2977.295733
 20
2146.290816
 40
32.000000
 50
90.000000
 41
0.56 
  1
95
 72
     5
 11
2977.295733
 21
2182.290816
  0
ENDBLK
  0
BLOCK
  8
0
  2
G27
 70
     0
 10
0
 20
0
  0
POINT
  8
0
 62
     2
 10
2889.230312
 20
1356.078419
  0
LINE
  8
0
 62
     2
  6
CENTER
 10
2972.510141
 20
1349.744015
 11
2889.230312
 21
1348.078419
  0
LINE
  8
0
 62
     2
  6
CONTINUOUS
 10
2955.191520
 20
1401.408042
 11
2897.260138
 21
1400.249414
  0
LINE
  8
0
 62
     2
  6
CONTINUOUS
 10
2897.276488
 20
1296.727444
 11
2962.260138
 21
1298.027117
  0
LINE
  8
0
 62
     2
  6
CONTINUOUS
 10
2955.131532
 20
1404.407442
 11
2960.130532
 21
1404.507422
  0
LINE
  8
0
 62
     2
  6
CONTINUOUS
 10
2960.130532
 20
1404.507422
 11
2962.260138
 21
1298.027117
  0
LINE
  8
0
 62
     2
  6
CONTINUOUS
 10
2955.131532
 20
1404.407442
 11
2957.261138
 21
1297.927137
  0
POINT
  8
0
 62
     2
 10
2961.230312
 20
1349.518419
  0
ENDBLK
  0
BLOCK
  8
0
  2
G28
 70
     0
 10
0
 20
0
  0
LINE
  8
0
 62
     7
  6
CONTINUOUS
 10
2971.230312
 20
1349.518419
 11
3049.337052
 21
1349.518419
  0
LINE
  8
0
 62
     7
  6
CONTINUOUS
 10
2972.260138
 20
1298.027117
 11
3049.337052
 21
1298.027117
  0
LINE
  8
0
 62
     7
  6
CONTINUOUS
 10
3039.337052
 20
1349.518419
 11
3039.337052
 21
1298.027117
  0
LINE
  8
0
 62
     7
  6
CONTINUOUS
 10
3039.337052
 20
1349.518419
 11
3039.337052
 21
1399.518419
  0
SOLID
  8
0
 62
     7
 10
3034.160671
 20
1368.836935
 11
3044.513433
 21
1368.836935
 12
3039.337052
 22
1349.518419
 13
3039.337052
 23
1349.518419
  0
LINE
  8
0
 62
     7
  6
CONTINUOUS
 10
3039.337052
 20
1298.027117
 11
3039.337052
 21
1248.027117
  0
SOLID
  8
0
 62
     7
 10
3044.513433
 20
1278.708600
 11
3034.160671
 21
1278.708600
 12
3039.337052
 22
1298.027117
 13
3039.337052
 23
1298.027117
  0
TEXT
  8
0
 62
     7
 10
3034.003722
 20
1307.772768
 40
32.000000
 50
90.000000
 41
0.86 
  1
Ｂ
 72
     5
 11
3034.003722
 21
1339.772768
  0
ENDBLK
  0
BLOCK
  8
0
  2
G29
 70
     0
 10
0
 20
0
  0
LINE
  8
0
 62
     7
  6
CONTINUOUS
 10
2633.289964
 20
1349.518419
 11
2583.762935
 21
1349.518419
  0
LINE
  8
0
 62
     7
  6
CONTINUOUS
 10
2632.260138
 20
1298.027117
 11
2583.762935
 21
1298.027117
  0
LINE
  8
0
 62
     7
  6
CONTINUOUS
 10
2593.762935
 20
1349.518419
 11
2593.762935
 21
1298.027117
  0
LINE
  8
0
 62
     7
  6
CONTINUOUS
 10
2593.762935
 20
1349.518419
 11
2593.762935
 21
1399.518419
  0
SOLID
  8
0
 62
     7
 10
2588.586554
 20
1368.836935
 11
2598.939316
 21
1368.836935
 12
2593.762935
 22
1349.518419
 13
2593.762935
 23
1349.518419
  0
LINE
  8
0
 62
     7
  6
CONTINUOUS
 10
2593.762935
 20
1298.027117
 11
2593.762935
 21
1248.027117
  0
SOLID
  8
0
 62
     7
 10
2598.939316
 20
1278.708600
 11
2588.586554
 21
1278.708600
 12
2593.762935
 22
1298.027117
 13
2593.762935
 23
1298.027117
  0
TEXT
  8
0
 62
     7
 10
2588.429605
 20
1307.772768
 40
32.000000
 50
90.000000
 41
0.86 
  1
Ｂ
 72
     5
 11
2588.429605
 21
1339.772768
  0
ENDBLK
  0
BLOCK
  8
0
  2
G30
 70
     0
 10
0
 20
0
  0
POINT
  8
0
 62
     2
 10
2643.289964
 20
1349.518419
  0
LINE
  8
0
 62
     2
  6
CONTINUOUS
 10
2649.388745
 20
1404.407442
 11
2647.259139
 21
1297.927137
  0
LINE
  8
0
 62
     2
  6
CONTINUOUS
 10
2644.389744
 20
1404.507422
 11
2642.260138
 21
1298.027117
  0
LINE
  8
0
 62
     2
  6
CONTINUOUS
 10
2649.388745
 20
1404.407442
 11
2644.389744
 21
1404.507422
  0
LINE
  8
0
 62
     2
  6
CONTINUOUS
 10
2707.243788
 20
1296.727444
 11
2642.260138
 21
1298.027117
  0
LINE
  8
0
 62
     2
  6
CONTINUOUS
 10
2649.328757
 20
1401.408042
 11
2707.260138
 21
1400.249414
  0
LINE
  8
0
 62
     2
  6
CENTER
 10
2632.010135
 20
1349.744015
 11
2715.289964
 21
1348.078419
  0
POINT
  8
0
 62
     2
 10
2715.289964
 20
1356.078419
  0
ENDBLK
  0
BLOCK
  8
0
  2
G31
 70
     0
 10
0
 20
0
  0
LINE
  8
0
 62
     2
  6
CONTINUOUS
 10
3484.000000
 20
1975.000000
 11
3484.000000
 21
2085.000000
  0
LINE
  8
0
 62
     2
  6
CONTINUOUS
 10
3489.000000
 20
1975.000000
 11
3489.000000
 21
2085.000000
  0
LINE
  8
0
 62
     2
  6
CONTINUOUS
 10
3489.000000
 20
1975.000000
 11
3484.000000
 21
1975.000000
  0
LINE
  8
0
 62
     2
  6
CONTINUOUS
 10
3489.000000
 20
2085.000000
 11
3484.000000
 21
2085.000000
  0
LINE
  8
0
 62
     2
  6
CONTINUOUS
 10
3489.000000
 20
1978.000000
 11
3549.000000
 21
1978.000000
  0
LINE
  8
0
 62
     2
  6
CONTINUOUS
 10
3549.000000
 20
2082.000000
 11
3489.000000
 21
2082.000000
  0
ENDBLK
  0
BLOCK
  8
0
  2
G32
 70
     0
 10
0
 20
0
  0
LINE
  8
0
 62
     2
  6
CONTINUOUS
 10
3739.000000
 20
2082.000000
 11
3799.000000
 21
2082.000000
  0
LINE
  8
0
 62
     2
  6
CONTINUOUS
 10
3799.000000
 20
1978.000000
 11
3739.000000
 21
1978.000000
  0
LINE
  8
0
 62
     2
  6
CONTINUOUS
 10
3799.000000
 20
2085.000000
 11
3804.000000
 21
2085.000000
  0
LINE
  8
0
 62
     2
  6
CONTINUOUS
 10
3799.000000
 20
1975.000000
 11
3804.000000
 21
1975.000000
  0
LINE
  8
0
 62
     2
  6
CONTINUOUS
 10
3799.000000
 20
1975.000000
 11
3799.000000
 21
2085.000000
  0
LINE
  8
0
 62
     2
  6
CONTINUOUS
 10
3804.000000
 20
1975.000000
 11
3804.000000
 21
2085.000000
  0
ENDBLK
  0
BLOCK
  8
0
  2
G33
 70
     0
 10
0
 20
0
  0
LINE
  8
0
 62
     7
  6
CONTINUOUS
 10
3814.000000
 20
2085.000000
 11
3866.324692
 21
2085.000000
  0
LINE
  8
0
 62
     7
  6
CONTINUOUS
 10
3814.000000
 20
1975.000000
 11
3866.324692
 21
1975.000000
  0
LINE
  8
0
 62
     7
  6
CONTINUOUS
 10
3856.324692
 20
2085.000000
 11
3856.324692
 21
1975.000000
  0
SOLID
  8
0
 62
     7
 10
3861.501073
 20
2065.681483
 11
3851.148311
 21
2065.681483
 12
3856.324692
 22
2085.000000
 13
3856.324692
 23
2085.000000
  0
SOLID
  8
0
 62
     7
 10
3851.148311
 20
1994.318517
 11
3861.501073
 21
1994.318517
 12
3856.324692
 22
1975.000000
 13
3856.324692
 23
1975.000000
  0
TEXT
  8
0
 62
     7
 10
3850.991362
 20
2014.000000
 40
32.000000
 50
90.000000
 41
0.86 
  1
Ａ
 72
     5
 11
3850.991362
 21
2046.000000
  0
ENDBLK
  0
BLOCK
  8
0
  2
G34
 70
     0
 10
0
 20
0
  0
LINE
  8
0
 62
     7
  6
CONTINUOUS
 10
3474.000000
 20
2085.000000
 11
3421.675308
 21
2085.000000
  0
LINE
  8
0
 62
     7
  6
CONTINUOUS
 10
3474.000000
 20
1975.000000
 11
3421.675308
 21
1975.000000
  0
LINE
  8
0
 62
     7
  6
CONTINUOUS
 10
3431.675308
 20
2085.000000
 11
3431.675308
 21
1975.000000
  0
SOLID
  8
0
 62
     7
 10
3436.851689
 20
2065.681483
 11
3426.498927
 21
2065.681483
 12
3431.675308
 22
2085.000000
 13
3431.675308
 23
2085.000000
  0
SOLID
  8
0
 62
     7
 10
3426.498927
 20
1994.318517
 11
3436.851689
 21
1994.318517
 12
3431.675308
 22
1975.000000
 13
3431.675308
 23
1975.000000
  0
TEXT
  8
0
 62
     7
 10
3426.341978
 20
2014.000000
 40
32.000000
 50
90.000000
 41
0.86 
  1
Ａ
 72
     5
 11
3426.341978
 21
2046.000000
  0
ENDBLK
  0
ENDSEC
  0
SECTION
  2
ENTITIES
  0
CIRCLE
  8
0
 62
     1
  6
CONTINUOUS
 10
2802.260138
 20
1658.027117
 40
62.000000
  0
LINE
  8
3
 62
     3
  6
CONTINUOUS
 10
2718.904332
 20
1598.387137
 11
2722.179724
 21
1599.833664
  0
LINE
  8
3
 62
     3
  6
CONTINUOUS
 10
2722.179724
 20
1599.833664
 11
2725.344644
 21
1602.361380
  0
LINE
  8
3
 62
     3
  6
CONTINUOUS
 10
2725.344644
 20
1602.361380
 11
2728.340291
 21
1605.923324
  0
LINE
  8
3
 62
     3
  6
CONTINUOUS
 10
2728.340291
 20
1605.923324
 11
2731.111008
 21
1610.453317
  0
LINE
  8
3
 62
     3
  6
CONTINUOUS
 10
2731.111008
 20
1610.453317
 11
2733.605317
 21
1615.867195
  0
LINE
  8
3
 62
     3
  6
CONTINUOUS
 10
2733.605317
 20
1615.867195
 11
2735.776877
 21
1622.064373
  0
LINE
  8
3
 62
     3
  6
CONTINUOUS
 10
2735.776877
 20
1622.064373
 11
2737.585340
 21
1628.929711
  0
LINE
  8
3
 62
     3
  6
CONTINUOUS
 10
2737.585340
 20
1628.929711
 11
2738.997108
 21
1636.335657
  0
LINE
  8
3
 62
     3
  6
CONTINUOUS
 10
2738.997108
 20
1636.335657
 11
2739.985950
 21
1644.144613
  0
LINE
  8
3
 62
     3
  6
CONTINUOUS
 10
2739.985950
 20
1644.144613
 11
2740.533494
 21
1652.211496
  0
LINE
  8
3
 62
     3
  6
CONTINUOUS
 10
2739.985950
 20
1644.144613
 11
2740.533494
 21
1652.211496
  0
ARC
  8
1
 62
     3
  6
CONTINUOUS
 10
2709.260138
 20
1598.027117
 40
2.000000
 50
180.000000
 51
270.000000
  0
LINE
  8
1
 62
     3
  6
CONTINUOUS
 10
2709.260138
 20
1720.027117
 11
2712.760138
 21
1720.027117
  0
LINE
  8
1
 62
     3
  6
CONTINUOUS
 10
2709.260138
 20
1596.027117
 11
2712.760138
 21
1596.027117
  0
ARC
  8
1
 62
     3
  6
CONTINUOUS
 10
2709.260138
 20
1718.027117
 40
2.000000
 50
90.000000
 51
180.000000
  0
ARC
  8
1
 62
     3
  6
CONTINUOUS
 10
2712.760138
 20
1723.027117
 40
3.000000
 50
270.000000
 51
360.000000
  0
ARC
  8
1
 62
     3
  6
CONTINUOUS
 10
2712.760138
 20
1593.027117
 40
3.000000
 50
0.000000E+00
 51
90.000000
  0
TEXT
  8
0
 62
     3
 10
3755.116797
 20
2041.659944
 40
32.000000
 50
360.000000
 41
0.86 
  1
ａ
 72
     5
 11
3787.116797
 21
2041.659944
  0
TEXT
  8
0
 62
     6
 10
2908.197047
 20
2570.810698
 40
32.000000
 50
0.000000E+00
 41
0.50 
  1
1
 72
     5
 11
2924.197047
 21
2570.810698
  0
CIRCLE
  8
0
 62
     6
  6
HIDDEN
 10
2916.197047
 20
2586.810698
 40
20.000000
  0
TEXT
  8
0
 62
     6
 10
2908.197047
 20
2522.777279
 40
32.000000
 50
0.000000E+00
 41
0.50 
  1
2
 72
     5
 11
2924.197047
 21
2522.777279
  0
CIRCLE
  8
0
 62
     6
  6
HIDDEN
 10
2916.197047
 20
2538.777279
 40
20.000000
  0
INSERT
  8
0
  2
G0
 10
0
 20
0
  0
LINE
  8
0
 62
     3
  6
CONTINUOUS
 10
3156.164955
 20
1894.886136
 11
3245.185086
 21
1774.460878
  0
SOLID
  8
0
 62
     3
 10
3179.634188
 20
1876.199373
 11
3167.146525
 21
1866.968308
 12
3156.164955
 22
1894.886136
 13
3156.164955
 23
1894.886136
  0
LINE
  8
0
 62
     3
  6
CONTINUOUS
 10
3440.385175
 20
1794.757270
 11
3490.003209
 21
1894.886136
  0
SOLID
  8
0
 62
     3
 10
3484.093849
 20
1865.473903
 11
3470.179436
 21
1872.369075
 12
3490.003209
 22
1894.886136
 13
3490.003209
 23
1894.886136
  0
TEXT
  8
0
 62
     3
 10
3862.466785
 20
1879.293357
 40
32.000000
 50
0.000000E+00
 41
1.02 
  1
受口深さ
 72
     5
 11
4014.466785
 21
1879.293357
  0
INSERT
  8
0
  2
G1
 10
0
 20
0
  0
TEXT
  8
0
 62
     3
 10
3500.883203
 20
2041.659944
 40
32.000000
 50
0.000000E+00
 41
0.86 
  1
ｂ
 72
     5
 11
3532.883203
 21
2041.659944
  0
TEXT
  8
0
 62
     3
 10
3689.298890
 20
1726.849292
 40
32.000000
 50
360.000000
 41
0.87 
  1
Ｃ矢視　（下部）
 72
     5
 11
3945.298890
 21
1726.849292
  0
INSERT
  8
0
  2
G2
 10
0
 20
0
  0
INSERT
  8
0
  2
G3
 10
0
 20
0
  0
LINE
  8
0
 62
     3
  6
CONTINUOUS
 10
3949.298890
 20
1721.515959
 11
3689.939905
 21
1721.515959
  0
LINE
  8
0
 62
     1
  6
CONTINUOUS
 10
3549.000000
 20
1964.361184
 11
3549.000000
 21
1868.375253
  0
TEXT
  8
0
 62
     6
 10
3631.418499
 20
2557.505821
 40
32.000000
 50
0.000000E+00
 41
0.97 
  1
枝管のタイプ（呼び径）
 72
     5
 11
4027.418499
 21
2557.505821
  0
TEXT
  8
0
 62
     6
 10
3729.294308
 20
2504.530401
 40
32.000000
 50
0.000000E+00
 41
0.74 
  1
：％％ｃ５０枝管
 72
     5
 11
3941.294308
 21
2504.530401
  0
TEXT
  8
0
 62
     6
 10
3729.294308
 20
2444.530401
 40
32.000000
 50
0.000000E+00
 41
0.74 
  1
：％％ｃ６５枝管
 72
     5
 11
3941.294308
 21
2444.530401
  0
TEXT
  8
0
 62
     6
 10
3729.294308
 20
2384.530401
 40
32.000000
 50
0.000000E+00
 41
0.74 
  1
：％％ｃ７５枝管
 72
     5
 11
3941.294308
 21
2384.530401
  0
TEXT
  8
0
 62
     6
 10
3698.206339
 20
2501.134541
 40
32.000000
 50
0.000000E+00
 41
0.50 
  1
1
 72
     5
 11
3714.206339
 21
2501.134541
  0
TEXT
  8
0
 62
     6
 10
3698.206339
 20
2441.134541
 40
32.000000
 50
0.000000E+00
 41
0.50 
  1
2
 72
     5
 11
3714.206339
 21
2441.134541
  0
TEXT
  8
0
 62
     6
 10
3698.206339
 20
2381.134541
 40
32.000000
 50
0.000000E+00
 41
0.50 
  1
3
 72
     5
 11
3714.206339
 21
2381.134541
  0
TEXT
  8
0
 62
     6
 10
2998.197047
 20
2570.810698
 40
32.000000
 50
0.000000E+00
 41
0.50 
  1
1
 72
     5
 11
3014.197047
 21
2570.810698
  0
CIRCLE
  8
0
 62
     6
  6
HIDDEN
 10
3006.197047
 20
2586.810698
 40
20.000000
  0
TEXT
  8
0
 62
     6
 10
2998.197047
 20
2522.777279
 40
32.000000
 50
0.000000E+00
 41
0.50 
  1
2
 72
     5
 11
3014.197047
 21
2522.777279
  0
CIRCLE
  8
0
 62
     6
  6
HIDDEN
 10
3006.197047
 20
2538.777279
 40
20.000000
  0
TEXT
  8
0
 62
     6
 10
2991.066195
 20
2614.451072
 40
32.000000
 50
0.000000E+00
 41
0.86 
  1
ｂ
 72
     5
 11
3023.066195
 21
2614.451072
  0
LINE
  8
0
 62
     3
  6
CONTINUOUS
 10
3803.804623
 20
1896.306871
 11
3850.561379
 21
1896.306871
  0
SOLID
  8
0
 62
     3
 10
3832.782397
 20
1904.071442
 11
3832.782397
 21
1888.542300
 12
3803.804623
 22
1896.306871
 13
3803.804623
 23
1896.306871
  0
TEXT
  8
0
 62
     6
 10
2691.990420
 20
2589.959535
 40
32.000000
 50
0.000000E+00
 41
0.97 
  1
上部
 72
     5
 11
2763.990420
 21
2589.959535
  0
TEXT
  8
0
 62
     6
 10
2811.990420
 20
2589.959535
 40
32.000000
 50
0.000000E+00
 41
0.97 
  1
下部
 72
     5
 11
2883.990420
 21
2589.959535
  0
TEXT
  8
0
 62
     6
 10
2840.490420
 20
2524.910129
 40
35.000000
 50
0.000000E+00
 41
0.86 
  1
Ｂ
 72
     5
 11
2875.490420
 21
2524.910129
  0
TEXT
  8
0
 62
     6
 10
2719.816479
 20
2523.910129
 40
35.000000
 50
0.000000E+00
 41
0.86 
  1
Ｏ
 72
     5
 11
2754.816479
 21
2523.910129
  0
ARC
  8
0
 62
     4
  6
CONTINUOUS
 10
3644.000000
 20
2030.000000
 40
100.000000
 50
216.038338
 51
233.961662
  0
ARC
  8
3
 62
     4
  6
CONTINUOUS
 10
3644.000000
 20
2030.000000
 40
100.000000
 50
233.109614
 51
306.890386
  0
ARC
  8
3
 62
     4
  6
CONTINUOUS
 10
3644.000000
 20
2030.000000
 40
100.000000
 50
323.109614
 51
396.890386
  0
ARC
  8
3
 62
     4
  6
CONTINUOUS
 10
3644.000000
 20
2030.000000
 40
100.000000
 50
53.109614
 51
126.890386
  0
ARC
  8
3
 62
     4
  6
CENTER
 10
3644.000000
 20
2030.000000
 40
111.000000
 50
37.018997
 51
55.489571
  0
CIRCLE
  8
3
 62
     4
  6
CONTINUOUS
 10
3565.511147
 20
1951.511147
 40
7.000000
  0
CIRCLE
  8
3
 62
     4
  6
CONTINUOUS
 10
3722.488853
 20
1951.511147
 40
7.000000
  0
CIRCLE
  8
3
 62
     4
  6
CONTINUOUS
 10
3722.488853
 20
2108.488853
 40
7.000000
  0
CIRCLE
  8
3
 62
     4
  6
CONTINUOUS
 10
3565.511147
 20
2108.488853
 40
7.000000
  0
LINE
  8
3
 62
     3
  6
CENTER
 10
3644.000000
 20
2138.997250
 11
3644.000000
 21
1913.580925
  0
LINE
  8
3
 62
     3
  6
CENTER
 10
3478.523832
 20
2030.000000
 11
3810.483837
 21
2030.000000
  0
ARC
  8
3
 62
     4
  6
CONTINUOUS
 10
3722.488853
 20
2108.488853
 40
13.000000
 50
10.978618
 51
79.021382
  0
CIRCLE
  8
3
 62
     3
  6
CONTINUOUS
 10
3644.000000
 20
2030.000000
 40
81.000000
  0
ARC
  8
3
 62
     3
  6
CONTINUOUS
 10
3644.000000
 20
2030.000000
 40
105.000000
 50
79.021382
 51
100.978618
  0
LINE
  8
3
 62
     4
  6
CONTINUOUS
 10
3724.964607
 20
2121.250931
 11
3663.996478
 21
2133.078324
  0
LINE
  8
3
 62
     4
  6
CONTINUOUS
 10
3735.250931
 20
2110.964607
 11
3747.453628
 21
2048.061853
  0
LINE
  8
3
 62
     3
  6
CENTER
 10
3711.985865
 20
2097.985865
 11
3733.726559
 21
2119.726559
  0
ARC
  8
3
 62
     4
  6
CONTINUOUS
 10
3565.511147
 20
2108.488853
 40
13.000000
 50
100.978618
 51
169.021382
  0
ARC
  8
3
 62
     4
  6
CONTINUOUS
 10
3565.511147
 20
1951.511147
 40
13.000000
 50
190.978618
 51
259.021382
  0
ARC
  8
3
 62
     4
  6
CONTINUOUS
 10
3722.488853
 20
1951.511147
 40
13.000000
 50
280.978618
 51
349.021382
  0
LINE
  8
3
 62
     4
  6
CONTINUOUS
 10
3735.250931
 20
1949.035393
 11
3747.078324
 21
2010.003522
  0
LINE
  8
3
 62
     3
  6
CENTER
 10
3576.008772
 20
2097.991228
 11
3554.058072
 21
2119.941928
  0
LINE
  8
3
 62
     4
  6
CONTINUOUS
 10
3624.003522
 20
2133.078324
 11
3563.035393
 21
2121.250931
  0
LINE
  8
3
 62
     4
  6
CONTINUOUS
 10
3724.964607
 20
1938.749069
 11
3662.061853
 21
1926.546372
  0
ARC
  8
3
 62
     4
  6
CENTER
 10
3644.000000
 20
2030.000000
 40
111.000000
 50
124.449115
 51
144.970079
  0
ARC
  8
3
 62
     4
  6
CENTER
 10
3644.000000
 20
2030.000000
 40
111.000000
 50
216.069475
 51
234.182385
  0
LINE
  8
3
 62
     3
  6
CENTER
 10
3576.362469
 20
1962.362469
 11
3553.850513
 21
1939.850513
  0
ARC
  8
3
 62
     4
  6
CENTER
 10
3644.000000
 20
2030.000000
 40
111.000000
 50
306.265016
 51
322.275712
  0
LINE
  8
3
 62
     4
  6
CONTINUOUS
 10
3563.035393
 20
1938.749069
 11
3625.938147
 21
1926.546372
  0
LINE
  8
3
 62
     3
  6
CENTER
 10
3712.711757
 20
1961.288243
 11
3733.392933
 21
1940.607067
  0
LINE
  8
3
 62
     4
  6
CONTINUOUS
 10
3552.749069
 20
1949.035393
 11
3540.546372
 21
2011.938147
  0
ARC
  8
3
 62
     3
  6
CONTINUOUS
 10
3644.000000
 20
2030.000000
 40
105.000000
 50
260.096801
 51
279.903199
  0
ARC
  8
3
 62
     3
  6
CONTINUOUS
 10
3644.000000
 20
2030.000000
 40
105.000000
 50
349.021382
 51
369.903199
  0
LINE
  8
3
 62
     4
  6
CONTINUOUS
 10
3552.749069
 20
2110.964607
 11
3540.546372
 21
2048.061853
  0
ARC
  8
3
 62
     4
  6
CONTINUOUS
 10
3644.000000
 20
2030.000000
 40
100.000000
 50
143.109614
 51
216.890386
  0
CIRCLE
  8
3
 62
     4
  6
CONTINUOUS
 10
3644.000000
 20
2030.000000
 40
88.000000
  0
ARC
  8
0
 62
     4
  6
CONTINUOUS
 10
3644.000000
 20
2030.000000
 40
100.000000
 50
306.038338
 51
323.961662
  0
ARC
  8
0
 62
     4
  6
CONTINUOUS
 10
3644.000000
 20
2030.000000
 40
100.000000
 50
36.038338
 51
53.961662
  0
ARC
  8
3
 62
     3
  6
CONTINUOUS
 10
3644.000000
 20
2030.000000
 40
105.000000
 50
170.096801
 51
190.978618
  0
ARC
  8
0
 62
     4
  6
CONTINUOUS
 10
3644.000000
 20
2030.000000
 40
100.000000
 50
126.038338
 51
143.961662
  0
INSERT
  8
0
  2
G4
 10
0
 20
0
  0
LINE
  8
0
 62
     1
  6
CONTINUOUS
 10
3739.000000
 20
1964.361184
 11
3739.000000
 21
1868.375253
  0
INSERT
  8
0
  2
G5
 10
0
 20
0
  0
INSERT
  8
0
  2
G6
 10
0
 20
0
  0
INSERT
  8
0
  2
G7
 10
0
 20
0
  0
LINE
  8
0
 62
     1
  6
CONTINUOUS
 10
3634.138357
 20
2215.224125
 11
3584.084892
 21
2265.277589
  0
LINE
  8
0
 62
     1
  6
CONTINUOUS
 10
3724.610173
 20
2124.752309
 11
3680.977253
 21
2168.385229
  0
TEXT
  8
0
 62
     6
 10
3164.087629
 20
2543.485825
 40
35.000000
 50
0.000000E+00
 41
0.60 
  1
240,260,280
 72
     5
 11
3396.587629
 21
2543.485825
  0
TEXT
  8
0
 62
     6
 10
3165.948131
 20
2501.370812
 40
35.000000
 50
0.000000E+00
 41
0.60 
  1
300,340,360
 72
     5
 11
3398.448131
 21
2501.370812
  0
ARC
  8
0
 62
     3
  6
CONTINUOUS
 10
2742.260138
 20
2118.790816
 40
2.000000
 50
180.000000
 51
270.000000
  0
LINE
  8
0
 62
     3
  6
CONTINUOUS
 10
2740.260138
 20
2118.790816
 11
2740.260138
 21
2146.790816
  0
ARC
  8
0
 62
     3
  6
CONTINUOUS
 10
2862.260138
 20
2118.790816
 40
2.000000
 50
270.000000
 51
360.000000
  0
LINE
  8
0
 62
     3
  6
CONTINUOUS
 10
2864.260138
 20
2118.790816
 11
2864.260138
 21
2146.790816
  0
LINE
  8
0
 62
     3
  6
CONTINUOUS
 10
2862.260138
 20
2116.790816
 11
2742.260138
 21
2116.790816
  0
ARC
  8
0
 62
     3
  6
CONTINUOUS
 10
2709.260138
 20
2151.790816
 40
2.000000
 50
180.000000
 51
270.000000
  0
LINE
  8
0
 62
     3
  6
CONTINUOUS
 10
2709.260138
 20
2149.790816
 11
2737.260138
 21
2149.790816
  0
ARC
  8
0
 62
     3
  6
CONTINUOUS
 10
2709.260138
 20
2271.790816
 40
2.000000
 50
90.000000
 51
180.000000
  0
LINE
  8
0
 62
     3
  6
CONTINUOUS
 10
2709.260138
 20
2273.790816
 11
2741.942231
 21
2273.790816
  0
LINE
  8
0
 62
     3
  6
CONTINUOUS
 10
2707.260138
 20
2271.790816
 11
2707.260138
 21
2151.790816
  0
ARC
  8
0
 62
     3
  6
CONTINUOUS
 10
2867.260138
 20
2146.790816
 40
3.000000
 50
90.000000
 51
180.000000
  0
ARC
  8
0
 62
     3
  6
CONTINUOUS
 10
2737.260138
 20
2146.790816
 40
3.000000
 50
0.000000E+00
 51
90.000000
  0
CIRCLE
  8
0
 62
     3
  6
CONTINUOUS
 10
2802.260138
 20
2211.790816
 40
67.000000
  0
CIRCLE
  8
0
 62
     3
  6
CONTINUOUS
 10
2802.260138
 20
2211.790816
 40
52.000000
  0
ARC
  8
0
 62
     3
  6
CONTINUOUS
 10
2895.260138
 20
2271.790816
 40
2.000000
 50
0.000000E+00
 51
90.000000
  0
LINE
  8
0
 62
     3
  6
CONTINUOUS
 10
2895.260138
 20
2273.790816
 11
2862.578046
 21
2273.790816
  0
ARC
  8
0
 62
     3
  6
CONTINUOUS
 10
2895.260138
 20
2151.790816
 40
2.000000
 50
270.000000
 51
360.000000
  0
LINE
  8
0
 62
     3
  6
CONTINUOUS
 10
2895.260138
 20
2149.790816
 11
2867.260138
 21
2149.790816
  0
LINE
  8
0
 62
     3
  6
CONTINUOUS
 10
2897.260138
 20
2151.790816
 11
2897.260138
 21
2271.790816
  0
CIRCLE
  8
0
 62
     3
  6
CONTINUOUS
 10
2802.260138
 20
2211.790816
 40
86.500000
  0
CIRCLE
  8
0
 62
     3
  6
CONTINUOUS
 10
2802.260138
 20
2211.790816
 40
75.000000
  0
LINE
  8
3
 62
     3
  6
CENTER
 10
2696.066815
 20
2211.790816
 11
2916.232349
 21
2211.790816
  0
LINE
  8
3
 62
     3
  6
CENTER
 10
2802.260138
 20
2113.349657
 11
2802.260138
 21
2313.889268
  0
INSERT
  8
0
  2
G8
 10
0
 20
0
  0
LINE
  8
0
 62
     2
  6
CONTINUOUS
 10
2907.260138
 20
1456.528715
 11
2802.260138
 21
1456.528715
  0
LINE
  8
0
 62
     2
  6
CONTINUOUS
 10
2907.260138
 20
1464.528715
 11
2802.260138
 21
1464.528715
  0
ARC
  8
0
 62
     2
  6
CONTINUOUS
 10
2901.260138
 20
1455.528715
 40
1.000000
 50
90.000000
 51
180.000000
  0
LINE
  8
0
 62
     2
  6
CONTINUOUS
 10
2900.260138
 20
1453.528715
 11
2900.260138
 21
1455.528715
  0
LINE
  8
0
 62
     2
  6
CONTINUOUS
 10
2907.260138
 20
1456.528715
 11
2907.260138
 21
1464.528715
  0
TEXT
  8
0
 62
     6
 10
2536.833607
 20
2523.812443
 40
35.000000
 50
0.000000E+00
 41
0.77 
  1
４ＳＦ－　　　－　　　　　　０　　０－Ｐ
 72
     5
 11
3152.333607
 21
2523.812443
  0
POINT
  8
0
 62
     3
 10
2802.260138
 20
1848.027117
  0
LINE
  8
3
 62
     3
  6
CONTINUOUS
 10
2727.260138
 20
1918.027117
 11
2802.260138
 21
1918.027117
  0
LINE
  8
3
 62
     3
  6
CONTINUOUS
 10
2741.290154
 20
1837.543100
 11
2802.260138
 21
1837.543100
  0
LINE
  8
3
 62
     3
  6
CONTINUOUS
 10
2724.521116
 20
1740.903002
 11
2802.260138
 21
1740.903002
  0
LINE
  8
3
 62
     3
  6
CENTER
 10
2802.260138
 20
1930.501565
 11
2802.260138
 21
1477.709326
  0
LINE
  8
0
 62
     2
  6
CONTINUOUS
 10
2697.260138
 20
1464.528715
 11
2802.260138
 21
1464.528715
  0
LINE
  8
0
 62
     3
  6
CONTINUOUS
 10
2888.260138
 20
1733.786486
 11
2888.260138
 21
1723.027117
  0
ARC
  8
0
 62
     3
  6
CONTINUOUS
 10
2853.260138
 20
1733.786486
 40
35.000000
 50
0.000000E+00
 51
17.716492
  0
ARC
  8
1
 62
     3
  6
CONTINUOUS
 10
2891.260138
 20
1593.027117
 40
3.000000
 50
90.000000
 51
180.000000
  0
ARC
  8
1
 62
     3
  6
CONTINUOUS
 10
2891.260138
 20
1723.027117
 40
3.000000
 50
180.000000
 51
270.000000
  0
ARC
  8
1
 62
     3
  6
CONTINUOUS
 10
2895.260138
 20
1718.027117
 40
2.000000
 50
0.000000E+00
 51
90.000000
  0
LINE
  8
1
 62
     3
  6
CONTINUOUS
 10
2895.260138
 20
1596.027117
 11
2891.260138
 21
1596.027117
  0
LINE
  8
1
 62
     3
  6
CONTINUOUS
 10
2895.260138
 20
1720.027117
 11
2891.260138
 21
1720.027117
  0
ARC
  8
1
 62
     3
  6
CONTINUOUS
 10
2895.260138
 20
1598.027117
 40
2.000000
 50
270.000000
 51
360.000000
  0
LINE
  8
0
 62
     2
  6
CONTINUOUS
 10
2704.260138
 20
1471.528715
 11
2900.260138
 21
1471.528715
  0
ARC
  8
0
 62
     2
  6
CONTINUOUS
 10
2703.260138
 20
1455.528715
 40
1.000000
 50
360.000000
 51
450.000000
  0
POINT
  8
0
 62
     3
 10
2802.260138
 20
1408.027117
  0
POINT
  8
0
 62
     3
 10
2802.260138
 20
1430.527117
  0
POINT
  8
0
 62
     3
 10
2802.260138
 20
1445.027117
  0
INSERT
  8
0
  2
G9
 10
0
 20
0
  0
INSERT
  8
0
  2
G10
 10
0
 20
0
  0
LINE
  8
3
 62
     4
  6
CONTINUOUS
 10
2863.500373
 20
1348.350668
 11
2864.220058
 21
1340.865870
  0
LINE
  8
3
 62
     4
  6
CONTINUOUS
 10
2864.220058
 20
1340.865870
 11
2865.333631
 21
1333.662253
  0
LINE
  8
3
 62
     4
  6
CONTINUOUS
 10
2865.333631
 20
1333.662253
 11
2866.822846
 21
1326.857845
  0
LINE
  8
3
 62
     4
  6
CONTINUOUS
 10
2866.822846
 20
1326.857845
 11
2868.663303
 21
1320.564134
  0
LINE
  8
3
 62
     4
  6
CONTINUOUS
 10
2868.663303
 20
1320.564134
 11
2870.824846
 21
1314.884240
  0
LINE
  8
3
 62
     4
  6
CONTINUOUS
 10
2870.824846
 20
1314.884240
 11
2873.272060
 21
1309.911225
  0
LINE
  8
3
 62
     4
  6
CONTINUOUS
 10
2873.272060
 20
1309.911225
 11
2875.964848
 21
1305.726570
  0
LINE
  8
3
 62
     4
  6
CONTINUOUS
 10
2875.964848
 20
1305.726570
 11
2878.859090
 21
1302.398841
  0
LINE
  8
3
 62
     4
  6
CONTINUOUS
 10
2878.859090
 20
1302.398841
 11
2881.907365
 21
1299.982559
  0
LINE
  8
3
 62
     4
  6
CONTINUOUS
 10
2881.907365
 20
1299.982559
 11
2885.059727
 21
1298.517316
  0
LINE
  8
3
 62
     4
  6
CONTINUOUS
 10
2881.907365
 20
1299.982559
 11
2885.059727
 21
1298.517316
  0
LINE
  8
3
 62
     4
  6
CONTINUOUS
 10
2870.798715
 20
1401.109505
 11
2869.684021
 21
1398.354921
  0
LINE
  8
3
 62
     4
  6
CONTINUOUS
 10
2869.684021
 20
1398.354921
 11
2868.645150
 21
1395.435725
  0
LINE
  8
3
 62
     4
  6
CONTINUOUS
 10
2868.645150
 20
1395.435725
 11
2867.686345
 21
1392.363834
  0
LINE
  8
3
 62
     4
  6
CONTINUOUS
 10
2867.686345
 20
1392.363834
 11
2866.811519
 21
1389.151786
  0
LINE
  8
3
 62
     4
  6
CONTINUOUS
 10
2866.811519
 20
1389.151786
 11
2866.024242
 21
1385.812693
  0
LINE
  8
3
 62
     4
  6
CONTINUOUS
 10
2866.024242
 20
1385.812693
 11
2865.327728
 21
1382.360184
  0
LINE
  8
3
 62
     4
  6
CONTINUOUS
 10
2865.327728
 20
1382.360184
 11
2864.724820
 21
1378.808352
  0
LINE
  8
3
 62
     4
  6
CONTINUOUS
 10
2864.724820
 20
1378.808352
 11
2864.217979
 21
1375.171694
  0
LINE
  8
3
 62
     4
  6
CONTINUOUS
 10
2864.217979
 20
1375.171694
 11
2863.809274
 21
1371.465055
  0
LINE
  8
3
 62
     4
  6
CONTINUOUS
 10
2863.809274
 20
1371.465055
 11
2863.500373
 21
1367.703565
  0
LINE
  8
3
 62
     4
  6
CONTINUOUS
 10
2863.809274
 20
1371.465055
 11
2863.500373
 21
1367.703565
  0
LINE
  8
1
 62
     4
  6
CONTINUOUS
 10
2707.260138
 20
1418.027117
 11
2707.260138
 21
1298.027117
  0
ARC
  8
1
 62
     4
  6
CONTINUOUS
 10
2696.458821
 20
1392.787309
 40
30.639745
 50
33.671563
 51
62.448001
  0
LINE
  8
1
 62
     4
  6
CONTINUOUS
 10
2713.260138
 20
1296.027117
 11
2709.260138
 21
1296.027117
  0
ARC
  8
1
 62
     4
  6
CONTINUOUS
 10
2713.260138
 20
1293.027117
 40
3.000000
 50
0.000000E+00
 51
90.000000
  0
ARC
  8
1
 62
     4
  6
CONTINUOUS
 10
2709.260138
 20
1418.027117
 40
2.000000
 50
90.000000
 51
180.000000
  0
ARC
  8
1
 62
     4
  6
CONTINUOUS
 10
2709.260138
 20
1298.027117
 40
2.000000
 50
180.000000
 51
270.000000
  0
ARC
  8
3
 62
     4
  6
CONTINUOUS
 10
2862.388321
 20
1429.975616
 40
28.500781
 50
295.487111
 51
314.942399
  0
POINT
  8
3
 62
     7
 10
2716.260138
 20
1418.027117
  0
ARC
  8
3
 62
     4
  6
CONTINUOUS
 10
2742.131956
 20
1429.975616
 40
28.500781
 50
225.057601
 51
244.512889
  0
LINE
  8
3
 62
     4
  6
CONTINUOUS
 10
2741.019904
 20
1367.703565
 11
2740.711003
 21
1371.465055
  0
LINE
  8
3
 62
     4
  6
CONTINUOUS
 10
2740.711003
 20
1371.465055
 11
2740.302298
 21
1375.171694
  0
LINE
  8
3
 62
     4
  6
CONTINUOUS
 10
2740.302298
 20
1375.171694
 11
2739.795457
 21
1378.808352
  0
LINE
  8
3
 62
     4
  6
CONTINUOUS
 10
2739.795457
 20
1378.808352
 11
2739.192549
 21
1382.360184
  0
LINE
  8
3
 62
     4
  6
CONTINUOUS
 10
2739.192549
 20
1382.360184
 11
2738.496035
 21
1385.812693
  0
LINE
  8
3
 62
     4
  6
CONTINUOUS
 10
2738.496035
 20
1385.812693
 11
2737.708758
 21
1389.151786
  0
LINE
  8
3
 62
     4
  6
CONTINUOUS
 10
2737.708758
 20
1389.151786
 11
2736.833931
 21
1392.363834
  0
LINE
  8
3
 62
     4
  6
CONTINUOUS
 10
2736.833931
 20
1392.363834
 11
2735.875126
 21
1395.435725
  0
LINE
  8
3
 62
     4
  6
CONTINUOUS
 10
2735.875126
 20
1395.435725
 11
2734.836256
 21
1398.354921
  0
LINE
  8
3
 62
     4
  6
CONTINUOUS
 10
2734.836256
 20
1398.354921
 11
2733.721561
 21
1401.109505
  0
LINE
  8
3
 62
     4
  6
CONTINUOUS
 10
2734.836256
 20
1398.354921
 11
2733.721561
 21
1401.109505
  0
LINE
  8
3
 62
     4
  6
CONTINUOUS
 10
2719.460550
 20
1298.517316
 11
2722.612912
 21
1299.982559
  0
LINE
  8
3
 62
     4
  6
CONTINUOUS
 10
2722.612912
 20
1299.982559
 11
2725.661186
 21
1302.398841
  0
LINE
  8
3
 62
     4
  6
CONTINUOUS
 10
2725.661186
 20
1302.398841
 11
2728.555428
 21
1305.726570
  0
LINE
  8
3
 62
     4
  6
CONTINUOUS
 10
2728.555428
 20
1305.726570
 11
2731.248216
 21
1309.911225
  0
LINE
  8
3
 62
     4
  6
CONTINUOUS
 10
2731.248216
 20
1309.911225
 11
2733.695430
 21
1314.884240
  0
LINE
  8
3
 62
     4
  6
CONTINUOUS
 10
2733.695430
 20
1314.884240
 11
2735.856974
 21
1320.564134
  0
LINE
  8
3
 62
     4
  6
CONTINUOUS
 10
2735.856974
 20
1320.564134
 11
2737.697431
 21
1326.857845
  0
LINE
  8
3
 62
     4
  6
CONTINUOUS
 10
2737.697431
 20
1326.857845
 11
2739.186646
 21
1333.662253
  0
LINE
  8
3
 62
     4
  6
CONTINUOUS
 10
2739.186646
 20
1333.662253
 11
2740.300218
 21
1340.865870
  0
LINE
  8
3
 62
     4
  6
CONTINUOUS
 10
2740.300218
 20
1340.865870
 11
2741.019904
 21
1348.350668
  0
LINE
  8
3
 62
     4
  6
CONTINUOUS
 10
2740.300218
 20
1340.865870
 11
2741.019904
 21
1348.350668
  0
LINE
  8
3
 62
     3
  6
CONTINUOUS
 10
2863.986782
 20
1652.211496
 11
2864.534327
 21
1644.144613
  0
LINE
  8
3
 62
     3
  6
CONTINUOUS
 10
2864.534327
 20
1644.144613
 11
2865.523169
 21
1636.335657
  0
LINE
  8
3
 62
     3
  6
CONTINUOUS
 10
2865.523169
 20
1636.335657
 11
2866.934936
 21
1628.929711
  0
LINE
  8
3
 62
     3
  6
CONTINUOUS
 10
2866.934936
 20
1628.929711
 11
2868.743400
 21
1622.064373
  0
LINE
  8
3
 62
     3
  6
CONTINUOUS
 10
2868.743400
 20
1622.064373
 11
2870.914959
 21
1615.867195
  0
LINE
  8
3
 62
     3
  6
CONTINUOUS
 10
2870.914959
 20
1615.867195
 11
2873.409269
 21
1610.453317
  0
LINE
  8
3
 62
     3
  6
CONTINUOUS
 10
2873.409269
 20
1610.453317
 11
2876.179986
 21
1605.923324
  0
LINE
  8
3
 62
     3
  6
CONTINUOUS
 10
2876.179986
 20
1605.923324
 11
2879.175633
 21
1602.361380
  0
LINE
  8
3
 62
     3
  6
CONTINUOUS
 10
2879.175633
 20
1602.361380
 11
2882.340553
 21
1599.833664
  0
LINE
  8
3
 62
     3
  6
CONTINUOUS
 10
2882.340553
 20
1599.833664
 11
2885.615944
 21
1598.387137
  0
LINE
  8
3
 62
     3
  6
CONTINUOUS
 10
2882.340553
 20
1599.833664
 11
2885.615944
 21
1598.387137
  0
LINE
  8
3
 62
     3
  6
CONTINUOUS
 10
2886.073835
 20
1717.780203
 11
2882.743103
 21
1716.460076
  0
LINE
  8
3
 62
     3
  6
CONTINUOUS
 10
2882.743103
 20
1716.460076
 11
2879.518224
 21
1714.024148
  0
LINE
  8
3
 62
     3
  6
CONTINUOUS
 10
2879.518224
 20
1714.024148
 11
2876.460780
 21
1710.518932
  0
LINE
  8
3
 62
     3
  6
CONTINUOUS
 10
2876.460780
 20
1710.518932
 11
2873.629152
 21
1706.011363
  0
LINE
  8
3
 62
     3
  6
CONTINUOUS
 10
2873.629152
 20
1706.011363
 11
2871.077413
 21
1700.587514
  0
LINE
  8
3
 62
     3
  6
CONTINUOUS
 10
2871.077413
 20
1700.587514
 11
2868.854289
 21
1694.350956
  0
LINE
  8
3
 62
     3
  6
CONTINUOUS
 10
2868.854289
 20
1694.350956
 11
2867.002231
 21
1687.420778
  0
LINE
  8
3
 62
     3
  6
CONTINUOUS
 10
2867.002231
 20
1687.420778
 11
2865.556606
 21
1679.929317
  0
LINE
  8
3
 62
     3
  6
CONTINUOUS
 10
2865.556606
 20
1679.929317
 11
2864.545017
 21
1672.019623
  0
LINE
  8
3
 62
     3
  6
CONTINUOUS
 10
2864.545017
 20
1672.019623
 11
2863.986782
 21
1663.842737
  0
LINE
  8
3
 62
     3
  6
CONTINUOUS
 10
2864.545017
 20
1672.019623
 11
2863.986782
 21
1663.842737
  0
TEXT
  8
0
 62
     6
 10
2901.066195
 20
2614.451072
 40
32.000000
 50
0.000000E+00
 41
0.86 
  1
ａ
 72
     5
 11
2933.066195
 21
2614.451072
  0
CIRCLE
  8
0
 62
     1
  6
CONTINUOUS
 10
2802.260138
 20
1358.027117
 40
62.000000
  0
LINE
  8
0
 62
     3
  6
CONTINUOUS
 10
2897.260138
 20
1718.027117
 11
2897.260138
 21
1598.027117
  0
ARC
  8
2
 62
     3
  6
CONTINUOUS
 10
2877.302064
 20
1824.400741
 40
15.000000
 50
120.111013
 51
197.716492
  0
LINE
  8
0
 62
     3
  6
CONTINUOUS
 10
2716.260138
 20
1593.027117
 11
2716.260138
 21
1471.528715
  0
LINE
  8
0
 62
     2
  6
CONTINUOUS
 10
2704.260138
 20
1471.528715
 11
2697.260138
 21
1464.528715
  0
LINE
  8
3
 62
     4
  6
CENTER
 10
2802.260138
 20
924.939597
 11
2802.260138
 21
1165.631738
  0
LINE
  8
3
 62
     4
  6
CENTER
 10
2802.260138
 20
1165.631738
 11
2802.260138
 21
1477.709326
  0
ARC
  8
2
 62
     3
  6
CONTINUOUS
 10
2727.218213
 20
1824.400741
 40
15.000000
 50
342.283508
 51
419.888987
  0
LINE
  8
0
 62
     3
  6
CONTINUOUS
 10
2863.013455
 20
1819.836132
 11
2886.600226
 21
1744.437240
  0
LINE
  8
0
 62
     3
  6
CONTINUOUS
 10
2741.506822
 20
1819.836132
 11
2717.920051
 21
1744.437240
  0
LINE
  8
3
 62
     3
  6
CONTINUOUS
 10
2863.230122
 20
1837.543100
 11
2802.260138
 21
1837.543100
  0
ARC
  8
0
 62
     3
  6
CONTINUOUS
 10
2751.260138
 20
1733.786486
 40
35.000000
 50
162.283508
 51
180.000000
  0
LINE
  8
0
 62
     3
  6
CONTINUOUS
 10
2716.260138
 20
1733.786486
 11
2716.260138
 21
1723.027117
  0
LINE
  8
3
 62
     4
  6
CONTINUOUS
 10
2697.260138
 20
1453.027117
 11
2697.260138
 21
1438.027117
  0
LINE
  8
3
 62
     4
  6
CONTINUOUS
 10
2698.260138
 20
1438.027117
 11
2697.260138
 21
1438.027117
  0
ARC
  8
3
 62
     4
  6
CONTINUOUS
 10
2698.260138
 20
1436.027117
 40
2.000000
 50
0.000000E+00
 51
90.000000
  0
LINE
  8
3
 62
     4
  6
CONTINUOUS
 10
2700.260138
 20
1436.027117
 11
2700.260138
 21
1434.527117
  0
ARC
  8
3
 62
     4
  6
CONTINUOUS
 10
2701.760138
 20
1434.527117
 40
1.500000
 50
180.000000
 51
270.000000
  0
LINE
  8
3
 62
     4
  6
CONTINUOUS
 10
2705.700990
 20
1433.027117
 11
2709.260138
 21
1428.726479
  0
LINE
  8
3
 62
     4
  6
CONTINUOUS
 10
2709.260138
 20
1428.726479
 11
2709.260138
 21
1420.027117
  0
LINE
  8
3
 62
     4
  6
CONTINUOUS
 10
2895.260138
 20
1428.726479
 11
2895.260138
 21
1420.027117
  0
LINE
  8
3
 62
     4
  6
CONTINUOUS
 10
2898.819287
 20
1433.027117
 11
2895.260138
 21
1428.726479
  0
LINE
  8
3
 62
     4
  6
CONTINUOUS
 10
2902.760138
 20
1433.027117
 11
2701.760138
 21
1433.027117
  0
ARC
  8
3
 62
     4
  6
CONTINUOUS
 10
2902.760138
 20
1434.527117
 40
1.500000
 50
270.000000
 51
360.000000
  0
LINE
  8
3
 62
     4
  6
CONTINUOUS
 10
2869.413514
 20
1403.027117
 11
2844.909875
 21
1403.027117
  0
LINE
  8
3
 62
     4
  6
CONTINUOUS
 10
2904.260138
 20
1436.027117
 11
2904.260138
 21
1434.527117
  0
ARC
  8
3
 62
     4
  6
CONTINUOUS
 10
2906.260138
 20
1436.027117
 40
2.000000
 50
90.000000
 51
180.000000
  0
LINE
  8
3
 62
     3
  6
CENTER
 10
2880.748991
 20
1429.083548
 11
2880.748991
 21
1459.574319
  0
LINE
  8
3
 62
     3
  6
CENTER
 10
2723.771286
 20
1429.083548
 11
2723.771286
 21
1459.574319
  0
LINE
  8
3
 62
     4
  6
CONTINUOUS
 10
2906.260138
 20
1438.027117
 11
2907.260138
 21
1438.027117
  0
LINE
  8
3
 62
     4
  6
CONTINUOUS
 10
2907.260138
 20
1453.027117
 11
2907.260138
 21
1438.027117
  0
ARC
  8
3
 62
     4
  6
CONTINUOUS
 10
2855.260138
 20
940.027117
 40
2.000000
 50
270.000000
 51
360.000000
  0
ARC
  8
3
 62
     4
  6
CONTINUOUS
 10
2749.260138
 20
940.027117
 40
2.000000
 50
180.000000
 51
270.000000
  0
LINE
  8
3
 62
     4
  6
CONTINUOUS
 10
2907.260138
 20
1453.027117
 11
2697.260138
 21
1453.027117
  0
LINE
  8
3
 62
     4
  6
CONTINUOUS
 10
2698.260138
 20
1438.027117
 11
2906.260138
 21
1438.027117
  0
LINE
  8
3
 62
     4
  6
CONTINUOUS
 10
2888.260138
 20
1211.899028
 11
2888.260138
 21
1293.027117
  0
LINE
  8
3
 62
     4
  6
CONTINUOUS
 10
2895.260138
 20
1428.726479
 11
2709.260138
 21
1428.726479
  0
LINE
  8
3
 62
     4
  6
CONTINUOUS
 10
2716.260138
 20
1208.027117
 11
2716.260138
 21
1293.027117
  0
LINE
  8
3
 62
     4
  6
CONTINUOUS
 10
2721.511049
 20
1208.027117
 11
2883.009227
 21
1208.027117
  0
LINE
  8
3
 62
     4
  6
CONTINUOUS
 10
2752.009227
 20
1088.027117
 11
2852.511049
 21
1088.027117
  0
LINE
  8
3
 62
     4
  6
CONTINUOUS
 10
2855.260138
 20
938.027117
 11
2749.260138
 21
938.027117
  0
LINE
  8
3
 62
     4
  6
CONTINUOUS
 10
2857.260138
 20
1084.155205
 11
2857.260138
 21
940.027117
  0
ARC
  8
3
 62
     4
  6
CONTINUOUS
 10
2853.260138
 20
1211.899028
 40
35.000000
 50
345.291696
 51
360.000000
  0
LINE
  8
3
 62
     4
  6
CONTINUOUS
 10
2887.113222
 20
1203.012593
 11
2858.079364
 21
1090.502658
  0
ARC
  8
3
 62
     4
  6
CONTINUOUS
 10
2882.260138
 20
1084.155205
 40
25.000000
 50
165.291696
 51
180.000000
  0
LINE
  8
3
 62
     4
  6
CONTINUOUS
 10
2747.260138
 20
1084.155205
 11
2747.260138
 21
940.027117
  0
ARC
  8
3
 62
     4
  6
CONTINUOUS
 10
2751.260138
 20
1211.899028
 40
35.000000
 50
180.000000
 51
194.708304
  0
LINE
  8
3
 62
     4
  6
CONTINUOUS
 10
2717.407055
 20
1203.012593
 11
2746.440912
 21
1090.502658
  0
ARC
  8
3
 62
     4
  6
CONTINUOUS
 10
2722.260138
 20
1084.155205
 40
25.000000
 50
0.000000E+00
 51
14.708304
  0
LINE
  8
1
 62
     4
  6
CONTINUOUS
 10
2897.260138
 20
1418.027117
 11
2897.260138
 21
1298.027117
  0
ARC
  8
1
 62
     4
  6
CONTINUOUS
 10
2895.260138
 20
1418.027117
 40
2.000000
 50
0.000000E+00
 51
90.000000
  0
ARC
  8
1
 62
     4
  6
CONTINUOUS
 10
2895.260138
 20
1298.027117
 40
2.000000
 50
270.000000
 51
360.000000
  0
LINE
  8
3
 62
     3
  6
CONTINUOUS
 10
2879.999161
 20
1740.903002
 11
2802.260138
 21
1740.903002
  0
ARC
  8
3
 62
     3
  6
CONTINUOUS
 10
2879.260138
 20
1913.444541
 40
5.000000
 50
113.578178
 51
180.000000
  0
ARC
  8
0
 62
     3
  6
CONTINUOUS
 10
2853.260138
 20
1733.786486
 40
35.000000
 50
0.000000E+00
 51
17.716492
  0
LINE
  8
3
 62
     3
  6
CONTINUOUS
 10
2877.260138
 20
1923.027117
 11
2877.260138
 21
1918.027117
  0
ARC
  8
3
 62
     3
  6
CONTINUOUS
 10
2725.260138
 20
1913.444541
 40
5.000000
 50
360.000000
 51
426.421822
  0
LINE
  8
0
 62
     2
  6
CONTINUOUS
 10
2900.260138
 20
1471.528715
 11
2907.260138
 21
1464.528715
  0
LINE
  8
3
 62
     3
  6
CENTER
 10
2695.189345
 20
1658.027117
 11
2911.187420
 21
1658.027117
  0
ARC
  8
3
 62
     3
  6
CONTINUOUS
 10
2740.260138
 20
1846.027117
 40
10.000000
 50
180.000000
 51
238.038250
  0
LINE
  8
3
 62
     3
  6
CONTINUOUS
 10
2874.260138
 20
1913.444541
 11
2874.260138
 21
1846.027117
  0
LINE
  8
3
 62
     3
  6
CONTINUOUS
 10
2730.260138
 20
1913.444541
 11
2730.260138
 21
1846.027117
  0
ARC
  8
3
 62
     3
  6
CONTINUOUS
 10
2864.260138
 20
1846.027117
 40
10.000000
 50
302.527138
 51
360.000000
  0
LINE
  8
0
 62
     3
  6
CONTINUOUS
 10
2888.260138
 20
1593.027117
 11
2888.260138
 21
1471.528715
  0
LINE
  8
3
 62
     3
  6
CONTINUOUS
 10
2727.260138
 20
1923.027117
 11
2727.260138
 21
1918.027117
  0
LINE
  8
3
 62
     3
  6
CONTINUOUS
 10
2727.260138
 20
1923.027117
 11
2877.260138
 21
1923.027117
  0
LINE
  8
3
 62
     3
  6
CONTINUOUS
 10
2877.260138
 20
1918.027117
 11
2802.260138
 21
1918.027117
  0
LINE
  8
0
 62
     3
  6
CONTINUOUS
 10
2888.260138
 20
1723.027117
 11
2888.260138
 21
1733.786486
  0
LINE
  8
0
 62
     2
  6
CONTINUOUS
 10
2697.260138
 20
1456.528715
 11
2697.260138
 21
1464.528715
  0
LINE
  8
0
 62
     2
  6
CONTINUOUS
 10
2704.260138
 20
1453.528715
 11
2900.260138
 21
1453.528715
  0
LINE
  8
0
 62
     2
  6
CONTINUOUS
 10
2697.260138
 20
1456.528715
 11
2802.260138
 21
1456.528715
  0
LINE
  8
0
 62
     2
  6
CONTINUOUS
 10
2704.260138
 20
1453.528715
 11
2704.260138
 21
1455.528715
  0
LINE
  8
3
 62
     4
  6
CONTINUOUS
 10
2735.106763
 20
1403.027117
 11
2759.610402
 21
1403.027117
  0
ARC
  8
3
 62
     4
  6
CONTINUOUS
 10
2895.260138
 20
1418.027117
 40
2.000000
 50
0.000000E+00
 51
90.000000
  0
LINE
  8
3
 62
     4
  6
CONTINUOUS
 10
2897.260138
 20
1298.027117
 11
2897.260138
 21
1418.027117
  0
ARC
  8
3
 62
     4
  6
CONTINUOUS
 10
2895.260138
 20
1298.027117
 40
2.000000
 50
270.000000
 51
360.000000
  0
LINE
  8
3
 62
     4
  6
CONTINUOUS
 10
2895.260138
 20
1296.027117
 11
2891.260138
 21
1296.027117
  0
ARC
  8
3
 62
     4
  6
CONTINUOUS
 10
2891.260138
 20
1293.027117
 40
3.000000
 50
90.000000
 51
180.000000
  0
POINT
  8
3
 62
     4
 10
2888.260138
 20
1296.027117
  0
POINT
  8
3
 62
     7
 10
2888.260138
 20
1418.027117
  0
ARC
  8
1
 62
     4
  6
CONTINUOUS
 10
2908.061456
 20
1392.787309
 40
30.639745
 50
117.551999
 51
146.346996
  0
LINE
  8
3
 62
     3
  6
CONTINUOUS
 10
2740.533494
 20
1663.842737
 11
2739.975260
 21
1672.019623
  0
LINE
  8
3
 62
     3
  6
CONTINUOUS
 10
2739.975260
 20
1672.019623
 11
2738.963671
 21
1679.929317
  0
LINE
  8
3
 62
     3
  6
CONTINUOUS
 10
2738.963671
 20
1679.929317
 11
2737.518045
 21
1687.420778
  0
LINE
  8
3
 62
     3
  6
CONTINUOUS
 10
2737.518045
 20
1687.420778
 11
2735.665988
 21
1694.350956
  0
LINE
  8
3
 62
     3
  6
CONTINUOUS
 10
2735.665988
 20
1694.350956
 11
2733.442863
 21
1700.587514
  0
LINE
  8
3
 62
     3
  6
CONTINUOUS
 10
2733.442863
 20
1700.587514
 11
2730.891124
 21
1706.011363
  0
LINE
  8
3
 62
     3
  6
CONTINUOUS
 10
2730.891124
 20
1706.011363
 11
2728.059497
 21
1710.518932
  0
LINE
  8
3
 62
     3
  6
CONTINUOUS
 10
2728.059497
 20
1710.518932
 11
2725.002053
 21
1714.024148
  0
LINE
  8
3
 62
     3
  6
CONTINUOUS
 10
2725.002053
 20
1714.024148
 11
2721.777174
 21
1716.460076
  0
LINE
  8
3
 62
     3
  6
CONTINUOUS
 10
2721.777174
 20
1716.460076
 11
2718.446442
 21
1717.780203
  0
LINE
  8
3
 62
     3
  6
CONTINUOUS
 10
2721.777174
 20
1716.460076
 11
2718.446442
 21
1717.780203
  0
LINE
  8
0
 62
     3
  6
CONTINUOUS
 10
2707.260138
 20
1718.027117
 11
2707.260138
 21
1598.027117
  0
INSERT
  8
0
  2
G11
 10
0
 20
0
  0
INSERT
  8
0
  2
G12
 10
0
 20
0
  0
LINE
  8
0
 62
     1
  6
CONTINUOUS
 10
2919.121622
 20
1658.027117
 11
3109.337052
 21
1658.027117
  0
LINE
  8
0
 62
     1
  6
CONTINUOUS
 10
3109.337052
 20
1658.027117
 11
3063.740360
 21
1658.027117
  0
INSERT
  8
0
  2
G13
 10
0
 20
0
  0
INSERT
  8
0
  2
G14
 10
0
 20
0
  0
INSERT
  8
0
  2
G15
 10
0
 20
0
  0
INSERT
  8
0
  2
G16
 10
0
 20
0
  0
INSERT
  8
0
  2
G17
 10
0
 20
0
  0
INSERT
  8
0
  2
G18
 10
0
 20
0
  0
INSERT
  8
0
  2
G19
 10
0
 20
0
  0
INSERT
  8
0
  2
G20
 10
0
 20
0
  0
TEXT
  8
0
 62
     3
 10
3311.553615
 20
579.564184
 40
32.000000
 50
0.000000E+00
 41
0.94 
  1
対応可能Ｐ寸法　２４０～３６０
 72
     5
 11
3837.267923
 21
579.564184
  0
LINE
  8
0
 62
     2
  6
CONTINUOUS
 10
3244.712419
 20
640.281646
 11
4024.114339
 21
640.281646
  0
TEXT
  8
0
 62
     2
 10
3733.220431
 20
667.585896
 40
30.000000
 50
0.000000E+00
 41
0.61 
  1
925
 72
     5
 11
3788.220431
 21
667.585896
  0
TEXT
  8
0
 62
     2
 10
3630.421191
 20
667.585896
 40
30.000000
 50
0.000000E+00
 41
0.61 
  1
905
 72
     5
 11
3685.421191
 21
667.585896
  0
TEXT
  8
0
 62
     2
 10
3530.968711
 20
669.313032
 40
30.000000
 50
0.000000E+00
 41
0.61 
  1
885
 72
     5
 11
3585.968711
 21
669.313032
  0
TEXT
  8
0
 62
     2
 10
3836.729671
 20
669.313032
 40
30.000000
 50
0.000000E+00
 41
0.61 
  1
965
 72
     5
 11
3891.729671
 21
669.313032
  0
TEXT
  8
0
 62
     2
 10
3429.049031
 20
760.753032
 40
30.000000
 50
0.000000E+00
 41
0.61 
  1
790
 72
     5
 11
3484.049031
 21
760.753032
  0
TEXT
  8
0
 62
     2
 10
3941.182151
 20
667.585896
 40
30.000000
 50
0.000000E+00
 41
0.61 
  1
985
 72
     5
 11
3996.182151
 21
667.585896
  0
TEXT
  8
0
 62
     2
 10
3429.049031
 20
669.313032
 40
30.000000
 50
0.000000E+00
 41
0.61 
  1
865
 72
     5
 11
3484.049031
 21
669.313032
  0
TEXT
  8
0
 62
     2
 10
3836.490686
 20
837.196846
 40
30.000000
 50
0.000000E+00
 41
0.61 
  1
340
 72
     5
 11
3891.490686
 21
837.196846
  0
TEXT
  8
0
 62
     2
 10
3734.570046
 20
837.196846
 40
30.000000
 50
0.000000E+00
 41
0.61 
  1
300
 72
     5
 11
3789.570046
 21
837.196846
  0
TEXT
  8
0
 62
     2
 10
3632.649406
 20
837.196846
 40
30.000000
 50
0.000000E+00
 41
0.61 
  1
280
 72
     5
 11
3687.649406
 21
837.196846
  0
TEXT
  8
0
 62
     2
 10
3428.810046
 20
837.196846
 40
30.000000
 50
0.000000E+00
 41
0.61 
  1
240
 72
     5
 11
3483.810046
 21
837.196846
  0
LINE
  8
0
 62
     2
  6
CONTINUOUS
 10
3810.274019
 20
884.601646
 11
3810.274019
 21
640.281646
  0
TEXT
  8
0
 62
     2
 10
3255.240523
 20
673.627725
 40
30.000000
 50
0.000000E+00
 41
0.72 
  1
Ｌｔ（全長）
 72
     5
 11
3405.240523
 21
673.627725
  0
LINE
  8
0
 62
     2
  6
CONTINUOUS
 10
3244.712419
 20
731.721646
 11
4024.114339
 21
731.721646
  0
TEXT
  8
0
 62
     2
 10
3941.182151
 20
759.025896
 40
30.000000
 50
0.000000E+00
 41
0.61 
  1
910
 72
     5
 11
3996.182151
 21
759.025896
  0
LINE
  8
0
 62
     2
  6
CONTINUOUS
 10
3244.712419
 20
884.601646
 11
4024.114339
 21
884.601646
  0
TEXT
  8
0
 62
     2
 10
3836.729671
 20
760.753032
 40
30.000000
 50
0.000000E+00
 41
0.61 
  1
890
 72
     5
 11
3891.729671
 21
760.753032
  0
LINE
  8
0
 62
     2
  6
CONTINUOUS
 10
3402.593379
 20
884.601646
 11
3402.593379
 21
640.281646
  0
LINE
  8
0
 62
     2
  6
CONTINUOUS
 10
3504.513059
 20
884.601646
 11
3504.513059
 21
640.281646
  0
LINE
  8
0
 62
     2
  6
CONTINUOUS
 10
3606.432739
 20
884.601646
 11
3606.432739
 21
640.281646
  0
LINE
  8
0
 62
     2
  6
CONTINUOUS
 10
3708.353379
 20
884.601646
 11
3708.353379
 21
640.281646
  0
LINE
  8
0
 62
     2
  6
CONTINUOUS
 10
4024.114339
 20
884.601646
 11
4024.114339
 21
640.281646
  0
LINE
  8
0
 62
     2
  6
CONTINUOUS
 10
3912.193699
 20
884.601646
 11
3912.193699
 21
640.281646
  0
TEXT
  8
0
 62
     2
 10
3943.410366
 20
837.196846
 40
30.000000
 50
0.000000E+00
 41
0.61 
  1
360
 72
     5
 11
3998.410366
 21
837.196846
  0
LINE
  8
0
 62
     2
  6
CONTINUOUS
 10
3244.712419
 20
823.161646
 11
4024.114339
 21
823.161646
  0
TEXT
  8
0
 62
     2
 10
3255.240523
 20
765.067725
 40
30.000000
 50
0.000000E+00
 41
0.72 
  1
Ｌ（有効長）
 72
     5
 11
3405.240523
 21
765.067725
  0
LINE
  8
0
 62
     2
  6
CONTINUOUS
 10
3244.712419
 20
884.601646
 11
3244.712419
 21
640.281646
  0
LINE
  8
0
 62
     2
  6
CONTINUOUS
 10
4022.541101
 20
871.364597
 11
4022.541101
 21
871.364405
  0
TEXT
  8
0
 62
     2
 10
3530.968711
 20
760.753032
 40
30.000000
 50
0.000000E+00
 41
0.61 
  1
810
 72
     5
 11
3585.968711
 21
760.753032
  0
TEXT
  8
0
 62
     2
 10
3630.421191
 20
759.025896
 40
30.000000
 50
0.000000E+00
 41
0.61 
  1
830
 72
     5
 11
3685.421191
 21
759.025896
  0
TEXT
  8
0
 62
     2
 10
3530.729726
 20
837.196846
 40
30.000000
 50
0.000000E+00
 41
0.61 
  1
260
 72
     5
 11
3585.729726
 21
837.196846
  0
TEXT
  8
0
 62
     2
 10
3314.281517
 20
837.217257
 40
30.000000
 50
0.000000E+00
 41
0.86 
  1
Ｐ
 72
     5
 11
3344.281517
 21
837.217257
  0
TEXT
  8
0
 62
     2
 10
3733.220431
 20
759.025896
 40
30.000000
 50
0.000000E+00
 41
0.61 
  1
850
 72
     5
 11
3788.220431
 21
759.025896
  0
TEXT
  8
0
 62
     2
 10
3948.410366
 20
938.636846
 40
30.000000
 50
0.000000E+00
 41
0.58 
  1
44
 72
     5
 11
3983.410366
 21
938.636846
  0
TEXT
  8
0
 62
     2
 10
3836.489726
 20
938.636846
 40
30.000000
 50
0.000000E+00
 41
0.58 
  1
52
 72
     5
 11
3871.489726
 21
938.636846
  0
TEXT
  8
0
 62
     2
 10
3737.498474
 20
1121.253863
 40
25.600000
 50
0.000000E+00
 41
0.55 
  1
100
 72
     5
 11
3779.555619
 21
1121.253863
  0
TEXT
  8
0
 62
     2
 10
3720.968180
 20
1159.938571
 40
18.400000
 50
0.000000E+00
 41
0.89 
  1
立管受口
 72
     5
 11
3796.968179
 21
1159.938571
  0
TEXT
  8
0
 62
     2
 10
3948.410366
 20
1061.516846
 40
30.000000
 50
0.000000E+00
 41
0.58 
  1
65
 72
     5
 11
3983.410366
 21
1061.516846
  0
TEXT
  8
0
 62
     2
 10
3836.489726
 20
1061.516846
 40
30.000000
 50
0.000000E+00
 41
0.58 
  1
65
 72
     5
 11
3871.489726
 21
1061.516846
  0
TEXT
  8
0
 62
     2
 10
3744.570046
 20
1061.516846
 40
30.000000
 50
0.000000E+00
 41
0.58 
  1
75
 72
     5
 11
3779.570046
 21
1061.516846
  0
LINE
  8
0
 62
     2
  6
CONTINUOUS
 10
3800.273059
 20
986.041646
 11
3718.353379
 21
924.601646
  0
LINE
  8
0
 62
     2
  6
CONTINUOUS
 10
4024.114339
 20
1190.846702
 11
4024.114339
 21
924.601646
  0
TEXT
  8
0
 62
     2
 10
3607.250523
 20
942.947725
 40
30.000000
 50
0.000000E+00
 41
0.86 
  1
Ｂ寸法
 72
     5
 11
3697.250523
 21
942.947725
  0
LINE
  8
0
 62
     2
  6
CONTINUOUS
 10
3595.472419
 20
986.041646
 11
4024.114339
 21
986.041646
  0
LINE
  8
0
 62
     2
  6
CONTINUOUS
 10
3800.273059
 20
1149.881678
 11
4024.114339
 21
1149.881678
  0
LINE
  8
0
 62
     2
  6
CONTINUOUS
 10
3595.472419
 20
1108.921646
 11
4024.114339
 21
1108.921646
  0
TEXT
  8
0
 62
     2
 10
3811.487268
 20
1154.795013
 40
30.000000
 50
0.000000E+00
 41
0.72 
  1
下部横枝管サイズ
 72
     5
 11
4011.487268
 21
1154.795013
  0
LINE
  8
0
 62
     2
  6
CONTINUOUS
 10
3718.353379
 20
1189.607822
 11
3718.353379
 21
924.601646
  0
LINE
  8
0
 62
     2
  6
CONTINUOUS
 10
3800.273059
 20
1189.607822
 11
3800.273059
 21
924.601646
  0
LINE
  8
0
 62
     2
  6
CONTINUOUS
 10
3800.273059
 20
1047.481646
 11
3718.353379
 21
986.041646
  0
LINE
  8
0
 62
     2
  6
CONTINUOUS
 10
3912.193699
 20
1149.881486
 11
3912.193699
 21
924.601646
  0
LINE
  8
0
 62
     2
  6
CONTINUOUS
 10
3595.472419
 20
924.601646
 11
4024.114339
 21
924.601646
  0
TEXT
  8
0
 62
     2
 10
3816.535645
 20
1114.716379
 40
30.000000
 50
0.000000E+00
 41
0.63 
  1
65(2)
 72
     5
 11
3911.535645
 21
1114.716379
  0
TEXT
  8
0
 62
     2
 10
3928.456285
 20
1114.716379
 40
30.000000
 50
0.000000E+00
 41
0.63 
  1
50(1)
 72
     5
 11
4023.456285
 21
1114.716379
  0
LINE
  8
0
 62
     2
  6
CONTINUOUS
 10
3595.472419
 20
1149.881678
 11
3595.472419
 21
924.601646
  0
LINE
  8
0
 62
     2
  6
CONTINUOUS
 10
3595.472419
 20
1047.481646
 11
4024.114339
 21
1047.481646
  0
TEXT
  8
0
 62
     2
 10
3607.250523
 20
1004.387725
 40
30.000000
 50
0.000000E+00
 41
0.86 
  1
Ａ寸法
 72
     5
 11
3697.250523
 21
1004.387725
  0
LINE
  8
0
 62
     2
  6
CONTINUOUS
 10
3595.472419
 20
1149.881678
 11
3595.472419
 21
1190.846702
  0
LINE
  8
0
 62
     2
  6
CONTINUOUS
 10
3595.472419
 20
1190.846702
 11
4024.114339
 21
1190.846702
  0
LINE
  8
0
 62
     2
  6
CONTINUOUS
 10
3994.113379
 20
1149.881678
 11
3994.113379
 21
1149.881486
  0
TEXT
  8
0
 62
     2
 10
3824.261511
 20
1000.076846
 40
30.000000
 50
0.000000E+00
 41
0.61 
  1
110
 72
     5
 11
3879.261511
 21
1000.076846
  0
TEXT
  8
0
 62
     2
 10
3600.041517
 20
1061.537257
 40
30.000000
 50
0.000000E+00
 41
0.86 
  1
受口深さ
 72
     5
 11
3720.041517
 21
1061.537257
  0
LINE
  8
0
 62
     2
  6
CONTINUOUS
 10
3595.472419
 20
1190.846702
 11
3718.353379
 21
1108.921646
  0
TEXT
  8
0
 62
     2
 10
3948.410366
 20
1000.076846
 40
30.000000
 50
0.000000E+00
 41
0.58 
  1
94
 72
     5
 11
3983.410366
 21
1000.076846
  0
INSERT
  8
0
  2
G21
 10
0
 20
0
  0
INSERT
  8
0
  2
G22
 10
0
 20
0
  0
INSERT
  8
0
  2
G23
 10
0
 20
0
  0
INSERT
  8
0
  2
G24
 10
0
 20
0
  0
INSERT
  8
0
  2
G25
 10
0
 20
0
  0
INSERT
  8
0
  2
G26
 10
0
 20
0
  0
INSERT
  8
0
  2
G27
 10
0
 20
0
  0
INSERT
  8
0
  2
G28
 10
0
 20
0
  0
INSERT
  8
0
  2
G29
 10
0
 20
0
  0
INSERT
  8
0
  2
G30
 10
0
 20
0
  0
LINE
  8
3
 62
     4
  6
CENTER
 10
2729.589636
 20
1358.027117
 11
2876.759172
 21
1358.027117
  0
INSERT
  8
0
  2
G31
 10
0
 20
0
  0
INSERT
  8
0
  2
G32
 10
0
 20
0
  0
INSERT
  8
0
  2
G33
 10
0
 20
0
  0
INSERT
  8
0
  2
G34
 10
0
 20
0
  0
ENDSEC
  0
EOF
