  0
SECTION
  2
HEADER
  9
$INSBASE
 10
0
 20
0
  9
$EXTMIN
 10
0
 20
0
  9
$EXTMAX
 10
4200.000000
 20
2970.000000
  9
$LIMMIN
 10
0
 20
0
  9
$LIMMAX
 10
4200.000000
 20
2970.000000
  9
$VIEWCTR
 10
2100.000000
 20
1485.000000
  9
$DIMASZ
 40
20.000000
  9
$DIMDLI
 40
80.000000
  9
$DIMEXE
 40
10.000000
  9
$DIMEXO
 40
10.000000
  9
$DIMTXT
 40
32.000000
  9
$TEXTSIZE
 40
32.000000
  9
$ANGBASE
 50
0.0
  9
$ANGDIR
 70
     0
  9
$ATTMODE
 70
     1
  9
$AUNITS
 70
     1
  9
$AUPREC
 70
     2
  9
$AXISMODE
 70
     0
  9
$AXISUNIT
 10
0.0
 20
0.0
  9
$BLIPMODE
 70
     1
  9
$CECOLOR
 62
   256
  9
$CELTYPE
  6
BYLAYER
  9
$CHAMFERA
 40
0.0
  9
$CHAMFERB
 40
0.0
  9
$CLAYER
  8
0
  9
$COORDS
 70
     0
  9
$DIMALT
 70
     0
  9
$DIMALTD
 70
     2
  9
$DIMALTF
 40
25.4
  9
$DIMDLE
 40
0.0
  9
$DIMLFAC
 40
1.0
  9
$DIMLIM
 70
     0
  9
$DIMRND
 40
0.0
  9
$DIMSCALE
 40
1.0
  9
$DIMSE1
 70
     0
  9
$DIMSE2
 70
     0
  9
$DIMTAD
 70
     1
  9
$DIMTIH
 70
     0
  9
$DIMTM
 40
0.0
  9
$DIMTOH
 70
     0
  9
$DIMTOL
 70
     0
  9
$DIMTP
 40
0.0
  9
$DIMTSZ
 40
0.0
  9
$DIMZIN
 70
     0
  9
$DRAGMODE
 70
     2
  9
$ELEVATION
 40
0.0
  9
$FASTZOOM
 70
     1
  9
$FILLETRAD
 40
0.0
  9
$FILLMODE
 70
     1
  9
$GRIDMODE
 70
     0
  9
$GRIDUNIT
 10
0.0
 20
0.0
  9
$LTSCALE
 40
1.0
  9
$LUNITS
 70
     2
  9
$LUPREC
 70
     2
  9
$MENU
  1
ACAD
  9
$ORTHOMODE
 70
     0
  9
$OSMODE
 70
     0
  9
$PDMODE
 70
     0
  9
$PDSIZE
 40
0.0
  9
$PLINEWID
 40
0.0
  9
$QTEXTMODE
 70
     0
  9
$REGENMODE
 70
     1
  9
$SKETCHINC
 40
0.1
  9
$SKPOLY
 70
     0
  9
$SNAPBASE
 10
0.0
 20
0.0
  9
$SNAPISOPAIR
 70
     0
  9
$SNAPMODE
 70
     0
  9
$SNAPSTYLE
 70
     0
  9
$SNAPUNIT
 10
0.0
 20
0.0
  9
$TEXTSTYLE
  7
KANJI
  9
$THICKNESS
 40
0.0
  9
$TRACEWID
 40
0.05
  9
$VIEWDIR
 10
0.0
 20
0.0
 30
1.0
  9
$VIEWSIZE
 40
0.0
  0
ENDSEC
  0
SECTION
  2
TABLES
  0
TABLE
  2
LTYPE
 70
     9
  0
LTYPE
  2
CONTINUOUS
 70
    64
  3
Solid line
 72
    65
 73
     0
 40
0.0
  0
LTYPE
  2
DASHED
 70
    64
  3
__ __ __ __ __ __ __ __ __ __ __ __ __ __ __
 72
    65
 73
     2
 40
0.75
 49
0.5
 49
-0.25
  0
LTYPE
  2
HIDDEN
 70
    64
  3
_ _ _ _ _ _ _ _ _ _ _ _ _ _ _ _ _ _ _ _ _ _ _
 72
    65
 73
     2
 40
0.375
 49
0.25
 49
-0.125
  0
LTYPE
  2
CENTER
 70
    64
  3
____ _ ____ _ ____ _ ____ _ ____ _ ____ _ ____
 72
    65
 73
     4
 40
2.0
 49
1.25
 49
-0.25
 49
0.25
 49
-0.25
  0
LTYPE
  2
PHANTOM
 70
    64
  3
_____ _ _ _____ _ _ _____ _ _ _____ _ _ ____
 72
    65
 73
     6
 40
2.5
 49
1.25
 49
-0.25
 49
0.25
 49
-0.25
 49
0.25
 49
-0.25
  0
LTYPE
  2
DOT
 70
    64
  3
...............................................
 72
    65
 73
     2
 40
0.25
 49
0.0
 49
-0.25
  0
LTYPE
  2
DASHDOT
 70
    64
  3
__ . __ . __ . __ . __ . __ . __ . __ . __ . __
 72
    65
 73
     4
 40
1.0
 49
0.5
 49
-0.25
 49
0.0
 49
-0.25
  0
LTYPE
  2
BORDER
 70
    64
  3
__ __ . __ __ . __ __ . __ __ . __ __ . __ __
 72
    65
 73
     6
 40
1.75
 49
0.5
 49
-0.25
 49
0.5
 49
-0.25
 49
0.0
 49
-0.25
  0
LTYPE
  2
DIVIDE
 70
    64
  3
__ . . __ . . __ . . __ . . __ . . __ . . __
 72
    65
 73
     6
 40
1.25
 49
0.5
 49
-0.25
 49
0.0
 49
-0.25
 49
0.0
 49
-0.25
  0
ENDTAB
  0
TABLE
  2
LAYER
 70
   100
  0
LAYER
  2
0
 70
     0
 62
     3
  6
CONTINUOUS
  0
LAYER
  2
1
 70
     0
 62
     3
  6
CONTINUOUS
  0
LAYER
  2
2
 70
     0
 62
     3
  6
CONTINUOUS
  0
LAYER
  2
3
 70
     0
 62
     3
  6
CONTINUOUS
  0
LAYER
  2
4
 70
     0
 62
     3
  6
CONTINUOUS
  0
LAYER
  2
5
 70
     0
 62
     3
  6
CONTINUOUS
  0
LAYER
  2
6
 70
     0
 62
     3
  6
CONTINUOUS
  0
LAYER
  2
7
 70
     0
 62
     3
  6
CONTINUOUS
  0
LAYER
  2
8
 70
     0
 62
     3
  6
CONTINUOUS
  0
LAYER
  2
9
 70
     0
 62
     3
  6
CONTINUOUS
  0
LAYER
  2
10
 70
     0
 62
     3
  6
CONTINUOUS
  0
LAYER
  2
11
 70
     0
 62
     3
  6
CONTINUOUS
  0
LAYER
  2
12
 70
     0
 62
     3
  6
CONTINUOUS
  0
LAYER
  2
13
 70
     0
 62
     3
  6
CONTINUOUS
  0
LAYER
  2
14
 70
     0
 62
     3
  6
CONTINUOUS
  0
LAYER
  2
15
 70
     0
 62
     3
  6
CONTINUOUS
  0
LAYER
  2
16
 70
     0
 62
     3
  6
CONTINUOUS
  0
LAYER
  2
17
 70
     0
 62
     3
  6
CONTINUOUS
  0
LAYER
  2
18
 70
     0
 62
     3
  6
CONTINUOUS
  0
LAYER
  2
19
 70
     0
 62
     3
  6
CONTINUOUS
  0
LAYER
  2
20
 70
     0
 62
     3
  6
CONTINUOUS
  0
LAYER
  2
21
 70
     0
 62
     3
  6
CONTINUOUS
  0
LAYER
  2
22
 70
     0
 62
     3
  6
CONTINUOUS
  0
LAYER
  2
23
 70
     0
 62
     3
  6
CONTINUOUS
  0
LAYER
  2
24
 70
     0
 62
     3
  6
CONTINUOUS
  0
LAYER
  2
25
 70
     0
 62
     3
  6
CONTINUOUS
  0
LAYER
  2
26
 70
     0
 62
     3
  6
CONTINUOUS
  0
LAYER
  2
27
 70
     0
 62
     3
  6
CONTINUOUS
  0
LAYER
  2
28
 70
     0
 62
     3
  6
CONTINUOUS
  0
LAYER
  2
29
 70
     0
 62
     3
  6
CONTINUOUS
  0
LAYER
  2
30
 70
     0
 62
     3
  6
CONTINUOUS
  0
LAYER
  2
31
 70
     0
 62
     3
  6
CONTINUOUS
  0
LAYER
  2
32
 70
     0
 62
     3
  6
CONTINUOUS
  0
LAYER
  2
33
 70
     0
 62
     3
  6
CONTINUOUS
  0
LAYER
  2
34
 70
     0
 62
     3
  6
CONTINUOUS
  0
LAYER
  2
35
 70
     0
 62
     3
  6
CONTINUOUS
  0
LAYER
  2
36
 70
     0
 62
     3
  6
CONTINUOUS
  0
LAYER
  2
37
 70
     0
 62
     3
  6
CONTINUOUS
  0
LAYER
  2
38
 70
     0
 62
     3
  6
CONTINUOUS
  0
LAYER
  2
39
 70
     0
 62
     3
  6
CONTINUOUS
  0
LAYER
  2
40
 70
     0
 62
     3
  6
CONTINUOUS
  0
LAYER
  2
41
 70
     0
 62
     3
  6
CONTINUOUS
  0
LAYER
  2
42
 70
     0
 62
     3
  6
CONTINUOUS
  0
LAYER
  2
43
 70
     0
 62
     3
  6
CONTINUOUS
  0
LAYER
  2
44
 70
     0
 62
     3
  6
CONTINUOUS
  0
LAYER
  2
45
 70
     0
 62
     3
  6
CONTINUOUS
  0
LAYER
  2
46
 70
     0
 62
     3
  6
CONTINUOUS
  0
LAYER
  2
47
 70
     0
 62
     3
  6
CONTINUOUS
  0
LAYER
  2
48
 70
     0
 62
     3
  6
CONTINUOUS
  0
LAYER
  2
49
 70
     0
 62
     3
  6
CONTINUOUS
  0
LAYER
  2
50
 70
     0
 62
     3
  6
CONTINUOUS
  0
LAYER
  2
51
 70
     0
 62
     3
  6
CONTINUOUS
  0
LAYER
  2
52
 70
     0
 62
     3
  6
CONTINUOUS
  0
LAYER
  2
53
 70
     0
 62
     3
  6
CONTINUOUS
  0
LAYER
  2
54
 70
     0
 62
     3
  6
CONTINUOUS
  0
LAYER
  2
55
 70
     0
 62
     3
  6
CONTINUOUS
  0
LAYER
  2
56
 70
     0
 62
     3
  6
CONTINUOUS
  0
LAYER
  2
57
 70
     0
 62
     3
  6
CONTINUOUS
  0
LAYER
  2
58
 70
     0
 62
     3
  6
CONTINUOUS
  0
LAYER
  2
59
 70
     0
 62
     3
  6
CONTINUOUS
  0
LAYER
  2
60
 70
     0
 62
     3
  6
CONTINUOUS
  0
LAYER
  2
61
 70
     0
 62
     3
  6
CONTINUOUS
  0
LAYER
  2
62
 70
     0
 62
     3
  6
CONTINUOUS
  0
LAYER
  2
63
 70
     0
 62
     3
  6
CONTINUOUS
  0
LAYER
  2
64
 70
     0
 62
     3
  6
CONTINUOUS
  0
LAYER
  2
65
 70
     0
 62
     3
  6
CONTINUOUS
  0
LAYER
  2
66
 70
     0
 62
     3
  6
CONTINUOUS
  0
LAYER
  2
67
 70
     0
 62
     3
  6
CONTINUOUS
  0
LAYER
  2
68
 70
     0
 62
     3
  6
CONTINUOUS
  0
LAYER
  2
69
 70
     0
 62
     3
  6
CONTINUOUS
  0
LAYER
  2
70
 70
     0
 62
     3
  6
CONTINUOUS
  0
LAYER
  2
71
 70
     0
 62
     3
  6
CONTINUOUS
  0
LAYER
  2
72
 70
     0
 62
     3
  6
CONTINUOUS
  0
LAYER
  2
73
 70
     0
 62
     3
  6
CONTINUOUS
  0
LAYER
  2
74
 70
     0
 62
     3
  6
CONTINUOUS
  0
LAYER
  2
75
 70
     0
 62
     3
  6
CONTINUOUS
  0
LAYER
  2
76
 70
     0
 62
     3
  6
CONTINUOUS
  0
LAYER
  2
77
 70
     0
 62
     3
  6
CONTINUOUS
  0
LAYER
  2
78
 70
     0
 62
     3
  6
CONTINUOUS
  0
LAYER
  2
79
 70
     0
 62
     3
  6
CONTINUOUS
  0
LAYER
  2
80
 70
     0
 62
     3
  6
CONTINUOUS
  0
LAYER
  2
81
 70
     0
 62
     3
  6
CONTINUOUS
  0
LAYER
  2
82
 70
     0
 62
     3
  6
CONTINUOUS
  0
LAYER
  2
83
 70
     0
 62
     3
  6
CONTINUOUS
  0
LAYER
  2
84
 70
     0
 62
     3
  6
CONTINUOUS
  0
LAYER
  2
85
 70
     0
 62
     3
  6
CONTINUOUS
  0
LAYER
  2
86
 70
     0
 62
     3
  6
CONTINUOUS
  0
LAYER
  2
87
 70
     0
 62
     3
  6
CONTINUOUS
  0
LAYER
  2
88
 70
     0
 62
     3
  6
CONTINUOUS
  0
LAYER
  2
89
 70
     0
 62
     3
  6
CONTINUOUS
  0
LAYER
  2
90
 70
     0
 62
     3
  6
CONTINUOUS
  0
LAYER
  2
91
 70
     0
 62
     3
  6
CONTINUOUS
  0
LAYER
  2
92
 70
     0
 62
     3
  6
CONTINUOUS
  0
LAYER
  2
93
 70
     0
 62
     3
  6
CONTINUOUS
  0
LAYER
  2
94
 70
     0
 62
     3
  6
CONTINUOUS
  0
LAYER
  2
95
 70
     0
 62
     3
  6
CONTINUOUS
  0
LAYER
  2
96
 70
     0
 62
     3
  6
CONTINUOUS
  0
LAYER
  2
97
 70
     0
 62
     3
  6
CONTINUOUS
  0
LAYER
  2
98
 70
     0
 62
     3
  6
CONTINUOUS
  0
LAYER
  2
99
 70
     0
 62
     3
  6
CONTINUOUS
  0
ENDTAB
  0
TABLE
  2
STYLE
 70
     2
  0
STYLE
  2
STANDARD
 70
     0
 40
0.0
 41
1.0
 50
0.0
 71
     0
 42
0.2
  3
TXT
  4
BIGFONT
  0
STYLE
  2
KANJI
 70
     0
 40
4.5
 41
1.0
 50
0.0
 71
     0
 42
0.2
  3
TXT
  4
BIGFONT
  0
ENDTAB
  0
TABLE
  2
VIEW
 70
     0
  0
ENDTAB
  0
ENDSEC
  0
SECTION
  2
BLOCKS
  0
BLOCK
  8
0
  2
G0
 70
     0
 10
0
 20
0
  0
LINE
  8
0
 62
     3
  6
CONTINUOUS
 10
3086.956709
 20
1436.024772
 11
3064.454254
 21
1449.016570
  0
LINE
  8
0
 62
     3
  6
CONTINUOUS
 10
3071.539240
 20
1409.320932
 11
3086.956709
 21
1436.024772
  0
TEXT
  8
0
 62
     3
 10
3059.745957
 20
1376.962715
 40
32.000000
 50
0.000000E+00
 41
0.86 
  1
Ｃ
 72
     5
 11
3091.745957
 21
1376.962715
  0
LINE
  8
0
 62
     3
  6
CONTINUOUS
 10
3071.539240
 20
1456.691181
 11
3071.539240
 21
1409.320932
  0
LINE
  8
0
 62
     3
  6
CONTINUOUS
 10
3071.539240
 20
1456.691181
 11
2991.976677
 21
1456.691181
  0
ENDBLK
  0
BLOCK
  8
0
  2
G1
 70
     0
 10
0
 20
0
  0
TEXT
  8
0
 62
     3
 10
3162.716226
 20
1998.253919
 40
32.000000
 50
0.000000E+00
 41
0.95 
  1
受口深さ　
 72
     5
 11
3338.716226
 21
1998.253919
  0
ENDBLK
  0
BLOCK
  8
0
  2
G2
 70
     0
 10
0
 20
0
  0
TEXT
  8
0
 62
     1
 10
3439.904494
 20
2124.497527
 40
32.000000
 50
45.000000
 41
0.58 
  1
248
 72
     5
 11
3479.502473
 21
2164.095506
  0
LINE
  8
0
 62
     1
  6
CONTINUOUS
 10
3509.247691
 20
1919.389827
 11
3368.722411
 21
2059.915108
  0
LINE
  8
0
 62
     1
  6
CONTINUOUS
 10
3551.155960
 20
2228.206521
 11
3375.793479
 21
2052.844040
  0
SOLID
  8
0
 62
     1
 10
3538.655960
 20
2206.555886
 11
3529.505325
 21
2215.706521
 12
3551.155960
 22
2228.206521
 13
3551.155960
 23
2228.206521
  0
SOLID
  8
0
 62
     1
 10
3388.293479
 20
2074.494675
 11
3397.444114
 21
2065.344040
 12
3375.793479
 22
2052.844040
 13
3375.793479
 23
2052.844040
  0
ENDBLK
  0
BLOCK
  8
0
  2
G3
 70
     0
 10
0
 20
0
  0
TEXT
  8
0
 62
     1
 10
3576.000000
 20
2148.708586
 40
32.000000
 50
0.000000E+00
 41
0.58 
  1
210
 72
     5
 11
3632.000000
 21
2148.708586
  0
LINE
  8
0
 62
     1
  6
CONTINUOUS
 10
3709.000000
 20
2010.000000
 11
3709.000000
 21
2153.375253
  0
LINE
  8
0
 62
     1
  6
CONTINUOUS
 10
3499.000000
 20
2010.000000
 11
3499.000000
 21
2153.375253
  0
LINE
  8
0
 62
     1
  6
CONTINUOUS
 10
3499.000000
 20
2143.375253
 11
3709.000000
 21
2143.375253
  0
SOLID
  8
0
 62
     1
 10
3523.148146
 20
2149.845729
 11
3523.148146
 21
2136.904777
 12
3499.000000
 22
2143.375253
 13
3499.000000
 23
2143.375253
  0
SOLID
  8
0
 62
     1
 10
3684.851854
 20
2136.904777
 11
3684.851854
 21
2149.845729
 12
3709.000000
 22
2143.375253
 13
3709.000000
 23
2143.375253
  0
ENDBLK
  0
BLOCK
  8
0
  2
G4
 70
     0
 10
0
 20
0
  0
TEXT
  8
0
 62
     1
 10
3284.003719
 20
1394.527117
 40
32.000000
 50
90.000000
 41
0.97 
  1
Ｌｔ
 72
     5
 11
3284.003719
 21
1466.527117
  0
LINE
  8
0
 62
     1
  6
CONTINUOUS
 10
3239.337052
 20
938.027117
 11
3299.337052
 21
938.027117
  0
LINE
  8
0
 62
     1
  6
CONTINUOUS
 10
3239.337052
 20
1923.027117
 11
3299.337052
 21
1923.027117
  0
LINE
  8
0
 62
     1
  6
CONTINUOUS
 10
3289.337052
 20
1923.027117
 11
3289.337052
 21
938.027117
  0
SOLID
  8
0
 62
     1
 10
3295.807528
 20
1898.878971
 11
3282.866576
 21
1898.878971
 12
3289.337052
 22
1923.027117
 13
3289.337052
 23
1923.027117
  0
SOLID
  8
0
 62
     1
 10
3282.866576
 20
962.175262
 11
3295.807528
 21
962.175262
 12
3289.337052
 22
938.027117
 13
3289.337052
 23
938.027117
  0
ENDBLK
  0
BLOCK
  8
0
  2
G5
 70
     0
 10
0
 20
0
  0
TEXT
  8
0
 62
     1
 10
3224.003719
 20
1299.027117
 40
32.000000
 50
90.000000
 41
0.89 
  1
Ｌ（有効長）
 72
     5
 11
3224.003719
 21
1495.027117
  0
LINE
  8
0
 62
     1
  6
CONTINUOUS
 10
3179.337052
 20
938.027117
 11
3239.337052
 21
938.027117
  0
LINE
  8
0
 62
     1
  6
CONTINUOUS
 10
3229.337052
 20
1848.027117
 11
3229.337052
 21
938.027117
  0
SOLID
  8
0
 62
     1
 10
3235.807528
 20
1823.878971
 11
3222.866576
 21
1823.878971
 12
3229.337052
 22
1848.027117
 13
3229.337052
 23
1848.027117
  0
SOLID
  8
0
 62
     1
 10
3222.866576
 20
962.175262
 11
3235.807528
 21
962.175262
 12
3229.337052
 22
938.027117
 13
3229.337052
 23
938.027117
  0
ENDBLK
  0
BLOCK
  8
0
  2
G6
 70
     0
 10
0
 20
0
  0
TEXT
  8
0
 62
     1
 10
3164.003719
 20
1090.027117
 40
32.000000
 50
90.000000
 41
0.58 
  1
360
 72
     5
 11
3164.003719
 21
1146.027117
  0
LINE
  8
0
 62
     1
  6
CONTINUOUS
 10
3179.337052
 20
938.027117
 11
3119.337052
 21
938.027117
  0
LINE
  8
0
 62
     1
  6
CONTINUOUS
 10
3169.337052
 20
1298.027117
 11
3169.337052
 21
938.027117
  0
SOLID
  8
0
 62
     1
 10
3175.807528
 20
1273.878971
 11
3162.866576
 21
1273.878971
 12
3169.337052
 22
1298.027117
 13
3169.337052
 23
1298.027117
  0
SOLID
  8
0
 62
     1
 10
3162.866576
 20
962.175262
 11
3175.807528
 21
962.175262
 12
3169.337052
 22
938.027117
 13
3169.337052
 23
938.027117
  0
ENDBLK
  0
BLOCK
  8
0
  2
G7
 70
     0
 10
0
 20
0
  0
TEXT
  8
0
 62
     1
 10
3104.003719
 20
985.027117
 40
32.000000
 50
90.000000
 41
0.58 
  1
150
 72
     5
 11
3104.003719
 21
1041.027117
  0
LINE
  8
0
 62
     1
  6
CONTINUOUS
 10
2935.260138
 20
938.027117
 11
3119.337052
 21
938.027117
  0
LINE
  8
0
 62
     1
  6
CONTINUOUS
 10
3109.337052
 20
1088.027117
 11
3109.337052
 21
938.027117
  0
SOLID
  8
0
 62
     1
 10
3115.807528
 20
1063.878971
 11
3102.866576
 21
1063.878971
 12
3109.337052
 22
1088.027117
 13
3109.337052
 23
1088.027117
  0
SOLID
  8
0
 62
     1
 10
3102.866576
 20
962.175262
 11
3115.807528
 21
962.175262
 12
3109.337052
 22
938.027117
 13
3109.337052
 23
938.027117
  0
ENDBLK
  0
BLOCK
  8
0
  2
G8
 70
     0
 10
0
 20
0
  0
TEXT
  8
0
 62
     1
 10
3104.003719
 20
1120.027117
 40
32.000000
 50
90.000000
 41
0.58 
  1
120
 72
     5
 11
3104.003719
 21
1176.027117
  0
LINE
  8
0
 62
     1
  6
CONTINUOUS
 10
2932.511049
 20
1088.027117
 11
3119.337052
 21
1088.027117
  0
LINE
  8
0
 62
     1
  6
CONTINUOUS
 10
2963.009227
 20
1208.027117
 11
3119.337052
 21
1208.027117
  0
LINE
  8
0
 62
     1
  6
CONTINUOUS
 10
3109.337052
 20
1208.027117
 11
3109.337052
 21
1088.027117
  0
SOLID
  8
0
 62
     1
 10
3115.807528
 20
1183.878971
 11
3102.866576
 21
1183.878971
 12
3109.337052
 22
1208.027117
 13
3109.337052
 23
1208.027117
  0
SOLID
  8
0
 62
     1
 10
3102.866576
 20
1112.175262
 11
3115.807528
 21
1112.175262
 12
3109.337052
 22
1088.027117
 13
3109.337052
 23
1088.027117
  0
ENDBLK
  0
BLOCK
  8
0
  2
G9
 70
     0
 10
0
 20
0
  0
TEXT
  8
0
 62
     1
 10
3104.003719
 20
1695.027117
 40
32.000000
 50
90.000000
 41
0.58 
  1
250
 72
     5
 11
3104.003719
 21
1751.027117
  0
LINE
  8
0
 62
     1
  6
CONTINUOUS
 10
2882.260138
 20
1848.027117
 11
3119.337052
 21
1848.027117
  0
LINE
  8
0
 62
     1
  6
CONTINUOUS
 10
3119.337052
 20
1598.027117
 11
2971.068678
 21
1598.027117
  0
LINE
  8
0
 62
     1
  6
CONTINUOUS
 10
3109.337052
 20
1598.027117
 11
3109.337052
 21
1848.027117
  0
SOLID
  8
0
 62
     1
 10
3101.572481
 20
1627.004891
 11
3117.101623
 21
1627.004891
 12
3109.337052
 22
1598.027117
 13
3109.337052
 23
1598.027117
  0
SOLID
  8
0
 62
     1
 10
3117.101623
 20
1819.049342
 11
3101.572481
 21
1819.049342
 12
3109.337052
 22
1848.027117
 13
3109.337052
 23
1848.027117
  0
ENDBLK
  0
BLOCK
  8
0
  2
G10
 70
     0
 10
0
 20
0
  0
TEXT
  8
0
 62
     1
 10
3164.003719
 20
1462.027117
 40
32.000000
 50
90.000000
 41
0.86 
  1
Ｐ
 72
     5
 11
3164.003719
 21
1494.027117
  0
LINE
  8
0
 62
     1
  6
CONTINUOUS
 10
3179.337052
 20
1298.027117
 11
2976.797176
 21
1298.027117
  0
LINE
  8
0
 62
     1
  6
CONTINUOUS
 10
3169.337052
 20
1298.027117
 11
3169.337052
 21
1658.027117
  0
SOLID
  8
0
 62
     1
 10
3161.572481
 20
1327.004891
 11
3177.101623
 21
1327.004891
 12
3169.337052
 22
1298.027117
 13
3169.337052
 23
1298.027117
  0
SOLID
  8
0
 62
     1
 10
3177.101623
 20
1629.049342
 11
3161.572481
 21
1629.049342
 12
3169.337052
 22
1658.027117
 13
3169.337052
 23
1658.027117
  0
ENDBLK
  0
BLOCK
  8
0
  2
G11
 70
     0
 10
0
 20
0
  0
TEXT
  8
0
 62
     1
 10
3224.003719
 20
1867.527117
 40
32.000000
 50
90.000000
 41
0.56 
  1
75
 72
     5
 11
3224.003719
 21
1903.527117
  0
LINE
  8
0
 62
     1
  6
CONTINUOUS
 10
3239.337052
 20
1848.027117
 11
3109.337052
 21
1848.027117
  0
LINE
  8
0
 62
     1
  6
CONTINUOUS
 10
3239.337052
 20
1923.027117
 11
2952.450193
 21
1923.027117
  0
LINE
  8
0
 62
     1
  6
CONTINUOUS
 10
3229.337052
 20
1923.027117
 11
3229.337052
 21
1848.027117
  0
SOLID
  8
0
 62
     1
 10
3235.807528
 20
1898.878971
 11
3222.866576
 21
1898.878971
 12
3229.337052
 22
1923.027117
 13
3229.337052
 23
1923.027117
  0
SOLID
  8
0
 62
     1
 10
3222.866576
 20
1872.175262
 11
3235.807528
 21
1872.175262
 12
3229.337052
 22
1848.027117
 13
3229.337052
 23
1848.027117
  0
ENDBLK
  0
BLOCK
  8
0
  2
G12
 70
     0
 10
0
 20
0
  0
LINE
  8
0
 62
     7
  6
CONTINUOUS
 10
2777.260138
 20
2273.790816
 11
2777.260138
 21
2355.093098
  0
LINE
  8
0
 62
     7
  6
CONTINUOUS
 10
2872.260138
 20
2320.231976
 11
2872.260138
 21
2355.093098
  0
LINE
  8
0
 62
     7
  6
CONTINUOUS
 10
2777.260138
 20
2345.093098
 11
2872.260138
 21
2345.093098
  0
SOLID
  8
0
 62
     7
 10
2796.578655
 20
2350.269479
 11
2796.578655
 21
2339.916717
 12
2777.260138
 22
2345.093098
 13
2777.260138
 23
2345.093098
  0
SOLID
  8
0
 62
     7
 10
2852.941622
 20
2339.916717
 11
2852.941622
 21
2350.269479
 12
2872.260138
 22
2345.093098
 13
2872.260138
 23
2345.093098
  0
TEXT
  8
0
 62
     7
 10
2806.760138
 20
2350.426427
 40
32.000000
 50
0.000000E+00
 41
0.56 
  1
95
 72
     5
 11
2842.760138
 21
2350.426427
  0
ENDBLK
  0
BLOCK
  8
0
  2
G13
 70
     0
 10
0
 20
0
  0
LINE
  8
0
 62
     7
  6
CONTINUOUS
 10
2944.260138
 20
2106.790816
 11
3065.174036
 21
2106.790816
  0
LINE
  8
0
 62
     7
  6
CONTINUOUS
 10
2996.232349
 20
2201.790816
 11
3065.174036
 21
2201.790816
  0
LINE
  8
0
 62
     7
  6
CONTINUOUS
 10
3055.174036
 20
2106.790816
 11
3055.174036
 21
2201.790816
  0
SOLID
  8
0
 62
     7
 10
3049.997655
 20
2126.109333
 11
3060.350417
 21
2126.109333
 12
3055.174036
 22
2106.790816
 13
3055.174036
 23
2106.790816
  0
SOLID
  8
0
 62
     7
 10
3060.350417
 20
2182.472300
 11
3049.997655
 21
2182.472300
 12
3055.174036
 22
2201.790816
 13
3055.174036
 23
2201.790816
  0
TEXT
  8
0
 62
     7
 10
3049.840706
 20
2136.290816
 40
32.000000
 50
90.000000
 41
0.56 
  1
95
 72
     5
 11
3049.840706
 21
2172.290816
  0
ENDBLK
  0
BLOCK
  8
0
  2
G14
 70
     0
 10
0
 20
0
  0
LINE
  8
0
 62
     7
  6
CONTINUOUS
 10
2797.260138
 20
1933.027117
 11
2797.260138
 21
1976.551724
  0
LINE
  8
0
 62
     7
  6
CONTINUOUS
 10
2947.260138
 20
1933.027117
 11
2947.260138
 21
1976.551724
  0
LINE
  8
0
 62
     7
  6
CONTINUOUS
 10
2797.260138
 20
1966.551724
 11
2947.260138
 21
1966.551724
  0
SOLID
  8
0
 62
     7
 10
2816.578655
 20
1971.728105
 11
2816.578655
 21
1961.375343
 12
2797.260138
 22
1966.551724
 13
2797.260138
 23
1966.551724
  0
SOLID
  8
0
 62
     7
 10
2927.941622
 20
1961.375343
 11
2927.941622
 21
1971.728105
 12
2947.260138
 22
1966.551724
 13
2947.260138
 23
1966.551724
  0
TEXT
  8
0
 62
     7
 10
2814.260138
 20
1971.885054
 40
32.000000
 50
0.000000E+00
 41
0.60 
  1
%%c150
 72
     5
 11
2930.260138
 21
1971.885054
  0
ENDBLK
  0
BLOCK
  8
0
  2
G15
 70
     0
 10
0
 20
0
  0
LINE
  8
0
 62
     7
  6
CONTINUOUS
 10
2786.260138
 20
1753.786486
 11
2786.260138
 21
2038.748668
  0
LINE
  8
0
 62
     7
  6
CONTINUOUS
 10
2958.260138
 20
1743.786486
 11
2958.260138
 21
2038.748668
  0
LINE
  8
0
 62
     7
  6
CONTINUOUS
 10
2786.260138
 20
2028.748668
 11
2958.260138
 21
2028.748668
  0
SOLID
  8
0
 62
     7
 10
2805.578655
 20
2033.925048
 11
2805.578655
 21
2023.572287
 12
2786.260138
 22
2028.748668
 13
2786.260138
 23
2028.748668
  0
SOLID
  8
0
 62
     7
 10
2938.941622
 20
2023.572287
 11
2938.941622
 21
2033.925048
 12
2958.260138
 22
2028.748668
 13
2958.260138
 23
2028.748668
  0
TEXT
  8
0
 62
     7
 10
2814.260138
 20
2034.081997
 40
32.000000
 50
0.000000E+00
 41
0.60 
  1
%%c172
 72
     5
 11
2930.260138
 21
2034.081997
  0
ENDBLK
  0
BLOCK
  8
0
  2
G16
 70
     0
 10
0
 20
0
  0
LINE
  8
0
 62
     7
  6
CONTINUOUS
 10
2817.260138
 20
928.027117
 11
2817.260138
 21
853.392951
  0
LINE
  8
0
 62
     7
  6
CONTINUOUS
 10
2927.260138
 20
928.027117
 11
2927.260138
 21
853.392951
  0
LINE
  8
0
 62
     7
  6
CONTINUOUS
 10
2817.260138
 20
863.392951
 11
2927.260138
 21
863.392951
  0
SOLID
  8
0
 62
     7
 10
2836.578655
 20
868.569332
 11
2836.578655
 21
858.216570
 12
2817.260138
 22
863.392951
 13
2817.260138
 23
863.392951
  0
SOLID
  8
0
 62
     7
 10
2907.941622
 20
858.216570
 11
2907.941622
 21
868.569332
 12
2927.260138
 22
863.392951
 13
2927.260138
 23
863.392951
  0
TEXT
  8
0
 62
     7
 10
2814.260138
 20
868.726280
 40
32.000000
 50
0.000000E+00
 41
0.60 
  1
%%c110
 72
     5
 11
2930.260138
 21
868.726280
  0
ENDBLK
  0
BLOCK
  8
0
  2
G17
 70
     0
 10
0
 20
0
  0
LINE
  8
0
 62
     7
  6
CONTINUOUS
 10
2786.260138
 20
1191.899028
 11
2786.260138
 21
788.748668
  0
LINE
  8
0
 62
     7
  6
CONTINUOUS
 10
2958.260138
 20
1201.899028
 11
2958.260138
 21
788.748668
  0
LINE
  8
0
 62
     7
  6
CONTINUOUS
 10
2786.260138
 20
798.748668
 11
2958.260138
 21
798.748668
  0
SOLID
  8
0
 62
     7
 10
2805.578655
 20
803.925048
 11
2805.578655
 21
793.572287
 12
2786.260138
 22
798.748668
 13
2786.260138
 23
798.748668
  0
SOLID
  8
0
 62
     7
 10
2938.941622
 20
793.572287
 11
2938.941622
 21
803.925048
 12
2958.260138
 22
798.748668
 13
2958.260138
 23
798.748668
  0
TEXT
  8
0
 62
     7
 10
2814.260138
 20
804.081997
 40
32.000000
 50
0.000000E+00
 41
0.60 
  1
%%c172
 72
     5
 11
2930.260138
 21
804.081997
  0
ENDBLK
  0
ENDSEC
  0
SECTION
  2
ENTITIES
  0
LINE
  8
0
 62
     3
  6
CONTINUOUS
 10
2967.260138
 20
1718.027117
 11
2967.260138
 21
1598.027117
  0
LINE
  8
0
 62
     3
  6
CONTINUOUS
 10
2777.260138
 20
1718.027117
 11
2777.260138
 21
1598.027117
  0
LINE
  8
3
 62
     3
  6
CONTINUOUS
 10
2810.533494
 20
1663.842737
 11
2809.975260
 21
1672.019623
  0
LINE
  8
3
 62
     3
  6
CONTINUOUS
 10
2809.975260
 20
1672.019623
 11
2808.963671
 21
1679.929317
  0
LINE
  8
3
 62
     3
  6
CONTINUOUS
 10
2808.963671
 20
1679.929317
 11
2807.518045
 21
1687.420778
  0
LINE
  8
3
 62
     3
  6
CONTINUOUS
 10
2807.518045
 20
1687.420778
 11
2805.665988
 21
1694.350956
  0
LINE
  8
3
 62
     3
  6
CONTINUOUS
 10
2805.665988
 20
1694.350956
 11
2803.442863
 21
1700.587514
  0
LINE
  8
3
 62
     3
  6
CONTINUOUS
 10
2803.442863
 20
1700.587514
 11
2800.891124
 21
1706.011363
  0
LINE
  8
3
 62
     3
  6
CONTINUOUS
 10
2800.891124
 20
1706.011363
 11
2798.059497
 21
1710.518932
  0
LINE
  8
3
 62
     3
  6
CONTINUOUS
 10
2798.059497
 20
1710.518932
 11
2795.002053
 21
1714.024148
  0
LINE
  8
3
 62
     3
  6
CONTINUOUS
 10
2795.002053
 20
1714.024148
 11
2791.777174
 21
1716.460076
  0
LINE
  8
3
 62
     3
  6
CONTINUOUS
 10
2791.777174
 20
1716.460076
 11
2788.446442
 21
1717.780203
  0
LINE
  8
3
 62
     3
  6
CONTINUOUS
 10
2791.777174
 20
1716.460076
 11
2788.446442
 21
1717.780203
  0
LINE
  8
3
 62
     3
  6
CONTINUOUS
 10
2788.904332
 20
1598.387137
 11
2792.179724
 21
1599.833664
  0
LINE
  8
3
 62
     3
  6
CONTINUOUS
 10
2792.179724
 20
1599.833664
 11
2795.344644
 21
1602.361380
  0
LINE
  8
3
 62
     3
  6
CONTINUOUS
 10
2795.344644
 20
1602.361380
 11
2798.340291
 21
1605.923324
  0
LINE
  8
3
 62
     3
  6
CONTINUOUS
 10
2798.340291
 20
1605.923324
 11
2801.111008
 21
1610.453317
  0
LINE
  8
3
 62
     3
  6
CONTINUOUS
 10
2801.111008
 20
1610.453317
 11
2803.605317
 21
1615.867195
  0
LINE
  8
3
 62
     3
  6
CONTINUOUS
 10
2803.605317
 20
1615.867195
 11
2805.776877
 21
1622.064373
  0
LINE
  8
3
 62
     3
  6
CONTINUOUS
 10
2805.776877
 20
1622.064373
 11
2807.585340
 21
1628.929711
  0
LINE
  8
3
 62
     3
  6
CONTINUOUS
 10
2807.585340
 20
1628.929711
 11
2808.997108
 21
1636.335657
  0
LINE
  8
3
 62
     3
  6
CONTINUOUS
 10
2808.997108
 20
1636.335657
 11
2809.985950
 21
1644.144613
  0
LINE
  8
3
 62
     3
  6
CONTINUOUS
 10
2809.985950
 20
1644.144613
 11
2810.533494
 21
1652.211496
  0
LINE
  8
3
 62
     3
  6
CONTINUOUS
 10
2809.985950
 20
1644.144613
 11
2810.533494
 21
1652.211496
  0
ARC
  8
1
 62
     3
  6
CONTINUOUS
 10
2779.260138
 20
1598.027117
 40
2.000000
 50
180.000000
 51
270.000000
  0
LINE
  8
1
 62
     3
  6
CONTINUOUS
 10
2779.260138
 20
1720.027117
 11
2782.760138
 21
1720.027117
  0
LINE
  8
1
 62
     3
  6
CONTINUOUS
 10
2779.260138
 20
1596.027117
 11
2782.760138
 21
1596.027117
  0
ARC
  8
1
 62
     3
  6
CONTINUOUS
 10
2779.260138
 20
1718.027117
 40
2.000000
 50
90.000000
 51
180.000000
  0
ARC
  8
1
 62
     3
  6
CONTINUOUS
 10
2782.760138
 20
1723.027117
 40
3.000000
 50
270.000000
 51
360.000000
  0
ARC
  8
1
 62
     3
  6
CONTINUOUS
 10
2782.760138
 20
1593.027117
 40
3.000000
 50
0.000000E+00
 51
90.000000
  0
CIRCLE
  8
0
 62
     1
  6
CONTINUOUS
 10
2872.260138
 20
1658.027117
 40
62.000000
  0
INSERT
  8
0
  2
G0
 10
0
 20
0
  0
INSERT
  8
0
  2
G1
 10
0
 20
0
  0
LINE
  8
0
 62
     3
  6
CONTINUOUS
 10
3211.418919
 20
1925.359991
 11
3211.418919
 21
1988.197829
  0
SOLID
  8
0
 62
     3
 10
3203.654348
 20
1954.337766
 11
3219.183490
 21
1954.337766
 12
3211.418919
 22
1925.359991
 13
3211.418919
 23
1925.359991
  0
TEXT
  8
0
 62
     6
 10
2689.990420
 20
2579.959535
 40
32.000000
 50
0.000000E+00
 41
0.97 
  1
上部
 72
     5
 11
2761.990420
 21
2579.959535
  0
TEXT
  8
0
 62
     6
 10
2819.990420
 20
2579.959535
 40
32.000000
 50
0.000000E+00
 41
0.97 
  1
下部
 72
     5
 11
2891.990420
 21
2579.959535
  0
TEXT
  8
0
 62
     6
 10
2850.490420
 20
2514.910129
 40
35.000000
 50
0.000000E+00
 41
0.86 
  1
Ｏ
 72
     5
 11
2885.490420
 21
2514.910129
  0
TEXT
  8
0
 62
     6
 10
2719.816479
 20
2513.910129
 40
35.000000
 50
0.000000E+00
 41
0.86 
  1
Ｏ
 72
     5
 11
2754.816479
 21
2513.910129
  0
INSERT
  8
0
  2
G2
 10
0
 20
0
  0
ARC
  8
0
 62
     4
  6
CONTINUOUS
 10
3604.000000
 20
2000.000000
 40
100.000000
 50
36.038338
 51
53.961662
  0
ARC
  8
3
 62
     3
  6
CONTINUOUS
 10
3604.000000
 20
2000.000000
 40
105.000000
 50
349.021382
 51
369.903199
  0
ARC
  8
0
 62
     4
  6
CONTINUOUS
 10
3604.000000
 20
2000.000000
 40
100.000000
 50
126.038338
 51
143.961662
  0
ARC
  8
0
 62
     4
  6
CONTINUOUS
 10
3604.000000
 20
2000.000000
 40
100.000000
 50
216.038338
 51
233.961662
  0
CIRCLE
  8
3
 62
     4
  6
CONTINUOUS
 10
3604.000000
 20
2000.000000
 40
88.000000
  0
INSERT
  8
0
  2
G3
 10
0
 20
0
  0
LINE
  8
0
 62
     1
  6
CONTINUOUS
 10
3594.138357
 20
2185.224125
 11
3544.084892
 21
2235.277589
  0
LINE
  8
0
 62
     1
  6
CONTINUOUS
 10
3684.610173
 20
2094.752309
 11
3640.977253
 21
2138.385229
  0
ARC
  8
3
 62
     4
  6
CONTINUOUS
 10
3604.000000
 20
2000.000000
 40
100.000000
 50
323.109614
 51
396.890386
  0
LINE
  8
3
 62
     4
  6
CONTINUOUS
 10
3695.250931
 20
2080.964607
 11
3707.453628
 21
2018.061853
  0
ARC
  8
3
 62
     3
  6
CONTINUOUS
 10
3604.000000
 20
2000.000000
 40
105.000000
 50
170.096801
 51
190.978618
  0
ARC
  8
3
 62
     3
  6
CONTINUOUS
 10
3604.000000
 20
2000.000000
 40
105.000000
 50
260.096801
 51
279.903199
  0
LINE
  8
3
 62
     4
  6
CONTINUOUS
 10
3695.250931
 20
1919.035393
 11
3707.453628
 21
1981.938147
  0
LINE
  8
3
 62
     3
  6
CENTER
 10
3535.288243
 20
1931.288243
 11
3514.607067
 21
1910.607067
  0
LINE
  8
3
 62
     4
  6
CONTINUOUS
 10
3684.964607
 20
1908.749069
 11
3622.061853
 21
1896.546372
  0
ARC
  8
3
 62
     4
  6
CENTER
 10
3604.000000
 20
2000.000000
 40
111.000000
 50
217.724288
 51
233.734984
  0
LINE
  8
3
 62
     3
  6
CENTER
 10
3671.637531
 20
1932.362469
 11
3694.149487
 21
1909.850513
  0
ARC
  8
3
 62
     4
  6
CENTER
 10
3604.000000
 20
2000.000000
 40
111.000000
 50
305.817615
 51
323.930525
  0
ARC
  8
3
 62
     4
  6
CENTER
 10
3604.000000
 20
2000.000000
 40
111.000000
 50
35.029921
 51
55.550885
  0
LINE
  8
3
 62
     4
  6
CONTINUOUS
 10
3523.035393
 20
1908.749069
 11
3585.938147
 21
1896.546372
  0
LINE
  8
3
 62
     4
  6
CONTINUOUS
 10
3623.996478
 20
2103.078324
 11
3684.964607
 21
2091.250931
  0
LINE
  8
3
 62
     3
  6
CENTER
 10
3671.991228
 20
2067.991228
 11
3693.941928
 21
2089.941928
  0
LINE
  8
3
 62
     4
  6
CONTINUOUS
 10
3512.749069
 20
1919.035393
 11
3500.921676
 21
1980.003522
  0
ARC
  8
3
 62
     4
  6
CONTINUOUS
 10
3525.511147
 20
1921.511147
 40
13.000000
 50
190.978618
 51
259.021382
  0
ARC
  8
3
 62
     4
  6
CONTINUOUS
 10
3682.488853
 20
1921.511147
 40
13.000000
 50
280.978618
 51
349.021382
  0
ARC
  8
3
 62
     4
  6
CONTINUOUS
 10
3682.488853
 20
2078.488853
 40
13.000000
 50
10.978618
 51
79.021382
  0
LINE
  8
3
 62
     3
  6
CENTER
 10
3536.014135
 20
2067.985865
 11
3514.273441
 21
2089.726559
  0
ARC
  8
0
 62
     3
  6
CONTINUOUS
 10
2812.260138
 20
2108.790816
 40
2.000000
 50
180.000000
 51
270.000000
  0
LINE
  8
0
 62
     3
  6
CONTINUOUS
 10
2810.260138
 20
2108.790816
 11
2810.260138
 21
2136.790816
  0
ARC
  8
0
 62
     3
  6
CONTINUOUS
 10
2932.260138
 20
2108.790816
 40
2.000000
 50
270.000000
 51
360.000000
  0
LINE
  8
0
 62
     3
  6
CONTINUOUS
 10
2934.260138
 20
2108.790816
 11
2934.260138
 21
2136.790816
  0
LINE
  8
0
 62
     3
  6
CONTINUOUS
 10
2932.260138
 20
2106.790816
 11
2812.260138
 21
2106.790816
  0
ARC
  8
0
 62
     3
  6
CONTINUOUS
 10
2779.260138
 20
2141.790816
 40
2.000000
 50
180.000000
 51
270.000000
  0
LINE
  8
0
 62
     3
  6
CONTINUOUS
 10
2779.260138
 20
2139.790816
 11
2807.260138
 21
2139.790816
  0
ARC
  8
0
 62
     3
  6
CONTINUOUS
 10
2779.260138
 20
2261.790816
 40
2.000000
 50
90.000000
 51
180.000000
  0
LINE
  8
0
 62
     3
  6
CONTINUOUS
 10
2779.260138
 20
2263.790816
 11
2811.942231
 21
2263.790816
  0
LINE
  8
0
 62
     3
  6
CONTINUOUS
 10
2777.260138
 20
2261.790816
 11
2777.260138
 21
2141.790816
  0
ARC
  8
0
 62
     3
  6
CONTINUOUS
 10
2937.260138
 20
2136.790816
 40
3.000000
 50
90.000000
 51
180.000000
  0
ARC
  8
0
 62
     3
  6
CONTINUOUS
 10
2807.260138
 20
2136.790816
 40
3.000000
 50
0.000000E+00
 51
90.000000
  0
CIRCLE
  8
0
 62
     3
  6
CONTINUOUS
 10
2872.260138
 20
2201.790816
 40
67.000000
  0
CIRCLE
  8
0
 62
     3
  6
CONTINUOUS
 10
2872.260138
 20
2201.790816
 40
52.000000
  0
ARC
  8
0
 62
     3
  6
CONTINUOUS
 10
2965.260138
 20
2261.790816
 40
2.000000
 50
0.000000E+00
 51
90.000000
  0
LINE
  8
0
 62
     3
  6
CONTINUOUS
 10
2965.260138
 20
2263.790816
 11
2932.578046
 21
2263.790816
  0
ARC
  8
0
 62
     3
  6
CONTINUOUS
 10
2965.260138
 20
2141.790816
 40
2.000000
 50
270.000000
 51
360.000000
  0
LINE
  8
0
 62
     3
  6
CONTINUOUS
 10
2965.260138
 20
2139.790816
 11
2937.260138
 21
2139.790816
  0
LINE
  8
0
 62
     3
  6
CONTINUOUS
 10
2967.260138
 20
2141.790816
 11
2967.260138
 21
2261.790816
  0
CIRCLE
  8
0
 62
     3
  6
CONTINUOUS
 10
2872.260138
 20
2201.790816
 40
86.500000
  0
CIRCLE
  8
0
 62
     3
  6
CONTINUOUS
 10
2872.260138
 20
2201.790816
 40
75.000000
  0
LINE
  8
3
 62
     3
  6
CENTER
 10
2766.066815
 20
2201.790816
 11
2986.232349
 21
2201.790816
  0
LINE
  8
3
 62
     3
  6
CENTER
 10
2872.260138
 20
2103.349657
 11
2872.260138
 21
2303.889268
  0
INSERT
  8
0
  2
G4
 10
0
 20
0
  0
INSERT
  8
0
  2
G5
 10
0
 20
0
  0
LINE
  8
0
 62
     2
  6
CONTINUOUS
 10
2977.260138
 20
1456.528715
 11
2872.260138
 21
1456.528715
  0
LINE
  8
0
 62
     2
  6
CONTINUOUS
 10
2977.260138
 20
1464.528715
 11
2872.260138
 21
1464.528715
  0
ARC
  8
0
 62
     2
  6
CONTINUOUS
 10
2971.260138
 20
1455.528715
 40
1.000000
 50
90.000000
 51
180.000000
  0
LINE
  8
0
 62
     2
  6
CONTINUOUS
 10
2970.260138
 20
1453.528715
 11
2970.260138
 21
1455.528715
  0
LINE
  8
0
 62
     2
  6
CONTINUOUS
 10
2977.260138
 20
1456.528715
 11
2977.260138
 21
1464.528715
  0
TEXT
  8
0
 62
     6
 10
2536.833607
 20
2513.812443
 40
35.000000
 50
0.000000E+00
 41
0.82 
  1
４ＳＦ－　　　－　　　　　００００　－Ｐ
 72
     5
 11
3195.333607
 21
2513.812443
  0
POINT
  8
0
 62
     3
 10
2872.260138
 20
1848.027117
  0
LINE
  8
3
 62
     3
  6
CONTINUOUS
 10
2797.260138
 20
1918.027117
 11
2872.260138
 21
1918.027117
  0
LINE
  8
3
 62
     3
  6
CONTINUOUS
 10
2811.290154
 20
1837.543100
 11
2872.260138
 21
1837.543100
  0
LINE
  8
3
 62
     3
  6
CONTINUOUS
 10
2794.521116
 20
1740.903002
 11
2872.260138
 21
1740.903002
  0
LINE
  8
3
 62
     3
  6
CENTER
 10
2872.260138
 20
1930.501565
 11
2872.260138
 21
1477.709326
  0
LINE
  8
0
 62
     2
  6
CONTINUOUS
 10
2767.260138
 20
1464.528715
 11
2872.260138
 21
1464.528715
  0
LINE
  8
0
 62
     3
  6
CONTINUOUS
 10
2958.260138
 20
1733.786486
 11
2958.260138
 21
1723.027117
  0
ARC
  8
0
 62
     3
  6
CONTINUOUS
 10
2923.260138
 20
1733.786486
 40
35.000000
 50
0.000000E+00
 51
17.716492
  0
ARC
  8
1
 62
     3
  6
CONTINUOUS
 10
2961.260138
 20
1593.027117
 40
3.000000
 50
90.000000
 51
180.000000
  0
ARC
  8
1
 62
     3
  6
CONTINUOUS
 10
2961.260138
 20
1723.027117
 40
3.000000
 50
180.000000
 51
270.000000
  0
ARC
  8
1
 62
     3
  6
CONTINUOUS
 10
2965.260138
 20
1718.027117
 40
2.000000
 50
0.000000E+00
 51
90.000000
  0
LINE
  8
1
 62
     3
  6
CONTINUOUS
 10
2965.260138
 20
1596.027117
 11
2961.260138
 21
1596.027117
  0
LINE
  8
1
 62
     3
  6
CONTINUOUS
 10
2965.260138
 20
1720.027117
 11
2961.260138
 21
1720.027117
  0
ARC
  8
1
 62
     3
  6
CONTINUOUS
 10
2965.260138
 20
1598.027117
 40
2.000000
 50
270.000000
 51
360.000000
  0
LINE
  8
0
 62
     2
  6
CONTINUOUS
 10
2774.260138
 20
1471.528715
 11
2970.260138
 21
1471.528715
  0
ARC
  8
0
 62
     2
  6
CONTINUOUS
 10
2773.260138
 20
1455.528715
 40
1.000000
 50
360.000000
 51
450.000000
  0
POINT
  8
0
 62
     3
 10
2872.260138
 20
1408.027117
  0
POINT
  8
0
 62
     3
 10
2872.260138
 20
1430.527117
  0
POINT
  8
0
 62
     3
 10
2872.260138
 20
1445.027117
  0
LINE
  8
3
 62
     4
  6
CONTINUOUS
 10
2933.500373
 20
1348.350668
 11
2934.220058
 21
1340.865870
  0
LINE
  8
3
 62
     4
  6
CONTINUOUS
 10
2934.220058
 20
1340.865870
 11
2935.333631
 21
1333.662253
  0
LINE
  8
3
 62
     4
  6
CONTINUOUS
 10
2935.333631
 20
1333.662253
 11
2936.822846
 21
1326.857845
  0
LINE
  8
3
 62
     4
  6
CONTINUOUS
 10
2936.822846
 20
1326.857845
 11
2938.663303
 21
1320.564134
  0
LINE
  8
3
 62
     4
  6
CONTINUOUS
 10
2938.663303
 20
1320.564134
 11
2940.824846
 21
1314.884240
  0
LINE
  8
3
 62
     4
  6
CONTINUOUS
 10
2940.824846
 20
1314.884240
 11
2943.272060
 21
1309.911225
  0
LINE
  8
3
 62
     4
  6
CONTINUOUS
 10
2943.272060
 20
1309.911225
 11
2945.964848
 21
1305.726570
  0
LINE
  8
3
 62
     4
  6
CONTINUOUS
 10
2945.964848
 20
1305.726570
 11
2948.859090
 21
1302.398841
  0
LINE
  8
3
 62
     4
  6
CONTINUOUS
 10
2948.859090
 20
1302.398841
 11
2951.907365
 21
1299.982559
  0
LINE
  8
3
 62
     4
  6
CONTINUOUS
 10
2951.907365
 20
1299.982559
 11
2955.059727
 21
1298.517316
  0
LINE
  8
3
 62
     4
  6
CONTINUOUS
 10
2951.907365
 20
1299.982559
 11
2955.059727
 21
1298.517316
  0
LINE
  8
3
 62
     4
  6
CONTINUOUS
 10
2940.798715
 20
1401.109505
 11
2939.684021
 21
1398.354921
  0
LINE
  8
3
 62
     4
  6
CONTINUOUS
 10
2939.684021
 20
1398.354921
 11
2938.645150
 21
1395.435725
  0
LINE
  8
3
 62
     4
  6
CONTINUOUS
 10
2938.645150
 20
1395.435725
 11
2937.686345
 21
1392.363834
  0
LINE
  8
3
 62
     4
  6
CONTINUOUS
 10
2937.686345
 20
1392.363834
 11
2936.811519
 21
1389.151786
  0
LINE
  8
3
 62
     4
  6
CONTINUOUS
 10
2936.811519
 20
1389.151786
 11
2936.024242
 21
1385.812693
  0
LINE
  8
3
 62
     4
  6
CONTINUOUS
 10
2936.024242
 20
1385.812693
 11
2935.327728
 21
1382.360184
  0
LINE
  8
3
 62
     4
  6
CONTINUOUS
 10
2935.327728
 20
1382.360184
 11
2934.724820
 21
1378.808352
  0
LINE
  8
3
 62
     4
  6
CONTINUOUS
 10
2934.724820
 20
1378.808352
 11
2934.217979
 21
1375.171694
  0
LINE
  8
3
 62
     4
  6
CONTINUOUS
 10
2934.217979
 20
1375.171694
 11
2933.809274
 21
1371.465055
  0
LINE
  8
3
 62
     4
  6
CONTINUOUS
 10
2933.809274
 20
1371.465055
 11
2933.500373
 21
1367.703565
  0
LINE
  8
3
 62
     4
  6
CONTINUOUS
 10
2933.809274
 20
1371.465055
 11
2933.500373
 21
1367.703565
  0
LINE
  8
1
 62
     4
  6
CONTINUOUS
 10
2777.260138
 20
1418.027117
 11
2777.260138
 21
1298.027117
  0
ARC
  8
1
 62
     4
  6
CONTINUOUS
 10
2766.458821
 20
1392.787309
 40
30.639745
 50
33.671563
 51
62.448001
  0
LINE
  8
1
 62
     4
  6
CONTINUOUS
 10
2783.260138
 20
1296.027117
 11
2779.260138
 21
1296.027117
  0
ARC
  8
1
 62
     4
  6
CONTINUOUS
 10
2783.260138
 20
1293.027117
 40
3.000000
 50
0.000000E+00
 51
90.000000
  0
ARC
  8
1
 62
     4
  6
CONTINUOUS
 10
2779.260138
 20
1418.027117
 40
2.000000
 50
90.000000
 51
180.000000
  0
ARC
  8
1
 62
     4
  6
CONTINUOUS
 10
2779.260138
 20
1298.027117
 40
2.000000
 50
180.000000
 51
270.000000
  0
ARC
  8
3
 62
     4
  6
CONTINUOUS
 10
2932.388321
 20
1429.975616
 40
28.500781
 50
295.487111
 51
314.942399
  0
POINT
  8
3
 62
     7
 10
2786.260138
 20
1418.027117
  0
ARC
  8
3
 62
     4
  6
CONTINUOUS
 10
2812.131956
 20
1429.975616
 40
28.500781
 50
225.057601
 51
244.512889
  0
LINE
  8
3
 62
     4
  6
CONTINUOUS
 10
2811.019904
 20
1367.703565
 11
2810.711003
 21
1371.465055
  0
LINE
  8
3
 62
     4
  6
CONTINUOUS
 10
2810.711003
 20
1371.465055
 11
2810.302298
 21
1375.171694
  0
LINE
  8
3
 62
     4
  6
CONTINUOUS
 10
2810.302298
 20
1375.171694
 11
2809.795457
 21
1378.808352
  0
LINE
  8
3
 62
     4
  6
CONTINUOUS
 10
2809.795457
 20
1378.808352
 11
2809.192549
 21
1382.360184
  0
LINE
  8
3
 62
     4
  6
CONTINUOUS
 10
2809.192549
 20
1382.360184
 11
2808.496035
 21
1385.812693
  0
LINE
  8
3
 62
     4
  6
CONTINUOUS
 10
2808.496035
 20
1385.812693
 11
2807.708758
 21
1389.151786
  0
LINE
  8
3
 62
     4
  6
CONTINUOUS
 10
2807.708758
 20
1389.151786
 11
2806.833931
 21
1392.363834
  0
LINE
  8
3
 62
     4
  6
CONTINUOUS
 10
2806.833931
 20
1392.363834
 11
2805.875126
 21
1395.435725
  0
LINE
  8
3
 62
     4
  6
CONTINUOUS
 10
2805.875126
 20
1395.435725
 11
2804.836256
 21
1398.354921
  0
LINE
  8
3
 62
     4
  6
CONTINUOUS
 10
2804.836256
 20
1398.354921
 11
2803.721561
 21
1401.109505
  0
LINE
  8
3
 62
     4
  6
CONTINUOUS
 10
2804.836256
 20
1398.354921
 11
2803.721561
 21
1401.109505
  0
LINE
  8
3
 62
     4
  6
CONTINUOUS
 10
2789.460550
 20
1298.517316
 11
2792.612912
 21
1299.982559
  0
LINE
  8
3
 62
     4
  6
CONTINUOUS
 10
2792.612912
 20
1299.982559
 11
2795.661186
 21
1302.398841
  0
LINE
  8
3
 62
     4
  6
CONTINUOUS
 10
2795.661186
 20
1302.398841
 11
2798.555428
 21
1305.726570
  0
LINE
  8
3
 62
     4
  6
CONTINUOUS
 10
2798.555428
 20
1305.726570
 11
2801.248216
 21
1309.911225
  0
LINE
  8
3
 62
     4
  6
CONTINUOUS
 10
2801.248216
 20
1309.911225
 11
2803.695430
 21
1314.884240
  0
LINE
  8
3
 62
     4
  6
CONTINUOUS
 10
2803.695430
 20
1314.884240
 11
2805.856974
 21
1320.564134
  0
LINE
  8
3
 62
     4
  6
CONTINUOUS
 10
2805.856974
 20
1320.564134
 11
2807.697431
 21
1326.857845
  0
LINE
  8
3
 62
     4
  6
CONTINUOUS
 10
2807.697431
 20
1326.857845
 11
2809.186646
 21
1333.662253
  0
LINE
  8
3
 62
     4
  6
CONTINUOUS
 10
2809.186646
 20
1333.662253
 11
2810.300218
 21
1340.865870
  0
LINE
  8
3
 62
     4
  6
CONTINUOUS
 10
2810.300218
 20
1340.865870
 11
2811.019904
 21
1348.350668
  0
LINE
  8
3
 62
     4
  6
CONTINUOUS
 10
2810.300218
 20
1340.865870
 11
2811.019904
 21
1348.350668
  0
LINE
  8
3
 62
     3
  6
CONTINUOUS
 10
2933.986782
 20
1652.211496
 11
2934.534327
 21
1644.144613
  0
LINE
  8
3
 62
     3
  6
CONTINUOUS
 10
2934.534327
 20
1644.144613
 11
2935.523169
 21
1636.335657
  0
LINE
  8
3
 62
     3
  6
CONTINUOUS
 10
2935.523169
 20
1636.335657
 11
2936.934936
 21
1628.929711
  0
LINE
  8
3
 62
     3
  6
CONTINUOUS
 10
2936.934936
 20
1628.929711
 11
2938.743400
 21
1622.064373
  0
LINE
  8
3
 62
     3
  6
CONTINUOUS
 10
2938.743400
 20
1622.064373
 11
2940.914959
 21
1615.867195
  0
LINE
  8
3
 62
     3
  6
CONTINUOUS
 10
2940.914959
 20
1615.867195
 11
2943.409269
 21
1610.453317
  0
LINE
  8
3
 62
     3
  6
CONTINUOUS
 10
2943.409269
 20
1610.453317
 11
2946.179986
 21
1605.923324
  0
LINE
  8
3
 62
     3
  6
CONTINUOUS
 10
2946.179986
 20
1605.923324
 11
2949.175633
 21
1602.361380
  0
LINE
  8
3
 62
     3
  6
CONTINUOUS
 10
2949.175633
 20
1602.361380
 11
2952.340553
 21
1599.833664
  0
LINE
  8
3
 62
     3
  6
CONTINUOUS
 10
2952.340553
 20
1599.833664
 11
2955.615944
 21
1598.387137
  0
LINE
  8
3
 62
     3
  6
CONTINUOUS
 10
2952.340553
 20
1599.833664
 11
2955.615944
 21
1598.387137
  0
LINE
  8
3
 62
     3
  6
CONTINUOUS
 10
2956.073835
 20
1717.780203
 11
2952.743103
 21
1716.460076
  0
LINE
  8
3
 62
     3
  6
CONTINUOUS
 10
2952.743103
 20
1716.460076
 11
2949.518224
 21
1714.024148
  0
LINE
  8
3
 62
     3
  6
CONTINUOUS
 10
2949.518224
 20
1714.024148
 11
2946.460780
 21
1710.518932
  0
LINE
  8
3
 62
     3
  6
CONTINUOUS
 10
2946.460780
 20
1710.518932
 11
2943.629152
 21
1706.011363
  0
LINE
  8
3
 62
     3
  6
CONTINUOUS
 10
2943.629152
 20
1706.011363
 11
2941.077413
 21
1700.587514
  0
LINE
  8
3
 62
     3
  6
CONTINUOUS
 10
2941.077413
 20
1700.587514
 11
2938.854289
 21
1694.350956
  0
LINE
  8
3
 62
     3
  6
CONTINUOUS
 10
2938.854289
 20
1694.350956
 11
2937.002231
 21
1687.420778
  0
LINE
  8
3
 62
     3
  6
CONTINUOUS
 10
2937.002231
 20
1687.420778
 11
2935.556606
 21
1679.929317
  0
LINE
  8
3
 62
     3
  6
CONTINUOUS
 10
2935.556606
 20
1679.929317
 11
2934.545017
 21
1672.019623
  0
LINE
  8
3
 62
     3
  6
CONTINUOUS
 10
2934.545017
 20
1672.019623
 11
2933.986782
 21
1663.842737
  0
LINE
  8
3
 62
     3
  6
CONTINUOUS
 10
2934.545017
 20
1672.019623
 11
2933.986782
 21
1663.842737
  0
CIRCLE
  8
0
 62
     1
  6
CONTINUOUS
 10
2872.260138
 20
1358.027117
 40
62.000000
  0
ARC
  8
2
 62
     3
  6
CONTINUOUS
 10
2947.302064
 20
1824.400741
 40
15.000000
 50
120.111013
 51
197.716492
  0
LINE
  8
3
 62
     4
  6
CONTINUOUS
 10
3512.749069
 20
2080.964607
 11
3500.546372
 21
2018.061853
  0
LINE
  8
0
 62
     3
  6
CONTINUOUS
 10
2786.260138
 20
1593.027117
 11
2786.260138
 21
1471.528715
  0
LINE
  8
0
 62
     2
  6
CONTINUOUS
 10
2774.260138
 20
1471.528715
 11
2767.260138
 21
1464.528715
  0
LINE
  8
3
 62
     4
  6
CENTER
 10
2872.260138
 20
924.939597
 11
2872.260138
 21
1165.631738
  0
LINE
  8
3
 62
     4
  6
CENTER
 10
2872.260138
 20
1165.631738
 11
2872.260138
 21
1477.709326
  0
ARC
  8
2
 62
     3
  6
CONTINUOUS
 10
2797.218213
 20
1824.400741
 40
15.000000
 50
342.283508
 51
419.888987
  0
LINE
  8
0
 62
     3
  6
CONTINUOUS
 10
2933.013455
 20
1819.836132
 11
2956.600226
 21
1744.437240
  0
LINE
  8
0
 62
     3
  6
CONTINUOUS
 10
2811.506822
 20
1819.836132
 11
2787.920051
 21
1744.437240
  0
LINE
  8
3
 62
     3
  6
CONTINUOUS
 10
2933.230122
 20
1837.543100
 11
2872.260138
 21
1837.543100
  0
ARC
  8
0
 62
     3
  6
CONTINUOUS
 10
2821.260138
 20
1733.786486
 40
35.000000
 50
162.283508
 51
180.000000
  0
LINE
  8
0
 62
     3
  6
CONTINUOUS
 10
2786.260138
 20
1733.786486
 11
2786.260138
 21
1723.027117
  0
LINE
  8
3
 62
     4
  6
CONTINUOUS
 10
2767.260138
 20
1453.027117
 11
2767.260138
 21
1438.027117
  0
LINE
  8
3
 62
     4
  6
CONTINUOUS
 10
2768.260138
 20
1438.027117
 11
2767.260138
 21
1438.027117
  0
ARC
  8
3
 62
     4
  6
CONTINUOUS
 10
2768.260138
 20
1436.027117
 40
2.000000
 50
0.000000E+00
 51
90.000000
  0
LINE
  8
3
 62
     4
  6
CONTINUOUS
 10
2770.260138
 20
1436.027117
 11
2770.260138
 21
1434.527117
  0
ARC
  8
3
 62
     4
  6
CONTINUOUS
 10
2771.760138
 20
1434.527117
 40
1.500000
 50
180.000000
 51
270.000000
  0
LINE
  8
3
 62
     4
  6
CONTINUOUS
 10
2775.700990
 20
1433.027117
 11
2779.260138
 21
1428.726479
  0
LINE
  8
3
 62
     4
  6
CONTINUOUS
 10
2779.260138
 20
1428.726479
 11
2779.260138
 21
1420.027117
  0
LINE
  8
3
 62
     4
  6
CONTINUOUS
 10
2965.260138
 20
1428.726479
 11
2965.260138
 21
1420.027117
  0
LINE
  8
3
 62
     4
  6
CONTINUOUS
 10
2968.819287
 20
1433.027117
 11
2965.260138
 21
1428.726479
  0
LINE
  8
3
 62
     4
  6
CONTINUOUS
 10
2972.760138
 20
1433.027117
 11
2771.760138
 21
1433.027117
  0
ARC
  8
3
 62
     4
  6
CONTINUOUS
 10
2972.760138
 20
1434.527117
 40
1.500000
 50
270.000000
 51
360.000000
  0
LINE
  8
3
 62
     4
  6
CONTINUOUS
 10
2939.413514
 20
1403.027117
 11
2914.909875
 21
1403.027117
  0
LINE
  8
3
 62
     4
  6
CONTINUOUS
 10
2974.260138
 20
1436.027117
 11
2974.260138
 21
1434.527117
  0
ARC
  8
3
 62
     4
  6
CONTINUOUS
 10
2976.260138
 20
1436.027117
 40
2.000000
 50
90.000000
 51
180.000000
  0
LINE
  8
3
 62
     3
  6
CENTER
 10
2950.748991
 20
1429.083548
 11
2950.748991
 21
1459.574319
  0
LINE
  8
3
 62
     3
  6
CENTER
 10
2793.771286
 20
1429.083548
 11
2793.771286
 21
1459.574319
  0
LINE
  8
3
 62
     4
  6
CENTER
 10
2768.752854
 20
1358.027117
 11
2981.635604
 21
1358.027117
  0
LINE
  8
3
 62
     4
  6
CONTINUOUS
 10
2976.260138
 20
1438.027117
 11
2977.260138
 21
1438.027117
  0
LINE
  8
3
 62
     4
  6
CONTINUOUS
 10
2977.260138
 20
1453.027117
 11
2977.260138
 21
1438.027117
  0
ARC
  8
3
 62
     4
  6
CONTINUOUS
 10
2925.260138
 20
940.027117
 40
2.000000
 50
270.000000
 51
360.000000
  0
ARC
  8
3
 62
     4
  6
CONTINUOUS
 10
2819.260138
 20
940.027117
 40
2.000000
 50
180.000000
 51
270.000000
  0
LINE
  8
3
 62
     4
  6
CONTINUOUS
 10
2977.260138
 20
1453.027117
 11
2767.260138
 21
1453.027117
  0
LINE
  8
3
 62
     4
  6
CONTINUOUS
 10
2768.260138
 20
1438.027117
 11
2976.260138
 21
1438.027117
  0
LINE
  8
3
 62
     4
  6
CONTINUOUS
 10
2958.260138
 20
1211.899028
 11
2958.260138
 21
1293.027117
  0
LINE
  8
3
 62
     4
  6
CONTINUOUS
 10
2965.260138
 20
1428.726479
 11
2779.260138
 21
1428.726479
  0
LINE
  8
3
 62
     4
  6
CONTINUOUS
 10
2786.260138
 20
1208.027117
 11
2786.260138
 21
1293.027117
  0
LINE
  8
3
 62
     4
  6
CONTINUOUS
 10
2791.511049
 20
1208.027117
 11
2953.009227
 21
1208.027117
  0
LINE
  8
3
 62
     4
  6
CONTINUOUS
 10
2822.009227
 20
1088.027117
 11
2922.511049
 21
1088.027117
  0
LINE
  8
3
 62
     4
  6
CONTINUOUS
 10
2925.260138
 20
938.027117
 11
2819.260138
 21
938.027117
  0
LINE
  8
3
 62
     4
  6
CONTINUOUS
 10
2927.260138
 20
1084.155205
 11
2927.260138
 21
940.027117
  0
ARC
  8
3
 62
     4
  6
CONTINUOUS
 10
2923.260138
 20
1211.899028
 40
35.000000
 50
345.291696
 51
360.000000
  0
LINE
  8
3
 62
     4
  6
CONTINUOUS
 10
2957.113222
 20
1203.012593
 11
2928.079364
 21
1090.502658
  0
ARC
  8
3
 62
     4
  6
CONTINUOUS
 10
2952.260138
 20
1084.155205
 40
25.000000
 50
165.291696
 51
180.000000
  0
LINE
  8
3
 62
     4
  6
CONTINUOUS
 10
2817.260138
 20
1084.155205
 11
2817.260138
 21
940.027117
  0
ARC
  8
3
 62
     4
  6
CONTINUOUS
 10
2821.260138
 20
1211.899028
 40
35.000000
 50
180.000000
 51
194.708304
  0
LINE
  8
3
 62
     4
  6
CONTINUOUS
 10
2787.407055
 20
1203.012593
 11
2816.440912
 21
1090.502658
  0
ARC
  8
3
 62
     4
  6
CONTINUOUS
 10
2792.260138
 20
1084.155205
 40
25.000000
 50
0.000000E+00
 51
14.708304
  0
LINE
  8
3
 62
     4
  6
CONTINUOUS
 10
3523.035393
 20
2091.250931
 11
3584.003522
 21
2103.078324
  0
ARC
  8
3
 62
     3
  6
CONTINUOUS
 10
3604.000000
 20
2000.000000
 40
105.000000
 50
79.021382
 51
100.978618
  0
CIRCLE
  8
3
 62
     3
  6
CONTINUOUS
 10
3604.000000
 20
2000.000000
 40
81.000000
  0
ARC
  8
3
 62
     4
  6
CONTINUOUS
 10
3525.511147
 20
2078.488853
 40
13.000000
 50
100.978618
 51
169.021382
  0
LINE
  8
3
 62
     3
  6
CENTER
 10
3486.749950
 20
2000.000000
 11
3728.915276
 21
2000.000000
  0
LINE
  8
1
 62
     4
  6
CONTINUOUS
 10
2967.260138
 20
1418.027117
 11
2967.260138
 21
1298.027117
  0
ARC
  8
1
 62
     4
  6
CONTINUOUS
 10
2965.260138
 20
1418.027117
 40
2.000000
 50
0.000000E+00
 51
90.000000
  0
ARC
  8
1
 62
     4
  6
CONTINUOUS
 10
2965.260138
 20
1298.027117
 40
2.000000
 50
270.000000
 51
360.000000
  0
LINE
  8
3
 62
     3
  6
CONTINUOUS
 10
2949.999161
 20
1740.903002
 11
2872.260138
 21
1740.903002
  0
ARC
  8
3
 62
     3
  6
CONTINUOUS
 10
2949.260138
 20
1913.444541
 40
5.000000
 50
113.578178
 51
180.000000
  0
ARC
  8
0
 62
     3
  6
CONTINUOUS
 10
2923.260138
 20
1733.786486
 40
35.000000
 50
0.000000E+00
 51
17.716492
  0
LINE
  8
3
 62
     3
  6
CONTINUOUS
 10
2947.260138
 20
1923.027117
 11
2947.260138
 21
1918.027117
  0
ARC
  8
3
 62
     3
  6
CONTINUOUS
 10
2795.260138
 20
1913.444541
 40
5.000000
 50
360.000000
 51
426.421822
  0
LINE
  8
0
 62
     2
  6
CONTINUOUS
 10
2970.260138
 20
1471.528715
 11
2977.260138
 21
1464.528715
  0
LINE
  8
3
 62
     3
  6
CENTER
 10
2770.334190
 20
1658.027117
 11
2980.840822
 21
1658.027117
  0
ARC
  8
3
 62
     3
  6
CONTINUOUS
 10
2810.260138
 20
1846.027117
 40
10.000000
 50
180.000000
 51
238.038250
  0
LINE
  8
3
 62
     3
  6
CONTINUOUS
 10
2944.260138
 20
1913.444541
 11
2944.260138
 21
1846.027117
  0
LINE
  8
3
 62
     3
  6
CONTINUOUS
 10
2800.260138
 20
1913.444541
 11
2800.260138
 21
1846.027117
  0
ARC
  8
3
 62
     3
  6
CONTINUOUS
 10
2934.260138
 20
1846.027117
 40
10.000000
 50
302.527138
 51
360.000000
  0
LINE
  8
3
 62
     3
  6
CENTER
 10
3604.000000
 20
2108.997250
 11
3604.000000
 21
1883.580925
  0
CIRCLE
  8
3
 62
     4
  6
CONTINUOUS
 10
3682.488853
 20
2078.488853
 40
7.000000
  0
CIRCLE
  8
3
 62
     4
  6
CONTINUOUS
 10
3525.511147
 20
2078.488853
 40
7.000000
  0
CIRCLE
  8
3
 62
     4
  6
CONTINUOUS
 10
3525.511147
 20
1921.511147
 40
7.000000
  0
CIRCLE
  8
3
 62
     4
  6
CONTINUOUS
 10
3682.488853
 20
1921.511147
 40
7.000000
  0
ARC
  8
3
 62
     4
  6
CENTER
 10
3604.000000
 20
2000.000000
 40
111.000000
 50
124.510429
 51
142.981003
  0
INSERT
  8
0
  2
G6
 10
0
 20
0
  0
ARC
  8
3
 62
     4
  6
CONTINUOUS
 10
3604.000000
 20
2000.000000
 40
100.000000
 50
53.109614
 51
126.890386
  0
ARC
  8
3
 62
     4
  6
CONTINUOUS
 10
3604.000000
 20
2000.000000
 40
100.000000
 50
143.109614
 51
216.890386
  0
ARC
  8
3
 62
     4
  6
CONTINUOUS
 10
3604.000000
 20
2000.000000
 40
100.000000
 50
233.109614
 51
306.890386
  0
ARC
  8
0
 62
     4
  6
CONTINUOUS
 10
3604.000000
 20
2000.000000
 40
100.000000
 50
306.038338
 51
323.961662
  0
LINE
  8
0
 62
     3
  6
CONTINUOUS
 10
3733.632863
 20
1854.683954
 11
3987.536997
 21
1854.683954
  0
TEXT
  8
0
 62
     3
 10
3737.632863
 20
1860.017287
 40
32.000000
 50
0.000000E+00
 41
0.87 
  1
Ｃ矢視　（下部）
 72
     5
 11
3993.632863
 21
1860.017287
  0
INSERT
  8
0
  2
G7
 10
0
 20
0
  0
INSERT
  8
0
  2
G8
 10
0
 20
0
  0
INSERT
  8
0
  2
G9
 10
0
 20
0
  0
LINE
  8
0
 62
     1
  6
CONTINUOUS
 10
3179.337052
 20
1658.027117
 11
3066.213046
 21
1658.027117
  0
LINE
  8
0
 62
     1
  6
CONTINUOUS
 10
3066.213046
 20
1658.027117
 11
2981.851733
 21
1658.027117
  0
INSERT
  8
0
  2
G10
 10
0
 20
0
  0
INSERT
  8
0
  2
G11
 10
0
 20
0
  0
LINE
  8
0
 62
     3
  6
CONTINUOUS
 10
2958.260138
 20
1593.027117
 11
2958.260138
 21
1471.528715
  0
LINE
  8
3
 62
     3
  6
CONTINUOUS
 10
2797.260138
 20
1923.027117
 11
2797.260138
 21
1918.027117
  0
LINE
  8
3
 62
     3
  6
CONTINUOUS
 10
2797.260138
 20
1923.027117
 11
2947.260138
 21
1923.027117
  0
LINE
  8
3
 62
     3
  6
CONTINUOUS
 10
2947.260138
 20
1918.027117
 11
2872.260138
 21
1918.027117
  0
LINE
  8
0
 62
     3
  6
CONTINUOUS
 10
2958.260138
 20
1723.027117
 11
2958.260138
 21
1733.786486
  0
LINE
  8
0
 62
     2
  6
CONTINUOUS
 10
2767.260138
 20
1456.528715
 11
2767.260138
 21
1464.528715
  0
LINE
  8
0
 62
     2
  6
CONTINUOUS
 10
2774.260138
 20
1453.528715
 11
2970.260138
 21
1453.528715
  0
LINE
  8
0
 62
     2
  6
CONTINUOUS
 10
2767.260138
 20
1456.528715
 11
2872.260138
 21
1456.528715
  0
LINE
  8
0
 62
     2
  6
CONTINUOUS
 10
2774.260138
 20
1453.528715
 11
2774.260138
 21
1455.528715
  0
LINE
  8
3
 62
     4
  6
CONTINUOUS
 10
2805.106763
 20
1403.027117
 11
2829.610402
 21
1403.027117
  0
ARC
  8
3
 62
     4
  6
CONTINUOUS
 10
2965.260138
 20
1418.027117
 40
2.000000
 50
0.000000E+00
 51
90.000000
  0
LINE
  8
3
 62
     4
  6
CONTINUOUS
 10
2967.260138
 20
1298.027117
 11
2967.260138
 21
1418.027117
  0
ARC
  8
3
 62
     4
  6
CONTINUOUS
 10
2965.260138
 20
1298.027117
 40
2.000000
 50
270.000000
 51
360.000000
  0
LINE
  8
3
 62
     4
  6
CONTINUOUS
 10
2965.260138
 20
1296.027117
 11
2961.260138
 21
1296.027117
  0
ARC
  8
3
 62
     4
  6
CONTINUOUS
 10
2961.260138
 20
1293.027117
 40
3.000000
 50
90.000000
 51
180.000000
  0
POINT
  8
3
 62
     4
 10
2958.260138
 20
1296.027117
  0
POINT
  8
3
 62
     7
 10
2958.260138
 20
1418.027117
  0
ARC
  8
1
 62
     4
  6
CONTINUOUS
 10
2978.061456
 20
1392.787309
 40
30.639745
 50
117.551999
 51
146.346996
  0
TEXT
  8
0
 62
     6
 10
3221.948131
 20
2491.370812
 40
35.000000
 50
0.000000E+00
 41
0.60 
  1
300,340,360
 72
     5
 11
3454.448131
 21
2491.370812
  0
TEXT
  8
0
 62
     6
 10
3220.087629
 20
2533.485825
 40
35.000000
 50
0.000000E+00
 41
0.60 
  1
240,260,280
 72
     5
 11
3452.587629
 21
2533.485825
  0
TEXT
  8
0
 62
     2
 10
3733.220431
 20
759.025896
 40
30.000000
 50
0.000000E+00
 41
0.61 
  1
850
 72
     5
 11
3788.220431
 21
759.025896
  0
TEXT
  8
0
 62
     2
 10
3314.281517
 20
837.217257
 40
30.000000
 50
0.000000E+00
 41
0.86 
  1
Ｐ
 72
     5
 11
3344.281517
 21
837.217257
  0
TEXT
  8
0
 62
     2
 10
3530.729726
 20
837.196846
 40
30.000000
 50
0.000000E+00
 41
0.61 
  1
260
 72
     5
 11
3585.729726
 21
837.196846
  0
TEXT
  8
0
 62
     2
 10
3630.421191
 20
759.025896
 40
30.000000
 50
0.000000E+00
 41
0.61 
  1
830
 72
     5
 11
3685.421191
 21
759.025896
  0
TEXT
  8
0
 62
     2
 10
3530.968711
 20
760.753032
 40
30.000000
 50
0.000000E+00
 41
0.61 
  1
810
 72
     5
 11
3585.968711
 21
760.753032
  0
LINE
  8
0
 62
     2
  6
CONTINUOUS
 10
4022.541101
 20
871.364597
 11
4022.541101
 21
871.364405
  0
LINE
  8
0
 62
     2
  6
CONTINUOUS
 10
3244.712419
 20
884.601646
 11
3244.712419
 21
640.281646
  0
TEXT
  8
0
 62
     2
 10
3255.240523
 20
765.067725
 40
30.000000
 50
0.000000E+00
 41
0.72 
  1
Ｌ（有効長）
 72
     5
 11
3405.240523
 21
765.067725
  0
LINE
  8
0
 62
     2
  6
CONTINUOUS
 10
3244.712419
 20
823.161646
 11
4024.114339
 21
823.161646
  0
TEXT
  8
0
 62
     2
 10
3943.410366
 20
837.196846
 40
30.000000
 50
0.000000E+00
 41
0.61 
  1
360
 72
     5
 11
3998.410366
 21
837.196846
  0
LINE
  8
0
 62
     2
  6
CONTINUOUS
 10
3912.193699
 20
884.601646
 11
3912.193699
 21
640.281646
  0
LINE
  8
0
 62
     2
  6
CONTINUOUS
 10
4024.114339
 20
884.601646
 11
4024.114339
 21
640.281646
  0
LINE
  8
0
 62
     2
  6
CONTINUOUS
 10
3708.353379
 20
884.601646
 11
3708.353379
 21
640.281646
  0
LINE
  8
0
 62
     2
  6
CONTINUOUS
 10
3606.432739
 20
884.601646
 11
3606.432739
 21
640.281646
  0
LINE
  8
0
 62
     2
  6
CONTINUOUS
 10
3504.513059
 20
884.601646
 11
3504.513059
 21
640.281646
  0
LINE
  8
0
 62
     2
  6
CONTINUOUS
 10
3402.593379
 20
884.601646
 11
3402.593379
 21
640.281646
  0
TEXT
  8
0
 62
     2
 10
3836.729671
 20
760.753032
 40
30.000000
 50
0.000000E+00
 41
0.61 
  1
890
 72
     5
 11
3891.729671
 21
760.753032
  0
LINE
  8
0
 62
     2
  6
CONTINUOUS
 10
3244.712419
 20
884.601646
 11
4024.114339
 21
884.601646
  0
TEXT
  8
0
 62
     2
 10
3941.182151
 20
759.025896
 40
30.000000
 50
0.000000E+00
 41
0.61 
  1
910
 72
     5
 11
3996.182151
 21
759.025896
  0
LINE
  8
0
 62
     2
  6
CONTINUOUS
 10
3244.712419
 20
731.721646
 11
4024.114339
 21
731.721646
  0
TEXT
  8
0
 62
     2
 10
3255.240523
 20
673.627725
 40
30.000000
 50
0.000000E+00
 41
0.72 
  1
Ｌｔ（全長）
 72
     5
 11
3405.240523
 21
673.627725
  0
LINE
  8
0
 62
     2
  6
CONTINUOUS
 10
3810.274019
 20
884.601646
 11
3810.274019
 21
640.281646
  0
TEXT
  8
0
 62
     2
 10
3428.810046
 20
837.196846
 40
30.000000
 50
0.000000E+00
 41
0.61 
  1
240
 72
     5
 11
3483.810046
 21
837.196846
  0
TEXT
  8
0
 62
     2
 10
3632.649406
 20
837.196846
 40
30.000000
 50
0.000000E+00
 41
0.61 
  1
280
 72
     5
 11
3687.649406
 21
837.196846
  0
TEXT
  8
0
 62
     2
 10
3734.570046
 20
837.196846
 40
30.000000
 50
0.000000E+00
 41
0.61 
  1
300
 72
     5
 11
3789.570046
 21
837.196846
  0
TEXT
  8
0
 62
     2
 10
3836.490686
 20
837.196846
 40
30.000000
 50
0.000000E+00
 41
0.61 
  1
340
 72
     5
 11
3891.490686
 21
837.196846
  0
TEXT
  8
0
 62
     2
 10
3429.049031
 20
669.313032
 40
30.000000
 50
0.000000E+00
 41
0.61 
  1
865
 72
     5
 11
3484.049031
 21
669.313032
  0
TEXT
  8
0
 62
     2
 10
3941.182151
 20
667.585896
 40
30.000000
 50
0.000000E+00
 41
0.61 
  1
985
 72
     5
 11
3996.182151
 21
667.585896
  0
TEXT
  8
0
 62
     2
 10
3429.049031
 20
760.753032
 40
30.000000
 50
0.000000E+00
 41
0.61 
  1
790
 72
     5
 11
3484.049031
 21
760.753032
  0
TEXT
  8
0
 62
     2
 10
3836.729671
 20
669.313032
 40
30.000000
 50
0.000000E+00
 41
0.61 
  1
965
 72
     5
 11
3891.729671
 21
669.313032
  0
TEXT
  8
0
 62
     2
 10
3530.968711
 20
669.313032
 40
30.000000
 50
0.000000E+00
 41
0.61 
  1
885
 72
     5
 11
3585.968711
 21
669.313032
  0
TEXT
  8
0
 62
     2
 10
3630.421191
 20
667.585896
 40
30.000000
 50
0.000000E+00
 41
0.61 
  1
905
 72
     5
 11
3685.421191
 21
667.585896
  0
TEXT
  8
0
 62
     2
 10
3733.220431
 20
667.585896
 40
30.000000
 50
0.000000E+00
 41
0.61 
  1
925
 72
     5
 11
3788.220431
 21
667.585896
  0
LINE
  8
0
 62
     2
  6
CONTINUOUS
 10
3244.712419
 20
640.281646
 11
4024.114339
 21
640.281646
  0
TEXT
  8
0
 62
     3
 10
3311.553615
 20
579.564184
 40
32.000000
 50
0.000000E+00
 41
0.94 
  1
対応可能Ｐ寸法　２４０～３６０
 72
     5
 11
3837.267923
 21
579.564184
  0
INSERT
  8
0
  2
G12
 10
0
 20
0
  0
INSERT
  8
0
  2
G13
 10
0
 20
0
  0
INSERT
  8
0
  2
G14
 10
0
 20
0
  0
INSERT
  8
0
  2
G15
 10
0
 20
0
  0
INSERT
  8
0
  2
G16
 10
0
 20
0
  0
INSERT
  8
0
  2
G17
 10
0
 20
0
  0
ENDSEC
  0
EOF
