  0
SECTION
  2
HEADER
  9
$ACADVER
  1
AC1009
  9
$INSBASE
 10
0.0
 20
0.0
 30
0.0
  9
$EXTMIN
 10
0.0
 20
-3717.4999999999959
 30
0.0
  9
$EXTMAX
 10
5575.0
 20
607.5
 30
0.0
  9
$LIMMIN
 10
0.0
 20
0.0
  9
$LIMMAX
 10
210.0
 20
297.0
  9
$ORTHOMODE
 70
     0
  9
$REGENMODE
 70
     1
  9
$FILLMODE
 70
     1
  9
$QTEXTMODE
 70
     0
  9
$MIRRTEXT
 70
     0
  9
$DRAGMODE
 70
     2
  9
$LTSCALE
 40
1.0
  9
$OSMODE
 70
   125
  9
$ATTMODE
 70
     1
  9
$TEXTSIZE
 40
4.0
  9
$TRACEWID
 40
0.05
  9
$TEXTSTYLE
  7
STANDARD
  9
$CLAYER
  8
OBJECT
  9
$CELTYPE
  6
BYLAYER
  9
$CECOLOR
 62
   256
  9
$DIMSCALE
 40
10.0
  9
$DIMASZ
 40
2.0
  9
$DIMEXO
 40
1.0
  9
$DIMDLI
 40
10.0
  9
$DIMRND
 40
0.0
  9
$DIMDLE
 40
0.0
  9
$DIMEXE
 40
1.0
  9
$DIMTP
 40
0.0
  9
$DIMTM
 40
0.0
  9
$DIMTXT
 40
3.2000000000000002
  9
$DIMCEN
 40
0.0
  9
$DIMTSZ
 40
0.0
  9
$DIMTOL
 70
     0
  9
$DIMLIM
 70
     0
  9
$DIMTIH
 70
     0
  9
$DIMTOH
 70
     0
  9
$DIMSE1
 70
     0
  9
$DIMSE2
 70
     0
  9
$DIMTAD
 70
     1
  9
$DIMZIN
 70
     8
  9
$DIMBLK
  1
OPEN30
  9
$DIMASO
 70
     1
  9
$DIMSHO
 70
     1
  9
$DIMPOST
  1

  9
$DIMAPOST
  1

  9
$DIMALT
 70
     0
  9
$DIMALTD
 70
     2
  9
$DIMALTF
 40
25.399999999999999
  9
$DIMLFAC
 40
1.0
  9
$DIMTOFL
 70
     1
  9
$DIMTVP
 40
0.0
  9
$DIMTIX
 70
     0
  9
$DIMSOXD
 70
     0
  9
$DIMSAH
 70
     0
  9
$DIMBLK1
  1

  9
$DIMBLK2
  1

  9
$DIMSTYLE
  2
S10
  9
$DIMCLRD
 70
   256
  9
$DIMCLRE
 70
   256
  9
$DIMCLRT
 70
   256
  9
$DIMTFAC
 40
1.0
  9
$DIMGAP
 40
0.9
  9
$LUNITS
 70
     2
  9
$LUPREC
 70
     2
  9
$SKETCHINC
 40
0.1
  9
$FILLETRAD
 40
0.0
  9
$AUNITS
 70
     0
  9
$AUPREC
 70
     2
  9
$MENU
  1
ACAD
  9
$ELEVATION
 40
0.0
  9
$PELEVATION
 40
0.0
  9
$THICKNESS
 40
0.0
  9
$LIMCHECK
 70
     0
  9
$BLIPMODE
 70
     0
  9
$CHAMFERA
 40
2.0
  9
$CHAMFERB
 40
2.0
  9
$SKPOLY
 70
     0
  9
$TDCREATE
 40
2453095.4929404748
  9
$TDUPDATE
 40
2456590.8038825472
  9
$TDINDWG
 40
19.1360570949
  9
$TDUSRTIMER
 40
19.136056180600001
  9
$USRTIMER
 70
     1
  9
$ANGBASE
 50
0.0
  9
$ANGDIR
 70
     0
  9
$PDMODE
 70
    35
  9
$PDSIZE
 40
2.0
  9
$PLINEWID
 40
0.0
  9
$COORDS
 70
     1
  9
$SPLFRAME
 70
     0
  9
$SPLINETYPE
 70
     6
  9
$SPLINESEGS
 70
     8
  9
$ATTDIA
 70
     1
  9
$ATTREQ
 70
     1
  9
$HANDLING
 70
     1
  9
$HANDSEED
  5
126222
  9
$SURFTAB1
 70
     6
  9
$SURFTAB2
 70
     6
  9
$SURFTYPE
 70
     6
  9
$SURFU
 70
     6
  9
$SURFV
 70
     6
  9
$UCSNAME
  2

  9
$UCSORG
 10
0.0
 20
0.0
 30
0.0
  9
$UCSXDIR
 10
1.0
 20
0.0
 30
0.0
  9
$UCSYDIR
 10
0.0
 20
1.0
 30
0.0
  9
$PUCSNAME
  2

  9
$PUCSORG
 10
0.0
 20
0.0
 30
0.0
  9
$PUCSXDIR
 10
1.0
 20
0.0
 30
0.0
  9
$PUCSYDIR
 10
0.0
 20
1.0
 30
0.0
  9
$USERI1
 70
     0
  9
$USERI2
 70
     0
  9
$USERI3
 70
     0
  9
$USERI4
 70
     0
  9
$USERI5
 70
     0
  9
$USERR1
 40
0.0
  9
$USERR2
 40
0.0
  9
$USERR3
 40
0.0
  9
$USERR4
 40
0.0
  9
$USERR5
 40
0.0
  9
$WORLDVIEW
 70
     1
  9
$SHADEDGE
 70
     3
  9
$SHADEDIF
 70
    70
  9
$TILEMODE
 70
     1
  9
$MAXACTVP
 70
    64
  9
$PLIMCHECK
 70
     0
  9
$PEXTMIN
 10
29.066066288948051
 20
20.366566777229309
 30
0.0
  9
$PEXTMAX
 10
261.5945966005325
 20
183.29910099506381
 30
0.0
  9
$PLIMMIN
 10
-3.17498779296875
 20
-3.1749999523162842
  9
$PLIMMAX
 10
293.83566284179687
 20
206.8406708240509
  9
$UNITMODE
 70
     0
  9
$VISRETAIN
 70
     1
  9
$PLINEGEN
 70
     0
  9
$PSLTSCALE
 70
     1
  0
ENDSEC
  0
SECTION
  2
TABLES
  0
TABLE
  2
VPORT
 70
     1
  0
VPORT
  2
*ACTIVE
 70
     0
 10
0.0
 20
0.0
 11
1.0
 21
1.0
 12
4355.5271096382339
 22
-3144.5593373260758
 13
0.0
 23
0.0
 14
1.0
 24
1.0
 15
0.0
 25
0.0
 16
0.0
 26
0.0
 36
1.0
 17
0.0
 27
0.0
 37
0.0
 40
7848.3209644228382
 41
1.964560862865947
 42
50.0
 43
0.0
 44
0.0
 50
0.0
 51
0.0
 71
     0
 72
   600
 73
     1
 74
     1
 75
     0
 76
     0
 77
     0
 78
     0
  0
ENDTAB
  0
TABLE
  2
LTYPE
 70
     3
  0
LTYPE
  2
CONTINUOUS
 70
     0
  3
Solid line
 72
    65
 73
     0
 40
0.0
  0
LTYPE
  2
ACAD_ISO08W100
 70
     0
  3
ISO long-dash short-dash ____ __ ____ __ ____ _
 72
    65
 73
     4
 40
36.0
 49
24.0
 49
-3.0
 49
6.0
 49
-3.0
  0
LTYPE
  2
ACAD_ISO02W100
 70
     0
  3
ISO dash __ __ __ __ __ __ __ __ __ __ __ __ __
 72
    65
 73
     2
 40
15.0
 49
12.0
 49
-3.0
  0
ENDTAB
  0
TABLE
  2
LAYER
 70
     8
  0
LAYER
  2
0
 70
     0
 62
     7
  6
CONTINUOUS
  0
LAYER
  2
OBJECT
 70
     0
 62
     4
  6
CONTINUOUS
  0
LAYER
  2
DEFPOINTS
 70
     0
 62
     7
  6
CONTINUOUS
  0
LAYER
  2
DIM
 70
     0
 62
     7
  6
CONTINUOUS
  0
LAYER
  2
HIDDEN
 70
     0
 62
     2
  6
ACAD_ISO02W100
  0
LAYER
  2
CENTER
 70
     0
 62
     2
  6
ACAD_ISO08W100
  0
LAYER
  2
DOTS
 70
     0
 62
     1
  6
CONTINUOUS
  0
LAYER
  2
SLIM
 70
     0
 62
     2
  6
CONTINUOUS
  0
ENDTAB
  0
TABLE
  2
STYLE
 70
     2
  0
STYLE
  2
STANDARD
 70
     0
 40
0.0
 41
0.75
 50
0.0
 71
     0
 42
4.0
  3
simplex.shx
  4
bigfont.shx
  0
ENDTAB
  0
TABLE
  2
VIEW
 70
     0
  0
ENDTAB
  0
TABLE
  2
UCS
 70
     0
  0
ENDTAB
  0
TABLE
  2
APPID
 70
    18
  0
APPID
  2
ACAD
 70
     0
  0
APPID
  2
ACADANNOTATIVE
 70
     0
  0
APPID
  2
ACAD_PSEXT
 70
     0
  0
APPID
  2
ACAD_EXEMPT_FROM_CAD_STANDARDS
 70
     0
  0
APPID
  2
ACAECLAYERSTANDARD
 70
     0
  0
APPID
  2
ACAUTHENVIRON
 70
     0
  0
APPID
  2
ACDBDYNAMICBLOCKTRUENAME
 70
     0
  0
APPID
  2
ACDBDYNAMICBLOCKGUID
 70
     0
  0
APPID
  2
ACDBBLOCKREPETAG
 70
     0
  0
APPID
  2
ACDBBLOCKREPBTAG
 70
     0
  0
APPID
  2
ACAD_NAV_VCDISPLAY
 70
     0
  0
APPID
  2
ACAD_DSTYLE_DIMRADIAL_EXTENSION
 70
     0
  0
APPID
  2
ACAD_DSTYLE_DIMJAG
 70
     0
  0
APPID
  2
ACAD_DSTYLE_DIMTALN
 70
     0
  0
APPID
  2
ACADANNOPO
 70
     0
  0
APPID
  2
GRADIENTCOLOR1ACI
 70
     0
  0
APPID
  2
GRADIENTCOLOR2ACI
 70
     0
  0
APPID
  2
ACAD_MLEADERVER
 70
     0
  0
ENDTAB
  0
TABLE
  2
DIMSTYLE
 70
     3
  0
DIMSTYLE
  2
STANDARD
 70
     0
  3

  4

  5

  6

  7

 40
1.0
 41
0.18
 42
0.0625
 43
0.38
 44
0.18
 45
0.0
 46
0.0
 47
0.0
 48
0.0
140
0.18
141
0.09
142
0.0
143
25.399999999999999
144
1.0
145
0.0
146
1.0
147
0.09
 71
     0
 72
     0
 73
     1
 74
     1
 75
     0
 76
     0
 77
     0
 78
     0
170
     0
171
     2
172
     0
173
     0
174
     0
175
     0
176
     0
177
     0
178
     0
  0
DIMSTYLE
  2
S10
 70
     0
  3

  4

  5

  6

  7

 40
10.0
 41
2.0
 42
1.0
 43
10.0
 44
1.0
 45
0.0
 46
0.0
 47
0.0
 48
0.0
140
3.2000000000000002
141
0.0
142
0.0
143
25.399999999999999
144
1.0
145
0.0
146
1.0
147
0.9
 71
     0
 72
     0
 73
     0
 74
     0
 75
     0
 76
     0
 77
     1
 78
     8
170
     0
171
     2
172
     1
173
     0
174
     0
175
     0
176
   256
177
   256
178
   256
  0
ENDTAB
  0
ENDSEC
  0
SECTION
  2
BLOCKS
  0
BLOCK
  8
0
  2
$MODEL_SPACE
 70
     0
 10
0.0
 20
0.0
 30
0.0
  3
$MODEL_SPACE
  1

  0
ENDBLK
  5
126124
  8
0
  0
BLOCK
 67
     1
  8
0
  2
$PAPER_SPACE
 70
     0
 10
0.0
 20
0.0
 30
0.0
  3
$PAPER_SPACE
  1

  0
ENDBLK
  5
126120
 67
     1
  8
0
  0
BLOCK
  8
0
  2
_OPEN30
 70
     0
 10
0.0
 20
0.0
 30
0.0
  3
_OPEN30
  1

  0
LINE
  5
202
  8
0
  6
BYBLOCK
 62
     0
 10
-1.0
 20
0.26794919
 30
0.0
 11
0.0
 21
0.0
 31
0.0
  0
LINE
  5
203
  8
0
  6
BYBLOCK
 62
     0
 10
0.0
 20
0.0
 30
0.0
 11
-1.0
 21
-0.26794919
 31
0.0
  0
LINE
  5
204
  8
0
  6
BYBLOCK
 62
     0
 10
0.0
 20
0.0
 30
0.0
 11
-1.0
 21
0.0
 31
0.0
  0
ENDBLK
  5
206
  8
0
  0
BLOCK
  8
0
  2
*X43
 70
     1
 10
0.0
 20
0.0
 30
0.0
  3
*X43
  1

  0
LINE
  5
125EF5
  8
0
 62
     0
 10
4044.9012806053461
 20
-129.28048304657929
 30
0.0
 11
4041.364797757567
 21
-125.74400019880041
 31
0.0
  0
LINE
  5
125EF6
  8
0
 62
     0
 10
4053.6207975587658
 20
-137.99999999999881
 30
0.0
 11
4049.3914086658801
 21
-133.77061110711381
 31
0.0
  0
LINE
  5
125EF7
  8
0
 62
     0
 10
4026.9407683632062
 20
-120.3002269255103
 30
0.0
 11
4025.5813318337941
 21
-118.9407903960974
 31
0.0
  0
LINE
  5
125EF8
  8
0
 62
     0
 10
4035.9210244842761
 20
-129.28048304657941
 30
0.0
 11
4031.4308964237398
 21
-124.7903549860448
 31
0.0
  0
LINE
  5
125EF9
  8
0
 62
     0
 10
4044.6405414376959
 20
-137.99999999999881
 30
0.0
 11
4040.4111525448111
 21
-133.77061110711401
 31
0.0
  0
LINE
  5
125EFA
  8
0
 62
     0
 10
4017.9605122421381
 20
-120.3002269255104
 30
0.0
 11
4013.785639980023
 21
-116.1253546633947
 31
0.0
  0
LINE
  5
125EFB
  8
0
 62
     0
 10
4026.9407683632062
 20
-129.28048304657941
 30
0.0
 11
4022.450640302673
 21
-124.790354986045
 31
0.0
  0
LINE
  5
125EFC
  8
0
 62
     0
 10
4008.980256121069
 20
-120.3002269255104
 30
0.0
 11
4004.490128060535
 21
-115.8100988649758
 31
0.0
  0
LINE
  5
125EFD
  8
0
 62
     0
 10
4015.2459755954542
 20
-126.56594639989611
 30
0.0
 11
4013.470384181604
 21
-124.790354986045
 31
0.0
  0
LINE
  5
125EFE
  8
0
 62
     0
 10
4000.0
 20
-120.3002269255102
 30
0.0
 11
3995.5098719394659
 21
-115.8100988649757
 31
0.0
  0
LINE
  5
125EFF
  8
0
 62
     0
 10
4004.857222406476
 20
-125.1574493319865
 30
0.0
 11
4004.4901280605341
 21
-124.7903549860449
 31
0.0
  0
LINE
  5
125F00
  8
0
 62
     0
 10
3991.0197438789319
 20
-120.3002269255101
 30
0.0
 11
3986.7574181990171
 21
-116.03790124559499
 31
0.0
  0
LINE
  5
125F01
  8
0
 62
     0
 10
3995.8352410164198
 20
-125.1157240629995
 30
0.0
 11
3995.5098719394659
 21
-124.7903549860446
 31
0.0
  0
LINE
  5
125F02
  8
0
 62
     0
 10
3982.039487757861
 20
-120.3002269255105
 30
0.0
 11
3979.2986509997559
 21
-117.5593901674046
 31
0.0
  0
LINE
  5
125F03
  8
0
 62
     0
 10
3987.7469459221788
 20
-126.0076850898276
 30
0.0
 11
3986.5296158183978
 21
-124.7903549860451
 31
0.0
  0
LINE
  5
125F04
  8
0
 62
     0
 10
3973.059231636792
 20
-120.3002269255101
 30
0.0
 11
3972.3737447415801
 21
-119.6147400302971
 31
0.0
  0
LINE
  5
125F05
  8
0
 62
     0
 10
3980.3727435536048
 20
-127.61373884232211
 30
0.0
 11
3977.5493596973279
 21
-124.7903549860447
 31
0.0
  0
LINE
  5
125F06
  8
0
 62
     0
 10
3973.0592316367929
 20
-129.28048304657941
 30
0.0
 11
3968.5691035762588
 21
-124.7903549860449
 31
0.0
  0
LINE
  5
125F07
  8
0
 62
     0
 10
3964.0789755157239
 20
-129.28048304657949
 30
0.0
 11
3959.8686784425822
 21
-125.0701859734376
 31
0.0
  0
LINE
  5
125F08
  8
0
 62
     0
 10
3955.098719394653
 20
-129.28048304657929
 30
0.0
 11
3954.207715567552
 21
-128.38947921947619
 31
0.0
  0
LINE
  5
125F09
  8
0
 62
     0
 10
3961.4712462510188
 20
-135.65300990294469
 30
0.0
 11
3959.5888474551889
 21
-133.77061110711381
 31
0.0
  0
LINE
  5
125F0A
  8
0
 62
     0
 10
3955.098719394653
 20
-138.2607391676483
 30
0.0
 11
3950.6085913341199
 21
-133.77061110711369
 31
0.0
  0
LINE
  5
125F0B
  8
0
 62
     0
 10
3946.1184632735858
 20
-138.26073916764861
 30
0.0
 11
3943.953333351933
 21
-136.09560924599609
 31
0.0
  0
LINE
  5
125F0C
  8
0
 62
     0
 10
3951.0415852941028
 20
-143.18386118816659
 30
0.0
 11
3950.6085913341199
 21
-142.7508672281831
 31
0.0
  0
LINE
  5
125F0D
  8
0
 62
     0
 10
3946.1184632735858
 20
-147.2409952887179
 30
0.0
 11
3941.6283352130508
 21
-142.7508672281833
 31
0.0
  0
LINE
  5
125F0E
  8
0
 62
     0
 10
3937.1382071525159
 20
-147.24099528871739
 30
0.0
 11
3935.0571756770728
 21
-145.15996381327381
 31
0.0
  0
LINE
  5
125F0F
  8
0
 62
     0
 10
3942.156718127344
 20
-152.25950626354521
 30
0.0
 11
3941.6283352130508
 21
-151.7311233492519
 31
0.0
  0
LINE
  5
125F10
  8
0
 62
     0
 10
4053.8815367264142
 20
-263.9843248626164
 30
0.0
 11
4051.8972118637971
 21
-261.99999999999892
 31
0.0
  0
LINE
  5
125F11
  8
0
 62
     0
 10
3937.1382071525159
 20
-156.22125140978679
 30
0.0
 11
3932.6480790919818
 21
-151.73112334925219
 31
0.0
  0
LINE
  5
125F12
  8
0
 62
     0
 10
4044.9012806053461
 20
-263.98432486261618
 30
0.0
 11
4042.9169557427281
 21
-261.99999999999881
 31
0.0
  0
LINE
  5
125F13
  8
0
 62
     0
 10
4049.800363209366
 20
-268.88340746663852
 30
0.0
 11
4049.3914086658801
 21
-268.47445292315081
 31
0.0
  0
LINE
  5
125F14
  8
0
 62
     0
 10
3928.1579510314468
 20
-156.22125140978699
 30
0.0
 11
3927.5251056078532
 21
-155.58840598619329
 31
0.0
  0
LINE
  5
125F15
  8
0
 62
     0
 10
3934.825287788999
 20
-162.88858816733961
 30
0.0
 11
3932.6480790919818
 21
-160.71137947032159
 31
0.0
  0
LINE
  5
125F16
  8
0
 62
     0
 10
4044.4115940138049
 20
-272.4748943921461
 30
0.0
 11
4040.4111525448111
 21
-268.4744529231512
 31
0.0
  0
LINE
  5
125F17
  8
0
 62
     0
 10
3928.1579510314468
 20
-165.20150753085591
 30
0.0
 11
3924.2991719989341
 21
-161.3427284983421
 31
0.0
  0
LINE
  5
125F18
  8
0
 62
     0
 10
4035.9210244842761
 20
-272.96458098368589
 30
0.0
 11
4031.4308964237398
 21
-268.47445292315138
 31
0.0
  0
LINE
  5
125F19
  8
0
 62
     0
 10
3928.1579510314468
 20
-174.181763651925
 30
0.0
 11
3923.6678229709119
 21
-169.69163559139051
 31
0.0
  0
LINE
  5
125F1A
  8
0
 62
     0
 10
4026.9407683632062
 20
-272.96458098368601
 30
0.0
 11
4024.768342412101
 21
-270.79215503257979
 31
0.0
  0
LINE
  5
125F1B
  8
0
 62
     0
 10
4032.5124322087249
 20
-278.5362448292048
 30
0.0
 11
4031.4308964237398
 21
-277.45470904422058
 31
0.0
  0
LINE
  5
125F1C
  8
0
 62
     0
 10
3919.1776949103769
 20
-174.18176365192531
 30
0.0
 11
3919.0551166644791
 21
-174.05918540602639
 31
0.0
  0
LINE
  5
125F1D
  8
0
 62
     0
 10
3927.1533065670092
 20
-182.1573753085558
 30
0.0
 11
3923.6678229709119
 21
-178.67189171245991
 31
0.0
  0
LINE
  5
125F1E
  8
0
 62
     0
 10
4017.9605122421381
 20
-272.96458098368629
 30
0.0
 11
4017.8426246914419
 21
-272.84669343299117
 31
0.0
  0
LINE
  5
125F1F
  8
0
 62
     0
 10
4025.9408145939719
 20
-280.94488333552027
 30
0.0
 11
4022.450640302673
 21
-277.45470904422081
 31
0.0
  0
LINE
  5
125F20
  8
0
 62
     0
 10
3919.1776949103769
 20
-183.1620197729942
 30
0.0
 11
3917.1256054736991
 21
-181.10993033631479
 31
0.0
  0
LINE
  5
125F21
  8
0
 62
     0
 10
3925.711247363703
 20
-189.6955722263192
 30
0.0
 11
3923.6678229709119
 21
-187.6521478335288
 31
0.0
  0
LINE
  5
125F22
  8
0
 62
     0
 10
4017.9605122421381
 20
-281.94483710475532
 30
0.0
 11
4013.470384181604
 21
-277.45470904422069
 31
0.0
  0
LINE
  5
125F23
  8
0
 62
     0
 10
3919.1776949103769
 20
-192.1422758940634
 30
0.0
 11
3915.7522148444491
 21
-188.71679582813411
 31
0.0
  0
LINE
  5
125F24
  8
0
 62
     0
 10
3925.0268991702492
 20
-197.99148015393521
 30
0.0
 11
3923.6678229709119
 21
-196.63240395459809
 31
0.0
  0
LINE
  5
125F25
  8
0
 62
     0
 10
4008.980256121069
 20
-281.94483710475538
 30
0.0
 11
4004.490128060535
 21
-277.45470904422081
 31
0.0
  0
LINE
  5
125F26
  8
0
 62
     0
 10
3919.1776949103769
 20
-201.12253201513241
 30
0.0
 11
3918.0551628952448
 21
-199.99999999999881
 31
0.0
  0
LINE
  5
125F27
  8
0
 62
     0
 10
3925.3562150071471
 20
-207.30105211190201
 30
0.0
 11
3923.6678229709119
 21
-205.61266007566701
 31
0.0
  0
LINE
  5
125F28
  8
0
 62
     0
 10
4000.0
 20
-281.94483710475492
 30
0.0
 11
3995.5098719394659
 21
-277.45470904422041
 31
0.0
  0
LINE
  5
125F29
  8
0
 62
     0
 10
3918.0551628952448
 20
-199.99999999999881
 30
0.0
 11
3915.0530329227231
 21
-196.99787002747709
 31
0.0
  0
LINE
  5
125F2A
  8
0
 62
     0
 10
3919.1776949103769
 20
-210.1027881362015
 30
0.0
 11
3915.2226107005299
 21
-206.14770392635421
 31
0.0
  0
LINE
  5
125F2B
  8
0
 62
     0
 10
3927.230735249077
 20
-218.1558284749012
 30
0.0
 11
3923.6678229709119
 21
-214.5929161967361
 31
0.0
  0
LINE
  5
125F2C
  8
0
 62
     0
 10
3982.039487757861
 20
-272.96458098368589
 30
0.0
 11
3981.8441715250988
 21
-272.76926475092228
 31
0.0
  0
LINE
  5
125F2D
  8
0
 62
     0
 10
3991.0197438789319
 20
-281.94483710475492
 30
0.0
 11
3986.5296158183978
 21
-277.45470904422041
 31
0.0
  0
LINE
  5
125F2E
  8
0
 62
     0
 10
3919.1776949103769
 20
-219.0830442572709
 30
0.0
 11
3916.6223302933631
 21
-216.52767964025639
 31
0.0
  0
LINE
  5
125F2F
  8
0
 62
     0
 10
3928.1579510314468
 20
-228.0633003783401
 30
0.0
 11
3923.6678229709119
 21
-223.5731723178055
 31
0.0
  0
LINE
  5
125F30
  8
0
 62
     0
 10
3973.059231636792
 20
-272.96458098368589
 30
0.0
 11
3968.569103576257
 21
-268.47445292315132
 31
0.0
  0
LINE
  5
125F31
  8
0
 62
     0
 10
3982.039487757861
 20
-281.94483710475492
 30
0.0
 11
3977.5493596973279
 21
-277.45470904422041
 31
0.0
  0
LINE
  5
125F32
  8
0
 62
     0
 10
3928.1579510314468
 20
-237.04355649940939
 30
0.0
 11
3923.6678229709141
 21
-232.55342843887479
 31
0.0
  0
LINE
  5
125F33
  8
0
 62
     0
 10
3937.1382071525159
 20
-246.02381262047859
 30
0.0
 11
3932.6480790919818
 21
-241.53368455994399
 31
0.0
  0
LINE
  5
125F34
  8
0
 62
     0
 10
3946.1184632735858
 20
-255.00406874154771
 30
0.0
 11
3941.6283352130508
 21
-250.5139406810132
 31
0.0
  0
LINE
  5
125F35
  8
0
 62
     0
 10
3955.0987193946548
 20
-263.9843248626168
 30
0.0
 11
3950.6085913341199
 21
-259.49419680208229
 31
0.0
  0
LINE
  5
125F36
  8
0
 62
     0
 10
3964.0789755157239
 20
-272.96458098368601
 30
0.0
 11
3959.5888474551889
 21
-268.47445292315138
 31
0.0
  0
LINE
  5
125F37
  8
0
 62
     0
 10
3971.0224918935851
 20
-279.90809736154699
 30
0.0
 11
3968.569103576257
 21
-277.45470904422058
 31
0.0
  0
LINE
  5
125F38
  8
0
 62
     0
 10
3937.1382071525159
 20
-255.0040687415476
 30
0.0
 11
3932.6480790919818
 21
-250.513940681013
 31
0.0
  0
LINE
  5
125F39
  8
0
 62
     0
 10
3946.1184632735858
 20
-263.9843248626168
 30
0.0
 11
3941.6283352130508
 21
-259.49419680208212
 31
0.0
  0
LINE
  5
125F3A
  8
0
 62
     0
 10
3952.8742563374281
 20
-270.74011792645967
 30
0.0
 11
3950.6085913341199
 21
-268.47445292315132
 31
0.0
  0
LINE
  5
125F3B
  8
0
 62
     0
 10
4043.217482582646
 20
-130.9642810692803
 30
0.0
 11
4038.727354522111
 21
-126.4741530087457
 31
0.0
  0
LINE
  5
125F3C
  8
0
 62
     0
 10
4050.2532015133638
 20
-137.99999999999901
 30
0.0
 11
4047.70761064318
 21
-135.45440912981479
 31
0.0
  0
LINE
  5
125F3D
  8
0
 62
     0
 10
4025.256970340507
 20
-121.9840249482111
 30
0.0
 11
4020.8765200385119
 21
-117.60357464621541
 31
0.0
  0
LINE
  5
125F3E
  8
0
 62
     0
 10
4034.237226461576
 20
-130.9642810692803
 30
0.0
 11
4029.747098401042
 21
-126.4741530087457
 31
0.0
  0
LINE
  5
125F3F
  8
0
 62
     0
 10
4039.546200263319
 20
-136.2732548710234
 30
0.0
 11
4038.727354522111
 21
-135.45440912981479
 31
0.0
  0
LINE
  5
125F40
  8
0
 62
     0
 10
4016.276714219438
 20
-121.9840249482111
 30
0.0
 11
4011.7865861589039
 21
-117.4938968876765
 31
0.0
  0
LINE
  5
125F41
  8
0
 62
     0
 10
4022.8621483857878
 20
-128.56945911456131
 30
0.0
 11
4020.766842279972
 21
-126.4741530087457
 31
0.0
  0
LINE
  5
125F42
  8
0
 62
     0
 10
4007.2964580983689
 20
-121.9840249482111
 30
0.0
 11
4002.806330037834
 21
-117.4938968876766
 31
0.0
  0
LINE
  5
125F43
  8
0
 62
     0
 10
3998.3162019772999
 20
-121.9840249482109
 30
0.0
 11
3993.8260739167658
 21
-117.4938968876763
 31
0.0
  0
LINE
  5
125F44
  8
0
 62
     0
 10
3989.3359458562309
 20
-121.9840249482111
 30
0.0
 11
3984.8458177956959
 21
-117.4938968876765
 31
0.0
  0
LINE
  5
125F45
  8
0
 62
     0
 10
3980.3556897351609
 20
-121.9840249482111
 30
0.0
 11
3976.643590459008
 21
-118.2719256720581
 31
0.0
  0
LINE
  5
125F46
  8
0
 62
     0
 10
3984.9061848395481
 20
-126.5345200525973
 30
0.0
 11
3984.8458177956959
 21
-126.4741530087457
 31
0.0
  0
LINE
  5
125F47
  8
0
 62
     0
 10
3971.3754336140919
 20
-121.9840249482108
 30
0.0
 11
3969.899516623394
 21
-120.5081079575113
 31
0.0
  0
LINE
  5
125F48
  8
0
 62
     0
 10
3977.763602446279
 20
-128.3721937803972
 30
0.0
 11
3975.8655616746269
 21
-126.4741530087454
 31
0.0
  0
LINE
  5
125F49
  8
0
 62
     0
 10
3971.1725803665872
 20
-130.76142782177519
 30
0.0
 11
3966.8853055535569
 21
-126.4741530087454
 31
0.0
  0
LINE
  5
125F4A
  8
0
 62
     0
 10
3962.3951774930229
 20
-130.96428106928039
 30
0.0
 11
3957.9050494324879
 21
-126.4741530087458
 31
0.0
  0
LINE
  5
125F4B
  8
0
 62
     0
 10
3953.4149213719538
 20
-130.9642810692801
 30
0.0
 11
3952.1787945338201
 21
-129.72815423114619
 31
0.0
  0
LINE
  5
125F4C
  8
0
 62
     0
 10
3959.393937886342
 20
-136.943297583668
 30
0.0
 11
3957.9050494324879
 21
-135.45440912981471
 31
0.0
  0
LINE
  5
125F4D
  8
0
 62
     0
 10
3953.4149213719538
 20
-139.94453719034911
 30
0.0
 11
3948.9247933114189
 21
-135.45440912981459
 31
0.0
  0
LINE
  5
125F4E
  8
0
 62
     0
 10
3944.4346652508839
 20
-139.94453719034911
 30
0.0
 11
3942.1829321375349
 21
-137.69280407699949
 31
0.0
  0
LINE
  5
125F4F
  8
0
 62
     0
 10
3949.2595972728632
 20
-144.76946921232741
 30
0.0
 11
3948.9247933114189
 21
-144.4346652508836
 31
0.0
  0
LINE
  5
125F50
  8
0
 62
     0
 10
3944.4346652508839
 20
-148.92479331141831
 30
0.0
 11
3939.9445371903498
 21
-144.43466525088371
 31
0.0
  0
LINE
  5
125F51
  8
0
 62
     0
 10
4057.8170678624638
 20
-262.30719592299891
 30
0.0
 11
4057.509871939465
 21
-261.99999999999898
 31
0.0
  0
LINE
  5
125F52
  8
0
 62
     0
 10
3935.4544091298148
 20
-148.9247933114182
 30
0.0
 11
3933.5392925284159
 21
-147.00967671001919
 31
0.0
  0
LINE
  5
125F53
  8
0
 62
     0
 10
3940.6612225988802
 20
-154.13160678048209
 30
0.0
 11
3939.9445371903498
 21
-153.4149213719528
 31
0.0
  0
LINE
  5
125F54
  8
0
 62
     0
 10
4052.1977387037132
 20
-265.6681228853173
 30
0.0
 11
4048.529615818396
 21
-261.99999999999909
 31
0.0
  0
LINE
  5
125F55
  8
0
 62
     0
 10
3935.4544091298171
 20
-157.9050494324874
 30
0.0
 11
3930.9642810692808
 21
-153.414921371953
 31
0.0
  0
LINE
  5
125F56
  8
0
 62
     0
 10
4043.217482582646
 20
-265.66812288531719
 30
0.0
 11
4040.606062113658
 21
-263.05670241633021
 31
0.0
  0
LINE
  5
125F57
  8
0
 62
     0
 10
4047.8212054661799
 20
-270.27184576885168
 30
0.0
 11
4047.70761064318
 21
-270.15825094585188
 31
0.0
  0
LINE
  5
125F58
  8
0
 62
     0
 10
3926.4741530087458
 20
-157.9050494324876
 30
0.0
 11
3926.271409419352
 21
-157.70230584309289
 31
0.0
  0
LINE
  5
125F59
  8
0
 62
     0
 10
3933.6335430370682
 20
-165.06443946080969
 30
0.0
 11
3930.9642810692808
 21
-162.3951774930222
 31
0.0
  0
LINE
  5
125F5A
  8
0
 62
     0
 10
4042.297694156905
 20
-273.72859058064722
 30
0.0
 11
4038.727354522111
 21
-270.15825094585227
 31
0.0
  0
LINE
  5
125F5B
  8
0
 62
     0
 10
3926.4741530087458
 20
-166.88530555355689
 30
0.0
 11
3923.1884639044451
 21
-163.59961644925551
 31
0.0
  0
LINE
  5
125F5C
  8
0
 62
     0
 10
4034.237226461576
 20
-274.64837900638662
 30
0.0
 11
4029.7470984010411
 21
-270.15825094585199
 31
0.0
  0
LINE
  5
125F5D
  8
0
 62
     0
 10
3926.4741530087458
 20
-175.86556167462581
 30
0.0
 11
3921.9840249482122
 21
-171.37543361409129
 31
0.0
  0
LINE
  5
125F5E
  8
0
 62
     0
 10
4025.256970340507
 20
-274.64837900638662
 30
0.0
 11
4022.2363975537201
 21
-271.6278062196011
 31
0.0
  0
LINE
  5
125F5F
  8
0
 62
     0
 10
4030.1004833766069
 20
-279.49189204248711
 30
0.0
 11
4029.7470984010411
 21
-279.13850706692119
 31
0.0
  0
LINE
  5
125F60
  8
0
 62
     0
 10
3926.4741530087458
 20
-184.84581779569501
 30
0.0
 11
3921.9840249482122
 21
-180.3556897351605
 31
0.0
  0
LINE
  5
125F61
  8
0
 62
     0
 10
4016.276714219438
 20
-274.64837900638662
 30
0.0
 11
4015.0938151604519
 21
-273.46547994740098
 31
0.0
  0
LINE
  5
125F62
  8
0
 62
     0
 10
4023.3564095409911
 20
-281.72807432794031
 30
0.0
 11
4020.766842279972
 21
-279.13850706692108
 31
0.0
  0
LINE
  5
125F63
  8
0
 62
     0
 10
3917.4938968876768
 20
-184.8458177956949
 30
0.0
 11
3916.540209967503
 21
-183.89213087551991
 31
0.0
  0
LINE
  5
125F64
  8
0
 62
     0
 10
3925.3553968115771
 20
-192.7073177195951
 30
0.0
 11
3921.9840249482122
 21
-189.3359458562295
 31
0.0
  0
LINE
  5
125F65
  8
0
 62
     0
 10
4007.2964580983689
 20
-274.64837900638651
 30
0.0
 11
4007.2926822804038
 21
-274.6446031884218
 31
0.0
  0
LINE
  5
125F66
  8
0
 62
     0
 10
4016.1078691244779
 20
-283.45979003249693
 30
0.0
 11
4011.7865861589039
 21
-279.13850706692102
 31
0.0
  0
LINE
  5
125F67
  8
0
 62
     0
 10
3925.012047226568
 20
-201.34422425565469
 30
0.0
 11
3923.6678229709119
 21
-199.9999999999992
 31
0.0
  0
LINE
  5
125F68
  8
0
 62
     0
 10
3917.4938968876768
 20
-193.82607391676399
 30
0.0
 11
3915.4027830531209
 21
-191.73496008220761
 31
0.0
  0
LINE
  5
125F69
  8
0
 62
     0
 10
3923.6678229709119
 20
-199.99999999999901
 30
0.0
 11
3921.9840249482108
 21
-198.3162019772985
 31
0.0
  0
LINE
  5
125F6A
  8
0
 62
     0
 10
4007.2964580983689
 20
-283.6286351274556
 30
0.0
 11
4002.806330037834
 21
-279.13850706692108
 31
0.0
  0
LINE
  5
125F6B
  8
0
 62
     0
 10
3917.4938968876768
 20
-202.80633003783291
 30
0.0
 11
3915.0005763250811
 21
-200.31300947523701
 31
0.0
  0
LINE
  5
125F6C
  8
0
 62
     0
 10
3925.8327188999019
 20
-211.14515205005731
 30
0.0
 11
3921.9840249482122
 21
-207.29645809836751
 31
0.0
  0
LINE
  5
125F6D
  8
0
 62
     0
 10
3989.33594585623
 20
-274.64837900638599
 30
0.0
 11
3988.8548479499409
 21
-274.16728110009763
 31
0.0
  0
LINE
  5
125F6E
  8
0
 62
     0
 10
3998.316201977299
 20
-283.62863512745508
 30
0.0
 11
3993.826073916764
 21
-279.13850706692062
 31
0.0
  0
LINE
  5
125F6F
  8
0
 62
     0
 10
3917.4938968876768
 20
-211.7865861589022
 30
0.0
 11
3915.5746775417588
 21
-209.8673668129841
 31
0.0
  0
LINE
  5
125F70
  8
0
 62
     0
 10
3926.4741530087458
 20
-220.7668422799714
 30
0.0
 11
3921.9840249482122
 21
-216.2767142194368
 31
0.0
  0
LINE
  5
125F71
  8
0
 62
     0
 10
3980.3556897351609
 20
-274.64837900638628
 30
0.0
 11
3977.1378516142122
 21
-271.43054088543681
 31
0.0
  0
LINE
  5
125F72
  8
0
 62
     0
 10
3989.3359458562309
 20
-283.62863512745548
 30
0.0
 11
3984.8458177956959
 21
-279.13850706692091
 31
0.0
  0
LINE
  5
125F73
  8
0
 62
     0
 10
3926.4741530087458
 20
-229.7470984010408
 30
0.0
 11
3921.9840249482122
 21
-225.2569703405062
 31
0.0
  0
LINE
  5
125F74
  8
0
 62
     0
 10
3935.4544091298148
 20
-238.72735452210981
 30
0.0
 11
3930.9642810692808
 21
-234.2372264615754
 31
0.0
  0
LINE
  5
125F75
  8
0
 62
     0
 10
3962.3951774930242
 20
-265.66812288531742
 30
0.0
 11
3960.453799736681
 21
-263.72674512897458
 31
0.0
  0
LINE
  5
125F76
  8
0
 62
     0
 10
3971.3754336140919
 20
-274.64837900638662
 30
0.0
 11
3966.8853055535578
 21
-270.15825094585199
 31
0.0
  0
LINE
  5
125F77
  8
0
 62
     0
 10
3979.1234799614899
 20
-282.39642535378249
 30
0.0
 11
3975.8655616746269
 21
-279.13850706692108
 31
0.0
  0
LINE
  5
125F78
  8
0
 62
     0
 10
3926.4741530087472
 20
-238.72735452211001
 30
0.0
 11
3922.3721274786062
 21
-234.6253289919695
 31
0.0
  0
LINE
  5
125F79
  8
0
 62
     0
 10
3935.4544091298171
 20
-247.70761064317909
 30
0.0
 11
3930.9642810692808
 21
-243.21748258264461
 31
0.0
  0
LINE
  5
125F7A
  8
0
 62
     0
 10
3944.4346652508848
 20
-256.68786676424838
 30
0.0
 11
3939.9445371903512
 21
-252.1977387037137
 31
0.0
  0
LINE
  5
125F7B
  8
0
 62
     0
 10
3953.4149213719538
 20
-265.66812288531742
 30
0.0
 11
3948.9247933114189
 21
-261.17799482478279
 31
0.0
  0
LINE
  5
125F7C
  8
0
 62
     0
 10
3962.3951774930229
 20
-274.64837900638662
 30
0.0
 11
3957.9050494324879
 21
-270.15825094585199
 31
0.0
  0
LINE
  5
125F7D
  8
0
 62
     0
 10
4050.5139406810131
 20
-132.64807909198001
 30
0.0
 11
4047.1257436625701
 21
-129.25988207353819
 31
0.0
  0
LINE
  5
125F7E
  8
0
 62
     0
 10
4055.8658615890322
 20
-137.9999999999992
 30
0.0
 11
4055.0040687415481
 21
-137.1382071525147
 31
0.0
  0
LINE
  5
125F7F
  8
0
 62
     0
 10
4032.5534284388759
 20
-123.6678229709118
 30
0.0
 11
4028.977508106414
 21
-120.0919026384511
 31
0.0
  0
LINE
  5
125F80
  8
0
 62
     0
 10
4041.533684559944
 20
-132.64807909198089
 30
0.0
 11
4037.04355649941
 21
-128.1579510314464
 31
0.0
  0
LINE
  5
125F81
  8
0
 62
     0
 10
4046.8856054679632
 20
-137.99999999999901
 30
0.0
 11
4046.0238126204799
 21
-137.13820715251549
 31
0.0
  0
LINE
  5
125F82
  8
0
 62
     0
 10
4023.573172317806
 20
-123.6678229709115
 30
0.0
 11
4019.0830442572701
 21
-119.1776949103769
 31
0.0
  0
LINE
  5
125F83
  8
0
 62
     0
 10
4032.1417147619541
 20
-132.2363654150605
 30
0.0
 11
4028.063300378341
 21
-128.15795103144609
 31
0.0
  0
LINE
  5
125F84
  8
0
 62
     0
 10
4014.592916196737
 20
-123.6678229709114
 30
0.0
 11
4010.102788136202
 21
-119.1776949103769
 31
0.0
  0
LINE
  5
125F85
  8
0
 62
     0
 10
4005.6126600756679
 20
-123.6678229709113
 30
0.0
 11
4001.1225320151329
 21
-119.1776949103767
 31
0.0
  0
LINE
  5
125F86
  8
0
 62
     0
 10
3996.6324039545989
 20
-123.6678229709114
 30
0.0
 11
3992.1422758940639
 21
-119.1776949103769
 31
0.0
  0
LINE
  5
125F87
  8
0
 62
     0
 10
3987.6521478335299
 20
-123.6678229709111
 30
0.0
 11
3983.1620197729958
 21
-119.1776949103765
 31
0.0
  0
LINE
  5
125F88
  8
0
 62
     0
 10
3978.6718917124608
 20
-123.6678229709112
 30
0.0
 11
3974.1817636519272
 21
-119.1776949103766
 31
0.0
  0
LINE
  5
125F89
  8
0
 62
     0
 10
3969.6916355913918
 20
-123.6678229709111
 30
0.0
 11
3967.4875677912742
 21
-121.4637551707935
 31
0.0
  0
LINE
  5
125F8A
  8
0
 62
     0
 10
3975.2316575878999
 20
-129.20784496741859
 30
0.0
 11
3974.1817636519258
 21
-128.15795103144569
 31
0.0
  0
LINE
  5
125F8B
  8
0
 62
     0
 10
3968.8282803805801
 20
-131.78472388116879
 30
0.0
 11
3965.2015075308559
 21
-128.15795103144521
 31
0.0
  0
LINE
  5
125F8C
  8
0
 62
     0
 10
3960.7113794703232
 20
-132.64807909198041
 30
0.0
 11
3956.2212514097891
 21
-128.1579510314458
 31
0.0
  0
LINE
  5
125F8D
  8
0
 62
     0
 10
3951.7311233492551
 20
-132.64807909198069
 30
0.0
 11
3950.1996367906331
 21
-131.11659253336001
 31
0.0
  0
LINE
  5
125F8E
  8
0
 62
     0
 10
3957.3739138312571
 20
-138.29086957398431
 30
0.0
 11
3956.2212514097891
 21
-137.13820715251521
 31
0.0
  0
LINE
  5
125F8F
  8
0
 62
     0
 10
3951.7311233492551
 20
-141.62833521305001
 30
0.0
 11
3947.2409952887192
 21
-137.13820715251541
 31
0.0
  0
LINE
  5
125F90
  8
0
 62
     0
 10
3942.7508672281838
 20
-141.62833521304941
 30
0.0
 11
3940.4598102808641
 21
-139.33727826572991
 31
0.0
  0
LINE
  5
125F91
  8
0
 62
     0
 10
3947.5312275343699
 20
-146.40869551923541
 30
0.0
 11
3947.2409952887178
 21
-146.1184632735839
 31
0.0
  0
LINE
  5
125F92
  8
0
 62
     0
 10
3942.7508672281838
 20
-150.6085913341189
 30
0.0
 11
3938.2607391676502
 21
-146.1184632735843
 31
0.0
  0
LINE
  5
125F93
  8
0
 62
     0
 10
4056.046666648067
 20
-263.90439075400258
 30
0.0
 11
4055.0040687415481
 21
-262.86179284748329
 31
0.0
  0
LINE
  5
125F94
  8
0
 62
     0
 10
3933.7706111071152
 20
-150.6085913341187
 30
0.0
 11
3932.069493308034
 21
-148.9074735350377
 31
0.0
  0
LINE
  5
125F95
  8
0
 62
     0
 10
3939.220522823553
 20
-156.05850305055731
 30
0.0
 11
3938.2607391676488
 21
-155.09871939465319
 31
0.0
  0
LINE
  5
125F96
  8
0
 62
     0
 10
4050.5139406810131
 20
-267.35192090801792
 30
0.0
 11
4046.023812620479
 21
-262.86179284748329
 31
0.0
  0
LINE
  5
125F97
  8
0
 62
     0
 10
3933.7706111071138
 20
-159.5888474551875
 30
0.0
 11
3929.2804830465811
 21
-155.0987193946529
 31
0.0
  0
LINE
  5
125F98
  8
0
 62
     0
 10
4041.533684559944
 20
-267.35192090801752
 30
0.0
 11
4038.5287537489799
 21
-264.34699009705378
 31
0.0
  0
LINE
  5
125F99
  8
0
 62
     0
 10
3932.5031866541531
 20
-167.3016791232952
 30
0.0
 11
3929.2804830465811
 21
-164.0789755157231
 31
0.0
  0
LINE
  5
125F9A
  8
0
 62
     0
 10
4040.1313215574169
 20
-274.92981402656062
 30
0.0
 11
4037.04355649941
 21
-271.84204896855249
 31
0.0
  0
LINE
  5
125F9B
  8
0
 62
     0
 10
3924.7903549860471
 20
-168.56910357625699
 30
0.0
 11
3922.1342441411598
 21
-165.9129927313713
 31
0.0
  0
LINE
  5
125F9C
  8
0
 62
     0
 10
3929.8058092476431
 20
-173.58455783785379
 30
0.0
 11
3929.2804830465811
 21
-173.05923163679159
 31
0.0
  0
LINE
  5
125F9D
  8
0
 62
     0
 10
4032.5534284388759
 20
-276.33217702908701
 30
0.0
 11
4028.063300378341
 21
-271.84204896855238
 31
0.0
  0
LINE
  5
125F9E
  8
0
 62
     0
 10
3924.7903549860471
 20
-177.54935969732591
 30
0.0
 11
3920.3002269255112
 21
-173.05923163679131
 31
0.0
  0
LINE
  5
125F9F
  8
0
 62
     0
 10
4023.573172317806
 20
-276.33217702908678
 30
0.0
 11
4019.6272564463952
 21
-272.38626115767607
 31
0.0
  0
LINE
  5
125FA0
  8
0
 62
     0
 10
3924.7903549860471
 20
-186.52961581839551
 30
0.0
 11
3920.3002269255121
 21
-182.039487757861
 31
0.0
  0
LINE
  5
125FA1
  8
0
 62
     0
 10
4014.592916196737
 20
-276.33217702908712
 30
0.0
 11
4012.2530540778212
 21
-273.99231491017071
 31
0.0
  0
LINE
  5
125FA2
  8
0
 62
     0
 10
4020.7013490002441
 20
-282.44060983259368
 30
0.0
 11
4019.0830442572701
 21
-280.82230508962169
 31
0.0
  0
LINE
  5
125FA3
  8
0
 62
     0
 10
3924.7903549860471
 20
-195.5098719394644
 30
0.0
 11
3920.3002269255121
 21
-191.0197438789298
 31
0.0
  0
LINE
  5
125FA4
  8
0
 62
     0
 10
4005.6126600756679
 20
-276.33217702908678
 30
0.0
 11
4004.1647589835802
 21
-274.88427593699879
 31
0.0
  0
LINE
  5
125FA5
  8
0
 62
     0
 10
4013.2425818009829
 20
-283.96209875440292
 30
0.0
 11
4010.102788136202
 21
-280.82230508962141
 31
0.0
  0
LINE
  5
125FA6
  8
0
 62
     0
 10
3924.7903549860471
 20
-204.49012806053369
 30
0.0
 11
3920.3002269255121
 21
-199.99999999999909
 31
0.0
  0
LINE
  5
125FA7
  8
0
 62
     0
 10
3996.6324039545989
 20
-276.33217702908689
 30
0.0
 11
3995.1427775935249
 21
-274.84255066801131
 31
0.0
  0
LINE
  5
125FA8
  8
0
 62
     0
 10
3915.8100988649771
 20
-195.5098719394644
 30
0.0
 11
3915.15581890257
 21
-194.8555919770578
 31
0.0
  0
LINE
  5
125FA9
  8
0
 62
     0
 10
4005.1444080229421
 20
-284.8441810974291
 30
0.0
 11
4001.1225320151329
 21
-280.82230508962158
 31
0.0
  0
LINE
  5
125FAA
  8
0
 62
     0
 10
3915.8100988649771
 20
-204.49012806053361
 30
0.0
 11
3915.0833528969388
 21
-203.7633820924957
 31
0.0
  0
LINE
  5
125FAB
  8
0
 62
     0
 10
3924.7903549860471
 20
-213.4703841816027
 30
0.0
 11
3920.3002269255121
 21
-208.98025612106821
 31
0.0
  0
LINE
  5
125FAC
  8
0
 62
     0
 10
3987.6521478335299
 20
-276.33217702908712
 30
0.0
 11
3984.7540244045458
 21
-273.4340536001024
 31
0.0
  0
LINE
  5
125FAD
  8
0
 62
     0
 10
3996.2366179075038
 20
-284.91664710306048
 30
0.0
 11
3992.1422758940639
 21
-280.82230508962158
 31
0.0
  0
LINE
  5
125FAE
  8
0
 62
     0
 10
3924.7903549860471
 20
-222.4506403026717
 30
0.0
 11
3920.3002269255121
 21
-217.96051224213721
 31
0.0
  0
LINE
  5
125FAF
  8
0
 62
     0
 10
3930.4788649061188
 20
-228.13915022274449
 30
0.0
 11
3929.2804830465811
 21
-226.94076836320639
 31
0.0
  0
LINE
  5
125FB0
  8
0
 62
     0
 10
3978.6718917124599
 20
-276.33217702908661
 30
0.0
 11
3974.1817636519258
 21
-271.84204896855198
 31
0.0
  0
LINE
  5
125FB1
  8
0
 62
     0
 10
3986.214360019977
 20
-283.87464533660358
 30
0.0
 11
3983.1620197729949
 21
-280.82230508962118
 31
0.0
  0
LINE
  5
125FB2
  8
0
 62
     0
 10
3924.7903549860471
 20
-231.4308964237413
 30
0.0
 11
3920.3002269255121
 21
-226.94076836320679
 31
0.0
  0
LINE
  5
125FB3
  8
0
 62
     0
 10
3933.7706111071161
 20
-240.41115254481051
 30
0.0
 11
3929.2804830465811
 21
-235.9210244842759
 31
0.0
  0
LINE
  5
125FB4
  8
0
 62
     0
 10
3942.7508672281838
 20
-249.3914086658796
 30
0.0
 11
3938.2607391676502
 21
-244.90128060534491
 31
0.0
  0
LINE
  5
125FB5
  8
0
 62
     0
 10
3951.7311233492551
 20
-258.37166478694883
 30
0.0
 11
3947.2409952887192
 21
-253.8815367264142
 31
0.0
  0
LINE
  5
125FB6
  8
0
 62
     0
 10
3960.7113794703232
 20
-267.35192090801792
 30
0.0
 11
3956.2212514097891
 21
-262.8617928474834
 31
0.0
  0
LINE
  5
125FB7
  8
0
 62
     0
 10
3969.6916355913918
 20
-276.33217702908712
 30
0.0
 11
3965.2015075308582
 21
-271.84204896855249
 31
0.0
  0
LINE
  5
125FB8
  8
0
 62
     0
 10
3974.4186681662059
 20
-281.05920960390091
 30
0.0
 11
3974.1817636519272
 21
-280.82230508962158
 31
0.0
  0
LINE
  5
125FB9
  8
0
 62
     0
 10
3933.7706111071152
 20
-249.3914086658794
 30
0.0
 11
3929.2804830465811
 21
-244.90128060534479
 31
0.0
  0
LINE
  5
125FBA
  8
0
 62
     0
 10
3942.7508672281838
 20
-258.37166478694849
 30
0.0
 11
3938.2607391676488
 21
-253.881536726414
 31
0.0
  0
LINE
  5
125FBB
  8
0
 62
     0
 10
3951.7311233492528
 20
-267.35192090801769
 30
0.0
 11
3947.2409952887178
 21
-262.86179284748312
 31
0.0
  0
LINE
  5
125FBC
  8
0
 62
     0
 10
3958.635202242433
 20
-274.25599980119728
 30
0.0
 11
3956.221251409786
 21
-271.84204896855232
 31
0.0
  0
LINE
  5
125FBD
  8
0
 62
     0
 10
4050.9536729964252
 20
-268.03472060773998
 30
0.0
 11
4055.0040687415481
 21
-263.98432486261697
 31
0.0
  0
LINE
  5
125FBE
  8
0
 62
     0
 10
4041.533684559944
 20
-268.4744529231512
 30
0.0
 11
4046.023812620479
 21
-263.98432486261657
 31
0.0
  0
LINE
  5
125FBF
  8
0
 62
     0
 10
4032.5534284388759
 20
-277.45470904422041
 30
0.0
 11
4037.04355649941
 21
-272.96458098368578
 31
0.0
  0
LINE
  5
125FC0
  8
0
 62
     0
 10
4032.5534284388759
 20
-268.4744529231512
 30
0.0
 11
4034.3633432655911
 21
-266.66453809643377
 31
0.0
  0
LINE
  5
125FC1
  8
0
 62
     0
 10
4023.573172317806
 20
-277.45470904422029
 30
0.0
 11
4028.063300378341
 21
-272.96458098368572
 31
0.0
  0
LINE
  5
125FC2
  8
0
 62
     0
 10
4017.943374261697
 20
-283.08450710032798
 30
0.0
 11
4019.0830442572701
 21
-281.94483710475492
 31
0.0
  0
LINE
  5
125FC3
  8
0
 62
     0
 10
4014.592916196737
 20
-277.45470904422001
 30
0.0
 11
4019.0830442572701
 21
-272.96458098368549
 31
0.0
  0
LINE
  5
125FC4
  8
0
 62
     0
 10
4007.36752371589
 20
-284.68010152506679
 30
0.0
 11
4010.102788136202
 21
-281.94483710475458
 31
0.0
  0
LINE
  5
125FC5
  8
0
 62
     0
 10
4005.6126600756679
 20
-277.45470904422041
 30
0.0
 11
4008.5571315733901
 21
-274.51023754649788
 31
0.0
  0
LINE
  5
125FC6
  8
0
 62
     0
 10
4000.0
 20
-283.0673691198885
 30
0.0
 11
4001.1225320151329
 21
-281.94483710475492
 31
0.0
  0
LINE
  5
125FC7
  8
0
 62
     0
 10
3998.0888569405961
 20
-284.97851217929349
 30
0.0
 11
4000.0
 21
-283.06736911988838
 31
0.0
  0
LINE
  5
125FC8
  8
0
 62
     0
 10
3996.6324039545989
 20
-277.45470904422058
 30
0.0
 11
3999.0926023365032
 21
-274.99451066231558
 31
0.0
  0
LINE
  5
125FC9
  8
0
 62
     0
 10
3989.7120139313201
 20
-284.37509906750029
 30
0.0
 11
3992.1422758940639
 21
-281.94483710475521
 31
0.0
  0
LINE
  5
125FCA
  8
0
 62
     0
 10
3987.6521478335299
 20
-277.45470904422001
 30
0.0
 11
3990.687281053727
 21
-274.41957582402341
 31
0.0
  0
LINE
  5
125FCB
  8
0
 62
     0
 10
3982.0284415821229
 20
-283.07841529562711
 30
0.0
 11
3983.1620197729958
 21
-281.94483710475458
 31
0.0
  0
LINE
  5
125FCC
  8
0
 62
     0
 10
3978.6718917124608
 20
-277.45470904422041
 30
0.0
 11
3983.0638429163332
 21
-273.0627578403475
 31
0.0
  0
LINE
  5
125FCD
  8
0
 62
     0
 10
3969.6916355913918
 20
-277.45470904422041
 30
0.0
 11
3974.1817636519258
 21
-272.96458098368589
 31
0.0
  0
LINE
  5
125FCE
  8
0
 62
     0
 10
3962.0888566424378
 20
-276.07723187210598
 30
0.0
 11
3965.2015075308568
 21
-272.96458098368589
 31
0.0
  0
LINE
  5
125FCF
  8
0
 62
     0
 10
3960.7113794703232
 20
-268.47445292315132
 30
0.0
 11
3963.60716527675
 21
-265.57866711672352
 31
0.0
  0
LINE
  5
125FD0
  8
0
 62
     0
 10
3951.7311233492551
 20
-268.47445292315092
 30
0.0
 11
3956.2212514097891
 21
-263.9843248626164
 31
0.0
  0
LINE
  5
125FD1
  8
0
 62
     0
 10
3951.7311233492551
 20
-259.49419680208177
 30
0.0
 11
3952.8774911001642
 21
-258.34782905117117
 31
0.0
  0
LINE
  5
125FD2
  8
0
 62
     0
 10
3945.7712191933251
 20
-265.4541009580106
 30
0.0
 11
3947.2409952887192
 21
-263.9843248626164
 31
0.0
  0
LINE
  5
125FD3
  8
0
 62
     0
 10
3942.7508672281838
 20
-259.49419680208212
 30
0.0
 11
3947.2409952887178
 21
-255.00406874154771
 31
0.0
  0
LINE
  5
125FD4
  8
0
 62
     0
 10
3942.7508672281838
 20
-250.51394068101291
 30
0.0
 11
3943.7064245411289
 21
-249.55838336806741
 31
0.0
  0
LINE
  5
125FD5
  8
0
 62
     0
 10
3936.622743924941
 20
-256.64206398425489
 30
0.0
 11
3938.2607391676488
 21
-255.00406874154751
 31
0.0
  0
LINE
  5
125FD6
  8
0
 62
     0
 10
4050.5139406810131
 20
-133.77061110711421
 30
0.0
 11
4051.7304976486612
 21
-132.5540541394667
 31
0.0
  0
LINE
  5
125FD7
  8
0
 62
     0
 10
3933.7706111071152
 20
-250.51394068101291
 30
0.0
 11
3938.2607391676488
 21
-246.02381262047831
 31
0.0
  0
LINE
  5
125FD8
  8
0
 62
     0
 10
4041.533684559944
 20
-133.77061110711401
 30
0.0
 11
4046.023812620479
 21
-129.28048304657941
 31
0.0
  0
LINE
  5
125FD9
  8
0
 62
     0
 10
3933.7706111071152
 20
-241.53368455994359
 30
0.0
 11
3936.0766638622199
 21
-239.22763180484009
 31
0.0
  0
LINE
  5
125FDA
  8
0
 62
     0
 10
3928.8301234984651
 20
-246.47417216859409
 30
0.0
 11
3929.2804830465811
 21
-246.0238126204782
 31
0.0
  0
LINE
  5
125FDB
  8
0
 62
     0
 10
4033.4510088449092
 20
-132.87303070108121
 30
0.0
 11
4037.04355649941
 21
-129.28048304657929
 31
0.0
  0
LINE
  5
125FDC
  8
0
 62
     0
 10
3925.4646851562661
 20
-240.85935438972501
 30
0.0
 11
3929.2804830465811
 21
-237.04355649940939
 31
0.0
  0
LINE
  5
125FDD
  8
0
 62
     0
 10
4032.5534284388759
 20
-124.7903549860448
 30
0.0
 11
4034.8645228741611
 21
-122.4792605507585
 31
0.0
  0
LINE
  5
125FDE
  8
0
 62
     0
 10
4027.2271365051188
 20
-130.11664691980121
 30
0.0
 11
4028.063300378341
 21
-129.28048304657941
 31
0.0
  0
LINE
  5
125FDF
  8
0
 62
     0
 10
3924.7903549860471
 20
-232.5534284388745
 30
0.0
 11
3929.2804830465811
 21
-228.0633003783399
 31
0.0
  0
LINE
  5
125FE0
  8
0
 62
     0
 10
4023.573172317806
 20
-124.7903549860448
 30
0.0
 11
4028.063300378341
 21
-120.3002269255102
 31
0.0
  0
LINE
  5
125FE1
  8
0
 62
     0
 10
3924.7903549860471
 20
-223.57317231780559
 30
0.0
 11
3927.8577021733058
 21
-220.50582513054559
 31
0.0
  0
LINE
  5
125FE2
  8
0
 62
     0
 10
3919.905445870826
 20
-228.4580814330256
 30
0.0
 11
3920.3002269255112
 21
-228.0633003783401
 31
0.0
  0
LINE
  5
125FE3
  8
0
 62
     0
 10
4014.592916196737
 20
-124.7903549860449
 30
0.0
 11
4019.0830442572701
 21
-120.3002269255104
 31
0.0
  0
LINE
  5
125FE4
  8
0
 62
     0
 10
3924.7903549860471
 20
-214.59291619673641
 30
0.0
 11
3926.172639200448
 21
-213.21063198233429
 31
0.0
  0
LINE
  5
125FE5
  8
0
 62
     0
 10
3917.788812480554
 20
-221.59445870222919
 30
0.0
 11
3920.3002269255112
 21
-219.08304425727101
 31
0.0
  0
LINE
  5
125FE6
  8
0
 62
     0
 10
4005.6126600756679
 20
-124.7903549860446
 30
0.0
 11
4010.102788136202
 21
-120.3002269255101
 31
0.0
  0
LINE
  5
125FE7
  8
0
 62
     0
 10
3924.7903549860471
 20
-205.61266007566701
 30
0.0
 11
3925.181950788246
 21
-205.2210642734662
 31
0.0
  0
LINE
  5
125FE8
  8
0
 62
     0
 10
3916.1957433609659
 20
-214.20727170074721
 30
0.0
 11
3920.3002269255121
 21
-210.10278813620161
 31
0.0
  0
LINE
  5
125FE9
  8
0
 62
     0
 10
3996.6324039545989
 20
-124.7903549860448
 30
0.0
 11
4000.0
 21
-121.422758940644
 31
0.0
  0
LINE
  5
125FEA
  8
0
 62
     0
 10
3924.7903549860471
 20
-196.63240395459809
 30
0.0
 11
3925.0896965107122
 21
-196.33306242993169
 31
0.0
  0
LINE
  5
125FEB
  8
0
 62
     0
 10
4005.6126600756679
 20
-115.8100988649755
 30
0.0
 11
4006.1965891199989
 21
-115.2261698206453
 31
0.0
  0
LINE
  5
125FEC
  8
0
 62
     0
 10
4000.0
 20
-121.4227589406439
 30
0.0
 11
4001.1225320151329
 21
-120.3002269255101
 31
0.0
  0
LINE
  5
125FED
  8
0
 62
     0
 10
3915.8100988649771
 20
-205.61266007566701
 30
0.0
 11
3920.3002269255121
 21
-201.12253201513249
 31
0.0
  0
LINE
  5
125FEE
  8
0
 62
     0
 10
3996.6324039545989
 20
-115.8100988649758
 30
0.0
 11
3997.402814904573
 21
-115.0396879150022
 31
0.0
  0
LINE
  5
125FEF
  8
0
 62
     0
 10
3987.6521478335299
 20
-124.790354986045
 30
0.0
 11
3992.1422758940639
 21
-120.3002269255104
 31
0.0
  0
LINE
  5
125FF0
  8
0
 62
     0
 10
3924.7903549860471
 20
-187.65214783352911
 30
0.0
 11
3926.2893090759699
 21
-186.1531937436045
 31
0.0
  0
LINE
  5
125FF1
  8
0
 62
     0
 10
3915.8100988649771
 20
-196.6324039545982
 30
0.0
 11
3920.3002269255112
 21
-192.14227589406369
 31
0.0
  0
LINE
  5
125FF2
  8
0
 62
     0
 10
3978.6718917124599
 20
-124.7903549860448
 30
0.0
 11
3983.1620197729949
 21
-120.3002269255103
 31
0.0
  0
LINE
  5
125FF3
  8
0
 62
     0
 10
3973.6996359724371
 20
-129.7626107260684
 30
0.0
 11
3974.1817636519258
 21
-129.28048304657941
 31
0.0
  0
LINE
  5
125FF4
  8
0
 62
     0
 10
3924.7903549860471
 20
-178.67189171246
 30
0.0
 11
3929.2804830465811
 21
-174.18176365192539
 31
0.0
  0
LINE
  5
125FF5
  8
0
 62
     0
 10
3915.9175009846422
 20
-187.54474571386359
 30
0.0
 11
3920.3002269255121
 21
-183.1620197729946
 31
0.0
  0
LINE
  5
125FF6
  8
0
 62
     0
 10
3969.6916355913918
 20
-124.790354986045
 30
0.0
 11
3974.1817636519258
 21
-120.3002269255104
 31
0.0
  0
LINE
  5
125FF7
  8
0
 62
     0
 10
3960.7113794703232
 20
-133.77061110711409
 30
0.0
 11
3965.2015075308568
 21
-129.28048304657941
 31
0.0
  0
LINE
  5
125FF8
  8
0
 62
     0
 10
3952.6249921196049
 20
-141.85699845783171
 30
0.0
 11
3956.2212514097891
 21
-138.26073916764869
 31
0.0
  0
LINE
  5
125FF9
  8
0
 62
     0
 10
3933.7706111071152
 20
-160.71137947032159
 30
0.0
 11
3938.2607391676488
 21
-156.22125140978699
 31
0.0
  0
LINE
  5
125FFA
  8
0
 62
     0
 10
3924.7903549860471
 20
-169.69163559139079
 30
0.0
 11
3929.2804830465811
 21
-165.20150753085619
 31
0.0
  0
LINE
  5
125FFB
  8
0
 62
     0
 10
3918.448853619941
 20
-176.0331369574958
 30
0.0
 11
3920.3002269255121
 21
-174.18176365192531
 31
0.0
  0
LINE
  5
125FFC
  8
0
 62
     0
 10
3960.7113794703218
 20
-124.7903549860447
 30
0.0
 11
3961.0548776323271
 21
-124.4468568240398
 31
0.0
  0
LINE
  5
125FFD
  8
0
 62
     0
 10
3951.7311233492528
 20
-133.77061110711381
 30
0.0
 11
3956.221251409786
 21
-129.28048304657921
 31
0.0
  0
LINE
  5
125FFE
  8
0
 62
     0
 10
3942.7508672281838
 20
-142.7508672281829
 30
0.0
 11
3947.2409952887178
 21
-138.26073916764841
 31
0.0
  0
LINE
  5
125FFF
  8
0
 62
     0
 10
3933.7706111071152
 20
-151.7311233492521
 30
0.0
 11
3938.2607391676488
 21
-147.2409952887175
 31
0.0
  0
LINE
  5
126000
  8
0
 62
     0
 10
3924.7903549860471
 20
-160.7113794703213
 30
0.0
 11
3929.2804830465811
 21
-156.2212514097867
 31
0.0
  0
LINE
  5
126001
  8
0
 62
     0
 10
4043.2174825826451
 20
-270.15825094585188
 30
0.0
 11
4047.7076106431782
 21
-265.66812288531719
 31
0.0
  0
LINE
  5
126002
  8
0
 62
     0
 10
4036.7132388148038
 20
-276.66249471369321
 30
0.0
 11
4038.7273545221101
 21
-274.64837900638628
 31
0.0
  0
LINE
  5
126003
  8
0
 62
     0
 10
4034.2372264615742
 20
-270.1582509458521
 30
0.0
 11
4038.7273545221101
 21
-265.66812288531747
 31
0.0
  0
LINE
  5
126004
  8
0
 62
     0
 10
4025.2569703405052
 20
-279.13850706692131
 30
0.0
 11
4029.7470984010411
 21
-274.64837900638668
 31
0.0
  0
LINE
  5
126005
  8
0
 62
     0
 10
4016.2767142194361
 20
-279.13850706692102
 30
0.0
 11
4020.766842279972
 21
-274.64837900638651
 31
0.0
  0
LINE
  5
126006
  8
0
 62
     0
 10
4011.1496582016271
 20
-284.26556308473062
 30
0.0
 11
4011.786586158903
 21
-283.6286351274556
 31
0.0
  0
LINE
  5
126007
  8
0
 62
     0
 10
4007.2964580983689
 20
-279.13850706692102
 30
0.0
 11
4011.786586158903
 21
-274.64837900638639
 31
0.0
  0
LINE
  5
126008
  8
0
 62
     0
 10
4001.447287476341
 20
-284.98767768894908
 30
0.0
 11
4002.806330037834
 21
-283.62863512745548
 31
0.0
  0
LINE
  5
126009
  8
0
 62
     0
 10
4000.0
 20
-277.45470904422041
 30
0.0
 11
4002.4962627400669
 21
-274.95844630415212
 31
0.0
  0
LINE
  5
12600A
  8
0
 62
     0
 10
3998.3162019772999
 20
-279.13850706692108
 30
0.0
 11
4000.0
 21
-277.45470904422041
 31
0.0
  0
LINE
  5
12600B
  8
0
 62
     0
 10
3992.7633249803198
 20
-284.69138406390198
 30
0.0
 11
3993.8260739167658
 21
-283.6286351274556
 31
0.0
  0
LINE
  5
12600C
  8
0
 62
     0
 10
3989.33594585623
 20
-279.13850706692131
 30
0.0
 11
3993.7364570340851
 21
-274.73799588906581
 31
0.0
  0
LINE
  5
12600D
  8
0
 62
     0
 10
3984.8377090123272
 20
-283.6367439108252
 30
0.0
 11
3984.8458177956959
 21
-283.62863512745582
 31
0.0
  0
LINE
  5
12600E
  8
0
 62
     0
 10
3980.3556897351609
 20
-279.13850706692108
 30
0.0
 11
3984.8458177956959
 21
-274.64837900638662
 31
0.0
  0
LINE
  5
12600F
  8
0
 62
     0
 10
3971.3754336140919
 20
-279.13850706692131
 30
0.0
 11
3975.8655616746269
 21
-274.64837900638668
 31
0.0
  0
LINE
  5
126010
  8
0
 62
     0
 10
3971.3754336140919
 20
-270.15825094585188
 30
0.0
 11
3971.9689093143361
 21
-269.56477524560802
 31
0.0
  0
LINE
  5
126011
  8
0
 62
     0
 10
3964.3643754747118
 20
-277.16930908523409
 30
0.0
 11
3966.8853055535569
 21
-274.64837900638651
 31
0.0
  0
LINE
  5
126012
  8
0
 62
     0
 10
3962.3951774930229
 20
-270.15825094585188
 30
0.0
 11
3965.803269971806
 21
-266.75015846706839
 31
0.0
  0
LINE
  5
126013
  8
0
 62
     0
 10
3953.4149213719538
 20
-270.15825094585199
 30
0.0
 11
3957.9050494324879
 21
-265.66812288531742
 31
0.0
  0
LINE
  5
126014
  8
0
 62
     0
 10
3953.4149213719538
 20
-261.17799482478279
 30
0.0
 11
3954.767783079682
 21
-259.82513311705378
 31
0.0
  0
LINE
  5
126015
  8
0
 62
     0
 10
3947.636909833077
 20
-266.95600636366009
 30
0.0
 11
3948.9247933114189
 21
-265.66812288531742
 31
0.0
  0
LINE
  5
126016
  8
0
 62
     0
 10
3944.4346652508839
 20
-261.17799482478318
 30
0.0
 11
3948.9247933114189
 21
-256.68786676424861
 31
0.0
  0
LINE
  5
126017
  8
0
 62
     0
 10
3944.4346652508839
 20
-252.19773870371381
 30
0.0
 11
3945.3099304217681
 21
-251.32247353283009
 31
0.0
  0
LINE
  5
126018
  8
0
 62
     0
 10
3938.2357157590709
 20
-258.39668819552708
 30
0.0
 11
3939.9445371903498
 21
-256.68786676424838
 31
0.0
  0
LINE
  5
126019
  8
0
 62
     0
 10
4052.1977387037132
 20
-135.45440912981459
 30
0.0
 11
4053.612214758256
 21
-134.0399330752719
 31
0.0
  0
LINE
  5
12601A
  8
0
 62
     0
 10
3935.4544091298148
 20
-252.19773870371341
 30
0.0
 11
3939.9445371903498
 21
-247.70761064317881
 31
0.0
  0
LINE
  5
12601B
  8
0
 62
     0
 10
4043.2174825826451
 20
-135.45440912981471
 30
0.0
 11
4047.7076106431782
 21
-130.9642810692801
 31
0.0
  0
LINE
  5
12601C
  8
0
 62
     0
 10
3935.4544091298148
 20
-243.21748258264441
 30
0.0
 11
3937.3861821491769
 21
-241.28570956328321
 31
0.0
  0
LINE
  5
12601D
  8
0
 62
     0
 10
3930.1854771411072
 20
-248.48641457135241
 30
0.0
 11
3930.9642810692808
 21
-247.70761064317901
 31
0.0
  0
LINE
  5
12601E
  8
0
 62
     0
 10
4035.6675726032449
 20
-134.02406298814469
 30
0.0
 11
4038.7273545221101
 21
-130.96428106928059
 31
0.0
  0
LINE
  5
12601F
  8
0
 62
     0
 10
3926.683538252003
 20
-243.0080973393884
 30
0.0
 11
3930.9642810692808
 21
-238.7273545221102
 31
0.0
  0
LINE
  5
126020
  8
0
 62
     0
 10
4034.2372264615742
 20
-126.4741530087455
 30
0.0
 11
4037.158868116469
 21
-123.5525113538519
 31
0.0
  0
LINE
  5
126021
  8
0
 62
     0
 10
4029.6162325074311
 20
-131.0951469628892
 30
0.0
 11
4029.7470984010411
 21
-130.9642810692801
 31
0.0
  0
LINE
  5
126022
  8
0
 62
     0
 10
3926.4741530087458
 20
-234.2372264615754
 30
0.0
 11
3930.9642810692808
 21
-229.7470984010408
 31
0.0
  0
LINE
  5
126023
  8
0
 62
     0
 10
4025.256970340507
 20
-126.4741530087452
 30
0.0
 11
4029.7470984010411
 21
-121.9840249482106
 31
0.0
  0
LINE
  5
126024
  8
0
 62
     0
 10
3926.4741530087458
 20
-225.25697034050609
 30
0.0
 11
3928.6423800080051
 21
-223.08874334124749
 31
0.0
  0
LINE
  5
126025
  8
0
 62
     0
 10
3920.8198635073882
 20
-230.91125984186439
 30
0.0
 11
3921.9840249482108
 21
-229.7470984010406
 31
0.0
  0
LINE
  5
126026
  8
0
 62
     0
 10
4016.2767142194361
 20
-126.4741530087455
 30
0.0
 11
4020.766842279972
 21
-121.9840249482109
 31
0.0
  0
LINE
  5
126027
  8
0
 62
     0
 10
3926.4741530087458
 20
-216.276714219437
 30
0.0
 11
3926.7309020428152
 21
-216.01996518536791
 31
0.0
  0
LINE
  5
126028
  8
0
 62
     0
 10
3918.5253229309651
 20
-224.22554429721791
 30
0.0
 11
3921.9840249482108
 21
-220.7668422799716
 31
0.0
  0
LINE
  5
126029
  8
0
 62
     0
 10
4016.2767142194361
 20
-117.4938968876765
 30
0.0
 11
4017.0442231228062
 21
-116.72638798430749
 31
0.0
  0
LINE
  5
12602A
  8
0
 62
     0
 10
4008.3089342178669
 20
-125.4616768892453
 30
0.0
 11
4011.786586158903
 21
-121.984024948211
 31
0.0
  0
LINE
  5
12602B
  8
0
 62
     0
 10
3917.4938968876768
 20
-216.27671421943711
 30
0.0
 11
3921.9840249482108
 21
-211.78658615890251
 31
0.0
  0
LINE
  5
12602C
  8
0
 62
     0
 10
3999.7900611566838
 20
-125.0002938293609
 30
0.0
 11
4000.0
 21
-124.7903549860448
 31
0.0
  0
LINE
  5
12602D
  8
0
 62
     0
 10
4007.2964580983689
 20
-117.4938968876765
 30
0.0
 11
4009.2820341185061
 21
-115.50832086753741
 31
0.0
  0
LINE
  5
12602E
  8
0
 62
     0
 10
4000.0
 20
-124.7903549860449
 30
0.0
 11
4002.806330037834
 21
-121.9840249482111
 31
0.0
  0
LINE
  5
12602F
  8
0
 62
     0
 10
3917.4938968876768
 20
-207.29645809836811
 30
0.0
 11
3921.9840249482108
 21
-202.8063300378335
 31
0.0
  0
LINE
  5
126030
  8
0
 62
     0
 10
3998.316201977299
 20
-117.4938968876764
 30
0.0
 11
4000.0
 21
-115.8100988649757
 31
0.0
  0
LINE
  5
126031
  8
0
 62
     0
 10
3990.1620662926812
 20
-125.6480325722948
 30
0.0
 11
3993.826073916764
 21
-121.984024948211
 31
0.0
  0
LINE
  5
126032
  8
0
 62
     0
 10
3917.4938968876768
 20
-198.3162019772989
 30
0.0
 11
3921.9840249482108
 21
-193.82607391676439
 31
0.0
  0
LINE
  5
126033
  8
0
 62
     0
 10
4000.0
 20
-115.8100988649756
 30
0.0
 11
4000.8062747846711
 21
-115.0038240803046
 31
0.0
  0
LINE
  5
126034
  8
0
 62
     0
 10
3989.3359458562309
 20
-117.493896887676
 30
0.0
 11
3991.3929472450659
 21
-115.4368954988411
 31
0.0
  0
LINE
  5
126035
  8
0
 62
     0
 10
3980.3556897351609
 20
-126.4741530087452
 30
0.0
 11
3984.8458177956959
 21
-121.9840249482106
 31
0.0
  0
LINE
  5
126036
  8
0
 62
     0
 10
3926.4741530087458
 20
-180.35568973516041
 30
0.0
 11
3928.0706823970172
 21
-178.75916034689041
 31
0.0
  0
LINE
  5
126037
  8
0
 62
     0
 10
3917.4938968876768
 20
-189.33594585622961
 30
0.0
 11
3921.9840249482122
 21
-184.84581779569501
 31
0.0
  0
LINE
  5
126038
  8
0
 62
     0
 10
3980.3556897351609
 20
-117.4938968876763
 30
0.0
 11
3980.6079633188342
 21
-117.2416233040032
 31
0.0
  0
LINE
  5
126039
  8
0
 62
     0
 10
3971.3754336140919
 20
-126.4741530087454
 30
0.0
 11
3975.8655616746269
 21
-121.9840249482109
 31
0.0
  0
LINE
  5
12603A
  8
0
 62
     0
 10
3963.201461750476
 20
-134.6481248723619
 30
0.0
 11
3966.8853055535569
 21
-130.96428106927999
 31
0.0
  0
LINE
  5
12603B
  8
0
 62
     0
 10
3926.4741530087458
 20
-171.37543361409121
 30
0.0
 11
3930.9642810692808
 21
-166.88530555355661
 31
0.0
  0
LINE
  5
12603C
  8
0
 62
     0
 10
3917.4938968876768
 20
-180.3556897351603
 30
0.0
 11
3921.9840249482122
 21
-175.86556167462581
 31
0.0
  0
LINE
  5
12603D
  8
0
 62
     0
 10
3962.395177493021
 20
-126.4741530087456
 30
0.0
 11
3966.8853055535569
 21
-121.9840249482111
 31
0.0
  0
LINE
  5
12603E
  8
0
 62
     0
 10
3953.4149213719529
 20
-135.45440912981479
 30
0.0
 11
3957.9050494324879
 21
-130.96428106928019
 31
0.0
  0
LINE
  5
12603F
  8
0
 62
     0
 10
3944.4346652508839
 20
-144.43466525088391
 30
0.0
 11
3948.9247933114189
 21
-139.94453719034931
 31
0.0
  0
LINE
  5
126040
  8
0
 62
     0
 10
3935.4544091298148
 20
-153.41492137195311
 30
0.0
 11
3939.9445371903498
 21
-148.92479331141851
 31
0.0
  0
LINE
  5
126041
  8
0
 62
     0
 10
3926.4741530087458
 20
-162.3951774930222
 30
0.0
 11
3930.9642810692808
 21
-157.9050494324876
 31
0.0
  0
LINE
  5
126042
  8
0
 62
     0
 10
3921.5219269985778
 20
-167.34740350319089
 30
0.0
 11
3921.9840249482108
 21
-166.8853055535568
 31
0.0
  0
LINE
  5
126043
  8
0
 62
     0
 10
3937.527641098512
 20
-142.3614332821877
 30
0.0
 11
3939.9445371903498
 21
-139.94453719034939
 31
0.0
  0
LINE
  5
126044
  8
0
 62
     0
 10
4053.8815367264142
 20
-262.8617928474834
 30
0.0
 11
4054.7433295738979
 21
-261.9999999999992
 31
0.0
  0
LINE
  5
126045
  8
0
 62
     0
 10
4044.9012806053461
 20
-271.84204896855249
 30
0.0
 11
4049.3914086658801
 21
-267.35192090801792
 31
0.0
  0
LINE
  5
126046
  8
0
 62
     0
 10
4044.9012806053461
 20
-262.861792847483
 30
0.0
 11
4045.7630734528302
 21
-261.99999999999898
 31
0.0
  0
LINE
  5
126047
  8
0
 62
     0
 10
4035.9210244842761
 20
-271.84204896855209
 30
0.0
 11
4040.411152544812
 21
-267.35192090801758
 31
0.0
  0
LINE
  5
126048
  8
0
 62
     0
 10
4027.2492255236671
 20
-280.51384792916173
 30
0.0
 11
4031.4308964237421
 21
-276.33217702908672
 31
0.0
  0
LINE
  5
126049
  8
0
 62
     0
 10
4026.9407683632062
 20
-271.84204896855238
 30
0.0
 11
4030.0784920037072
 21
-268.70432532805171
 31
0.0
  0
LINE
  5
12604A
  8
0
 62
     0
 10
4017.9605122421381
 20
-280.82230508962152
 30
0.0
 11
4022.450640302673
 21
-276.33217702908701
 31
0.0
  0
LINE
  5
12604B
  8
0
 62
     0
 10
4008.980256121069
 20
-280.8223050896213
 30
0.0
 11
4013.4703841816022
 21
-276.33217702908678
 31
0.0
  0
LINE
  5
12604C
  8
0
 62
     0
 10
4000.0
 20
-280.8223050896213
 30
0.0
 11
4004.4901280605341
 21
-276.33217702908678
 31
0.0
  0
LINE
  5
12604D
  8
0
 62
     0
 10
3991.0197438789319
 20
-280.82230508962141
 30
0.0
 11
3995.5098719394659
 21
-276.33217702908678
 31
0.0
  0
LINE
  5
12604E
  8
0
 62
     0
 10
3982.039487757861
 20
-280.82230508962152
 30
0.0
 11
3986.529615818396
 21
-276.33217702908689
 31
0.0
  0
LINE
  5
12604F
  8
0
 62
     0
 10
3973.212796132721
 20
-280.66874059369371
 30
0.0
 11
3977.5493596973279
 21
-276.33217702908701
 31
0.0
  0
LINE
  5
126050
  8
0
 62
     0
 10
3973.059231636792
 20
-271.84204896855238
 30
0.0
 11
3974.4041133730389
 21
-270.4971672323058
 31
0.0
  0
LINE
  5
126051
  8
0
 62
     0
 10
3966.6969969239681
 20
-278.20428368137863
 30
0.0
 11
3968.569103576257
 21
-276.33217702908701
 31
0.0
  0
LINE
  5
126052
  8
0
 62
     0
 10
3964.0789755157239
 20
-271.84204896855277
 30
0.0
 11
3968.0614140538951
 21
-267.85961043038139
 31
0.0
  0
LINE
  5
126053
  8
0
 62
     0
 10
3955.098719394653
 20
-271.84204896855238
 30
0.0
 11
3959.5888474551889
 21
-267.3519209080178
 31
0.0
  0
LINE
  5
126054
  8
0
 62
     0
 10
3955.098719394653
 20
-262.861792847483
 30
0.0
 11
3956.7131058256882
 21
-261.24740641644962
 31
0.0
  0
LINE
  5
126055
  8
0
 62
     0
 10
3949.550844210803
 20
-268.40966803133369
 30
0.0
 11
3950.6085913341199
 21
-267.35192090801758
 31
0.0
  0
LINE
  5
126056
  8
0
 62
     0
 10
3946.1184632735858
 20
-262.86179284748312
 30
0.0
 11
3950.6085913341199
 21
-258.37166478694849
 31
0.0
  0
LINE
  5
126057
  8
0
 62
     0
 10
3946.1184632735858
 20
-253.881536726414
 30
0.0
 11
3946.9669914110091
 21
-253.0330085889901
 31
0.0
  0
LINE
  5
126058
  8
0
 62
     0
 10
3939.8959235991442
 20
-260.1040764008556
 30
0.0
 11
3941.6283352130508
 21
-258.37166478694849
 31
0.0
  0
LINE
  5
126059
  8
0
 62
     0
 10
4053.8815367264142
 20
-137.13820715251521
 30
0.0
 11
4055.4459941864038
 21
-135.57374969252569
 31
0.0
  0
LINE
  5
12605A
  8
0
 62
     0
 10
3937.1382071525159
 20
-253.881536726414
 30
0.0
 11
3941.6283352130508
 21
-249.3914086658794
 31
0.0
  0
LINE
  5
12605B
  8
0
 62
     0
 10
4044.9012806053461
 20
-137.13820715251561
 30
0.0
 11
4049.3914086658801
 21
-132.648079091981
 31
0.0
  0
LINE
  5
12605C
  8
0
 62
     0
 10
3937.1382071525159
 20
-244.90128060534491
 30
0.0
 11
3938.7525935835511
 21
-243.2868941743113
 31
0.0
  0
LINE
  5
12605D
  8
0
 62
     0
 10
3931.5903319686659
 20
-250.4491557891954
 30
0.0
 11
3932.6480790919818
 21
-249.39140866587951
 31
0.0
  0
LINE
  5
12605E
  8
0
 62
     0
 10
4044.9012806053461
 20
-128.15795103144609
 30
0.0
 11
4045.1047705343681
 21
-127.95446110242381
 31
0.0
  0
LINE
  5
12605F
  8
0
 62
     0
 10
4037.8233654376231
 20
-135.2358661991679
 30
0.0
 11
4040.4111525448111
 21
-132.64807909198069
 31
0.0
  0
LINE
  5
126060
  8
0
 62
     0
 10
3928.1579510314468
 20
-244.90128060534491
 30
0.0
 11
3932.6480790919818
 21
-240.41115254481039
 31
0.0
  0
LINE
  5
126061
  8
0
 62
     0
 10
4035.9210244842761
 20
-128.15795103144561
 30
0.0
 11
4039.3973119843781
 21
-124.6816635313438
 31
0.0
  0
LINE
  5
126062
  8
0
 62
     0
 10
3928.1579510314468
 20
-235.9210244842757
 30
0.0
 11
3932.140389569618
 21
-231.93858594610509
 31
0.0
  0
LINE
  5
126063
  8
0
 62
     0
 10
4026.9407683632062
 20
-128.157951031446
 30
0.0
 11
4031.4308964237398
 21
-123.6678229709114
 31
0.0
  0
LINE
  5
126064
  8
0
 62
     0
 10
3928.1579510314468
 20
-226.94076836320639
 30
0.0
 11
3929.5028327676951
 21
-225.59588662695961
 31
0.0
  0
LINE
  5
126065
  8
0
 62
     0
 10
3921.795716318622
 20
-233.30300307603281
 30
0.0
 11
3923.6678229709119
 21
-231.4308964237409
 31
0.0
  0
LINE
  5
126066
  8
0
 62
     0
 10
4018.7395884655198
 20
-127.3788748080627
 30
0.0
 11
4022.450640302673
 21
-123.6678229709112
 31
0.0
  0
LINE
  5
126067
  8
0
 62
     0
 10
3919.331259406305
 20
-226.78720386727881
 30
0.0
 11
3923.6678229709119
 21
-222.4506403026721
 31
0.0
  0
LINE
  5
126068
  8
0
 62
     0
 10
4017.9605122421381
 20
-119.1776949103768
 30
0.0
 11
4019.799941457361
 21
-117.3382656951527
 31
0.0
  0
LINE
  5
126069
  8
0
 62
     0
 10
4011.284425768652
 20
-125.85378138386331
 30
0.0
 11
4013.4703841816022
 21
-123.6678229709113
 31
0.0
  0
LINE
  5
12606A
  8
0
 62
     0
 10
3919.1776949103769
 20
-217.9605122421377
 30
0.0
 11
3923.6678229709119
 21
-213.47038418160309
 31
0.0
  0
LINE
  5
12606B
  8
0
 62
     0
 10
4008.980256121069
 20
-119.1776949103765
 30
0.0
 11
4012.2679784105749
 21
-115.88997262087111
 31
0.0
  0
LINE
  5
12606C
  8
0
 62
     0
 10
4003.0941007878541
 20
-125.0638502435924
 30
0.0
 11
4004.490128060535
 21
-123.6678229709111
 31
0.0
  0
LINE
  5
12606D
  8
0
 62
     0
 10
3919.1776949103769
 20
-208.98025612106821
 30
0.0
 11
3923.6678229709119
 21
-204.49012806053369
 31
0.0
  0
LINE
  5
12606E
  8
0
 62
     0
 10
3993.9318052486001
 20
-125.245889661777
 30
0.0
 11
3995.5098719394659
 21
-123.6678229709112
 31
0.0
  0
LINE
  5
12606F
  8
0
 62
     0
 10
3919.1776949103769
 20
-199.99999999999909
 30
0.0
 11
3923.6678229709119
 21
-195.5098719394644
 31
0.0
  0
LINE
  5
126070
  8
0
 62
     0
 10
4000.0
 20
-119.1776949103767
 30
0.0
 11
4004.0797313529042
 21
-115.0979635574724
 31
0.0
  0
LINE
  5
126071
  8
0
 62
     0
 10
3991.0197438789319
 20
-119.1776949103768
 30
0.0
 11
3995.0533812002559
 21
-115.1440575890517
 31
0.0
  0
LINE
  5
126072
  8
0
 62
     0
 10
3983.3188363327549
 20
-126.87860245655401
 30
0.0
 11
3986.529615818396
 21
-123.6678229709114
 31
0.0
  0
LINE
  5
126073
  8
0
 62
     0
 10
3919.1776949103769
 20
-191.01974387893009
 30
0.0
 11
3923.6678229709119
 21
-186.52961581839551
 31
0.0
  0
LINE
  5
126074
  8
0
 62
     0
 10
3982.039487757861
 20
-119.1776949103769
 30
0.0
 11
3984.8575146748631
 21
-116.359667993377
 31
0.0
  0
LINE
  5
126075
  8
0
 62
     0
 10
3973.059231636792
 20
-128.15795103144609
 30
0.0
 11
3977.5493596973279
 21
-123.6678229709115
 31
0.0
  0
LINE
  5
126076
  8
0
 62
     0
 10
3928.1579510314468
 20
-173.05923163679179
 30
0.0
 11
3931.2956746719469
 21
-169.92150799629059
 31
0.0
  0
LINE
  5
126077
  8
0
 62
     0
 10
3919.1776949103769
 20
-182.03948775786091
 30
0.0
 11
3923.6678229709119
 21
-177.54935969732631
 31
0.0
  0
LINE
  5
126078
  8
0
 62
     0
 10
3964.0789755157239
 20
-128.1579510314458
 30
0.0
 11
3968.569103576257
 21
-123.6678229709113
 31
0.0
  0
LINE
  5
126079
  8
0
 62
     0
 10
3955.098719394653
 20
-137.13820715251509
 30
0.0
 11
3959.588847455188
 21
-132.64807909198041
 31
0.0
  0
LINE
  5
12607A
  8
0
 62
     0
 10
3946.1184632735858
 20
-146.1184632735841
 30
0.0
 11
3950.6085913341199
 21
-141.62833521304961
 31
0.0
  0
LINE
  5
12607B
  8
0
 62
     0
 10
3937.1382071525159
 20
-155.09871939465339
 30
0.0
 11
3941.6283352130499
 21
-150.60859133411881
 31
0.0
  0
LINE
  5
12607C
  8
0
 62
     0
 10
3928.1579510314468
 20
-164.0789755157225
 30
0.0
 11
3932.6480790919818
 21
-159.5888474551879
 31
0.0
  0
LINE
  5
12607D
  8
0
 62
     0
 10
3919.4861520708369
 20
-172.7507744763318
 30
0.0
 11
3923.6678229709119
 21
-168.56910357625711
 31
0.0
  0
LINE
  5
12607E
  8
0
 62
     0
 10
3955.098719394653
 20
-128.15795103144549
 30
0.0
 11
3955.9548403695771
 21
-127.30183005652231
 31
0.0
  0
LINE
  5
12607F
  8
0
 62
     0
 10
3946.1184632735858
 20
-137.1382071525147
 30
0.0
 11
3950.6085913341199
 21
-132.64807909198001
 31
0.0
  0
LINE
  5
126080
  8
0
 62
     0
 10
3937.1382071525159
 20
-146.11846327358381
 30
0.0
 11
3941.6283352130508
 21
-141.62833521304921
 31
0.0
  0
LINE
  5
126081
  8
0
 62
     0
 10
3928.1579510314468
 20
-155.0987193946529
 30
0.0
 11
3932.6480790919818
 21
-150.60859133411839
 31
0.0
  0
ENDBLK
  5
126083
  8
0
  0
BLOCK
  8
0
  2
*U44
 70
     1
 10
0.0
 20
0.0
 30
0.0
  3
*U44
  1

  0
TEXT
  5
126085
  8
DIM
 10
2209.479620594459
 20
-3204.1428571428528
 30
0.0
 40
32.0
  1
A
 50
90.0
 41
0.75
  0
ENDBLK
  5
126087
  8
0
  0
BLOCK
  8
0
  2
*U45
 70
     1
 10
0.0
 20
0.0
 30
0.0
  3
*U45
  1

  0
TEXT
  5
126089
  8
DIM
 10
2207.8409284037348
 20
-3585.9999999999968
 30
0.0
 40
32.0
  1
B
 50
90.0
 41
0.75
  0
ENDBLK
  5
12608B
  8
0
  0
BLOCK
  8
0
  2
*U46
 70
     1
 10
0.0
 20
0.0
 30
0.0
  3
*U46
  1

  0
TEXT
  5
12608D
  8
DIM
 10
2061.428571428572
 20
-3058.208121984444
 30
0.0
 40
32.0
  1
C
 41
0.75
  0
ENDBLK
  5
12608F
  8
0
  0
BLOCK
  8
0
  2
*U47
 70
     1
 10
0.0
 20
0.0
 30
0.0
  3
*U47
  1

  0
TEXT
  5
126091
  8
SLIM
 10
509.0476190477408
 20
-586.75000000000955
 30
0.0
 40
26.0
  1
100
  0
ENDBLK
  5
126093
  8
0
  0
BLOCK
  8
0
  2
*U48
 70
     1
 10
0.0
 20
0.0
 30
0.0
  3
*U48
  1

  0
TEXT
  5
126095
  8
SLIM
 10
158.9523809524228
 20
-594.00000000000955
 30
0.0
 40
26.0
  1
75
  0
ENDBLK
  5
126097
  8
0
  0
BLOCK
  8
0
  2
*U49
 70
     1
 10
0.0
 20
0.0
 30
0.0
  3
*U49
  1

  0
TEXT
  5
126099
  8
SLIM
 10
518.95238095250295
 20
-130.00000000000321
 30
0.0
 40
26.0
  1
65
  0
ENDBLK
  5
12609B
  8
0
  0
BLOCK
  8
0
  2
*U50
 70
     1
 10
0.0
 20
0.0
 30
0.0
  3
*U50
  1

  0
TEXT
  5
12609D
  8
SLIM
 10
158.9523809524228
 20
-130.00000000000321
 30
0.0
 40
26.0
  1
50
  0
ENDBLK
  5
12609F
  8
0
  0
ENDSEC
  0
SECTION
  2
ENTITIES
  0
LINE
  5
11E11D
  8
OBJECT
 10
1825.0
 20
-3599.9999999999959
 30
0.0
 11
5575.0
 21
-3599.9999999999959
 31
0.0
  0
LINE
  5
11E11F
  8
SLIM
 10
2616.0
 20
-2657.50001604727
 30
0.0
 11
2616.0
 21
-2987.50001604727
 31
0.0
  0
LINE
  5
11E120
  8
SLIM
 10
2740.0
 20
-2657.50001604727
 30
0.0
 11
2740.0
 21
-2987.50001604727
 31
0.0
  0
LINE
  5
11E121
  8
SLIM
 10
2870.0
 20
-2717.50001604727
 30
0.0
 11
2870.0
 21
-2987.50001604727
 31
0.0
  0
LINE
  5
11E122
  8
SLIM
 10
3000.0
 20
-2717.50001604727
 30
0.0
 11
3000.0
 21
-2987.50001604727
 31
0.0
  0
LINE
  5
11E123
  8
SLIM
 10
3130.0
 20
-2987.50001604727
 30
0.0
 11
3130.0
 21
-2717.50001604727
 31
0.0
  0
LINE
  5
11E124
  8
SLIM
 10
3260.0
 20
-2987.50001604727
 30
0.0
 11
3260.0
 21
-2657.50001604727
 31
0.0
  0
LINE
  5
11E125
  8
SLIM
 10
3260.0
 20
-2657.50001604727
 30
0.0
 11
2616.0
 21
-2657.50001604727
 31
0.0
  0
LINE
  5
11E126
  8
SLIM
 10
3260.0
 20
-2717.50001604727
 30
0.0
 11
2740.0
 21
-2717.50001604727
 31
0.0
  0
LINE
  5
11E127
  8
SLIM
 10
3260.0
 20
-2777.50001604727
 30
0.0
 11
2616.0
 21
-2777.50001604727
 31
0.0
  0
LINE
  5
11E128
  8
SLIM
 10
3260.0
 20
-2847.50001604727
 30
0.0
 11
2616.0
 21
-2847.50001604727
 31
0.0
  0
LINE
  5
11E129
  8
SLIM
 10
3260.0
 20
-2917.50001604727
 30
0.0
 11
2616.0
 21
-2917.50001604727
 31
0.0
  0
LINE
  5
11E12A
  8
SLIM
 10
3260.0
 20
-2987.50001604727
 30
0.0
 11
2616.0
 21
-2987.50001604727
 31
0.0
  0
LINE
  5
11E13F
  8
SLIM
 10
2740.0
 20
-2777.50001604727
 30
0.0
 11
2615.9999722746579
 21
-2657.5
 31
0.0
  0
LINE
  5
11F2E7
  8
OBJECT
 10
5325.0
 20
-3478.9999999999968
 30
0.0
 11
5325.0
 21
-3602.9999999999968
 31
0.0
1001
ACDBBLOCKREPETAG
1070
     1
1071
       26
1005
11F2E7
  0
LINE
  5
11F2EA
  8
OBJECT
 10
5472.0
 20
-3478.9999999999968
 30
0.0
 11
5456.7802782663139
 21
-3478.9999999999968
 31
0.0
1001
ACDBBLOCKREPETAG
1070
     1
1071
       30
1005
11F2EA
  0
LINE
  5
11F2EB
  8
OBJECT
 10
5475.0
 20
-3590.9999999999968
 30
0.0
 11
5475.0
 21
-3602.9999999999968
 31
0.0
1001
ACDBBLOCKREPETAG
1070
     1
1071
       34
1005
11F2EB
  0
POINT
  5
11F2EC
  8
DOTS
 10
5400.0
 20
-3599.9999999999968
 30
0.0
1001
ACDBBLOCKREPETAG
1070
     1
1071
      187
1005
11F2EC
  0
LINE
  5
11F2ED
  8
CENTER
 10
5310.0
 20
-3527.9999999999968
 30
0.0
 11
5490.0
 21
-3527.9999999999968
 31
0.0
1001
ACDBBLOCKREPETAG
1070
     1
1071
       23
1005
11F2ED
  0
CIRCLE
  5
11F2EE
  8
OBJECT
 10
5400.0
 20
-3527.9999999999968
 30
0.0
 40
53.5
1001
ACDBBLOCKREPETAG
1070
     1
1071
       24
1005
11F2EE
  0
CIRCLE
  5
11F2EF
  8
OBJECT
 10
5400.0
 20
-3527.9999999999968
 30
0.0
 40
67.0
1001
ACDBBLOCKREPETAG
1070
     1
1071
       25
1005
11F2EF
  0
ARC
  5
11F2F0
  8
OBJECT
 10
5400.0
 20
-3527.9999999999968
 30
0.0
 40
75.0
 50
286.26020470824
 51
253.73979529175989
1001
ACDBBLOCKREPETAG
1070
     1
1071
       27
1005
11F2F0
  0
LINE
  5
11F2F1
  8
OBJECT
 10
5379.0
 20
-3599.9999999999968
 30
0.0
 11
5421.0
 21
-3599.9999999999968
 31
0.0
1001
ACDBBLOCKREPETAG
1070
     1
1071
       28
1005
11F2F1
  0
LINE
  5
11F2F2
  8
OBJECT
 10
5343.2197217336861
 20
-3478.9999999999968
 30
0.0
 11
5325.0
 21
-3478.9999999999968
 31
0.0
1001
ACDBBLOCKREPETAG
1070
     1
1071
       30
1005
11F2EA
  0
TEXT
  5
11F3FE
  8
SLIM
 10
-0.0000000000000011
 20
282.5
 30
0.0
 40
35.0
  1
※ 100枝（4）がある場合、品名の最後に【管底】が付きます。
 41
0.9
 11
0.0
 21
300.0
 31
0.0
 73
     2
  0
LINE
  5
1217B8
  8
OBJECT
 10
5460.0
 20
-3472.9999999999968
 30
0.0
 11
5450.9901951359279
 21
-3472.9999999999968
 31
0.0
1001
ACDBBLOCKREPETAG
1070
     1
1071
      215
1005
1217B8
  0
ARC
  5
1217B9
  8
OBJECT
 10
5340.0
 20
-3475.9999999999968
 30
0.0
 40
3.0
 50
90.0
 51
180.0
1001
ACDBBLOCKREPETAG
1070
     1
1071
      216
1005
1217B9
  0
LINE
  5
1217BA
  8
OBJECT
 10
5337.0
 20
-3475.9999999999968
 30
0.0
 11
5337.0
 21
-3478.9999999999968
 31
0.0
1001
ACDBBLOCKREPETAG
1070
     1
1071
      217
1005
1217BA
  0
LINE
  5
1217BB
  8
OBJECT
 10
5463.0
 20
-3475.9999999999968
 30
0.0
 11
5463.0
 21
-3478.9999999999968
 31
0.0
1001
ACDBBLOCKREPETAG
1070
     1
1071
      218
1005
1217BB
  0
ARC
  5
1217BC
  8
OBJECT
 10
5460.0
 20
-3475.9999999999968
 30
0.0
 40
3.0
 50
0.0
 51
90.0
1001
ACDBBLOCKREPETAG
1070
     1
1071
      219
1005
1217BC
  0
LINE
  5
1217BD
  8
OBJECT
 10
5343.0
 20
-3404.9999999999968
 30
0.0
 11
5343.0
 21
-3472.9999999999968
 31
0.0
1001
ACDBBLOCKREPETAG
1070
     1
1071
      220
1005
1217BD
  0
LINE
  5
1217BE
  8
OBJECT
 10
5457.0
 20
-3404.9999999999968
 30
0.0
 11
5343.0
 21
-3404.9999999999968
 31
0.0
1001
ACDBBLOCKREPETAG
1070
     1
1071
      221
1005
1217BE
  0
LINE
  5
1217BF
  8
OBJECT
 10
5457.0
 20
-3404.9999999999968
 30
0.0
 11
5457.0
 21
-3472.9999999999968
 31
0.0
1001
ACDBBLOCKREPETAG
1070
     1
1071
      222
1005
1217BF
  0
LINE
  5
1217C0
  8
CENTER
 10
5400.0
 20
-3389.9999999999968
 30
0.0
 11
5400.0
 21
-3614.9999999999968
 31
0.0
1001
ACDBBLOCKREPETAG
1070
     1
1071
      223
1005
1217C0
  0
LINE
  5
1217C1
  8
HIDDEN
 10
5452.5
 20
-3404.9999999999968
 30
0.0
 11
5452.5
 21
-3478.9999999999968
 31
0.0
1001
ACDBBLOCKREPETAG
1070
     1
1071
      224
1005
1217C1
  0
LINE
  5
1217C2
  8
HIDDEN
 10
5347.5
 20
-3404.9999999999968
 30
0.0
 11
5347.5
 21
-3478.9999999999968
 31
0.0
1001
ACDBBLOCKREPETAG
1070
     1
1071
      225
1005
1217C2
  0
LINE
  5
1217C3
  8
OBJECT
 10
5349.0098048640721
 20
-3472.9999999999968
 30
0.0
 11
5340.0
 21
-3472.9999999999968
 31
0.0
1001
ACDBBLOCKREPETAG
1070
     1
1071
      215
1005
1217B8
  0
LINE
  5
122E35
  8
OBJECT
 10
5465.2380257212008
 20
-3490.9999999999968
 30
0.0
 11
5472.0
 21
-3490.9999999999968
 31
0.0
1001
ACDBBLOCKREPETAG
1070
     1
1071
       32
1005
122E35
  0
LINE
  5
122E36
  8
OBJECT
 10
5463.4999999999236
 20
-3590.9999999999968
 30
0.0
 11
5474.9999999999236
 21
-3590.9999999999968
 31
0.0
1001
ACDBBLOCKREPETAG
1070
     1
1071
       33
1005
122E36
  0
LINE
  5
122E37
  8
OBJECT
 10
5472.0
 20
-3490.9999999999968
 30
0.0
 11
5472.0
 21
-3478.9999999999968
 31
0.0
1001
ACDBBLOCKREPETAG
1070
     1
1071
       39
1005
122E37
  0
LINE
  5
122E38
  8
OBJECT
 10
5463.4999999998581
 20
-3478.9999999999968
 30
0.0
 11
5463.4999999998709
 21
-3488.0907278941768
 31
0.0
1001
ACDBBLOCKREPETAG
1070
     1
1071
       46
1005
122E38
  0
LINE
  5
122E39
  8
OBJECT
 10
5463.4999999999718
 20
-3567.9092721056568
 30
0.0
 11
5463.4999999999991
 21
-3590.9999999999968
 31
0.0
1001
ACDBBLOCKREPETAG
1070
     1
1071
       46
1005
122E38
  0
INSERT
  5
123A77
  8
SLIM
  6
CONTINUOUS
  2
*X43
 10
0.0
 20
0.0
 30
0.0
1001
GRADIENTCOLOR1ACI
1070
     5
1001
GRADIENTCOLOR2ACI
1070
     2
1001
ACDBBLOCKREPETAG
1070
     1
1071
      432
1005
123A77
1001
ACAD
1000
HATCH
1002
{
1070
    19
1000
EARTH
1040
1.0
1040
0.7853981633974483
1000
R14_HATCH_DATA
1000
123A77
1011
1.0
1021
0.0
1031
0.0
1021
0.0
1031
0.0
1011
0.0
1021
0.0
1031
0.0
1021
1.0
1031
0.0
1011
0.0
1021
0.0
1031
0.0
1021
0.0
1031
1.0
1040
0.0
1010
0.0
1020
0.0
1030
1.0
1000
EARTH
1070
     0
1070
     0
1071
        4
1071
        7
1070
     1
1070
     1
1071
        4
1040
4000.0
1040
-124.9999999999991
1040
0.0
1040
4000.0
1040
-114.9999999999991
1040
0.4142135623730951
1040
3915.0
1040
-199.99999999999909
1040
0.0
1040
3925.0
1040
-199.99999999999909
1040
-0.4142135623730951
1071
        0
1071
        7
1070
     1
1070
     1
1071
        4
1040
4000.0
1040
-114.9999999999991
1040
0.0
1040
4000.0
1040
-124.9999999999991
1040
-0.1505314338169883
1040
4042.2018956920169
1040
-137.99999999999909
1040
0.0
1040
4058.1463670404269
1040
-137.99999999999909
1040
0.1905924244794524
1071
        0
1071
        7
1070
     1
1070
     1
1071
        4
1040
3925.0
1040
-199.99999999999909
1040
0.0
1040
3915.0
1040
-199.99999999999909
1040
0.4142135623730951
1040
4000.0
1040
-284.99999999999898
1040
0.0
1040
4000.0
1040
-274.99999999999909
1040
-0.4142135623730951
1071
        0
1071
        7
1070
     1
1070
     1
1071
        4
1040
4058.1463670404269
1040
-261.99999999999909
1040
0.0
1040
4042.2018956920169
1040
-261.99999999999909
1040
-0.1505314338169883
1040
4000.0
1040
-274.99999999999909
1040
0.0
1040
4000.0
1040
-284.99999999999898
1040
0.1905924244794523
1071
        0
1070
     1
1070
     1
1040
0.7853981633974483
1040
1.0
1070
     0
1070
     6
1040
0.7853981633974483
1040
4000.0
1040
-199.99999999999909
1040
0.0000000000000009
1040
8.9802561210691536
1070
     2
1040
6.3499999999999979
1040
-6.3499999999999979
1040
0.7853981633974483
1040
3998.3162019772999
1040
-198.3162019772985
1040
0.0000000000000009
1040
8.9802561210691536
1070
     2
1040
6.3499999999999979
1040
-6.3499999999999979
1040
0.7853981633974483
1040
3996.6324039545989
1040
-196.63240395459809
1040
0.0000000000000009
1040
8.9802561210691536
1070
     2
1040
6.3499999999999979
1040
-6.3499999999999979
1040
2.3561944901923431
1040
3996.6324039545989
1040
-195.5098719394644
1040
-8.9802561210691536
1040
0.0000000000000009
1070
     2
1040
6.3499999999999979
1040
-6.3499999999999979
1040
2.3561944901923431
1040
3998.3162019772999
1040
-193.82607391676399
1040
-8.9802561210691536
1040
0.0000000000000009
1070
     2
1040
6.3499999999999979
1040
-6.3499999999999979
1040
2.3561944901923431
1040
4000.0
1040
-192.1422758940636
1040
-8.9802561210691536
1040
0.0000000000000009
1070
     2
1040
6.3499999999999979
1040
-6.3499999999999979
1040
0.4342751263886047
1071
        4
1040
3959.3761951646779
1040
-131.36763164202341
1040
0.0
1040
4015.8724194276788
1040
-123.984954442348
1040
0.0
1040
3934.6047737479348
1040
-242.97633920374849
1040
0.0
1040
4015.8724194276788
1040
-277.71834973731791
1040
0.0
1002
}
  0
CIRCLE
  5
123A78
  8
OBJECT
 10
4000.0
 20
-199.99999999999909
 30
0.0
 40
75.0
1001
ACDBBLOCKREPETAG
1070
     1
1071
      398
1005
123A78
  0
LINE
  5
123A79
  8
OBJECT
 10
3963.6238040660278
 20
-162.14471807827491
 30
0.0
 11
4037.0841102714221
 21
-174.5180316957439
 31
0.0
1001
ACDBBLOCKREPETAG
1070
     1
1071
      399
1005
123A79
  0
LINE
  5
123A7A
  8
OBJECT
 10
4043.2694760507111
 20
-170.26782143372259
 30
0.0
 11
4037.0841102714221
 21
-174.5180316957439
 31
0.0
1001
ACDBBLOCKREPETAG
1070
     1
1071
      400
1005
123A7A
  0
CIRCLE
  5
123A7B
  8
OBJECT
 10
4000.0
 20
-199.99999999999909
 30
0.0
 40
52.5
1001
ACDBBLOCKREPETAG
1070
     1
1071
      401
1005
123A7B
  0
ARC
  5
123A7C
  8
OBJECT
 10
4000.0
 20
-199.99999999999909
 30
0.0
 40
50.0
 50
131.70180964355251
 51
168.52376955958741
1001
ACDBBLOCKREPETAG
1070
     1
1071
      402
1005
123A7C
  0
ARC
  5
123A7D
  8
OBJECT
 10
4000.0
 20
-199.99999999999909
 30
0.0
 40
50.0
 50
238.8199429999047
 51
34.49450625011707
1001
ACDBBLOCKREPETAG
1070
     1
1071
      403
1005
123A7D
  0
LINE
  5
123A7E
  8
OBJECT
 10
4042.2018956920169
 20
-137.99999999999909
 30
0.0
 11
4080.0
 21
-137.99999999999909
 31
0.0
1001
ACDBBLOCKREPETAG
1070
     1
1071
      404
1005
123A7E
  0
LINE
  5
123A7F
  8
OBJECT
 10
4042.2018956920169
 20
-261.99999999999909
 30
0.0
 11
4080.0
 21
-261.99999999999909
 31
0.0
1001
ACDBBLOCKREPETAG
1070
     1
1071
      405
1005
123A7F
  0
LINE
  5
123A80
  8
CENTER
 10
4080.0
 20
-199.99999999999909
 30
0.0
 11
3900.0
 21
-199.99999999999909
 31
0.0
1001
ACDBBLOCKREPETAG
1070
     1
1071
      407
1005
123A80
  0
LINE
  5
123A81
  8
CENTER
 10
4000.0
 20
-299.99999999999898
 30
0.0
 11
4000.0
 21
-99.999999999999091
 31
0.0
1001
ACDBBLOCKREPETAG
1070
     1
1071
      408
1005
123A81
  0
LINE
  5
123A82
  8
OBJECT
 10
3947.702309276614
 20
-195.39548645337189
 30
0.0
 11
3970.4540343856352
 21
-193.79865146436981
 31
0.0
1001
ACDBBLOCKREPETAG
1070
     1
1071
      409
1005
123A82
  0
LINE
  5
123A83
  8
OBJECT
 10
3948.416473471706
 20
-190.2332302727674
 30
0.0
 11
3966.9884352629019
 21
-188.92975272660161
 31
0.0
1001
ACDBBLOCKREPETAG
1070
     1
1071
      410
1005
123A83
  0
LINE
  5
123A84
  8
OBJECT
 10
3974.113537475278
 20
-242.77722592637201
 30
0.0
 11
3982.1366988374079
 21
-234.1690987954708
 31
0.0
1001
ACDBBLOCKREPETAG
1070
     1
1071
      411
1005
123A84
  0
ARC
  5
123A85
  8
OBJECT
 10
3982.1160071245399
 20
-183.28188966318251
 30
0.0
 40
60.031113246032611
 50
256.417442267745
 51
262.33936106086588
1001
ACDBBLOCKREPETAG
1070
     1
1071
      412
1005
123A85
  0
LINE
  5
123A86
  8
OBJECT
 10
3977.6125997325148
 20
-197.67495277149911
 30
0.0
 11
3982.1366988374079
 21
-234.1690987954708
 31
0.0
1001
ACDBBLOCKREPETAG
1070
     1
1071
      413
1005
123A86
  0
ARC
  5
123A87
  8
OBJECT
 10
3967.6885653456411
 20
-198.90521351131881
 30
0.0
 40
10.0
 50
7.0667782929957941
 51
94.014734370532395
1001
ACDBBLOCKREPETAG
1070
     1
1071
      414
1005
123A87
  0
ARC
  5
123A88
  8
OBJECT
 10
3970.9441253709729
 20
-200.78147401875589
 30
0.0
 40
7.0
 50
7.0667782929957941
 51
94.014733775014648
1001
ACDBBLOCKREPETAG
1070
     1
1071
      415
1005
123A88
  0
CIRCLE
  5
123A89
  8
OBJECT
 10
4000.0
 20
-199.99999999999909
 30
0.0
 40
57.0
1001
ACDBBLOCKREPETAG
1070
     1
1071
      416
1005
123A89
  0
ARC
  5
123A8A
  8
OBJECT
 10
4000.0
 20
-199.99999999999909
 30
0.0
 40
85.0
 50
46.837102859702419
 51
313.1628971402975
1001
ACDBBLOCKREPETAG
1070
     1
1071
      417
1005
123A8A
  0
POINT
  5
123A8B
  8
DOTS
 10
4000.0
 20
-199.99999999999909
 30
0.0
1001
ACDBBLOCKREPETAG
1070
     1
1071
      436
1005
123A8B
  0
ARC
  5
123A8C
  8
OBJECT
 10
4000.0
 20
-199.99999999999909
 30
0.0
 40
72.0
 50
61.877817547648696
 51
118.1221824523513
1001
ACDBBLOCKREPETAG
1070
     1
1071
      447
1005
123A8C
  0
LINE
  5
123A8D
  8
OBJECT
 10
3960.0907278943841
 20
-136.49999999999909
 30
0.0
 11
3966.0625575506938
 21
-136.49999999999909
 31
0.0
1001
ACDBBLOCKREPETAG
1070
     1
1071
      448
1005
123A8D
  0
LINE
  5
123A8E
  8
OBJECT
 10
4033.9374424493049
 20
-136.49999999999909
 30
0.0
 11
4039.9092721056159
 21
-136.49999999999909
 31
0.0
1001
ACDBBLOCKREPETAG
1070
     1
1071
      449
1005
123A8E
  0
LINE
  5
123A8F
  8
OBJECT
 10
4133.0
 20
-137.99999999999909
 30
0.0
 11
4140.0
 21
-137.99999999999909
 31
0.0
1001
ACDBBLOCKREPETAG
1070
     1
1071
       47
1005
123A8F
  0
LINE
  5
123A90
  8
OBJECT
 10
4140.0
 20
-137.99999999999909
 30
0.0
 11
4140.0
 21
-261.99999999999909
 31
0.0
1001
ACDBBLOCKREPETAG
1070
     1
1071
       48
1005
123A90
  0
LINE
  5
123A91
  8
OBJECT
 10
4140.0
 20
-261.99999999999909
 30
0.0
 11
4133.0
 21
-261.99999999999909
 31
0.0
1001
ACDBBLOCKREPETAG
1070
     1
1071
       49
1005
123A91
  0
LINE
  5
123A92
  8
OBJECT
 10
4133.0
 20
-261.99999999999909
 30
0.0
 11
4133.0
 21
-137.99999999999909
 31
0.0
1001
ACDBBLOCKREPETAG
1070
     1
1071
       50
1005
123A92
  0
LINE
  5
123A93
  8
CENTER
 10
4155.0
 20
-199.99999999999909
 30
0.0
 11
4080.0
 21
-199.99999999999909
 31
0.0
1001
ACDBBLOCKREPETAG
1070
     1
1071
       51
1005
123A93
  0
LINE
  5
123A94
  8
OBJECT
 10
4133.0
 20
-140.99999999999909
 30
0.0
 11
4097.0
 21
-140.99999999999909
 31
0.0
1001
ACDBBLOCKREPETAG
1070
     1
1071
       52
1005
123A94
  0
LINE
  5
123A95
  8
OBJECT
 10
4097.0
 20
-140.99999999999909
 30
0.0
 11
4097.0
 21
-258.99999999999909
 31
0.0
1001
ACDBBLOCKREPETAG
1070
     1
1071
       53
1005
123A95
  0
LINE
  5
123A96
  8
OBJECT
 10
4097.0
 20
-258.99999999999909
 30
0.0
 11
4133.0
 21
-258.99999999999909
 31
0.0
1001
ACDBBLOCKREPETAG
1070
     1
1071
       54
1005
123A96
  0
LINE
  5
123A97
  8
OBJECT
 10
4093.0
 20
-145.49999999999909
 30
0.0
 11
4086.0
 21
-145.49999999999909
 31
0.0
1001
ACDBBLOCKREPETAG
1070
     1
1071
       55
1005
123A97
  0
LINE
  5
123A98
  8
OBJECT
 10
4086.0
 20
-254.49999999999909
 30
0.0
 11
4093.0
 21
-254.49999999999909
 31
0.0
1001
ACDBBLOCKREPETAG
1070
     1
1071
       56
1005
123A98
  0
LINE
  5
123A99
  8
OBJECT
 10
4093.0
 20
-254.49999999999909
 30
0.0
 11
4093.0
 21
-145.49999999999909
 31
0.0
1001
ACDBBLOCKREPETAG
1070
     1
1071
       57
1005
123A99
  0
LINE
  5
123A9A
  8
OBJECT
 10
4097.0
 20
-140.99999999999909
 30
0.0
 11
4093.0
 21
-145.49999999999909
 31
0.0
1001
ACDBBLOCKREPETAG
1070
     1
1071
       58
1005
123A9A
  0
LINE
  5
123A9B
  8
OBJECT
 10
4097.0
 20
-258.99999999999909
 30
0.0
 11
4093.0
 21
-254.49999999999909
 31
0.0
1001
ACDBBLOCKREPETAG
1070
     1
1071
       59
1005
123A9B
  0
LINE
  5
123A9C
  8
OBJECT
 10
4083.0
 20
-137.99999999999909
 30
0.0
 11
4080.0
 21
-137.99999999999909
 31
0.0
1001
ACDBBLOCKREPETAG
1070
     1
1071
       60
1005
123A9C
  0
ARC
  5
123A9D
  8
OBJECT
 10
4083.0
 20
-140.99999999999909
 30
0.0
 40
3.0
 50
0.0
 51
90.0
1001
ACDBBLOCKREPETAG
1070
     1
1071
       61
1005
123A9D
  0
LINE
  5
123A9E
  8
OBJECT
 10
4080.0
 20
-261.99999999999909
 30
0.0
 11
4083.0
 21
-261.99999999999909
 31
0.0
1001
ACDBBLOCKREPETAG
1070
     1
1071
       62
1005
123A9E
  0
ARC
  5
123A9F
  8
OBJECT
 10
4083.0
 20
-258.99999999999909
 30
0.0
 40
3.0
 50
270.0
 51
0.0
1001
ACDBBLOCKREPETAG
1070
     1
1071
       63
1005
123A9F
  0
LINE
  5
123AA0
  8
OBJECT
 10
4086.0
 20
-258.99999999999909
 30
0.0
 11
4086.0
 21
-140.99999999999909
 31
0.0
1001
ACDBBLOCKREPETAG
1070
     1
1071
       64
1005
123AA0
  0
LINE
  5
123AA1
  8
HIDDEN
 10
4088.0
 20
-155.49999999999909
 30
0.0
 11
4088.0
 21
-244.49999999999909
 31
0.0
1001
ACDBBLOCKREPETAG
1070
     1
1071
       65
1005
123AA1
  0
ARC
  5
123AA2
  8
OBJECT
 10
5000.0
 20
-3194.9999999999959
 30
0.0
 40
80.0
 50
50.80496566140377
 51
309.19496742597107
1001
ACDBBLOCKREPETAG
1070
     1
1071
      348
1005
123AA2
  0
CIRCLE
  5
123AA3
  8
OBJECT
 10
5000.0
 20
-3194.9999999999959
 30
0.0
 40
75.0
1001
ACDBBLOCKREPETAG
1070
     1
1071
      349
1005
123AA3
  0
LINE
  5
123AA4
  8
OBJECT
 10
4963.6238040660282
 20
-3157.144718078272
 30
0.0
 11
5037.0841102714221
 21
-3169.5180316957408
 31
0.0
1001
ACDBBLOCKREPETAG
1070
     1
1071
      350
1005
123AA4
  0
LINE
  5
123AA5
  8
OBJECT
 10
5043.2694760507111
 20
-3165.2678214337188
 30
0.0
 11
5037.0841102714221
 21
-3169.5180316957408
 31
0.0
1001
ACDBBLOCKREPETAG
1070
     1
1071
      351
1005
123AA5
  0
CIRCLE
  5
123AA6
  8
OBJECT
 10
5000.0
 20
-3194.9999999999959
 30
0.0
 40
52.5
1001
ACDBBLOCKREPETAG
1070
     1
1071
      352
1005
123AA6
  0
ARC
  5
123AA7
  8
OBJECT
 10
5000.0
 20
-3194.9999999999959
 30
0.0
 40
50.0
 50
131.70180964353401
 51
168.52376955958539
1001
ACDBBLOCKREPETAG
1070
     1
1071
      353
1005
123AA7
  0
ARC
  5
123AA8
  8
OBJECT
 10
5000.0
 20
-3194.9999999999959
 30
0.0
 40
50.0
 50
238.8199429999039
 51
34.494506250118413
1001
ACDBBLOCKREPETAG
1070
     1
1071
      354
1005
123AA8
  0
LINE
  5
123AA9
  8
OBJECT
 10
5042.2018956920174
 20
-3132.9999999999959
 30
0.0
 11
5080.0
 21
-3132.9999999999959
 31
0.0
1001
ACDBBLOCKREPETAG
1070
     1
1071
      355
1005
123AA9
  0
LINE
  5
123AAA
  8
OBJECT
 10
5042.2018956920174
 20
-3256.9999999999959
 30
0.0
 11
5080.0
 21
-3256.9999999999959
 31
0.0
1001
ACDBBLOCKREPETAG
1070
     1
1071
      356
1005
123AAA
  0
LINE
  5
123AAB
  8
CENTER
 10
5080.0
 20
-3194.9999999999959
 30
0.0
 11
4905.0
 21
-3194.9999999999959
 31
0.0
1001
ACDBBLOCKREPETAG
1070
     1
1071
      364
1005
123AAB
  0
LINE
  5
123AAC
  8
CENTER
 10
5000.0
 20
-3289.9999999999959
 30
0.0
 11
5000.0
 21
-3099.9999999999959
 31
0.0
1001
ACDBBLOCKREPETAG
1070
     1
1071
      365
1005
123AAC
  0
LINE
  5
123AAD
  8
OBJECT
 10
4947.702309276614
 20
-3190.3954864533698
 30
0.0
 11
4970.4540343856352
 21
-3188.7986514643671
 31
0.0
1001
ACDBBLOCKREPETAG
1070
     1
1071
      368
1005
123AAD
  0
LINE
  5
123AAE
  8
OBJECT
 10
4948.416473471706
 20
-3185.233230272765
 30
0.0
 11
4966.9884352629006
 21
-3183.929752726599
 31
0.0
1001
ACDBBLOCKREPETAG
1070
     1
1071
      369
1005
123AAE
  0
LINE
  5
123AAF
  8
OBJECT
 10
4974.1135374752776
 20
-3237.7772259263688
 30
0.0
 11
4982.1366988374084
 21
-3229.1690987954671
 31
0.0
1001
ACDBBLOCKREPETAG
1070
     1
1071
      370
1005
123AAF
  0
ARC
  5
123AB0
  8
OBJECT
 10
4982.1160071245376
 20
-3178.2818896631802
 30
0.0
 40
60.031113246032611
 50
256.41744226771999
 51
262.33936106086571
1001
ACDBBLOCKREPETAG
1070
     1
1071
      371
1005
123AB0
  0
LINE
  5
123AB1
  8
OBJECT
 10
4977.6125997325144
 20
-3192.674952771496
 30
0.0
 11
4982.1366988374084
 21
-3229.1690987954671
 31
0.0
1001
ACDBBLOCKREPETAG
1070
     1
1071
      372
1005
123AB1
  0
ARC
  5
123AB2
  8
OBJECT
 10
4967.6885653456411
 20
-3193.9052135113161
 30
0.0
 40
10.0
 50
7.0667782930022831
 51
94.014734370533304
1001
ACDBBLOCKREPETAG
1070
     1
1071
      373
1005
123AB2
  0
ARC
  5
123AB3
  8
OBJECT
 10
4970.9441253709738
 20
-3195.7814740187532
 30
0.0
 40
7.0
 50
7.0667782930022831
 51
94.014733775014165
1001
ACDBBLOCKREPETAG
1070
     1
1071
      374
1005
123AB3
  0
CIRCLE
  5
123AB4
  8
OBJECT
 10
5000.0
 20
-3194.9999999999959
 30
0.0
 40
57.0
1001
ACDBBLOCKREPETAG
1070
     1
1071
      375
1005
123AB4
  0
POINT
  5
123AB5
  8
DOTS
 10
5000.0
 20
-3194.9999999999959
 30
0.0
1001
ACDBBLOCKREPETAG
1070
     1
1071
      434
1005
123AB5
  0
ARC
  5
123AB6
  8
OBJECT
 10
5000.0
 20
-3194.9999999999959
 30
0.0
 40
72.0
 50
61.877817547670901
 51
118.1221824523291
1001
ACDBBLOCKREPETAG
1070
     1
1071
      441
1005
123AB6
  0
LINE
  5
123AB7
  8
OBJECT
 10
4960.0907278943851
 20
-3131.4999999999959
 30
0.0
 11
4966.062557550692
 21
-3131.4999999999959
 31
0.0
1001
ACDBBLOCKREPETAG
1070
     1
1071
      442
1005
123AB7
  0
LINE
  5
123AB8
  8
OBJECT
 10
5033.9374424493071
 20
-3131.4999999999959
 30
0.0
 11
5039.9092721056149
 21
-3131.4999999999959
 31
0.0
1001
ACDBBLOCKREPETAG
1070
     1
1071
      443
1005
123AB8
  0
ARC
  5
123AB9
  8
OBJECT
 10
4000.0
 20
-3194.9999999999959
 30
0.0
 40
80.0
 50
50.80496566140377
 51
309.19496742597107
1001
ACDBBLOCKREPETAG
1070
     1
1071
      348
1005
123AB9
  0
CIRCLE
  5
123ABA
  8
OBJECT
 10
4000.0
 20
-3194.9999999999959
 30
0.0
 40
75.0
1001
ACDBBLOCKREPETAG
1070
     1
1071
      349
1005
123ABA
  0
LINE
  5
123ABB
  8
OBJECT
 10
3963.6238040660278
 20
-3157.144718078272
 30
0.0
 11
4037.0841102714221
 21
-3169.5180316957408
 31
0.0
1001
ACDBBLOCKREPETAG
1070
     1
1071
      350
1005
123ABB
  0
LINE
  5
123ABC
  8
OBJECT
 10
4043.2694760507111
 20
-3165.2678214337188
 30
0.0
 11
4037.0841102714221
 21
-3169.5180316957408
 31
0.0
1001
ACDBBLOCKREPETAG
1070
     1
1071
      351
1005
123ABC
  0
CIRCLE
  5
123ABD
  8
OBJECT
 10
4000.0
 20
-3194.9999999999959
 30
0.0
 40
52.5
1001
ACDBBLOCKREPETAG
1070
     1
1071
      352
1005
123ABD
  0
ARC
  5
123ABE
  8
OBJECT
 10
4000.0
 20
-3194.9999999999959
 30
0.0
 40
50.0
 50
131.7018096435535
 51
168.52376955959059
1001
ACDBBLOCKREPETAG
1070
     1
1071
      353
1005
123ABE
  0
ARC
  5
123ABF
  8
OBJECT
 10
4000.0
 20
-3194.9999999999959
 30
0.0
 40
50.0
 50
238.8199429999039
 51
34.494506250118413
1001
ACDBBLOCKREPETAG
1070
     1
1071
      354
1005
123ABF
  0
LINE
  5
123AC0
  8
OBJECT
 10
4042.2018956920169
 20
-3132.9999999999959
 30
0.0
 11
4080.0
 21
-3132.9999999999959
 31
0.0
1001
ACDBBLOCKREPETAG
1070
     1
1071
      355
1005
123AC0
  0
LINE
  5
123AC1
  8
OBJECT
 10
4042.2018956920169
 20
-3256.9999999999959
 30
0.0
 11
4080.0
 21
-3256.9999999999959
 31
0.0
1001
ACDBBLOCKREPETAG
1070
     1
1071
      356
1005
123AC1
  0
LINE
  5
123AC2
  8
CENTER
 10
4080.0
 20
-3194.9999999999959
 30
0.0
 11
3905.0
 21
-3194.9999999999959
 31
0.0
1001
ACDBBLOCKREPETAG
1070
     1
1071
      364
1005
123AC2
  0
LINE
  5
123AC3
  8
CENTER
 10
4000.0
 20
-3289.9999999999959
 30
0.0
 11
4000.0
 21
-3099.9999999999959
 31
0.0
1001
ACDBBLOCKREPETAG
1070
     1
1071
      365
1005
123AC3
  0
LINE
  5
123AC4
  8
OBJECT
 10
3947.702309276614
 20
-3190.3954864533698
 30
0.0
 11
3970.4540343856352
 21
-3188.7986514643671
 31
0.0
1001
ACDBBLOCKREPETAG
1070
     1
1071
      368
1005
123AC4
  0
LINE
  5
123AC5
  8
OBJECT
 10
3948.416473471706
 20
-3185.233230272765
 30
0.0
 11
3966.9884352629019
 21
-3183.929752726599
 31
0.0
1001
ACDBBLOCKREPETAG
1070
     1
1071
      369
1005
123AC5
  0
LINE
  5
123AC6
  8
OBJECT
 10
3974.113537475278
 20
-3237.7772259263688
 30
0.0
 11
3982.1366988374079
 21
-3229.1690987954671
 31
0.0
1001
ACDBBLOCKREPETAG
1070
     1
1071
      370
1005
123AC6
  0
ARC
  5
123AC7
  8
OBJECT
 10
3982.1160071245399
 20
-3178.2818896631802
 30
0.0
 40
60.031113246032611
 50
256.41744226774529
 51
262.33936106086571
1001
ACDBBLOCKREPETAG
1070
     1
1071
      371
1005
123AC7
  0
LINE
  5
123AC8
  8
OBJECT
 10
3977.6125997325148
 20
-3192.674952771496
 30
0.0
 11
3982.1366988374079
 21
-3229.1690987954671
 31
0.0
1001
ACDBBLOCKREPETAG
1070
     1
1071
      372
1005
123AC8
  0
ARC
  5
123AC9
  8
OBJECT
 10
3967.6885653456411
 20
-3193.9052135113161
 30
0.0
 40
10.0
 50
7.0667782930054903
 51
94.014734370533304
1001
ACDBBLOCKREPETAG
1070
     1
1071
      373
1005
123AC9
  0
ARC
  5
123ACA
  8
OBJECT
 10
3970.9441253709729
 20
-3195.7814740187532
 30
0.0
 40
7.0
 50
7.0667782930054903
 51
94.014733775014165
1001
ACDBBLOCKREPETAG
1070
     1
1071
      374
1005
123ACA
  0
CIRCLE
  5
123ACB
  8
OBJECT
 10
4000.0
 20
-3194.9999999999959
 30
0.0
 40
57.0
1001
ACDBBLOCKREPETAG
1070
     1
1071
      375
1005
123ACB
  0
POINT
  5
123ACC
  8
DOTS
 10
4000.0
 20
-3194.9999999999959
 30
0.0
1001
ACDBBLOCKREPETAG
1070
     1
1071
      434
1005
123ACC
  0
ARC
  5
123ACD
  8
OBJECT
 10
4000.0
 20
-3194.9999999999959
 30
0.0
 40
72.0
 50
61.877817547647943
 51
118.12218245235211
1001
ACDBBLOCKREPETAG
1070
     1
1071
      441
1005
123ACD
  0
LINE
  5
123ACE
  8
OBJECT
 10
3960.0907278943841
 20
-3131.4999999999959
 30
0.0
 11
3966.0625575506938
 21
-3131.4999999999959
 31
0.0
1001
ACDBBLOCKREPETAG
1070
     1
1071
      442
1005
123ACE
  0
LINE
  5
123ACF
  8
OBJECT
 10
4033.9374424493049
 20
-3131.4999999999959
 30
0.0
 11
4039.9092721056159
 21
-3131.4999999999959
 31
0.0
1001
ACDBBLOCKREPETAG
1070
     1
1071
      443
1005
123ACF
  0
ARC
  5
123AD0
  8
OBJECT
 10
3000.0
 20
-3194.9999999999959
 30
0.0
 40
80.0
 50
50.80496566140377
 51
309.19496742597107
1001
ACDBBLOCKREPETAG
1070
     1
1071
      348
1005
123AD0
  0
CIRCLE
  5
123AD1
  8
OBJECT
 10
3000.0
 20
-3194.9999999999959
 30
0.0
 40
75.0
1001
ACDBBLOCKREPETAG
1070
     1
1071
      349
1005
123AD1
  0
LINE
  5
123AD2
  8
OBJECT
 10
2963.6238040660278
 20
-3157.144718078272
 30
0.0
 11
3037.0841102714221
 21
-3169.5180316957408
 31
0.0
1001
ACDBBLOCKREPETAG
1070
     1
1071
      350
1005
123AD2
  0
LINE
  5
123AD3
  8
OBJECT
 10
3043.2694760507111
 20
-3165.2678214337188
 30
0.0
 11
3037.0841102714221
 21
-3169.5180316957408
 31
0.0
1001
ACDBBLOCKREPETAG
1070
     1
1071
      351
1005
123AD3
  0
CIRCLE
  5
123AD4
  8
OBJECT
 10
3000.0
 20
-3194.9999999999959
 30
0.0
 40
52.5
1001
ACDBBLOCKREPETAG
1070
     1
1071
      352
1005
123AD4
  0
ARC
  5
123AD5
  8
OBJECT
 10
3000.0
 20
-3194.9999999999959
 30
0.0
 40
50.0
 50
131.7018096435535
 51
168.52376955959059
1001
ACDBBLOCKREPETAG
1070
     1
1071
      353
1005
123AD5
  0
ARC
  5
123AD6
  8
OBJECT
 10
3000.0
 20
-3194.9999999999959
 30
0.0
 40
50.0
 50
238.8199429999039
 51
34.494506250118413
1001
ACDBBLOCKREPETAG
1070
     1
1071
      354
1005
123AD6
  0
LINE
  5
123AD7
  8
OBJECT
 10
3042.2018956920201
 20
-3132.9999999999959
 30
0.0
 11
3080.0
 21
-3132.9999999999959
 31
0.0
1001
ACDBBLOCKREPETAG
1070
     1
1071
      355
1005
123AD7
  0
LINE
  5
123AD8
  8
OBJECT
 10
3042.2018956920201
 20
-3256.9999999999959
 30
0.0
 11
3080.0
 21
-3256.9999999999959
 31
0.0
1001
ACDBBLOCKREPETAG
1070
     1
1071
      356
1005
123AD8
  0
LINE
  5
123AD9
  8
CENTER
 10
3080.0
 20
-3194.9999999999959
 30
0.0
 11
2905.0
 21
-3194.9999999999959
 31
0.0
1001
ACDBBLOCKREPETAG
1070
     1
1071
      364
1005
123AD9
  0
LINE
  5
123ADA
  8
CENTER
 10
3000.0
 20
-3289.9999999999959
 30
0.0
 11
3000.0
 21
-3099.9999999999959
 31
0.0
1001
ACDBBLOCKREPETAG
1070
     1
1071
      365
1005
123ADA
  0
LINE
  5
123ADB
  8
OBJECT
 10
2947.702309276614
 20
-3190.3954864533698
 30
0.0
 11
2970.4540343856352
 21
-3188.7986514643671
 31
0.0
1001
ACDBBLOCKREPETAG
1070
     1
1071
      368
1005
123ADB
  0
LINE
  5
123ADC
  8
OBJECT
 10
2948.416473471706
 20
-3185.233230272765
 30
0.0
 11
2966.9884352629019
 21
-3183.929752726599
 31
0.0
1001
ACDBBLOCKREPETAG
1070
     1
1071
      369
1005
123ADC
  0
LINE
  5
123ADD
  8
OBJECT
 10
2974.1135374752771
 20
-3237.7772259263688
 30
0.0
 11
2982.136698837407
 21
-3229.1690987954671
 31
0.0
1001
ACDBBLOCKREPETAG
1070
     1
1071
      370
1005
123ADD
  0
ARC
  5
123ADE
  8
OBJECT
 10
2982.1160071245399
 20
-3178.2818896631802
 30
0.0
 40
60.031113246032611
 50
256.41744226774529
 51
262.33936106086571
1001
ACDBBLOCKREPETAG
1070
     1
1071
      371
1005
123ADE
  0
LINE
  5
123ADF
  8
OBJECT
 10
2977.6125997325148
 20
-3192.674952771496
 30
0.0
 11
2982.136698837407
 21
-3229.1690987954671
 31
0.0
1001
ACDBBLOCKREPETAG
1070
     1
1071
      372
1005
123ADF
  0
ARC
  5
123AE0
  8
OBJECT
 10
2967.6885653456411
 20
-3193.9052135113161
 30
0.0
 40
10.0
 50
7.0667782930054903
 51
94.014734370533304
1001
ACDBBLOCKREPETAG
1070
     1
1071
      373
1005
123AE0
  0
ARC
  5
123AE1
  8
OBJECT
 10
2970.9441253709729
 20
-3195.7814740187532
 30
0.0
 40
7.0
 50
7.0667782930054903
 51
94.014733775014165
1001
ACDBBLOCKREPETAG
1070
     1
1071
      374
1005
123AE1
  0
CIRCLE
  5
123AE2
  8
OBJECT
 10
3000.0
 20
-3194.9999999999959
 30
0.0
 40
57.0
1001
ACDBBLOCKREPETAG
1070
     1
1071
      375
1005
123AE2
  0
POINT
  5
123AE3
  8
DOTS
 10
3000.0
 20
-3194.9999999999959
 30
0.0
1001
ACDBBLOCKREPETAG
1070
     1
1071
      434
1005
123AE3
  0
ARC
  5
123AE4
  8
OBJECT
 10
3000.0
 20
-3194.9999999999959
 30
0.0
 40
72.0
 50
61.877817547647943
 51
118.12218245235211
1001
ACDBBLOCKREPETAG
1070
     1
1071
      441
1005
123AE4
  0
LINE
  5
123AE5
  8
OBJECT
 10
2960.0907278943851
 20
-3131.4999999999959
 30
0.0
 11
2966.0625575506938
 21
-3131.4999999999959
 31
0.0
1001
ACDBBLOCKREPETAG
1070
     1
1071
      442
1005
123AE5
  0
LINE
  5
123AE6
  8
OBJECT
 10
3033.9374424493071
 20
-3131.4999999999959
 30
0.0
 11
3039.9092721056159
 21
-3131.4999999999959
 31
0.0
1001
ACDBBLOCKREPETAG
1070
     1
1071
      443
1005
123AE6
  0
ARC
  5
123AE7
  8
OBJECT
 10
2000.0
 20
-3194.9999999999959
 30
0.0
 40
80.0
 50
50.80496566140377
 51
309.19496742598119
1001
ACDBBLOCKREPETAG
1070
     1
1071
      348
1005
123AE7
  0
CIRCLE
  5
123AE8
  8
OBJECT
 10
2000.0
 20
-3194.9999999999959
 30
0.0
 40
75.0
1001
ACDBBLOCKREPETAG
1070
     1
1071
      349
1005
123AE8
  0
LINE
  5
123AE9
  8
OBJECT
 10
1963.6238040660271
 20
-3157.144718078272
 30
0.0
 11
2037.0841102714221
 21
-3169.5180316957408
 31
0.0
1001
ACDBBLOCKREPETAG
1070
     1
1071
      350
1005
123AE9
  0
LINE
  5
123AEA
  8
OBJECT
 10
2043.269476050712
 20
-3165.2678214337188
 30
0.0
 11
2037.0841102714221
 21
-3169.5180316957408
 31
0.0
1001
ACDBBLOCKREPETAG
1070
     1
1071
      351
1005
123AEA
  0
CIRCLE
  5
123AEB
  8
OBJECT
 10
2000.0
 20
-3194.9999999999959
 30
0.0
 40
52.5
1001
ACDBBLOCKREPETAG
1070
     1
1071
      352
1005
123AEB
  0
ARC
  5
123AEC
  8
OBJECT
 10
2000.0
 20
-3194.9999999999959
 30
0.0
 40
50.0
 50
131.7018096435535
 51
168.523769559588
1001
ACDBBLOCKREPETAG
1070
     1
1071
      353
1005
123AEC
  0
ARC
  5
123AED
  8
OBJECT
 10
2000.0
 20
-3194.9999999999959
 30
0.0
 40
50.0
 50
238.8199429999039
 51
34.494506250118413
1001
ACDBBLOCKREPETAG
1070
     1
1071
      354
1005
123AED
  0
LINE
  5
123AEE
  8
OBJECT
 10
2042.2018956920181
 20
-3132.9999999999959
 30
0.0
 11
2080.0
 21
-3132.9999999999959
 31
0.0
1001
ACDBBLOCKREPETAG
1070
     1
1071
      355
1005
123AEE
  0
LINE
  5
123AEF
  8
OBJECT
 10
2042.2018956920181
 20
-3256.9999999999959
 30
0.0
 11
2080.0
 21
-3256.9999999999959
 31
0.0
1001
ACDBBLOCKREPETAG
1070
     1
1071
      356
1005
123AEF
  0
LINE
  5
123AF0
  8
CENTER
 10
2080.0
 20
-3194.9999999999959
 30
0.0
 11
1905.0
 21
-3194.9999999999959
 31
0.0
1001
ACDBBLOCKREPETAG
1070
     1
1071
      364
1005
123AF0
  0
LINE
  5
123AF1
  8
CENTER
 10
2000.0
 20
-3289.9999999999959
 30
0.0
 11
2000.0
 21
-3099.9999999999959
 31
0.0
1001
ACDBBLOCKREPETAG
1070
     1
1071
      365
1005
123AF1
  0
LINE
  5
123AF2
  8
OBJECT
 10
1947.702309276614
 20
-3190.3954864533698
 30
0.0
 11
1970.4540343856349
 21
-3188.7986514643671
 31
0.0
1001
ACDBBLOCKREPETAG
1070
     1
1071
      368
1005
123AF2
  0
LINE
  5
123AF3
  8
OBJECT
 10
1948.416473471706
 20
-3185.233230272765
 30
0.0
 11
1966.988435262901
 21
-3183.929752726599
 31
0.0
1001
ACDBBLOCKREPETAG
1070
     1
1071
      369
1005
123AF3
  0
LINE
  5
123AF4
  8
OBJECT
 10
1974.1135374752771
 20
-3237.7772259263688
 30
0.0
 11
1982.136698837405
 21
-3229.1690987954671
 31
0.0
1001
ACDBBLOCKREPETAG
1070
     1
1071
      370
1005
123AF4
  0
ARC
  5
123AF5
  8
OBJECT
 10
1982.1160071245381
 20
-3178.2818896631802
 30
0.0
 40
60.031113246032611
 50
256.41744226774529
 51
262.33936106086571
1001
ACDBBLOCKREPETAG
1070
     1
1071
      371
1005
123AF5
  0
LINE
  5
123AF6
  8
OBJECT
 10
1977.612599732513
 20
-3192.674952771496
 30
0.0
 11
1982.136698837405
 21
-3229.1690987954671
 31
0.0
1001
ACDBBLOCKREPETAG
1070
     1
1071
      372
1005
123AF6
  0
ARC
  5
123AF7
  8
OBJECT
 10
1967.6885653456411
 20
-3193.9052135113161
 30
0.0
 40
10.0
 50
7.0667782930054903
 51
94.014734370533304
1001
ACDBBLOCKREPETAG
1070
     1
1071
      373
1005
123AF7
  0
ARC
  5
123AF8
  8
OBJECT
 10
1970.944125370974
 20
-3195.7814740187532
 30
0.0
 40
7.0
 50
7.0667782930054903
 51
94.014733775014165
1001
ACDBBLOCKREPETAG
1070
     1
1071
      374
1005
123AF8
  0
CIRCLE
  5
123AF9
  8
OBJECT
 10
2000.0
 20
-3194.9999999999959
 30
0.0
 40
57.0
1001
ACDBBLOCKREPETAG
1070
     1
1071
      375
1005
123AF9
  0
POINT
  5
123AFA
  8
DOTS
 10
2000.0
 20
-3194.9999999999959
 30
0.0
1001
ACDBBLOCKREPETAG
1070
     1
1071
      434
1005
123AFA
  0
ARC
  5
123AFB
  8
OBJECT
 10
2000.0
 20
-3194.9999999999959
 30
0.0
 40
72.0
 50
61.877817547647943
 51
118.12218245235211
1001
ACDBBLOCKREPETAG
1070
     1
1071
      441
1005
123AFB
  0
LINE
  5
123AFC
  8
OBJECT
 10
1960.0907278943851
 20
-3131.4999999999959
 30
0.0
 11
1966.062557550692
 21
-3131.4999999999959
 31
0.0
1001
ACDBBLOCKREPETAG
1070
     1
1071
      442
1005
123AFC
  0
LINE
  5
123AFD
  8
OBJECT
 10
2033.9374424493069
 20
-3131.4999999999959
 30
0.0
 11
2039.9092721056149
 21
-3131.4999999999959
 31
0.0
1001
ACDBBLOCKREPETAG
1070
     1
1071
      443
1005
123AFD
  0
LINE
  5
123AFE
  8
SLIM
 10
4414.9999999999918
 20
-659.47385309434696
 30
0.0
 11
4429.4738530943396
 21
-644.99999999999955
 31
0.0
1001
GRADIENTCOLOR1ACI
1070
     5
1001
GRADIENTCOLOR2ACI
1070
     2
1001
ACAD
1010
0.0
1020
0.0
1030
0.0
  0
LINE
  5
123AFF
  8
SLIM
 10
4414.9999999999927
 20
-677.43436533648446
 30
0.0
 11
4447.4343653364767
 21
-644.99999999999955
 31
0.0
1001
GRADIENTCOLOR1ACI
1070
     5
1001
GRADIENTCOLOR2ACI
1070
     2
1001
ACAD
1010
0.0
1020
0.0
1030
0.0
  0
LINE
  5
123B00
  8
SLIM
 10
4414.9999999999927
 20
-695.39487757862241
 30
0.0
 11
4465.3948775786148
 21
-644.99999999999955
 31
0.0
1001
GRADIENTCOLOR1ACI
1070
     5
1001
GRADIENTCOLOR2ACI
1070
     2
1001
ACAD
1010
0.0
1020
0.0
1030
0.0
  0
LINE
  5
123B01
  8
SLIM
 10
4414.9999999999927
 20
-713.35538982076014
 30
0.0
 11
4483.3553898207538
 21
-644.99999999999955
 31
0.0
1001
GRADIENTCOLOR1ACI
1070
     5
1001
GRADIENTCOLOR2ACI
1070
     2
1001
ACAD
1010
0.0
1020
0.0
1030
0.0
  0
LINE
  5
123B02
  8
SLIM
 10
4414.9999999999955
 20
-731.31590206289775
 30
0.0
 11
4501.3159020628937
 21
-644.99999999999955
 31
0.0
1001
GRADIENTCOLOR1ACI
1070
     5
1001
GRADIENTCOLOR2ACI
1070
     2
1001
ACAD
1010
0.0
1020
0.0
1030
0.0
  0
LINE
  5
123B03
  8
SLIM
 10
4414.9999999999955
 20
-749.27641430503525
 30
0.0
 11
4519.2764143050308
 21
-644.99999999999955
 31
0.0
1001
GRADIENTCOLOR1ACI
1070
     5
1001
GRADIENTCOLOR2ACI
1070
     2
1001
ACAD
1010
0.0
1020
0.0
1030
0.0
  0
LINE
  5
123B04
  8
SLIM
 10
4414.9999999999973
 20
-767.23692654717331
 30
0.0
 11
4537.236926547168
 21
-644.99999999999955
 31
0.0
1001
GRADIENTCOLOR1ACI
1070
     5
1001
GRADIENTCOLOR2ACI
1070
     2
1001
ACAD
1010
0.0
1020
0.0
1030
0.0
  0
LINE
  5
123B05
  8
SLIM
 10
4414.9999999999973
 20
-785.19743878931081
 30
0.0
 11
4555.1974387893088
 21
-644.99999999999955
 31
0.0
1001
GRADIENTCOLOR1ACI
1070
     5
1001
GRADIENTCOLOR2ACI
1070
     2
1001
ACAD
1010
0.0
1020
0.0
1030
0.0
  0
LINE
  5
123B06
  8
SLIM
 10
4414.9999999999973
 20
-803.15795103144865
 30
0.0
 11
4573.1579510314459
 21
-644.99999999999955
 31
0.0
1001
GRADIENTCOLOR1ACI
1070
     5
1001
GRADIENTCOLOR2ACI
1070
     2
1001
ACAD
1010
0.0
1020
0.0
1030
0.0
  0
LINE
  5
123B07
  8
SLIM
 10
4414.9999999999991
 20
-821.11846327358626
 30
0.0
 11
4585.0000000000073
 21
-651.11846327357694
 31
0.0
1001
GRADIENTCOLOR1ACI
1070
     5
1001
GRADIENTCOLOR2ACI
1070
     2
1001
ACAD
1010
0.0
1020
0.0
1030
0.0
  0
LINE
  5
123B08
  8
SLIM
 10
4414.9999999999991
 20
-839.07897551572387
 30
0.0
 11
4585.0000000000073
 21
-669.07897551571614
 31
0.0
1001
GRADIENTCOLOR1ACI
1070
     5
1001
GRADIENTCOLOR2ACI
1070
     2
1001
ACAD
1010
0.0
1020
0.0
1030
0.0
  0
LINE
  5
123B09
  8
SLIM
 10
4414.9999999999991
 20
-857.03948775786182
 30
0.0
 11
4585.0000000000073
 21
-687.039487757855
 31
0.0
1001
GRADIENTCOLOR1ACI
1070
     5
1001
GRADIENTCOLOR2ACI
1070
     2
1001
ACAD
1010
0.0
1020
0.0
1030
0.0
  0
LINE
  5
123B0A
  8
SLIM
 10
4415.283600749558
 20
-874.71639925044155
 30
0.0
 11
4585.0000000000073
 21
-704.99999999999375
 31
0.0
1001
GRADIENTCOLOR1ACI
1070
     5
1001
GRADIENTCOLOR2ACI
1070
     2
1001
ACAD
1010
0.0
1020
0.0
1030
0.0
  0
LINE
  5
123B0B
  8
SLIM
 10
4417.4979104780414
 20
-890.46260176409692
 30
0.0
 11
4585.0000000000073
 21
-722.96051224213272
 31
0.0
1001
GRADIENTCOLOR1ACI
1070
     5
1001
GRADIENTCOLOR2ACI
1070
     2
1001
ACAD
1010
0.0
1020
0.0
1030
0.0
  0
LINE
  5
123B0C
  8
SLIM
 10
4419.712220206522
 20
-906.20880427775205
 30
0.0
 11
4585.0000000000036
 21
-740.92102448427181
 31
0.0
1001
GRADIENTCOLOR1ACI
1070
     5
1001
GRADIENTCOLOR2ACI
1070
     2
1001
ACAD
1010
0.0
1020
0.0
1030
0.0
  0
LINE
  5
123B0D
  8
SLIM
 10
4421.9265299350063
 20
-921.95500679140719
 30
0.0
 11
4585.0000000000009
 21
-758.88153672641045
 31
0.0
1001
GRADIENTCOLOR1ACI
1070
     5
1001
GRADIENTCOLOR2ACI
1070
     2
1001
ACAD
1010
0.0
1020
0.0
1030
0.0
  0
LINE
  5
123B0E
  8
SLIM
 10
4424.1408396634888
 20
-937.70120930506255
 30
0.0
 11
4585.0000000000009
 21
-776.84204896854953
 31
0.0
1001
GRADIENTCOLOR1ACI
1070
     5
1001
GRADIENTCOLOR2ACI
1070
     2
1001
ACAD
1010
0.0
1020
0.0
1030
0.0
  0
LINE
  5
123B0F
  8
SLIM
 10
4426.3551493919731
 20
-953.4474118187178
 30
0.0
 11
4585.0000000000009
 21
-794.80256121068851
 31
0.0
1001
GRADIENTCOLOR1ACI
1070
     5
1001
GRADIENTCOLOR2ACI
1070
     2
1001
ACAD
1010
0.0
1020
0.0
1030
0.0
  0
LINE
  5
123B10
  8
SLIM
 10
4428.5694591204547
 20
-969.19361433237304
 30
0.0
 11
4585.0
 21
-812.76307345282714
 31
0.0
1001
GRADIENTCOLOR1ACI
1070
     5
1001
GRADIENTCOLOR2ACI
1070
     2
1001
ACAD
1010
0.0
1020
0.0
1030
0.0
  0
LINE
  5
123B11
  8
SLIM
 10
4430.783768848939
 20
-984.93981684602841
 30
0.0
 11
4585.0
 21
-830.72358569496612
 31
0.0
1001
GRADIENTCOLOR1ACI
1070
     5
1001
GRADIENTCOLOR2ACI
1070
     2
1001
ACAD
1010
0.0
1020
0.0
1030
0.0
  0
LINE
  5
123B12
  8
SLIM
 10
4438.6840979371082
 20
-994.99999999999761
 30
0.0
 11
4585.0
 21
-848.68409793710521
 31
0.0
1001
GRADIENTCOLOR1ACI
1070
     5
1001
GRADIENTCOLOR2ACI
1070
     2
1001
ACAD
1010
0.0
1020
0.0
1030
0.0
  0
LINE
  5
123B13
  8
SLIM
 10
4443.0
 20
-1008.644610179244
 30
0.0
 11
4456.6446101792462
 21
-994.99999999999761
 31
0.0
1001
GRADIENTCOLOR1ACI
1070
     5
1001
GRADIENTCOLOR2ACI
1070
     2
1001
ACAD
1010
0.0
1020
0.0
1030
0.0
  0
LINE
  5
123B14
  8
SLIM
 10
4456.6446101792462
 20
-994.99999999999761
 30
0.0
 11
4585.0
 21
-866.64461017924395
 31
0.0
1001
GRADIENTCOLOR1ACI
1070
     5
1001
GRADIENTCOLOR2ACI
1070
     2
1001
ACAD
1010
0.0
1020
0.0
1030
0.0
  0
LINE
  5
123B15
  8
SLIM
 10
4444.6051224213852
 20
-1024.999999999997
 30
0.0
 11
4474.6051224213852
 21
-994.99999999999761
 31
0.0
1001
GRADIENTCOLOR1ACI
1070
     5
1001
GRADIENTCOLOR2ACI
1070
     2
1001
ACAD
1010
0.0
1020
0.0
1030
0.0
  0
LINE
  5
123B16
  8
SLIM
 10
4474.6051224213852
 20
-994.99999999999761
 30
0.0
 11
4583.0518371543658
 21
-886.55328526701703
 31
0.0
1001
GRADIENTCOLOR1ACI
1070
     5
1001
GRADIENTCOLOR2ACI
1070
     2
1001
ACAD
1010
0.0
1020
0.0
1030
0.0
  0
LINE
  5
123B17
  8
SLIM
 10
4462.5656346635233
 20
-1024.999999999997
 30
0.0
 11
4492.5656346635233
 21
-994.99999999999761
 31
0.0
1001
GRADIENTCOLOR1ACI
1070
     5
1001
GRADIENTCOLOR2ACI
1070
     2
1001
ACAD
1010
0.0
1020
0.0
1030
0.0
  0
LINE
  5
123B18
  8
SLIM
 10
4492.5656346635233
 20
-994.99999999999761
 30
0.0
 11
4580.1128442420149
 21
-907.45279042150526
 31
0.0
1001
GRADIENTCOLOR1ACI
1070
     5
1001
GRADIENTCOLOR2ACI
1070
     2
1001
ACAD
1010
0.0
1020
0.0
1030
0.0
  0
LINE
  5
123B19
  8
SLIM
 10
4480.5261469056622
 20
-1024.999999999997
 30
0.0
 11
4510.5261469056613
 21
-994.99999999999761
 31
0.0
1001
GRADIENTCOLOR1ACI
1070
     5
1001
GRADIENTCOLOR2ACI
1070
     2
1001
ACAD
1010
0.0
1020
0.0
1030
0.0
  0
LINE
  5
123B1A
  8
SLIM
 10
4510.5261469056613
 20
-994.99999999999761
 30
0.0
 11
4577.1738513296659
 21
-928.35229557599314
 31
0.0
1001
GRADIENTCOLOR1ACI
1070
     5
1001
GRADIENTCOLOR2ACI
1070
     2
1001
ACAD
1010
0.0
1020
0.0
1030
0.0
  0
LINE
  5
123B1B
  8
SLIM
 10
4498.4866591478003
 20
-1024.999999999997
 30
0.0
 11
4528.4866591478012
 21
-994.99999999999761
 31
0.0
1001
GRADIENTCOLOR1ACI
1070
     5
1001
GRADIENTCOLOR2ACI
1070
     2
1001
ACAD
1010
0.0
1020
0.0
1030
0.0
  0
LINE
  5
123B1C
  8
SLIM
 10
4528.4866591478012
 20
-994.99999999999761
 30
0.0
 11
4574.2348584173151
 21
-949.25180073048125
 31
0.0
1001
GRADIENTCOLOR1ACI
1070
     5
1001
GRADIENTCOLOR2ACI
1070
     2
1001
ACAD
1010
0.0
1020
0.0
1030
0.0
  0
LINE
  5
123B1D
  8
SLIM
 10
4516.4471713899366
 20
-1024.999999999997
 30
0.0
 11
4546.4471713899384
 21
-994.99999999999761
 31
0.0
1001
GRADIENTCOLOR1ACI
1070
     5
1001
GRADIENTCOLOR2ACI
1070
     2
1001
ACAD
1010
0.0
1020
0.0
1030
0.0
  0
LINE
  5
123B1E
  8
SLIM
 10
4546.4471713899384
 20
-994.99999999999761
 30
0.0
 11
4571.295865504967
 21
-970.15130588496913
 31
0.0
1001
GRADIENTCOLOR1ACI
1070
     5
1001
GRADIENTCOLOR2ACI
1070
     2
1001
ACAD
1010
0.0
1020
0.0
1030
0.0
  0
LINE
  5
123B1F
  8
SLIM
 10
4534.4076836320774
 20
-1024.999999999997
 30
0.0
 11
4557.0
 21
-1002.4076836320741
 31
0.0
1001
GRADIENTCOLOR1ACI
1070
     5
1001
GRADIENTCOLOR2ACI
1070
     2
1001
ACAD
1010
0.0
1020
0.0
1030
0.0
  0
LINE
  5
123B20
  8
SLIM
 10
4564.4076836320774
 20
-994.99999999999761
 30
0.0
 11
4568.356872592617
 21
-991.05081103945713
 31
0.0
1001
GRADIENTCOLOR1ACI
1070
     5
1001
GRADIENTCOLOR2ACI
1070
     2
1001
ACAD
1010
0.0
1020
0.0
1030
0.0
  0
LINE
  5
123B21
  8
SLIM
 10
4552.3681958742154
 20
-1024.999999999997
 30
0.0
 11
4557.0
 21
-1020.368195874212
 31
0.0
1001
GRADIENTCOLOR1ACI
1070
     5
1001
GRADIENTCOLOR2ACI
1070
     2
1001
ACAD
1010
0.0
1020
0.0
1030
0.0
  0
LINE
  5
123B22
  8
OBJECT
 10
4443.0
 20
-1024.999999999997
 30
0.0
 11
4557.0
 21
-1024.999999999997
 31
0.0
1001
ACDBBLOCKREPETAG
1070
     1
1071
        1
1005
123B22
  0
LINE
  5
123B23
  8
OBJECT
 10
4432.1984821049682
 20
-994.99999999999761
 30
0.0
 11
4567.80151789504
 21
-994.99999999999761
 31
0.0
1001
ACDBBLOCKREPETAG
1070
     1
1071
        2
1005
123B23
  0
LINE
  5
123B24
  8
OBJECT
 10
4443.0
 20
-1024.999999999997
 30
0.0
 11
4443.0
 21
-999.99999999999761
 31
0.0
1001
ACDBBLOCKREPETAG
1070
     1
1071
        3
1005
123B24
  0
LINE
  5
123B25
  8
OBJECT
 10
4414.9999999999918
 20
-644.99999999999955
 30
0.0
 11
4415.0
 21
-872.69968280914077
 31
0.0
1001
ACDBBLOCKREPETAG
1070
     1
1071
        4
1005
123B25
  0
LINE
  5
123B26
  8
OBJECT
 10
4585.0000000000073
 20
-644.99999999999955
 30
0.0
 11
4585.0
 21
-872.69968280917192
 31
0.0
1001
ACDBBLOCKREPETAG
1070
     1
1071
        5
1005
123B26
  0
LINE
  5
123B27
  8
OBJECT
 10
4415.0
 20
-872.69968280914077
 30
0.0
 11
4432.1984821049682
 21
-994.99999999999761
 31
0.0
1001
ACDBBLOCKREPETAG
1070
     1
1071
        6
1005
123B27
  0
LINE
  5
123B28
  8
OBJECT
 10
4567.80151789504
 20
-994.99999999999761
 30
0.0
 11
4585.0
 21
-872.69968280917192
 31
0.0
1001
ACDBBLOCKREPETAG
1070
     1
1071
        7
1005
123B28
  0
LINE
  5
123B29
  8
OBJECT
 10
4585.0000000000073
 20
-644.99999999999955
 30
0.0
 11
4414.9999999999918
 21
-644.99999999999955
 31
0.0
1001
ACDBBLOCKREPETAG
1070
     1
1071
        8
1005
123B29
  0
LINE
  5
123B2A
  8
OBJECT
 10
4443.0
 20
-999.99999999999761
 30
0.0
 11
4442.296875
 21
-994.99999999999761
 31
0.0
1001
ACDBBLOCKREPETAG
1070
     1
1071
       10
1005
123B2A
  0
LINE
  5
123B2B
  8
OBJECT
 10
4557.0
 20
-1024.999999999997
 30
0.0
 11
4557.0
 21
-999.99999999999761
 31
0.0
1001
ACDBBLOCKREPETAG
1070
     1
1071
       11
1005
123B2B
  0
LINE
  5
123B2C
  8
OBJECT
 10
4557.0
 20
-999.99999999999761
 30
0.0
 11
4557.7031249999982
 21
-994.99999999999761
 31
0.0
1001
ACDBBLOCKREPETAG
1070
     1
1071
       12
1005
123B2C
  0
LINE
  5
123B2D
  8
SLIM
 10
3914.9999999999941
 20
-659.47385309434696
 30
0.0
 11
3929.4738530943409
 21
-644.99999999999955
 31
0.0
1001
GRADIENTCOLOR1ACI
1070
     5
1001
GRADIENTCOLOR2ACI
1070
     2
1001
ACAD
1010
0.0
1020
0.0
1030
0.0
  0
LINE
  5
123B2E
  8
SLIM
 10
3914.9999999999941
 20
-677.43436533648446
 30
0.0
 11
3947.434365336479
 21
-644.99999999999955
 31
0.0
1001
GRADIENTCOLOR1ACI
1070
     5
1001
GRADIENTCOLOR2ACI
1070
     2
1001
ACAD
1010
0.0
1020
0.0
1030
0.0
  0
LINE
  5
123B2F
  8
SLIM
 10
3914.9999999999941
 20
-695.39487757862241
 30
0.0
 11
3965.3948775786171
 21
-644.99999999999955
 31
0.0
1001
GRADIENTCOLOR1ACI
1070
     5
1001
GRADIENTCOLOR2ACI
1070
     2
1001
ACAD
1010
0.0
1020
0.0
1030
0.0
  0
LINE
  5
123B30
  8
SLIM
 10
3914.999999999995
 20
-713.35538982076014
 30
0.0
 11
3983.355389820756
 21
-644.99999999999955
 31
0.0
1001
GRADIENTCOLOR1ACI
1070
     5
1001
GRADIENTCOLOR2ACI
1070
     2
1001
ACAD
1010
0.0
1020
0.0
1030
0.0
  0
LINE
  5
123B31
  8
SLIM
 10
3914.999999999995
 20
-731.31590206289775
 30
0.0
 11
4001.3159020628941
 21
-644.99999999999955
 31
0.0
1001
GRADIENTCOLOR1ACI
1070
     5
1001
GRADIENTCOLOR2ACI
1070
     2
1001
ACAD
1010
0.0
1020
0.0
1030
0.0
  0
LINE
  5
123B32
  8
SLIM
 10
3914.9999999999968
 20
-749.27641430503525
 30
0.0
 11
4019.2764143050308
 21
-644.99999999999955
 31
0.0
1001
GRADIENTCOLOR1ACI
1070
     5
1001
GRADIENTCOLOR2ACI
1070
     2
1001
ACAD
1010
0.0
1020
0.0
1030
0.0
  0
LINE
  5
123B33
  8
SLIM
 10
3914.9999999999968
 20
-767.23692654717331
 30
0.0
 11
4037.2369265471689
 21
-644.99999999999955
 31
0.0
1001
GRADIENTCOLOR1ACI
1070
     5
1001
GRADIENTCOLOR2ACI
1070
     2
1001
ACAD
1010
0.0
1020
0.0
1030
0.0
  0
LINE
  5
123B34
  8
SLIM
 10
3914.9999999999968
 20
-785.19743878931081
 30
0.0
 11
4055.1974387893079
 21
-644.99999999999955
 31
0.0
1001
GRADIENTCOLOR1ACI
1070
     5
1001
GRADIENTCOLOR2ACI
1070
     2
1001
ACAD
1010
0.0
1020
0.0
1030
0.0
  0
LINE
  5
123B35
  8
SLIM
 10
3914.9999999999991
 20
-803.15795103144865
 30
0.0
 11
4073.157951031445
 21
-644.99999999999955
 31
0.0
1001
GRADIENTCOLOR1ACI
1070
     5
1001
GRADIENTCOLOR2ACI
1070
     2
1001
ACAD
1010
0.0
1020
0.0
1030
0.0
  0
LINE
  5
123B36
  8
SLIM
 10
3914.9999999999991
 20
-821.11846327358626
 30
0.0
 11
4085.0000000000068
 21
-651.11846327357694
 31
0.0
1001
GRADIENTCOLOR1ACI
1070
     5
1001
GRADIENTCOLOR2ACI
1070
     2
1001
ACAD
1010
0.0
1020
0.0
1030
0.0
  0
LINE
  5
123B37
  8
SLIM
 10
3914.9999999999991
 20
-839.07897551572387
 30
0.0
 11
4085.0000000000068
 21
-669.07897551571614
 31
0.0
1001
GRADIENTCOLOR1ACI
1070
     5
1001
GRADIENTCOLOR2ACI
1070
     2
1001
ACAD
1010
0.0
1020
0.0
1030
0.0
  0
LINE
  5
123B38
  8
SLIM
 10
3915.0
 20
-857.03948775786182
 30
0.0
 11
4085.0000000000068
 21
-687.039487757855
 31
0.0
1001
GRADIENTCOLOR1ACI
1070
     5
1001
GRADIENTCOLOR2ACI
1070
     2
1001
ACAD
1010
0.0
1020
0.0
1030
0.0
  0
LINE
  5
123B39
  8
SLIM
 10
3915.283600749558
 20
-874.71639925044155
 30
0.0
 11
4085.0000000000059
 21
-704.99999999999375
 31
0.0
1001
GRADIENTCOLOR1ACI
1070
     5
1001
GRADIENTCOLOR2ACI
1070
     2
1001
ACAD
1010
0.0
1020
0.0
1030
0.0
  0
LINE
  5
123B3A
  8
SLIM
 10
3917.4979104780409
 20
-890.46260176409692
 30
0.0
 11
4085.000000000005
 21
-722.96051224213272
 31
0.0
1001
GRADIENTCOLOR1ACI
1070
     5
1001
GRADIENTCOLOR2ACI
1070
     2
1001
ACAD
1010
0.0
1020
0.0
1030
0.0
  0
LINE
  5
123B3B
  8
SLIM
 10
3919.7122202065239
 20
-906.20880427775205
 30
0.0
 11
4085.0000000000041
 21
-740.92102448427181
 31
0.0
1001
GRADIENTCOLOR1ACI
1070
     5
1001
GRADIENTCOLOR2ACI
1070
     2
1001
ACAD
1010
0.0
1020
0.0
1030
0.0
  0
LINE
  5
123B3C
  8
SLIM
 10
3921.9265299350068
 20
-921.95500679140719
 30
0.0
 11
4085.0000000000032
 21
-758.88153672641045
 31
0.0
1001
GRADIENTCOLOR1ACI
1070
     5
1001
GRADIENTCOLOR2ACI
1070
     2
1001
ACAD
1010
0.0
1020
0.0
1030
0.0
  0
LINE
  5
123B3D
  8
SLIM
 10
3924.1408396634902
 20
-937.70120930506255
 30
0.0
 11
4085.0000000000032
 21
-776.84204896854953
 31
0.0
1001
GRADIENTCOLOR1ACI
1070
     5
1001
GRADIENTCOLOR2ACI
1070
     2
1001
ACAD
1010
0.0
1020
0.0
1030
0.0
  0
LINE
  5
123B3E
  8
SLIM
 10
3926.3551493919731
 20
-953.4474118187178
 30
0.0
 11
4085.0000000000032
 21
-794.80256121068851
 31
0.0
1001
GRADIENTCOLOR1ACI
1070
     5
1001
GRADIENTCOLOR2ACI
1070
     2
1001
ACAD
1010
0.0
1020
0.0
1030
0.0
  0
LINE
  5
123B3F
  8
SLIM
 10
3928.569459120456
 20
-969.19361433237304
 30
0.0
 11
4085.0000000000009
 21
-812.76307345282714
 31
0.0
1001
GRADIENTCOLOR1ACI
1070
     5
1001
GRADIENTCOLOR2ACI
1070
     2
1001
ACAD
1010
0.0
1020
0.0
1030
0.0
  0
LINE
  5
123B40
  8
SLIM
 10
3930.783768848939
 20
-984.93981684602841
 30
0.0
 11
4085.0000000000009
 21
-830.72358569496612
 31
0.0
1001
GRADIENTCOLOR1ACI
1070
     5
1001
GRADIENTCOLOR2ACI
1070
     2
1001
ACAD
1010
0.0
1020
0.0
1030
0.0
  0
LINE
  5
123B41
  8
SLIM
 10
3938.6840979371082
 20
-994.99999999999761
 30
0.0
 11
4085.0
 21
-848.68409793710521
 31
0.0
1001
GRADIENTCOLOR1ACI
1070
     5
1001
GRADIENTCOLOR2ACI
1070
     2
1001
ACAD
1010
0.0
1020
0.0
1030
0.0
  0
LINE
  5
123B42
  8
SLIM
 10
3943.0
 20
-1008.644610179244
 30
0.0
 11
3956.6446101792458
 21
-994.99999999999761
 31
0.0
1001
GRADIENTCOLOR1ACI
1070
     5
1001
GRADIENTCOLOR2ACI
1070
     2
1001
ACAD
1010
0.0
1020
0.0
1030
0.0
  0
LINE
  5
123B43
  8
SLIM
 10
3956.6446101792458
 20
-994.99999999999761
 30
0.0
 11
4085.0
 21
-866.64461017924395
 31
0.0
1001
GRADIENTCOLOR1ACI
1070
     5
1001
GRADIENTCOLOR2ACI
1070
     2
1001
ACAD
1010
0.0
1020
0.0
1030
0.0
  0
LINE
  5
123B44
  8
SLIM
 10
3944.6051224213852
 20
-1024.999999999997
 30
0.0
 11
3974.6051224213852
 21
-994.99999999999761
 31
0.0
1001
GRADIENTCOLOR1ACI
1070
     5
1001
GRADIENTCOLOR2ACI
1070
     2
1001
ACAD
1010
0.0
1020
0.0
1030
0.0
  0
LINE
  5
123B45
  8
SLIM
 10
3974.6051224213852
 20
-994.99999999999761
 30
0.0
 11
4083.0518371543649
 21
-886.55328526701703
 31
0.0
1001
GRADIENTCOLOR1ACI
1070
     5
1001
GRADIENTCOLOR2ACI
1070
     2
1001
ACAD
1010
0.0
1020
0.0
1030
0.0
  0
LINE
  5
123B46
  8
SLIM
 10
3962.5656346635228
 20
-1024.999999999997
 30
0.0
 11
3992.5656346635242
 21
-994.99999999999761
 31
0.0
1001
GRADIENTCOLOR1ACI
1070
     5
1001
GRADIENTCOLOR2ACI
1070
     2
1001
ACAD
1010
0.0
1020
0.0
1030
0.0
  0
LINE
  5
123B47
  8
SLIM
 10
3992.5656346635242
 20
-994.99999999999761
 30
0.0
 11
4080.1128442420149
 21
-907.45279042150526
 31
0.0
1001
GRADIENTCOLOR1ACI
1070
     5
1001
GRADIENTCOLOR2ACI
1070
     2
1001
ACAD
1010
0.0
1020
0.0
1030
0.0
  0
LINE
  5
123B48
  8
SLIM
 10
3980.5261469056618
 20
-1024.999999999997
 30
0.0
 11
4010.52614690566
 21
-994.99999999999761
 31
0.0
1001
GRADIENTCOLOR1ACI
1070
     5
1001
GRADIENTCOLOR2ACI
1070
     2
1001
ACAD
1010
0.0
1020
0.0
1030
0.0
  0
LINE
  5
123B49
  8
SLIM
 10
4010.52614690566
 20
-994.99999999999761
 30
0.0
 11
4077.173851329665
 21
-928.35229557599314
 31
0.0
1001
GRADIENTCOLOR1ACI
1070
     5
1001
GRADIENTCOLOR2ACI
1070
     2
1001
ACAD
1010
0.0
1020
0.0
1030
0.0
  0
LINE
  5
123B4A
  8
SLIM
 10
3998.4866591477999
 20
-1024.999999999997
 30
0.0
 11
4028.4866591478012
 21
-994.99999999999761
 31
0.0
1001
GRADIENTCOLOR1ACI
1070
     5
1001
GRADIENTCOLOR2ACI
1070
     2
1001
ACAD
1010
0.0
1020
0.0
1030
0.0
  0
LINE
  5
123B4B
  8
SLIM
 10
4028.4866591478012
 20
-994.99999999999761
 30
0.0
 11
4074.234858417316
 21
-949.25180073048125
 31
0.0
1001
GRADIENTCOLOR1ACI
1070
     5
1001
GRADIENTCOLOR2ACI
1070
     2
1001
ACAD
1010
0.0
1020
0.0
1030
0.0
  0
LINE
  5
123B4C
  8
SLIM
 10
4016.4471713899379
 20
-1024.999999999997
 30
0.0
 11
4046.4471713899379
 21
-994.99999999999761
 31
0.0
1001
GRADIENTCOLOR1ACI
1070
     5
1001
GRADIENTCOLOR2ACI
1070
     2
1001
ACAD
1010
0.0
1020
0.0
1030
0.0
  0
LINE
  5
123B4D
  8
SLIM
 10
4046.4471713899379
 20
-994.99999999999761
 30
0.0
 11
4071.295865504967
 21
-970.15130588496913
 31
0.0
1001
GRADIENTCOLOR1ACI
1070
     5
1001
GRADIENTCOLOR2ACI
1070
     2
1001
ACAD
1010
0.0
1020
0.0
1030
0.0
  0
LINE
  5
123B4E
  8
SLIM
 10
4034.4076836320769
 20
-1024.999999999997
 30
0.0
 11
4057.0
 21
-1002.4076836320741
 31
0.0
1001
GRADIENTCOLOR1ACI
1070
     5
1001
GRADIENTCOLOR2ACI
1070
     2
1001
ACAD
1010
0.0
1020
0.0
1030
0.0
  0
LINE
  5
123B4F
  8
SLIM
 10
4064.407683632076
 20
-994.99999999999761
 30
0.0
 11
4068.356872592617
 21
-991.05081103945713
 31
0.0
1001
GRADIENTCOLOR1ACI
1070
     5
1001
GRADIENTCOLOR2ACI
1070
     2
1001
ACAD
1010
0.0
1020
0.0
1030
0.0
  0
LINE
  5
123B50
  8
SLIM
 10
4052.368195874215
 20
-1024.999999999997
 30
0.0
 11
4057.0
 21
-1020.368195874212
 31
0.0
1001
GRADIENTCOLOR1ACI
1070
     5
1001
GRADIENTCOLOR2ACI
1070
     2
1001
ACAD
1010
0.0
1020
0.0
1030
0.0
  0
LINE
  5
123B51
  8
OBJECT
 10
3943.0
 20
-1024.999999999997
 30
0.0
 11
4057.0
 21
-1024.999999999997
 31
0.0
1001
ACDBBLOCKREPETAG
1070
     1
1071
        1
1005
123B51
  0
LINE
  5
123B52
  8
OBJECT
 10
3932.1984821049668
 20
-994.99999999999761
 30
0.0
 11
4067.8015178950391
 21
-994.99999999999761
 31
0.0
1001
ACDBBLOCKREPETAG
1070
     1
1071
        2
1005
123B52
  0
LINE
  5
123B53
  8
OBJECT
 10
3943.0
 20
-1024.999999999997
 30
0.0
 11
3943.0
 21
-999.99999999999761
 31
0.0
1001
ACDBBLOCKREPETAG
1070
     1
1071
        3
1005
123B53
  0
LINE
  5
123B54
  8
OBJECT
 10
3914.9999999999918
 20
-644.99999999999955
 30
0.0
 11
3915.0
 21
-872.69968280914077
 31
0.0
1001
ACDBBLOCKREPETAG
1070
     1
1071
        4
1005
123B54
  0
LINE
  5
123B55
  8
OBJECT
 10
4085.0000000000068
 20
-644.99999999999955
 30
0.0
 11
4085.0
 21
-872.69968280917192
 31
0.0
1001
ACDBBLOCKREPETAG
1070
     1
1071
        5
1005
123B55
  0
LINE
  5
123B56
  8
OBJECT
 10
3915.0
 20
-872.69968280914077
 30
0.0
 11
3932.1984821049668
 21
-994.99999999999761
 31
0.0
1001
ACDBBLOCKREPETAG
1070
     1
1071
        6
1005
123B56
  0
LINE
  5
123B57
  8
OBJECT
 10
4067.8015178950391
 20
-994.99999999999761
 30
0.0
 11
4085.0
 21
-872.69968280917192
 31
0.0
1001
ACDBBLOCKREPETAG
1070
     1
1071
        7
1005
123B57
  0
LINE
  5
123B58
  8
OBJECT
 10
4085.0000000000068
 20
-644.99999999999955
 30
0.0
 11
3914.9999999999918
 21
-644.99999999999955
 31
0.0
1001
ACDBBLOCKREPETAG
1070
     1
1071
        8
1005
123B58
  0
LINE
  5
123B59
  8
OBJECT
 10
3943.0
 20
-999.99999999999761
 30
0.0
 11
3942.296875
 21
-994.99999999999761
 31
0.0
1001
ACDBBLOCKREPETAG
1070
     1
1071
       10
1005
123B59
  0
LINE
  5
123B5A
  8
OBJECT
 10
4057.0
 20
-1024.999999999997
 30
0.0
 11
4057.0
 21
-999.99999999999761
 31
0.0
1001
ACDBBLOCKREPETAG
1070
     1
1071
       11
1005
123B5A
  0
LINE
  5
123B5B
  8
OBJECT
 10
4057.0
 20
-999.99999999999761
 30
0.0
 11
4057.7031249999982
 21
-994.99999999999761
 31
0.0
1001
ACDBBLOCKREPETAG
1070
     1
1071
       12
1005
123B5B
  0
LINE
  5
123B5C
  8
OBJECT
 10
4443.0
 20
-449.99999999999937
 30
0.0
 11
4443.0
 21
-517.99999999999966
 31
0.0
1001
ACDBBLOCKREPETAG
1070
     1
1071
      214
1005
123B5C
  0
LINE
  5
123B5D
  8
OBJECT
 10
4437.0
 20
-523.99999999999955
 30
0.0
 11
4437.0
 21
-520.99999999999955
 31
0.0
1001
ACDBBLOCKREPETAG
1070
     1
1071
      215
1005
123B5D
  0
LINE
  5
123B5E
  8
OBJECT
 10
4443.0
 20
-449.99999999999937
 30
0.0
 11
4557.0
 21
-449.99999999999937
 31
0.0
1001
ACDBBLOCKREPETAG
1070
     1
1071
      216
1005
123B5E
  0
LINE
  5
123B5F
  8
OBJECT
 10
4560.0
 20
-517.99999999999966
 30
0.0
 11
4440.0
 21
-517.99999999999966
 31
0.0
1001
ACDBBLOCKREPETAG
1070
     1
1071
      217
1005
123B5F
  0
ARC
  5
123B60
  8
OBJECT
 10
4440.0
 20
-520.99999999999955
 30
0.0
 40
3.0
 50
90.0
 51
180.0
1001
ACDBBLOCKREPETAG
1070
     1
1071
      218
1005
123B60
  0
LINE
  5
123B61
  8
OBJECT
 10
4557.0
 20
-449.99999999999937
 30
0.0
 11
4557.0
 21
-517.99999999999966
 31
0.0
1001
ACDBBLOCKREPETAG
1070
     1
1071
      219
1005
123B61
  0
LINE
  5
123B62
  8
OBJECT
 10
4563.0
 20
-523.99999999999955
 30
0.0
 11
4563.0
 21
-520.99999999999955
 31
0.0
1001
ACDBBLOCKREPETAG
1070
     1
1071
      220
1005
123B62
  0
ARC
  5
123B63
  8
OBJECT
 10
4560.0
 20
-520.99999999999955
 30
0.0
 40
3.0
 50
0.0
 51
90.0
1001
ACDBBLOCKREPETAG
1070
     1
1071
      221
1005
123B63
  0
LINE
  5
123B64
  8
OBJECT
 10
4563.4999999998718
 20
-535.99999999999955
 30
0.0
 11
4572.0
 21
-535.99999999999955
 31
0.0
1001
ACDBBLOCKREPETAG
1070
     1
1071
       32
1005
123B64
  0
LINE
  5
123B65
  8
OBJECT
 10
4563.4999999999218
 20
-635.99999999999955
 30
0.0
 11
4574.9999999999218
 21
-635.99999999999955
 31
0.0
1001
ACDBBLOCKREPETAG
1070
     1
1071
       33
1005
123B65
  0
LINE
  5
123B66
  8
CENTER
 10
4500.0
 20
-434.99999999999949
 30
0.0
 11
4500.0
 21
-789.99999999999955
 31
0.0
1001
ACDBBLOCKREPETAG
1070
     1
1071
       36
1005
123B66
  0
LINE
  5
123B67
  8
OBJECT
 10
4425.0
 20
-523.99999999999955
 30
0.0
 11
4425.0
 21
-777.99999999999955
 31
0.0
1001
ACDBBLOCKREPETAG
1070
     1
1071
       37
1005
123B67
  0
LINE
  5
123B68
  8
OBJECT
 10
4572.0
 20
-535.99999999999955
 30
0.0
 11
4572.0
 21
-523.99999999999955
 31
0.0
1001
ACDBBLOCKREPETAG
1070
     1
1071
       39
1005
123B68
  0
LINE
  5
123B69
  8
OBJECT
 10
4420.0
 20
-777.99999999999955
 30
0.0
 11
4580.0
 21
-777.99999999999955
 31
0.0
1001
ACDBBLOCKREPETAG
1070
     1
1071
       40
1005
123B69
  0
LINE
  5
123B6A
  8
OBJECT
 10
4572.0
 20
-523.99999999999955
 30
0.0
 11
4425.0
 21
-523.99999999999955
 31
0.0
1001
ACDBBLOCKREPETAG
1070
     1
1071
       41
1005
123B6A
  0
LINE
  5
123B6B
  8
OBJECT
 10
4420.0
 20
-777.99999999999955
 30
0.0
 11
4420.0
 21
-789.99999999999955
 31
0.0
1001
ACDBBLOCKREPETAG
1070
     1
1071
       42
1005
123B6B
  0
LINE
  5
123B6C
  8
OBJECT
 10
4420.0
 20
-789.99999999999955
 30
0.0
 11
4580.0
 21
-789.99999999999955
 31
0.0
1001
ACDBBLOCKREPETAG
1070
     1
1071
       43
1005
123B6C
  0
LINE
  5
123B6D
  8
OBJECT
 10
4580.0
 20
-789.99999999999955
 30
0.0
 11
4580.0
 21
-777.99999999999955
 31
0.0
1001
ACDBBLOCKREPETAG
1070
     1
1071
       44
1005
123B6D
  0
LINE
  5
123B6E
  8
OBJECT
 10
4574.9999999999218
 20
-635.99999999999955
 30
0.0
 11
4575.0
 21
-777.99999999999955
 31
0.0
1001
ACDBBLOCKREPETAG
1070
     1
1071
       45
1005
123B6E
  0
LINE
  5
123B6F
  8
OBJECT
 10
4563.4999999998581
 20
-523.99999999999955
 30
0.0
 11
4563.5
 21
-635.99999999999955
 31
0.0
1001
ACDBBLOCKREPETAG
1070
     1
1071
       46
1005
123B6F
  0
LINE
  5
123B70
  8
HIDDEN
 10
4552.5
 20
-449.99999999999937
 30
0.0
 11
4552.5
 21
-523.99999999999955
 31
0.0
1001
ACDBBLOCKREPETAG
1070
     1
1071
      252
1005
123B70
  0
LINE
  5
123B71
  8
HIDDEN
 10
4447.5
 20
-449.99999999999937
 30
0.0
 11
4447.5
 21
-523.99999999999955
 31
0.0
1001
ACDBBLOCKREPETAG
1070
     1
1071
      253
1005
123B71
  0
POINT
  5
123B72
  8
DOTS
 10
4500.0
 20
-644.99999999999955
 30
0.0
1001
ACDBBLOCKREPETAG
1070
     1
1071
      261
1005
123B72
  0
LINE
  5
123B73
  8
OBJECT
 10
3943.0
 20
-449.99999999999937
 30
0.0
 11
3943.0
 21
-517.99999999999966
 31
0.0
1001
ACDBBLOCKREPETAG
1070
     1
1071
      206
1005
123B73
  0
LINE
  5
123B74
  8
OBJECT
 10
3937.0
 20
-523.99999999999955
 30
0.0
 11
3937.0
 21
-520.99999999999955
 31
0.0
1001
ACDBBLOCKREPETAG
1070
     1
1071
      207
1005
123B74
  0
LINE
  5
123B75
  8
OBJECT
 10
3943.0
 20
-449.99999999999937
 30
0.0
 11
4057.0
 21
-449.99999999999937
 31
0.0
1001
ACDBBLOCKREPETAG
1070
     1
1071
      208
1005
123B75
  0
LINE
  5
123B76
  8
OBJECT
 10
4060.0
 20
-517.99999999999966
 30
0.0
 11
3940.0
 21
-517.99999999999966
 31
0.0
1001
ACDBBLOCKREPETAG
1070
     1
1071
      209
1005
123B76
  0
ARC
  5
123B77
  8
OBJECT
 10
3940.0
 20
-520.99999999999955
 30
0.0
 40
3.0
 50
90.0
 51
180.0
1001
ACDBBLOCKREPETAG
1070
     1
1071
      210
1005
123B77
  0
LINE
  5
123B78
  8
OBJECT
 10
4057.0
 20
-449.99999999999937
 30
0.0
 11
4057.0
 21
-517.99999999999966
 31
0.0
1001
ACDBBLOCKREPETAG
1070
     1
1071
      211
1005
123B78
  0
LINE
  5
123B79
  8
OBJECT
 10
4063.0
 20
-523.99999999999955
 30
0.0
 11
4063.0
 21
-520.99999999999955
 31
0.0
1001
ACDBBLOCKREPETAG
1070
     1
1071
      212
1005
123B79
  0
ARC
  5
123B7A
  8
OBJECT
 10
4060.0
 20
-520.99999999999955
 30
0.0
 40
3.0
 50
0.0
 51
90.0
1001
ACDBBLOCKREPETAG
1070
     1
1071
      213
1005
123B7A
  0
LINE
  5
123B7B
  8
CENTER
 10
4000.0
 20
-434.99999999999949
 30
0.0
 11
4000.0
 21
-789.99999999999955
 31
0.0
1001
ACDBBLOCKREPETAG
1070
     1
1071
        4
1005
123B7B
  0
LINE
  5
123B7C
  8
OBJECT
 10
3925.0
 20
-523.99999999999955
 30
0.0
 11
3925.0
 21
-777.99999999999955
 31
0.0
1001
ACDBBLOCKREPETAG
1070
     1
1071
        5
1005
123B7C
  0
LINE
  5
123B7D
  8
OBJECT
 10
3920.0
 20
-777.99999999999955
 30
0.0
 11
4080.0
 21
-777.99999999999955
 31
0.0
1001
ACDBBLOCKREPETAG
1070
     1
1071
        8
1005
123B7D
  0
LINE
  5
123B7E
  8
OBJECT
 10
4080.0
 20
-523.99999999999955
 30
0.0
 11
3925.0
 21
-523.99999999999955
 31
0.0
1001
ACDBBLOCKREPETAG
1070
     1
1071
        9
1005
123B7E
  0
LINE
  5
123B7F
  8
OBJECT
 10
3920.0
 20
-777.99999999999955
 30
0.0
 11
3920.0
 21
-789.99999999999955
 31
0.0
1001
ACDBBLOCKREPETAG
1070
     1
1071
       10
1005
123B7F
  0
LINE
  5
123B80
  8
OBJECT
 10
3920.0
 20
-789.99999999999955
 30
0.0
 11
4080.0
 21
-789.99999999999955
 31
0.0
1001
ACDBBLOCKREPETAG
1070
     1
1071
       11
1005
123B80
  0
LINE
  5
123B81
  8
OBJECT
 10
4080.0
 20
-789.99999999999955
 30
0.0
 11
4080.0
 21
-777.99999999999955
 31
0.0
1001
ACDBBLOCKREPETAG
1070
     1
1071
       12
1005
123B81
  0
LINE
  5
123B82
  8
OBJECT
 10
4074.9999999998631
 20
-647.99999999985027
 30
0.0
 11
4075.0
 21
-777.99999999999955
 31
0.0
1001
ACDBBLOCKREPETAG
1070
     1
1071
       14
1005
123B82
  0
LINE
  5
123B83
  8
OBJECT
 10
4074.9999908029849
 20
-647.99998602702135
 30
0.0
 11
4080.0
 21
-647.99998602702135
 31
0.0
1001
ACDBBLOCKREPETAG
1070
     1
1071
       15
1005
123B83
  0
ARC
  5
123B84
  8
OBJECT
 10
4200.6872746716726
 20
-639.4080994101073
 30
0.0
 40
170.6350503965856
 50
137.44134459184301
 51
149.91949581337221
1001
ACDBBLOCKREPETAG
1070
     1
1071
       25
1005
123B84
  0
ARC
  5
123B85
  8
OBJECT
 10
4118.8455987040506
 20
-595.88272669536457
 30
0.0
 40
78.072222021763665
 50
147.45515310381529
 51
164.66365997719231
1001
ACDBBLOCKREPETAG
1070
     1
1071
       26
1005
123B85
  0
ARC
  5
123B86
  8
OBJECT
 10
4085.7554349608722
 20
-585.99999999999955
 30
0.0
 40
43.55353926885617
 50
165.6884523007466
 51
194.3115476992534
1001
ACDBBLOCKREPETAG
1070
     1
1071
       27
1005
123B86
  0
ARC
  5
123B87
  8
OBJECT
 10
4200.6872746716726
 20
-532.59190058989157
 30
0.0
 40
170.6350503965856
 50
210.08050418662771
 51
222.55865540815699
1001
ACDBBLOCKREPETAG
1070
     1
1071
       28
1005
123B87
  0
ARC
  5
123B88
  8
OBJECT
 10
4118.8455987040506
 20
-576.11727330463452
 30
0.0
 40
78.072222021763665
 50
195.33634002280749
 51
212.54484689618471
1001
ACDBBLOCKREPETAG
1070
     1
1071
       29
1005
123B88
  0
LINE
  5
123B89
  8
HIDDEN
 10
4052.5
 20
-449.99999999999937
 30
0.0
 11
4052.5
 21
-523.99999999999955
 31
0.0
1001
ACDBBLOCKREPETAG
1070
     1
1071
      250
1005
123B89
  0
LINE
  5
123B8A
  8
HIDDEN
 10
3947.5
 20
-449.99999999999937
 30
0.0
 11
3947.5
 21
-523.99999999999955
 31
0.0
1001
ACDBBLOCKREPETAG
1070
     1
1071
      251
1005
123B8A
  0
POINT
  5
123B8B
  8
DOTS
 10
4000.0
 20
-644.99999999999955
 30
0.0
1001
ACDBBLOCKREPETAG
1070
     1
1071
      260
1005
123B8B
  0
LINE
  5
123B8C
  8
CENTER
 10
4577.0
 20
-586.0
 30
0.0
 11
4423.0
 21
-586.0
 31
0.0
1001
ACDBBLOCKREPETAG
1070
     1
1071
       17
1005
123B8C
  0
CIRCLE
  5
123B8D
  8
OBJECT
 10
4500.0
 20
-586.0
 30
0.0
 40
41.5
1001
ACDBBLOCKREPETAG
1070
     1
1071
       19
1005
123B8D
  0
CIRCLE
  5
123B8E
  8
OBJECT
 10
4500.0
 20
-586.0
 30
0.0
 40
54.0
1001
ACDBBLOCKREPETAG
1070
     1
1071
       20
1005
123B8E
  0
ARC
  5
123B8F
  8
OBJECT
 10
4500.0
 20
-586.0
 30
0.0
 40
62.0
 50
287.89655112920718
 51
252.10344887079279
1001
ACDBBLOCKREPETAG
1070
     1
1071
       21
1005
123B8F
  0
LINE
  5
123B90
  8
OBJECT
 10
4480.9474411167421
 20
-645.0
 30
0.0
 11
4519.052558883257
 21
-645.0
 31
0.0
1001
ACDBBLOCKREPETAG
1070
     1
1071
       22
1005
123B90
  0
LINE
  5
123B91
  8
OBJECT
 10
4133.0
 20
-524.0
 30
0.0
 11
4140.0
 21
-524.0
 31
0.0
1001
ACDBBLOCKREPETAG
1070
     1
1071
       45
1005
123B91
  0
LINE
  5
123B92
  8
OBJECT
 10
4140.0
 20
-524.0
 30
0.0
 11
4140.0
 21
-645.0
 31
0.0
1001
ACDBBLOCKREPETAG
1070
     1
1071
       46
1005
123B92
  0
LINE
  5
123B93
  8
OBJECT
 10
4133.0
 20
-645.0
 30
0.0
 11
4133.0
 21
-524.0
 31
0.0
1001
ACDBBLOCKREPETAG
1070
     1
1071
       47
1005
123B93
  0
LINE
  5
123B94
  8
CENTER
 10
4155.0
 20
-586.0
 30
0.0
 11
4071.0
 21
-586.0
 31
0.0
1001
ACDBBLOCKREPETAG
1070
     1
1071
       48
1005
123B94
  0
LINE
  5
123B95
  8
OBJECT
 10
4133.0
 20
-527.0
 30
0.0
 11
4097.0
 21
-527.0
 31
0.0
1001
ACDBBLOCKREPETAG
1070
     1
1071
       49
1005
123B95
  0
LINE
  5
123B96
  8
OBJECT
 10
4097.0
 20
-527.0
 30
0.0
 11
4097.0
 21
-645.0
 31
0.0
1001
ACDBBLOCKREPETAG
1070
     1
1071
       50
1005
123B96
  0
LINE
  5
123B97
  8
OBJECT
 10
4097.0
 20
-645.0
 30
0.0
 11
4140.0
 21
-645.0
 31
0.0
1001
ACDBBLOCKREPETAG
1070
     1
1071
       51
1005
123B97
  0
LINE
  5
123B98
  8
OBJECT
 10
4093.0
 20
-531.5
 30
0.0
 11
4086.0
 21
-531.5
 31
0.0
1001
ACDBBLOCKREPETAG
1070
     1
1071
       52
1005
123B98
  0
LINE
  5
123B99
  8
OBJECT
 10
4086.0
 20
-640.5
 30
0.0
 11
4093.0
 21
-640.5
 31
0.0
1001
ACDBBLOCKREPETAG
1070
     1
1071
       53
1005
123B99
  0
LINE
  5
123B9A
  8
OBJECT
 10
4093.0
 20
-640.5
 30
0.0
 11
4093.0
 21
-531.5
 31
0.0
1001
ACDBBLOCKREPETAG
1070
     1
1071
       54
1005
123B9A
  0
LINE
  5
123B9B
  8
OBJECT
 10
4097.0
 20
-527.0
 30
0.0
 11
4093.0
 21
-531.5
 31
0.0
1001
ACDBBLOCKREPETAG
1070
     1
1071
       55
1005
123B9B
  0
LINE
  5
123B9C
  8
OBJECT
 10
4097.0
 20
-645.0
 30
0.0
 11
4093.0
 21
-640.5
 31
0.0
1001
ACDBBLOCKREPETAG
1070
     1
1071
       56
1005
123B9C
  0
LINE
  5
123B9D
  8
OBJECT
 10
4083.0
 20
-524.0
 30
0.0
 11
4080.0
 21
-524.0
 31
0.0
1001
ACDBBLOCKREPETAG
1070
     1
1071
       57
1005
123B9D
  0
ARC
  5
123B9E
  8
OBJECT
 10
4083.0
 20
-527.0
 30
0.0
 40
3.0
 50
0.0
 51
90.0
1001
ACDBBLOCKREPETAG
1070
     1
1071
       58
1005
123B9E
  0
LINE
  5
123B9F
  8
OBJECT
 10
4080.0
 20
-648.0
 30
0.0
 11
4083.0
 21
-648.0
 31
0.0
1001
ACDBBLOCKREPETAG
1070
     1
1071
       59
1005
123B9F
  0
ARC
  5
123BA0
  8
OBJECT
 10
4083.0
 20
-645.0
 30
0.0
 40
3.0
 50
270.0
 51
0.0
1001
ACDBBLOCKREPETAG
1070
     1
1071
       60
1005
123BA0
  0
LINE
  5
123BA1
  8
OBJECT
 10
4086.0
 20
-645.0
 30
0.0
 11
4086.0
 21
-527.0
 31
0.0
1001
ACDBBLOCKREPETAG
1070
     1
1071
       61
1005
123BA1
  0
LINE
  5
123BA2
  8
HIDDEN
 10
4088.0
 20
-541.5
 30
0.0
 11
4088.0
 21
-630.49999999999977
 31
0.0
1001
ACDBBLOCKREPETAG
1070
     1
1071
       63
1005
123BA2
  0
LINE
  5
123BA3
  8
OBJECT
 10
2443.0
 20
-449.99999999999937
 30
0.0
 11
2443.0
 21
-517.99999999999966
 31
0.0
1001
ACDBBLOCKREPETAG
1070
     1
1071
      214
1005
123BA3
  0
LINE
  5
123BA4
  8
OBJECT
 10
2437.0
 20
-523.99999999999955
 30
0.0
 11
2437.0
 21
-520.99999999999955
 31
0.0
1001
ACDBBLOCKREPETAG
1070
     1
1071
      215
1005
123BA4
  0
LINE
  5
123BA5
  8
OBJECT
 10
2443.0
 20
-449.99999999999937
 30
0.0
 11
2557.0
 21
-449.99999999999937
 31
0.0
1001
ACDBBLOCKREPETAG
1070
     1
1071
      216
1005
123BA5
  0
LINE
  5
123BA6
  8
OBJECT
 10
2560.0
 20
-517.99999999999966
 30
0.0
 11
2440.0
 21
-517.99999999999966
 31
0.0
1001
ACDBBLOCKREPETAG
1070
     1
1071
      217
1005
123BA6
  0
ARC
  5
123BA7
  8
OBJECT
 10
2440.0
 20
-520.99999999999955
 30
0.0
 40
3.0
 50
90.0
 51
180.0
1001
ACDBBLOCKREPETAG
1070
     1
1071
      218
1005
123BA7
  0
LINE
  5
123BA8
  8
OBJECT
 10
2557.0
 20
-449.99999999999937
 30
0.0
 11
2557.0
 21
-517.99999999999966
 31
0.0
1001
ACDBBLOCKREPETAG
1070
     1
1071
      219
1005
123BA8
  0
LINE
  5
123BA9
  8
OBJECT
 10
2563.0
 20
-523.99999999999955
 30
0.0
 11
2563.0
 21
-520.99999999999955
 31
0.0
1001
ACDBBLOCKREPETAG
1070
     1
1071
      220
1005
123BA9
  0
ARC
  5
123BAA
  8
OBJECT
 10
2560.0
 20
-520.99999999999955
 30
0.0
 40
3.0
 50
0.0
 51
90.0
1001
ACDBBLOCKREPETAG
1070
     1
1071
      221
1005
123BAA
  0
LINE
  5
123BAB
  8
OBJECT
 10
2563.4999999998731
 20
-535.99999999999955
 30
0.0
 11
2572.0
 21
-535.99999999999955
 31
0.0
1001
ACDBBLOCKREPETAG
1070
     1
1071
       32
1005
123BAB
  0
LINE
  5
123BAC
  8
OBJECT
 10
2563.4999999999241
 20
-635.99999999999955
 30
0.0
 11
2574.9999999999241
 21
-635.99999999999955
 31
0.0
1001
ACDBBLOCKREPETAG
1070
     1
1071
       33
1005
123BAC
  0
LINE
  5
123BAD
  8
CENTER
 10
2500.0
 20
-434.99999999999949
 30
0.0
 11
2500.0
 21
-789.99999999999955
 31
0.0
1001
ACDBBLOCKREPETAG
1070
     1
1071
       36
1005
123BAD
  0
LINE
  5
123BAE
  8
OBJECT
 10
2425.0
 20
-523.99999999999955
 30
0.0
 11
2425.0
 21
-777.99999999999955
 31
0.0
1001
ACDBBLOCKREPETAG
1070
     1
1071
       37
1005
123BAE
  0
LINE
  5
123BAF
  8
OBJECT
 10
2572.0
 20
-535.99999999999955
 30
0.0
 11
2572.0
 21
-523.99999999999955
 31
0.0
1001
ACDBBLOCKREPETAG
1070
     1
1071
       39
1005
123BAF
  0
LINE
  5
123BB0
  8
OBJECT
 10
2420.0
 20
-777.99999999999955
 30
0.0
 11
2580.0
 21
-777.99999999999955
 31
0.0
1001
ACDBBLOCKREPETAG
1070
     1
1071
       40
1005
123BB0
  0
LINE
  5
123BB1
  8
OBJECT
 10
2572.0
 20
-523.99999999999955
 30
0.0
 11
2425.0
 21
-523.99999999999955
 31
0.0
1001
ACDBBLOCKREPETAG
1070
     1
1071
       41
1005
123BB1
  0
LINE
  5
123BB2
  8
OBJECT
 10
2420.0
 20
-777.99999999999955
 30
0.0
 11
2420.0
 21
-789.99999999999955
 31
0.0
1001
ACDBBLOCKREPETAG
1070
     1
1071
       42
1005
123BB2
  0
LINE
  5
123BB3
  8
OBJECT
 10
2420.0
 20
-789.99999999999955
 30
0.0
 11
2580.0
 21
-789.99999999999955
 31
0.0
1001
ACDBBLOCKREPETAG
1070
     1
1071
       43
1005
123BB3
  0
LINE
  5
123BB4
  8
OBJECT
 10
2580.0
 20
-789.99999999999955
 30
0.0
 11
2580.0
 21
-777.99999999999955
 31
0.0
1001
ACDBBLOCKREPETAG
1070
     1
1071
       44
1005
123BB4
  0
LINE
  5
123BB5
  8
OBJECT
 10
2574.9999999999241
 20
-635.99999999999955
 30
0.0
 11
2575.0
 21
-777.99999999999955
 31
0.0
1001
ACDBBLOCKREPETAG
1070
     1
1071
       45
1005
123BB5
  0
LINE
  5
123BB6
  8
OBJECT
 10
2563.4999999998581
 20
-523.99999999999955
 30
0.0
 11
2563.5
 21
-635.99999999999955
 31
0.0
1001
ACDBBLOCKREPETAG
1070
     1
1071
       46
1005
123BB6
  0
LINE
  5
123BB7
  8
HIDDEN
 10
2552.5
 20
-449.99999999999937
 30
0.0
 11
2552.5
 21
-523.99999999999955
 31
0.0
1001
ACDBBLOCKREPETAG
1070
     1
1071
      252
1005
123BB7
  0
LINE
  5
123BB8
  8
HIDDEN
 10
2447.5
 20
-449.99999999999937
 30
0.0
 11
2447.5
 21
-523.99999999999955
 31
0.0
1001
ACDBBLOCKREPETAG
1070
     1
1071
      253
1005
123BB8
  0
POINT
  5
123BB9
  8
DOTS
 10
2500.0
 20
-644.99999999999955
 30
0.0
1001
ACDBBLOCKREPETAG
1070
     1
1071
      261
1005
123BB9
  0
LINE
  5
123BBA
  8
OBJECT
 10
1943.0
 20
-449.99999999999937
 30
0.0
 11
1943.0
 21
-517.99999999999966
 31
0.0
1001
ACDBBLOCKREPETAG
1070
     1
1071
      206
1005
123BBA
  0
LINE
  5
123BBB
  8
OBJECT
 10
1937.0
 20
-523.99999999999955
 30
0.0
 11
1937.0
 21
-520.99999999999955
 31
0.0
1001
ACDBBLOCKREPETAG
1070
     1
1071
      207
1005
123BBB
  0
LINE
  5
123BBC
  8
OBJECT
 10
1943.0
 20
-449.99999999999937
 30
0.0
 11
2057.0
 21
-449.99999999999937
 31
0.0
1001
ACDBBLOCKREPETAG
1070
     1
1071
      208
1005
123BBC
  0
LINE
  5
123BBD
  8
OBJECT
 10
2060.0
 20
-517.99999999999966
 30
0.0
 11
1940.0
 21
-517.99999999999966
 31
0.0
1001
ACDBBLOCKREPETAG
1070
     1
1071
      209
1005
123BBD
  0
ARC
  5
123BBE
  8
OBJECT
 10
1940.0
 20
-520.99999999999955
 30
0.0
 40
3.0
 50
90.0
 51
180.0
1001
ACDBBLOCKREPETAG
1070
     1
1071
      210
1005
123BBE
  0
LINE
  5
123BBF
  8
OBJECT
 10
2057.0
 20
-449.99999999999937
 30
0.0
 11
2057.0
 21
-517.99999999999966
 31
0.0
1001
ACDBBLOCKREPETAG
1070
     1
1071
      211
1005
123BBF
  0
LINE
  5
123BC0
  8
OBJECT
 10
2063.0
 20
-523.99999999999955
 30
0.0
 11
2063.0
 21
-520.99999999999955
 31
0.0
1001
ACDBBLOCKREPETAG
1070
     1
1071
      212
1005
123BC0
  0
ARC
  5
123BC1
  8
OBJECT
 10
2060.0
 20
-520.99999999999955
 30
0.0
 40
3.0
 50
0.0
 51
90.0
1001
ACDBBLOCKREPETAG
1070
     1
1071
      213
1005
123BC1
  0
LINE
  5
123BC2
  8
CENTER
 10
2000.0
 20
-434.99999999999949
 30
0.0
 11
2000.0
 21
-789.99999999999955
 31
0.0
1001
ACDBBLOCKREPETAG
1070
     1
1071
        4
1005
123BC2
  0
LINE
  5
123BC3
  8
OBJECT
 10
1925.0
 20
-523.99999999999955
 30
0.0
 11
1925.0
 21
-777.99999999999955
 31
0.0
1001
ACDBBLOCKREPETAG
1070
     1
1071
        5
1005
123BC3
  0
LINE
  5
123BC4
  8
OBJECT
 10
1920.0
 20
-777.99999999999955
 30
0.0
 11
2080.0
 21
-777.99999999999955
 31
0.0
1001
ACDBBLOCKREPETAG
1070
     1
1071
        8
1005
123BC4
  0
LINE
  5
123BC5
  8
OBJECT
 10
2080.0
 20
-523.99999999999955
 30
0.0
 11
1925.0
 21
-523.99999999999955
 31
0.0
1001
ACDBBLOCKREPETAG
1070
     1
1071
        9
1005
123BC5
  0
LINE
  5
123BC6
  8
OBJECT
 10
1920.0
 20
-777.99999999999955
 30
0.0
 11
1920.0
 21
-789.99999999999955
 31
0.0
1001
ACDBBLOCKREPETAG
1070
     1
1071
       10
1005
123BC6
  0
LINE
  5
123BC7
  8
OBJECT
 10
1920.0
 20
-789.99999999999955
 30
0.0
 11
2080.0
 21
-789.99999999999955
 31
0.0
1001
ACDBBLOCKREPETAG
1070
     1
1071
       11
1005
123BC7
  0
LINE
  5
123BC8
  8
OBJECT
 10
2080.0
 20
-789.99999999999955
 30
0.0
 11
2080.0
 21
-777.99999999999955
 31
0.0
1001
ACDBBLOCKREPETAG
1070
     1
1071
       12
1005
123BC8
  0
LINE
  5
123BC9
  8
OBJECT
 10
2074.9999999998622
 20
-647.99999999985027
 30
0.0
 11
2075.0
 21
-777.99999999999955
 31
0.0
1001
ACDBBLOCKREPETAG
1070
     1
1071
       14
1005
123BC9
  0
LINE
  5
123BCA
  8
OBJECT
 10
2074.9999908029849
 20
-647.99998602702135
 30
0.0
 11
2080.0
 21
-647.99998602702135
 31
0.0
1001
ACDBBLOCKREPETAG
1070
     1
1071
       15
1005
123BCA
  0
ARC
  5
123BCB
  8
OBJECT
 10
2200.6872746716731
 20
-639.4080994101073
 30
0.0
 40
170.6350503965856
 50
137.44134459184301
 51
149.91949581336559
1001
ACDBBLOCKREPETAG
1070
     1
1071
       25
1005
123BCB
  0
ARC
  5
123BCC
  8
OBJECT
 10
2118.8455987040511
 20
-595.88272669536457
 30
0.0
 40
78.072222021763665
 50
147.45515310381529
 51
164.66365997719581
1001
ACDBBLOCKREPETAG
1070
     1
1071
       26
1005
123BCC
  0
ARC
  5
123BCD
  8
OBJECT
 10
2085.7554349608731
 20
-585.99999999999955
 30
0.0
 40
43.55353926885617
 50
165.6884523007466
 51
194.3115476992534
1001
ACDBBLOCKREPETAG
1070
     1
1071
       27
1005
123BCD
  0
ARC
  5
123BCE
  8
OBJECT
 10
2200.6872746716731
 20
-532.59190058989157
 30
0.0
 40
170.6350503965856
 50
210.0805041866343
 51
222.55865540815699
1001
ACDBBLOCKREPETAG
1070
     1
1071
       28
1005
123BCE
  0
ARC
  5
123BCF
  8
OBJECT
 10
2118.8455987040511
 20
-576.11727330463452
 30
0.0
 40
78.072222021763665
 50
195.33634002280411
 51
212.54484689618471
1001
ACDBBLOCKREPETAG
1070
     1
1071
       29
1005
123BCF
  0
LINE
  5
123BD0
  8
HIDDEN
 10
2052.5
 20
-449.99999999999937
 30
0.0
 11
2052.5
 21
-523.99999999999955
 31
0.0
1001
ACDBBLOCKREPETAG
1070
     1
1071
      250
1005
123BD0
  0
LINE
  5
123BD1
  8
HIDDEN
 10
1947.5
 20
-449.99999999999937
 30
0.0
 11
1947.5
 21
-523.99999999999955
 31
0.0
1001
ACDBBLOCKREPETAG
1070
     1
1071
      251
1005
123BD1
  0
POINT
  5
123BD2
  8
DOTS
 10
2000.0
 20
-644.99999999999955
 30
0.0
1001
ACDBBLOCKREPETAG
1070
     1
1071
      260
1005
123BD2
  0
ARC
  5
123BD3
  8
OBJECT
 10
2000.0
 20
-199.99999999999909
 30
0.0
 40
80.0
 50
50.804965661401717
 51
309.19496742598432
1001
ACDBBLOCKREPETAG
1070
     1
1071
      348
1005
123BD3
  0
CIRCLE
  5
123BD4
  8
OBJECT
 10
2000.0
 20
-199.99999999999909
 30
0.0
 40
75.0
1001
ACDBBLOCKREPETAG
1070
     1
1071
      349
1005
123BD4
  0
LINE
  5
123BD5
  8
OBJECT
 10
1963.6238040660271
 20
-162.14471807827491
 30
0.0
 11
2037.0841102714221
 21
-174.5180316957439
 31
0.0
1001
ACDBBLOCKREPETAG
1070
     1
1071
      350
1005
123BD5
  0
LINE
  5
123BD6
  8
OBJECT
 10
2043.269476050712
 20
-170.26782143372259
 30
0.0
 11
2037.0841102714221
 21
-174.5180316957439
 31
0.0
1001
ACDBBLOCKREPETAG
1070
     1
1071
      351
1005
123BD6
  0
CIRCLE
  5
123BD7
  8
OBJECT
 10
2000.0
 20
-199.99999999999909
 30
0.0
 40
52.5
1001
ACDBBLOCKREPETAG
1070
     1
1071
      352
1005
123BD7
  0
ARC
  5
123BD8
  8
OBJECT
 10
2000.0
 20
-199.99999999999909
 30
0.0
 40
50.0
 50
131.70180964355251
 51
168.52376955958479
1001
ACDBBLOCKREPETAG
1070
     1
1071
      353
1005
123BD8
  0
ARC
  5
123BD9
  8
OBJECT
 10
2000.0
 20
-199.99999999999909
 30
0.0
 40
50.0
 50
238.8199429999047
 51
34.49450625011707
1001
ACDBBLOCKREPETAG
1070
     1
1071
      354
1005
123BD9
  0
LINE
  5
123BDA
  8
OBJECT
 10
2042.2018956920181
 20
-137.99999999999909
 30
0.0
 11
2080.0
 21
-137.99999999999909
 31
0.0
1001
ACDBBLOCKREPETAG
1070
     1
1071
      355
1005
123BDA
  0
LINE
  5
123BDB
  8
OBJECT
 10
2042.2018956920181
 20
-261.99999999999909
 30
0.0
 11
2080.0
 21
-261.99999999999909
 31
0.0
1001
ACDBBLOCKREPETAG
1070
     1
1071
      356
1005
123BDB
  0
LINE
  5
123BDC
  8
CENTER
 10
2080.0
 20
-199.99999999999909
 30
0.0
 11
1905.0
 21
-199.99999999999909
 31
0.0
1001
ACDBBLOCKREPETAG
1070
     1
1071
      364
1005
123BDC
  0
LINE
  5
123BDD
  8
CENTER
 10
2000.0
 20
-294.99999999999898
 30
0.0
 11
2000.0
 21
-104.9999999999991
 31
0.0
1001
ACDBBLOCKREPETAG
1070
     1
1071
      365
1005
123BDD
  0
LINE
  5
123BDE
  8
OBJECT
 10
1947.702309276614
 20
-195.39548645337189
 30
0.0
 11
1970.4540343856349
 21
-193.79865146436981
 31
0.0
1001
ACDBBLOCKREPETAG
1070
     1
1071
      368
1005
123BDE
  0
LINE
  5
123BDF
  8
OBJECT
 10
1948.416473471706
 20
-190.2332302727674
 30
0.0
 11
1966.988435262901
 21
-188.92975272660161
 31
0.0
1001
ACDBBLOCKREPETAG
1070
     1
1071
      369
1005
123BDF
  0
LINE
  5
123BE0
  8
OBJECT
 10
1974.1135374752771
 20
-242.77722592637201
 30
0.0
 11
1982.136698837405
 21
-234.1690987954708
 31
0.0
1001
ACDBBLOCKREPETAG
1070
     1
1071
      370
1005
123BE0
  0
ARC
  5
123BE1
  8
OBJECT
 10
1982.1160071245381
 20
-183.28188966318251
 30
0.0
 40
60.031113246032611
 50
256.417442267745
 51
262.33936106086588
1001
ACDBBLOCKREPETAG
1070
     1
1071
      371
1005
123BE1
  0
LINE
  5
123BE2
  8
OBJECT
 10
1977.612599732513
 20
-197.67495277149911
 30
0.0
 11
1982.136698837405
 21
-234.1690987954708
 31
0.0
1001
ACDBBLOCKREPETAG
1070
     1
1071
      372
1005
123BE2
  0
ARC
  5
123BE3
  8
OBJECT
 10
1967.6885653456411
 20
-198.90521351131881
 30
0.0
 40
10.0
 50
7.0667782929957941
 51
94.014734370532395
1001
ACDBBLOCKREPETAG
1070
     1
1071
      373
1005
123BE3
  0
ARC
  5
123BE4
  8
OBJECT
 10
1970.944125370974
 20
-200.78147401875589
 30
0.0
 40
7.0
 50
7.0667782929957941
 51
94.014733775014648
1001
ACDBBLOCKREPETAG
1070
     1
1071
      374
1005
123BE4
  0
CIRCLE
  5
123BE5
  8
OBJECT
 10
2000.0
 20
-199.99999999999909
 30
0.0
 40
57.0
1001
ACDBBLOCKREPETAG
1070
     1
1071
      375
1005
123BE5
  0
POINT
  5
123BE6
  8
DOTS
 10
2000.0
 20
-199.99999999999909
 30
0.0
1001
ACDBBLOCKREPETAG
1070
     1
1071
      434
1005
123BE6
  0
ARC
  5
123BE7
  8
OBJECT
 10
2000.0
 20
-199.99999999999909
 30
0.0
 40
72.0
 50
61.877817547648696
 51
118.1221824523513
1001
ACDBBLOCKREPETAG
1070
     1
1071
      441
1005
123BE7
  0
LINE
  5
123BE8
  8
OBJECT
 10
1960.0907278943851
 20
-136.49999999999909
 30
0.0
 11
1966.062557550692
 21
-136.49999999999909
 31
0.0
1001
ACDBBLOCKREPETAG
1070
     1
1071
      442
1005
123BE8
  0
LINE
  5
123BE9
  8
OBJECT
 10
2033.9374424493069
 20
-136.49999999999909
 30
0.0
 11
2039.9092721056149
 21
-136.49999999999909
 31
0.0
1001
ACDBBLOCKREPETAG
1070
     1
1071
      443
1005
123BE9
  0
ARC
  5
123BEA
  8
OBJECT
 10
539.99999999987813
 20
-695.99999999984175
 30
0.0
 40
80.0
 50
140.80496566139959
 51
39.194967425985247
1001
ACDBBLOCKREPETAG
1070
     1
1071
      348
1005
123BEA
  0
CIRCLE
  5
123BEB
  8
OBJECT
 10
539.99999999987813
 20
-695.99999999984175
 30
0.0
 40
75.0
1001
ACDBBLOCKREPETAG
1070
     1
1071
      349
1005
123BEB
  0
LINE
  5
123BEC
  8
OBJECT
 10
502.14471807815403
 20
-732.37619593381453
 30
0.0
 11
514.51803169562299
 21
-658.91588972841964
 31
0.0
1001
ACDBBLOCKREPETAG
1070
     1
1071
      350
1005
123BEC
  0
LINE
  5
123BED
  8
OBJECT
 10
510.26782143360163
 20
-652.73052394913066
 30
0.0
 11
514.51803169562299
 21
-658.91588972841964
 31
0.0
1001
ACDBBLOCKREPETAG
1070
     1
1071
      351
1005
123BED
  0
CIRCLE
  5
123BEE
  8
OBJECT
 10
539.99999999987813
 20
-695.99999999984175
 30
0.0
 40
52.5
1001
ACDBBLOCKREPETAG
1070
     1
1071
      352
1005
123BEE
  0
ARC
  5
123BEF
  8
OBJECT
 10
539.99999999987813
 20
-695.99999999984175
 30
0.0
 40
50.0
 50
221.7018096435535
 51
258.52376955958158
1001
ACDBBLOCKREPETAG
1070
     1
1071
      353
1005
123BEF
  0
ARC
  5
123BF0
  8
OBJECT
 10
539.99999999987813
 20
-695.99999999984175
 30
0.0
 40
50.0
 50
328.8199429999039
 51
124.49450625011841
1001
ACDBBLOCKREPETAG
1070
     1
1071
      354
1005
123BF0
  0
LINE
  5
123BF1
  8
OBJECT
 10
477.99999999987801
 20
-653.79810430782345
 30
0.0
 11
477.99999999987801
 21
-615.99999999984175
 31
0.0
1001
ACDBBLOCKREPETAG
1070
     1
1071
      355
1005
123BF1
  0
LINE
  5
123BF2
  8
OBJECT
 10
601.99999999987801
 20
-653.79810430782345
 30
0.0
 11
601.99999999987801
 21
-615.99999999984175
 31
0.0
1001
ACDBBLOCKREPETAG
1070
     1
1071
      356
1005
123BF2
  0
LINE
  5
123BF3
  8
OBJECT
 10
535.39548645325101
 20
-748.29769072322745
 30
0.0
 11
533.79865146424891
 21
-725.54596561420669
 31
0.0
1001
ACDBBLOCKREPETAG
1070
     1
1071
      368
1005
123BF3
  0
LINE
  5
123BF4
  8
OBJECT
 10
530.23323027264644
 20
-747.58352652813585
 30
0.0
 11
528.92975272648073
 21
-729.01156473694004
 31
0.0
1001
ACDBBLOCKREPETAG
1070
     1
1071
      369
1005
123BF4
  0
LINE
  5
123BF5
  8
OBJECT
 10
582.77722592625105
 20
-721.88646252456397
 30
0.0
 11
574.16909879534956
 21
-713.86330116243505
 31
0.0
1001
ACDBBLOCKREPETAG
1070
     1
1071
      370
1005
123BF5
  0
ARC
  5
123BF6
  8
OBJECT
 10
523.28188966306152
 20
-713.88399287530206
 30
0.0
 40
60.031113246032611
 50
346.41744226773898
 51
352.33936106086571
1001
ACDBBLOCKREPETAG
1070
     1
1071
      371
1005
123BF6
  0
LINE
  5
123BF7
  8
OBJECT
 10
537.67495277137823
 20
-718.38740026732739
 30
0.0
 11
574.16909879534956
 21
-713.86330116243505
 31
0.0
1001
ACDBBLOCKREPETAG
1070
     1
1071
      372
1005
123BF7
  0
ARC
  5
123BF8
  8
OBJECT
 10
538.90521351119776
 20
-728.31143465420064
 30
0.0
 40
10.0
 50
97.066778292998222
 51
184.01473437053241
1001
ACDBBLOCKREPETAG
1070
     1
1071
      373
1005
123BF8
  0
ARC
  5
123BF9
  8
OBJECT
 10
540.78147401863475
 20
-725.05587462886785
 30
0.0
 40
7.0
 50
97.066778292998222
 51
184.0147337750081
1001
ACDBBLOCKREPETAG
1070
     1
1071
      374
1005
123BF9
  0
CIRCLE
  5
123BFA
  8
OBJECT
 10
539.99999999987813
 20
-695.99999999984175
 30
0.0
 40
57.0
1001
ACDBBLOCKREPETAG
1070
     1
1071
      375
1005
123BFA
  0
POINT
  5
123BFB
  8
DOTS
 10
539.99999999987813
 20
-695.99999999984175
 30
0.0
1001
ACDBBLOCKREPETAG
1070
     1
1071
      432
1005
123BFB
  0
ARC
  5
123BFC
  8
OBJECT
 10
539.99999999987813
 20
-695.99999999984175
 30
0.0
 40
72.0
 50
151.87781754764791
 51
208.12218245235209
1001
ACDBBLOCKREPETAG
1070
     1
1071
      436
1005
123BFC
  0
LINE
  5
123BFD
  8
OBJECT
 10
476.49999999987813
 20
-735.90927210545658
 30
0.0
 11
476.49999999987813
 21
-729.93744244914831
 31
0.0
1001
ACDBBLOCKREPETAG
1070
     1
1071
      437
1005
123BFD
  0
LINE
  5
123BFE
  8
OBJECT
 10
476.49999999987813
 20
-662.06255755053485
 30
0.0
 11
476.49999999987813
 21
-656.09072789422646
 31
0.0
1001
ACDBBLOCKREPETAG
1070
     1
1071
      438
1005
123BFE
  0
ARC
  5
123BFF
  8
OBJECT
 10
180.0
 20
-695.99999999984175
 30
0.0
 40
80.0
 50
140.8049656614017
 51
39.194967425984217
1001
ACDBBLOCKREPETAG
1070
     1
1071
      348
1005
123BFF
  0
CIRCLE
  5
123C00
  8
OBJECT
 10
180.0
 20
-695.99999999984175
 30
0.0
 40
75.0
1001
ACDBBLOCKREPETAG
1070
     1
1071
      349
1005
123C00
  0
LINE
  5
123C01
  8
OBJECT
 10
142.14471807827579
 20
-732.37619593381453
 30
0.0
 11
154.51803169574481
 21
-658.91588972841964
 31
0.0
1001
ACDBBLOCKREPETAG
1070
     1
1071
      350
1005
123C01
  0
LINE
  5
123C02
  8
OBJECT
 10
150.2678214337235
 20
-652.73052394913066
 30
0.0
 11
154.51803169574481
 21
-658.91588972841964
 31
0.0
1001
ACDBBLOCKREPETAG
1070
     1
1071
      351
1005
123C02
  0
CIRCLE
  5
123C03
  8
OBJECT
 10
180.0
 20
-695.99999999984175
 30
0.0
 40
52.5
1001
ACDBBLOCKREPETAG
1070
     1
1071
      352
1005
123C03
  0
ARC
  5
123C04
  8
OBJECT
 10
180.0
 20
-695.99999999984175
 30
0.0
 40
50.0
 50
221.70180964355239
 51
258.52376955958482
1001
ACDBBLOCKREPETAG
1070
     1
1071
      353
1005
123C04
  0
ARC
  5
123C05
  8
OBJECT
 10
180.0
 20
-695.99999999984175
 30
0.0
 40
50.0
 50
328.8199429999047
 51
124.494506250117
1001
ACDBBLOCKREPETAG
1070
     1
1071
      354
1005
123C05
  0
LINE
  5
123C06
  8
OBJECT
 10
118.0
 20
-653.79810430782345
 30
0.0
 11
118.0
 21
-615.99999999984175
 31
0.0
1001
ACDBBLOCKREPETAG
1070
     1
1071
      355
1005
123C06
  0
LINE
  5
123C07
  8
OBJECT
 10
242.0
 20
-653.79810430782345
 30
0.0
 11
242.0
 21
-615.99999999984175
 31
0.0
1001
ACDBBLOCKREPETAG
1070
     1
1071
      356
1005
123C07
  0
LINE
  5
123C08
  8
OBJECT
 10
175.3954864533728
 20
-748.29769072322745
 30
0.0
 11
173.79865146437081
 21
-725.54596561420669
 31
0.0
1001
ACDBBLOCKREPETAG
1070
     1
1071
      368
1005
123C08
  0
LINE
  5
123C09
  8
OBJECT
 10
170.23323027276831
 20
-747.58352652813585
 30
0.0
 11
168.9297527266026
 21
-729.01156473694004
 31
0.0
1001
ACDBBLOCKREPETAG
1070
     1
1071
      369
1005
123C09
  0
LINE
  5
123C0A
  8
OBJECT
 10
222.77722592637289
 20
-721.88646252456397
 30
0.0
 11
214.16909879547171
 21
-713.86330116243505
 31
0.0
1001
ACDBBLOCKREPETAG
1070
     1
1071
      370
1005
123C0A
  0
ARC
  5
123C0B
  8
OBJECT
 10
163.28188966318339
 20
-713.88399287530206
 30
0.0
 40
60.031113246032611
 50
346.41744226773858
 51
352.339361060866
1001
ACDBBLOCKREPETAG
1070
     1
1071
      371
1005
123C0B
  0
LINE
  5
123C0C
  8
OBJECT
 10
177.6749527715001
 20
-718.38740026732739
 30
0.0
 11
214.16909879547171
 21
-713.86330116243505
 31
0.0
1001
ACDBBLOCKREPETAG
1070
     1
1071
      372
1005
123C0C
  0
ARC
  5
123C0D
  8
OBJECT
 10
178.90521351131969
 20
-728.31143465420064
 30
0.0
 40
10.0
 50
97.066778292994968
 51
184.01473437053241
1001
ACDBBLOCKREPETAG
1070
     1
1071
      373
1005
123C0D
  0
ARC
  5
123C0E
  8
OBJECT
 10
180.7814740187568
 20
-725.05587462886785
 30
0.0
 40
7.0
 50
97.066778292994968
 51
184.0147337750081
1001
ACDBBLOCKREPETAG
1070
     1
1071
      374
1005
123C0E
  0
CIRCLE
  5
123C0F
  8
OBJECT
 10
180.0
 20
-695.99999999984175
 30
0.0
 40
57.0
1001
ACDBBLOCKREPETAG
1070
     1
1071
      375
1005
123C0F
  0
POINT
  5
123C10
  8
DOTS
 10
180.0
 20
-695.99999999984175
 30
0.0
1001
ACDBBLOCKREPETAG
1070
     1
1071
      432
1005
123C10
  0
ARC
  5
123C11
  8
OBJECT
 10
180.0
 20
-695.99999999984175
 30
0.0
 40
72.0
 50
151.87781754764791
 51
208.12218245235209
1001
ACDBBLOCKREPETAG
1070
     1
1071
      436
1005
123C11
  0
LINE
  5
123C12
  8
OBJECT
 10
116.5
 20
-735.90927210545658
 30
0.0
 11
116.5
 21
-729.93744244914831
 31
0.0
1001
ACDBBLOCKREPETAG
1070
     1
1071
      437
1005
123C12
  0
LINE
  5
123C13
  8
OBJECT
 10
116.5
 20
-662.06255755053485
 30
0.0
 11
116.5
 21
-656.09072789422646
 31
0.0
1001
ACDBBLOCKREPETAG
1070
     1
1071
      438
1005
123C13
  0
ARC
  5
123C14
  8
OBJECT
 10
539.99999999987813
 20
-232.0
 30
0.0
 40
80.0
 50
140.80496566140209
 51
39.194967425983982
1001
ACDBBLOCKREPETAG
1070
     1
1071
      348
1005
123C14
  0
CIRCLE
  5
123C15
  8
OBJECT
 10
539.99999999987813
 20
-232.0
 30
0.0
 40
75.0
1001
ACDBBLOCKREPETAG
1070
     1
1071
      349
1005
123C15
  0
LINE
  5
123C16
  8
OBJECT
 10
502.14471807815403
 20
-268.37619593397289
 30
0.0
 11
514.51803169562299
 21
-194.91588972857789
 31
0.0
1001
ACDBBLOCKREPETAG
1070
     1
1071
      350
1005
123C16
  0
LINE
  5
123C17
  8
OBJECT
 10
510.26782143360163
 20
-188.73052394928891
 30
0.0
 11
514.51803169562299
 21
-194.91588972857789
 31
0.0
1001
ACDBBLOCKREPETAG
1070
     1
1071
      351
1005
123C17
  0
CIRCLE
  5
123C18
  8
OBJECT
 10
539.99999999987813
 20
-232.0
 30
0.0
 40
52.5
1001
ACDBBLOCKREPETAG
1070
     1
1071
      352
1005
123C18
  0
ARC
  5
123C19
  8
OBJECT
 10
539.99999999987813
 20
-232.0
 30
0.0
 40
50.0
 50
221.70180964355231
 51
258.52376955958221
1001
ACDBBLOCKREPETAG
1070
     1
1071
      353
1005
123C19
  0
ARC
  5
123C1A
  8
OBJECT
 10
539.99999999987813
 20
-232.0
 30
0.0
 40
50.0
 50
328.81994299990248
 51
124.4945062501202
1001
ACDBBLOCKREPETAG
1070
     1
1071
      354
1005
123C1A
  0
LINE
  5
123C1B
  8
OBJECT
 10
477.99999999987801
 20
-189.79810430798159
 30
0.0
 11
477.99999999987801
 21
-152.0
 31
0.0
1001
ACDBBLOCKREPETAG
1070
     1
1071
      355
1005
123C1B
  0
LINE
  5
123C1C
  8
OBJECT
 10
601.99999999987801
 20
-189.79810430798159
 30
0.0
 11
601.99999999987801
 21
-152.0
 31
0.0
1001
ACDBBLOCKREPETAG
1070
     1
1071
      356
1005
123C1C
  0
LINE
  5
123C1D
  8
OBJECT
 10
535.39548645325101
 20
-284.29769072338593
 30
0.0
 11
533.79865146424891
 21
-261.54596561436477
 31
0.0
1001
ACDBBLOCKREPETAG
1070
     1
1071
      368
1005
123C1D
  0
LINE
  5
123C1E
  8
OBJECT
 10
530.23323027264644
 20
-283.58352652829421
 30
0.0
 11
528.92975272648073
 21
-265.01156473709852
 31
0.0
1001
ACDBBLOCKREPETAG
1070
     1
1071
      369
1005
123C1E
  0
LINE
  5
123C1F
  8
OBJECT
 10
582.77722592625105
 20
-257.88646252472239
 30
0.0
 11
574.16909879534956
 21
-249.86330116259339
 31
0.0
1001
ACDBBLOCKREPETAG
1070
     1
1071
      370
1005
123C1F
  0
ARC
  5
123C20
  8
OBJECT
 10
523.28188966306152
 20
-249.88399287546051
 30
0.0
 40
60.031113246032611
 50
346.41744226774222
 51
352.33936106086571
1001
ACDBBLOCKREPETAG
1070
     1
1071
      371
1005
123C20
  0
LINE
  5
123C21
  8
OBJECT
 10
537.67495277137823
 20
-254.38740026748559
 30
0.0
 11
574.16909879534956
 21
-249.86330116259339
 31
0.0
1001
ACDBBLOCKREPETAG
1070
     1
1071
      372
1005
123C21
  0
ARC
  5
123C22
  8
OBJECT
 10
538.90521351119776
 20
-264.31143465435889
 30
0.0
 40
10.0
 50
97.066778292998421
 51
184.01473437053559
1001
ACDBBLOCKREPETAG
1070
     1
1071
      373
1005
123C22
  0
ARC
  5
123C23
  8
OBJECT
 10
540.78147401863475
 20
-261.05587462902628
 30
0.0
 40
7.0
 50
97.066778292998421
 51
184.01473377500969
1001
ACDBBLOCKREPETAG
1070
     1
1071
      374
1005
123C23
  0
CIRCLE
  5
123C24
  8
OBJECT
 10
539.99999999987813
 20
-232.0
 30
0.0
 40
57.0
1001
ACDBBLOCKREPETAG
1070
     1
1071
      375
1005
123C24
  0
POINT
  5
123C25
  8
DOTS
 10
539.99999999987813
 20
-232.0
 30
0.0
1001
ACDBBLOCKREPETAG
1070
     1
1071
      432
1005
123C25
  0
ARC
  5
123C26
  8
OBJECT
 10
539.99999999987813
 20
-232.0
 30
0.0
 40
72.0
 50
151.87781754764791
 51
208.12218245235209
1001
ACDBBLOCKREPETAG
1070
     1
1071
      436
1005
123C26
  0
LINE
  5
123C27
  8
OBJECT
 10
476.49999999987813
 20
-271.90927210561489
 30
0.0
 11
476.49999999987813
 21
-265.93744244930667
 31
0.0
1001
ACDBBLOCKREPETAG
1070
     1
1071
      437
1005
123C27
  0
LINE
  5
123C28
  8
OBJECT
 10
476.49999999987813
 20
-198.0625575506933
 30
0.0
 11
476.49999999987813
 21
-192.090727894385
 31
0.0
1001
ACDBBLOCKREPETAG
1070
     1
1071
      438
1005
123C28
  0
ARC
  5
123C29
  8
OBJECT
 10
180.0
 20
-232.0
 30
0.0
 40
80.0
 50
140.8049656614042
 51
39.194967425982952
1001
ACDBBLOCKREPETAG
1070
     1
1071
      348
1005
123C29
  0
CIRCLE
  5
123C2A
  8
OBJECT
 10
180.0
 20
-232.0
 30
0.0
 40
75.0
1001
ACDBBLOCKREPETAG
1070
     1
1071
      349
1005
123C2A
  0
LINE
  5
123C2B
  8
OBJECT
 10
142.14471807827579
 20
-268.37619593397289
 30
0.0
 11
154.51803169574481
 21
-194.91588972857789
 31
0.0
1001
ACDBBLOCKREPETAG
1070
     1
1071
      350
1005
123C2B
  0
LINE
  5
123C2C
  8
OBJECT
 10
150.2678214337235
 20
-188.73052394928891
 30
0.0
 11
154.51803169574481
 21
-194.91588972857789
 31
0.0
1001
ACDBBLOCKREPETAG
1070
     1
1071
      351
1005
123C2C
  0
CIRCLE
  5
123C2D
  8
OBJECT
 10
180.0
 20
-232.0
 30
0.0
 40
52.5
1001
ACDBBLOCKREPETAG
1070
     1
1071
      352
1005
123C2D
  0
ARC
  5
123C2E
  8
OBJECT
 10
180.0
 20
-232.0
 30
0.0
 40
50.0
 50
221.70180964355129
 51
258.5237695595855
1001
ACDBBLOCKREPETAG
1070
     1
1071
      353
1005
123C2E
  0
ARC
  5
123C2F
  8
OBJECT
 10
180.0
 20
-232.0
 30
0.0
 40
50.0
 50
328.81994299990328
 51
124.4945062501189
1001
ACDBBLOCKREPETAG
1070
     1
1071
      354
1005
123C2F
  0
LINE
  5
123C30
  8
OBJECT
 10
118.0
 20
-189.79810430798159
 30
0.0
 11
118.0
 21
-152.0
 31
0.0
1001
ACDBBLOCKREPETAG
1070
     1
1071
      355
1005
123C30
  0
LINE
  5
123C31
  8
OBJECT
 10
242.0
 20
-189.79810430798159
 30
0.0
 11
242.0
 21
-152.0
 31
0.0
1001
ACDBBLOCKREPETAG
1070
     1
1071
      356
1005
123C31
  0
LINE
  5
123C32
  8
OBJECT
 10
175.3954864533728
 20
-284.29769072338593
 30
0.0
 11
173.79865146437081
 21
-261.54596561436477
 31
0.0
1001
ACDBBLOCKREPETAG
1070
     1
1071
      368
1005
123C32
  0
LINE
  5
123C33
  8
OBJECT
 10
170.23323027276831
 20
-283.58352652829421
 30
0.0
 11
168.9297527266026
 21
-265.01156473709852
 31
0.0
1001
ACDBBLOCKREPETAG
1070
     1
1071
      369
1005
123C33
  0
LINE
  5
123C34
  8
OBJECT
 10
222.77722592637289
 20
-257.88646252472239
 30
0.0
 11
214.16909879547171
 21
-249.86330116259339
 31
0.0
1001
ACDBBLOCKREPETAG
1070
     1
1071
      370
1005
123C34
  0
ARC
  5
123C35
  8
OBJECT
 10
163.28188966318339
 20
-249.88399287546051
 30
0.0
 40
60.031113246032611
 50
346.41744226774182
 51
352.339361060866
1001
ACDBBLOCKREPETAG
1070
     1
1071
      371
1005
123C35
  0
LINE
  5
123C36
  8
OBJECT
 10
177.6749527715001
 20
-254.38740026748559
 30
0.0
 11
214.16909879547171
 21
-249.86330116259339
 31
0.0
1001
ACDBBLOCKREPETAG
1070
     1
1071
      372
1005
123C36
  0
ARC
  5
123C37
  8
OBJECT
 10
178.90521351131969
 20
-264.31143465435889
 30
0.0
 40
10.0
 50
97.066778292995238
 51
184.01473437053559
1001
ACDBBLOCKREPETAG
1070
     1
1071
      373
1005
123C37
  0
ARC
  5
123C38
  8
OBJECT
 10
180.7814740187568
 20
-261.05587462902628
 30
0.0
 40
7.0
 50
97.066778292995238
 51
184.01473377500969
1001
ACDBBLOCKREPETAG
1070
     1
1071
      374
1005
123C38
  0
CIRCLE
  5
123C39
  8
OBJECT
 10
180.0
 20
-232.0
 30
0.0
 40
57.0
1001
ACDBBLOCKREPETAG
1070
     1
1071
      375
1005
123C39
  0
POINT
  5
123C3A
  8
DOTS
 10
180.0
 20
-232.0
 30
0.0
1001
ACDBBLOCKREPETAG
1070
     1
1071
      432
1005
123C3A
  0
ARC
  5
123C3B
  8
OBJECT
 10
180.0
 20
-232.0
 30
0.0
 40
72.0
 50
151.87781754764791
 51
208.12218245235209
1001
ACDBBLOCKREPETAG
1070
     1
1071
      436
1005
123C3B
  0
LINE
  5
123C3C
  8
OBJECT
 10
116.5
 20
-271.90927210561489
 30
0.0
 11
116.5
 21
-265.93744244930667
 31
0.0
1001
ACDBBLOCKREPETAG
1070
     1
1071
      437
1005
123C3C
  0
LINE
  5
123C3D
  8
OBJECT
 10
116.5
 20
-198.0625575506933
 30
0.0
 11
116.5
 21
-192.090727894385
 31
0.0
1001
ACDBBLOCKREPETAG
1070
     1
1071
      438
1005
123C3D
  0
LINE
  5
123C3E
  8
CENTER
 10
4577.0
 20
-586.0
 30
0.0
 11
4423.0
 21
-586.0
 31
0.0
1001
ACDBBLOCKREPETAG
1070
     1
1071
       17
1005
123C3E
  0
CIRCLE
  5
123C3F
  8
OBJECT
 10
4500.0
 20
-586.0
 30
0.0
 40
41.5
1001
ACDBBLOCKREPETAG
1070
     1
1071
       19
1005
123C3F
  0
CIRCLE
  5
123C40
  8
OBJECT
 10
4500.0
 20
-586.0
 30
0.0
 40
54.0
1001
ACDBBLOCKREPETAG
1070
     1
1071
       20
1005
123C40
  0
ARC
  5
123C41
  8
OBJECT
 10
4500.0
 20
-586.0
 30
0.0
 40
62.0
 50
287.89655112920718
 51
252.10344887079279
1001
ACDBBLOCKREPETAG
1070
     1
1071
       21
1005
123C41
  0
LINE
  5
123C42
  8
OBJECT
 10
4480.9474411167421
 20
-645.0
 30
0.0
 11
4519.052558883257
 21
-645.0
 31
0.0
1001
ACDBBLOCKREPETAG
1070
     1
1071
       22
1005
123C42
  0
LINE
  5
123C43
  8
OBJECT
 10
4133.0
 20
-524.0
 30
0.0
 11
4140.0
 21
-524.0
 31
0.0
1001
ACDBBLOCKREPETAG
1070
     1
1071
       45
1005
123C43
  0
LINE
  5
123C44
  8
OBJECT
 10
4140.0
 20
-524.0
 30
0.0
 11
4140.0
 21
-645.0
 31
0.0
1001
ACDBBLOCKREPETAG
1070
     1
1071
       46
1005
123C44
  0
LINE
  5
123C45
  8
OBJECT
 10
4133.0
 20
-645.0
 30
0.0
 11
4133.0
 21
-524.0
 31
0.0
1001
ACDBBLOCKREPETAG
1070
     1
1071
       47
1005
123C45
  0
LINE
  5
123C46
  8
CENTER
 10
4155.0
 20
-586.0
 30
0.0
 11
4071.0
 21
-586.0
 31
0.0
1001
ACDBBLOCKREPETAG
1070
     1
1071
       48
1005
123C46
  0
LINE
  5
123C47
  8
OBJECT
 10
4133.0
 20
-527.0
 30
0.0
 11
4097.0
 21
-527.0
 31
0.0
1001
ACDBBLOCKREPETAG
1070
     1
1071
       49
1005
123C47
  0
LINE
  5
123C48
  8
OBJECT
 10
4097.0
 20
-527.0
 30
0.0
 11
4097.0
 21
-645.0
 31
0.0
1001
ACDBBLOCKREPETAG
1070
     1
1071
       50
1005
123C48
  0
LINE
  5
123C49
  8
OBJECT
 10
4097.0
 20
-645.0
 30
0.0
 11
4140.0
 21
-645.0
 31
0.0
1001
ACDBBLOCKREPETAG
1070
     1
1071
       51
1005
123C49
  0
LINE
  5
123C4A
  8
OBJECT
 10
4093.0
 20
-531.5
 30
0.0
 11
4086.0
 21
-531.5
 31
0.0
1001
ACDBBLOCKREPETAG
1070
     1
1071
       52
1005
123C4A
  0
LINE
  5
123C4B
  8
OBJECT
 10
4086.0
 20
-640.5
 30
0.0
 11
4093.0
 21
-640.5
 31
0.0
1001
ACDBBLOCKREPETAG
1070
     1
1071
       53
1005
123C4B
  0
LINE
  5
123C4C
  8
OBJECT
 10
4093.0
 20
-640.5
 30
0.0
 11
4093.0
 21
-531.5
 31
0.0
1001
ACDBBLOCKREPETAG
1070
     1
1071
       54
1005
123C4C
  0
LINE
  5
123C4D
  8
OBJECT
 10
4097.0
 20
-527.0
 30
0.0
 11
4093.0
 21
-531.5
 31
0.0
1001
ACDBBLOCKREPETAG
1070
     1
1071
       55
1005
123C4D
  0
LINE
  5
123C4E
  8
OBJECT
 10
4097.0
 20
-645.0
 30
0.0
 11
4093.0
 21
-640.5
 31
0.0
1001
ACDBBLOCKREPETAG
1070
     1
1071
       56
1005
123C4E
  0
LINE
  5
123C4F
  8
OBJECT
 10
4083.0
 20
-524.0
 30
0.0
 11
4080.0
 21
-524.0
 31
0.0
1001
ACDBBLOCKREPETAG
1070
     1
1071
       57
1005
123C4F
  0
ARC
  5
123C50
  8
OBJECT
 10
4083.0
 20
-527.0
 30
0.0
 40
3.0
 50
0.0
 51
90.0
1001
ACDBBLOCKREPETAG
1070
     1
1071
       58
1005
123C50
  0
LINE
  5
123C51
  8
OBJECT
 10
4080.0
 20
-648.0
 30
0.0
 11
4083.0
 21
-648.0
 31
0.0
1001
ACDBBLOCKREPETAG
1070
     1
1071
       59
1005
123C51
  0
ARC
  5
123C52
  8
OBJECT
 10
4083.0
 20
-645.0
 30
0.0
 40
3.0
 50
270.0
 51
0.0
1001
ACDBBLOCKREPETAG
1070
     1
1071
       60
1005
123C52
  0
LINE
  5
123C53
  8
OBJECT
 10
4086.0
 20
-645.0
 30
0.0
 11
4086.0
 21
-527.0
 31
0.0
1001
ACDBBLOCKREPETAG
1070
     1
1071
       61
1005
123C53
  0
LINE
  5
123C54
  8
HIDDEN
 10
4088.0
 20
-541.5
 30
0.0
 11
4088.0
 21
-630.49999999999977
 31
0.0
1001
ACDBBLOCKREPETAG
1070
     1
1071
       63
1005
123C54
  0
LINE
  5
123C55
  8
OBJECT
 10
4925.0
 20
-3478.9999999999968
 30
0.0
 11
4925.0
 21
-3602.9999999999968
 31
0.0
1001
ACDBBLOCKREPETAG
1070
     1
1071
        6
1005
123C55
  0
LINE
  5
123C56
  8
OBJECT
 10
5074.9999999997999
 20
-3602.9999999997758
 30
0.0
 11
5080.0
 21
-3602.9999999999968
 31
0.0
1001
ACDBBLOCKREPETAG
1070
     1
1071
        9
1005
123C56
  0
LINE
  5
123C57
  8
OBJECT
 10
5080.0
 20
-3478.9999999999968
 30
0.0
 11
4925.0
 21
-3478.9999999999968
 31
0.0
1001
ACDBBLOCKREPETAG
1070
     1
1071
       10
1005
123C57
  0
ARC
  5
123C58
  8
OBJECT
 10
5200.6872746716726
 20
-3594.408099410105
 30
0.0
 40
170.6350503965856
 50
137.44134459184301
 51
149.9194958133665
1001
ACDBBLOCKREPETAG
1070
     1
1071
       15
1005
123C58
  0
ARC
  5
123C59
  8
OBJECT
 10
5118.8455987040506
 20
-3550.8827266953631
 30
0.0
 40
78.072222021763665
 50
147.4551531037684
 51
164.66365997719291
1001
ACDBBLOCKREPETAG
1070
     1
1071
       16
1005
123C59
  0
ARC
  5
123C5A
  8
OBJECT
 10
5085.7554349608727
 20
-3540.9999999999968
 30
0.0
 40
43.55353926885617
 50
165.6884523008477
 51
194.3115476991523
1001
ACDBBLOCKREPETAG
1070
     1
1071
       17
1005
123C5A
  0
ARC
  5
123C5B
  8
OBJECT
 10
5200.6872746716726
 20
-3487.5919005898891
 30
0.0
 40
170.6350503965856
 50
210.0805041866335
 51
222.55865540815699
1001
ACDBBLOCKREPETAG
1070
     1
1071
       18
1005
123C5B
  0
ARC
  5
123C5C
  8
OBJECT
 10
5118.8455987040506
 20
-3531.1172733046319
 30
0.0
 40
78.072222021763665
 50
195.33634002280701
 51
212.5448468962316
1001
ACDBBLOCKREPETAG
1070
     1
1071
       19
1005
123C5C
  0
POINT
  5
123C5D
  8
DOTS
 10
5000.0
 20
-3599.9999999999968
 30
0.0
1001
ACDBBLOCKREPETAG
1070
     1
1071
      186
1005
123C5D
  0
LINE
  5
123C5E
  8
OBJECT
 10
5060.0
 20
-3472.9999999999968
 30
0.0
 11
4940.0
 21
-3472.9999999999968
 31
0.0
1001
ACDBBLOCKREPETAG
1070
     1
1071
      215
1005
123C5E
  0
ARC
  5
123C5F
  8
OBJECT
 10
4940.0
 20
-3475.9999999999968
 30
0.0
 40
3.0
 50
90.0
 51
180.0
1001
ACDBBLOCKREPETAG
1070
     1
1071
      216
1005
123C5F
  0
LINE
  5
123C60
  8
OBJECT
 10
4937.0
 20
-3475.9999999999968
 30
0.0
 11
4937.0
 21
-3478.9999999999968
 31
0.0
1001
ACDBBLOCKREPETAG
1070
     1
1071
      217
1005
123C60
  0
LINE
  5
123C61
  8
OBJECT
 10
5063.0
 20
-3475.9999999999968
 30
0.0
 11
5063.0
 21
-3478.9999999999968
 31
0.0
1001
ACDBBLOCKREPETAG
1070
     1
1071
      218
1005
123C61
  0
ARC
  5
123C62
  8
OBJECT
 10
5060.0
 20
-3475.9999999999968
 30
0.0
 40
3.0
 50
0.0
 51
90.0
1001
ACDBBLOCKREPETAG
1070
     1
1071
      219
1005
123C62
  0
LINE
  5
123C63
  8
OBJECT
 10
4943.0
 20
-3404.9999999999968
 30
0.0
 11
4943.0
 21
-3472.9999999999968
 31
0.0
1001
ACDBBLOCKREPETAG
1070
     1
1071
      220
1005
123C63
  0
LINE
  5
123C64
  8
OBJECT
 10
5057.0
 20
-3404.9999999999968
 30
0.0
 11
4943.0
 21
-3404.9999999999968
 31
0.0
1001
ACDBBLOCKREPETAG
1070
     1
1071
      221
1005
123C64
  0
LINE
  5
123C65
  8
OBJECT
 10
5057.0
 20
-3404.9999999999968
 30
0.0
 11
5057.0
 21
-3472.9999999999968
 31
0.0
1001
ACDBBLOCKREPETAG
1070
     1
1071
      222
1005
123C65
  0
LINE
  5
123C66
  8
CENTER
 10
5000.0
 20
-3389.9999999999968
 30
0.0
 11
5000.0
 21
-3614.9999999999968
 31
0.0
1001
ACDBBLOCKREPETAG
1070
     1
1071
      223
1005
123C66
  0
LINE
  5
123C67
  8
HIDDEN
 10
5052.5
 20
-3404.9999999999968
 30
0.0
 11
5052.5
 21
-3478.9999999999968
 31
0.0
1001
ACDBBLOCKREPETAG
1070
     1
1071
      224
1005
123C67
  0
LINE
  5
123C68
  8
HIDDEN
 10
4947.5
 20
-3404.9999999999968
 30
0.0
 11
4947.5
 21
-3478.9999999999968
 31
0.0
1001
ACDBBLOCKREPETAG
1070
     1
1071
      225
1005
123C68
  0
LINE
  5
123C69
  8
OBJECT
 10
4325.0
 20
-3478.9999999999968
 30
0.0
 11
4325.0
 21
-3602.9999999999968
 31
0.0
1001
ACDBBLOCKREPETAG
1070
     1
1071
       26
1005
123C69
  0
LINE
  5
123C6A
  8
OBJECT
 10
4472.0
 20
-3478.9999999999968
 30
0.0
 11
4325.0
 21
-3478.9999999999968
 31
0.0
1001
ACDBBLOCKREPETAG
1070
     1
1071
       30
1005
123C6A
  0
LINE
  5
123C6B
  8
OBJECT
 10
4475.0
 20
-3590.9999999999968
 30
0.0
 11
4475.0
 21
-3602.9999999999968
 31
0.0
1001
ACDBBLOCKREPETAG
1070
     1
1071
       34
1005
123C6B
  0
POINT
  5
123C6C
  8
DOTS
 10
4400.0
 20
-3599.9999999999968
 30
0.0
1001
ACDBBLOCKREPETAG
1070
     1
1071
      187
1005
123C6C
  0
LINE
  5
123C6D
  8
OBJECT
 10
4460.0
 20
-3472.9999999999968
 30
0.0
 11
4340.0
 21
-3472.9999999999968
 31
0.0
1001
ACDBBLOCKREPETAG
1070
     1
1071
      226
1005
123C6D
  0
ARC
  5
123C6E
  8
OBJECT
 10
4340.0
 20
-3475.9999999999968
 30
0.0
 40
3.0
 50
90.0
 51
180.0
1001
ACDBBLOCKREPETAG
1070
     1
1071
      227
1005
123C6E
  0
LINE
  5
123C6F
  8
OBJECT
 10
4337.0
 20
-3475.9999999999968
 30
0.0
 11
4337.0
 21
-3478.9999999999968
 31
0.0
1001
ACDBBLOCKREPETAG
1070
     1
1071
      228
1005
123C6F
  0
LINE
  5
123C70
  8
OBJECT
 10
4463.0
 20
-3475.9999999999968
 30
0.0
 11
4463.0
 21
-3478.9999999999968
 31
0.0
1001
ACDBBLOCKREPETAG
1070
     1
1071
      229
1005
123C70
  0
ARC
  5
123C71
  8
OBJECT
 10
4460.0
 20
-3475.9999999999968
 30
0.0
 40
3.0
 50
0.0
 51
90.0
1001
ACDBBLOCKREPETAG
1070
     1
1071
      230
1005
123C71
  0
LINE
  5
123C72
  8
OBJECT
 10
4343.0
 20
-3404.9999999999968
 30
0.0
 11
4343.0
 21
-3472.9999999999968
 31
0.0
1001
ACDBBLOCKREPETAG
1070
     1
1071
      231
1005
123C72
  0
LINE
  5
123C73
  8
OBJECT
 10
4457.0
 20
-3404.9999999999968
 30
0.0
 11
4343.0
 21
-3404.9999999999968
 31
0.0
1001
ACDBBLOCKREPETAG
1070
     1
1071
      232
1005
123C73
  0
LINE
  5
123C74
  8
OBJECT
 10
4457.0
 20
-3404.9999999999968
 30
0.0
 11
4457.0
 21
-3472.9999999999968
 31
0.0
1001
ACDBBLOCKREPETAG
1070
     1
1071
      233
1005
123C74
  0
LINE
  5
123C75
  8
CENTER
 10
4400.0
 20
-3389.9999999999968
 30
0.0
 11
4400.0
 21
-3614.9999999999968
 31
0.0
1001
ACDBBLOCKREPETAG
1070
     1
1071
      234
1005
123C75
  0
LINE
  5
123C76
  8
HIDDEN
 10
4452.4999999999991
 20
-3404.9999999999968
 30
0.0
 11
4452.4999999999991
 21
-3478.9999999999968
 31
0.0
1001
ACDBBLOCKREPETAG
1070
     1
1071
      235
1005
123C76
  0
LINE
  5
123C77
  8
HIDDEN
 10
4347.5
 20
-3404.9999999999968
 30
0.0
 11
4347.5
 21
-3478.9999999999968
 31
0.0
1001
ACDBBLOCKREPETAG
1070
     1
1071
      236
1005
123C77
  0
LINE
  5
123C78
  8
OBJECT
 10
4463.4999999998709
 20
-3490.9999999999968
 30
0.0
 11
4472.0
 21
-3490.9999999999968
 31
0.0
1001
ACDBBLOCKREPETAG
1070
     1
1071
      277
1005
123C78
  0
LINE
  5
123C79
  8
OBJECT
 10
4463.4999999999236
 20
-3590.9999999999968
 30
0.0
 11
4474.9999999999236
 21
-3590.9999999999968
 31
0.0
1001
ACDBBLOCKREPETAG
1070
     1
1071
      278
1005
123C79
  0
LINE
  5
123C7A
  8
OBJECT
 10
4472.0
 20
-3490.9999999999968
 30
0.0
 11
4472.0
 21
-3478.9999999999968
 31
0.0
1001
ACDBBLOCKREPETAG
1070
     1
1071
      279
1005
123C7A
  0
LINE
  5
123C7B
  8
OBJECT
 10
4463.4999999998581
 20
-3478.9999999999968
 30
0.0
 11
4463.4999999999982
 21
-3590.9999999999968
 31
0.0
1001
ACDBBLOCKREPETAG
1070
     1
1071
      280
1005
123C7B
  0
LINE
  5
123C7C
  8
OBJECT
 10
3925.0
 20
-3478.9999999999968
 30
0.0
 11
3925.0
 21
-3602.9999999999968
 31
0.0
1001
ACDBBLOCKREPETAG
1070
     1
1071
        6
1005
123C7C
  0
LINE
  5
123C7D
  8
OBJECT
 10
4074.999999999799
 20
-3602.9999999997758
 30
0.0
 11
4080.0
 21
-3602.9999999999968
 31
0.0
1001
ACDBBLOCKREPETAG
1070
     1
1071
        9
1005
123C7D
  0
LINE
  5
123C7E
  8
OBJECT
 10
4080.0
 20
-3478.9999999999968
 30
0.0
 11
3925.0
 21
-3478.9999999999968
 31
0.0
1001
ACDBBLOCKREPETAG
1070
     1
1071
       10
1005
123C7E
  0
ARC
  5
123C7F
  8
OBJECT
 10
4200.6872746716726
 20
-3594.408099410105
 30
0.0
 40
170.6350503965856
 50
137.44134459184301
 51
149.9194958133665
1001
ACDBBLOCKREPETAG
1070
     1
1071
       15
1005
123C7F
  0
ARC
  5
123C80
  8
OBJECT
 10
4118.8455987040506
 20
-3550.8827266953631
 30
0.0
 40
78.072222021763665
 50
147.4551531037684
 51
164.663659977186
1001
ACDBBLOCKREPETAG
1070
     1
1071
       16
1005
123C80
  0
ARC
  5
123C81
  8
OBJECT
 10
4085.7554349608722
 20
-3540.9999999999968
 30
0.0
 40
43.55353926885617
 50
165.6884523008477
 51
194.3115476991523
1001
ACDBBLOCKREPETAG
1070
     1
1071
       17
1005
123C81
  0
ARC
  5
123C82
  8
OBJECT
 10
4200.6872746716726
 20
-3487.5919005898891
 30
0.0
 40
170.6350503965856
 50
210.0805041866335
 51
222.55865540815699
1001
ACDBBLOCKREPETAG
1070
     1
1071
       18
1005
123C82
  0
ARC
  5
123C83
  8
OBJECT
 10
4118.8455987040506
 20
-3531.1172733046319
 30
0.0
 40
78.072222021763665
 50
195.33634002281391
 51
212.5448468962316
1001
ACDBBLOCKREPETAG
1070
     1
1071
       19
1005
123C83
  0
POINT
  5
123C84
  8
DOTS
 10
4000.0
 20
-3599.9999999999968
 30
0.0
1001
ACDBBLOCKREPETAG
1070
     1
1071
      186
1005
123C84
  0
LINE
  5
123C85
  8
OBJECT
 10
4060.0
 20
-3472.9999999999968
 30
0.0
 11
3940.0
 21
-3472.9999999999968
 31
0.0
1001
ACDBBLOCKREPETAG
1070
     1
1071
      215
1005
123C85
  0
ARC
  5
123C86
  8
OBJECT
 10
3940.0
 20
-3475.9999999999968
 30
0.0
 40
3.0
 50
90.0
 51
180.0
1001
ACDBBLOCKREPETAG
1070
     1
1071
      216
1005
123C86
  0
LINE
  5
123C87
  8
OBJECT
 10
3937.0
 20
-3475.9999999999968
 30
0.0
 11
3937.0
 21
-3478.9999999999968
 31
0.0
1001
ACDBBLOCKREPETAG
1070
     1
1071
      217
1005
123C87
  0
LINE
  5
123C88
  8
OBJECT
 10
4063.0
 20
-3475.9999999999968
 30
0.0
 11
4063.0
 21
-3478.9999999999968
 31
0.0
1001
ACDBBLOCKREPETAG
1070
     1
1071
      218
1005
123C88
  0
ARC
  5
123C89
  8
OBJECT
 10
4060.0
 20
-3475.9999999999968
 30
0.0
 40
3.0
 50
0.0
 51
90.0
1001
ACDBBLOCKREPETAG
1070
     1
1071
      219
1005
123C89
  0
LINE
  5
123C8A
  8
OBJECT
 10
3943.0
 20
-3404.9999999999968
 30
0.0
 11
3943.0
 21
-3472.9999999999968
 31
0.0
1001
ACDBBLOCKREPETAG
1070
     1
1071
      220
1005
123C8A
  0
LINE
  5
123C8B
  8
OBJECT
 10
4057.0
 20
-3404.9999999999968
 30
0.0
 11
3943.0
 21
-3404.9999999999968
 31
0.0
1001
ACDBBLOCKREPETAG
1070
     1
1071
      221
1005
123C8B
  0
LINE
  5
123C8C
  8
OBJECT
 10
4057.0
 20
-3404.9999999999968
 30
0.0
 11
4057.0
 21
-3472.9999999999968
 31
0.0
1001
ACDBBLOCKREPETAG
1070
     1
1071
      222
1005
123C8C
  0
LINE
  5
123C8D
  8
CENTER
 10
4000.0
 20
-3389.9999999999968
 30
0.0
 11
4000.0
 21
-3614.9999999999968
 31
0.0
1001
ACDBBLOCKREPETAG
1070
     1
1071
      223
1005
123C8D
  0
LINE
  5
123C8E
  8
HIDDEN
 10
4052.5
 20
-3404.9999999999968
 30
0.0
 11
4052.5
 21
-3478.9999999999968
 31
0.0
1001
ACDBBLOCKREPETAG
1070
     1
1071
      224
1005
123C8E
  0
LINE
  5
123C8F
  8
HIDDEN
 10
3947.5
 20
-3404.9999999999968
 30
0.0
 11
3947.5
 21
-3478.9999999999968
 31
0.0
1001
ACDBBLOCKREPETAG
1070
     1
1071
      225
1005
123C8F
  0
LINE
  5
123C90
  8
OBJECT
 10
3325.0
 20
-3478.9999999999968
 30
0.0
 11
3325.0
 21
-3602.9999999999968
 31
0.0
1001
ACDBBLOCKREPETAG
1070
     1
1071
       26
1005
123C90
  0
LINE
  5
123C91
  8
OBJECT
 10
3472.0
 20
-3478.9999999999968
 30
0.0
 11
3325.0
 21
-3478.9999999999968
 31
0.0
1001
ACDBBLOCKREPETAG
1070
     1
1071
       30
1005
123C91
  0
LINE
  5
123C92
  8
OBJECT
 10
3475.0
 20
-3590.9999999999968
 30
0.0
 11
3475.0
 21
-3602.9999999999968
 31
0.0
1001
ACDBBLOCKREPETAG
1070
     1
1071
       34
1005
123C92
  0
POINT
  5
123C93
  8
DOTS
 10
3400.0
 20
-3599.9999999999968
 30
0.0
1001
ACDBBLOCKREPETAG
1070
     1
1071
      187
1005
123C93
  0
LINE
  5
123C94
  8
OBJECT
 10
3460.0
 20
-3472.9999999999968
 30
0.0
 11
3340.0
 21
-3472.9999999999968
 31
0.0
1001
ACDBBLOCKREPETAG
1070
     1
1071
      226
1005
123C94
  0
ARC
  5
123C95
  8
OBJECT
 10
3340.0
 20
-3475.9999999999968
 30
0.0
 40
3.0
 50
90.0
 51
180.0
1001
ACDBBLOCKREPETAG
1070
     1
1071
      227
1005
123C95
  0
LINE
  5
123C96
  8
OBJECT
 10
3337.0
 20
-3475.9999999999968
 30
0.0
 11
3337.0
 21
-3478.9999999999968
 31
0.0
1001
ACDBBLOCKREPETAG
1070
     1
1071
      228
1005
123C96
  0
LINE
  5
123C97
  8
OBJECT
 10
3463.0
 20
-3475.9999999999968
 30
0.0
 11
3463.0
 21
-3478.9999999999968
 31
0.0
1001
ACDBBLOCKREPETAG
1070
     1
1071
      229
1005
123C97
  0
ARC
  5
123C98
  8
OBJECT
 10
3460.0
 20
-3475.9999999999968
 30
0.0
 40
3.0
 50
0.0
 51
90.0
1001
ACDBBLOCKREPETAG
1070
     1
1071
      230
1005
123C98
  0
LINE
  5
123C99
  8
OBJECT
 10
3343.0
 20
-3404.9999999999968
 30
0.0
 11
3343.0
 21
-3472.9999999999968
 31
0.0
1001
ACDBBLOCKREPETAG
1070
     1
1071
      231
1005
123C99
  0
LINE
  5
123C9A
  8
OBJECT
 10
3457.0
 20
-3404.9999999999968
 30
0.0
 11
3343.0
 21
-3404.9999999999968
 31
0.0
1001
ACDBBLOCKREPETAG
1070
     1
1071
      232
1005
123C9A
  0
LINE
  5
123C9B
  8
OBJECT
 10
3457.0
 20
-3404.9999999999968
 30
0.0
 11
3457.0
 21
-3472.9999999999968
 31
0.0
1001
ACDBBLOCKREPETAG
1070
     1
1071
      233
1005
123C9B
  0
LINE
  5
123C9C
  8
CENTER
 10
3400.0
 20
-3389.9999999999968
 30
0.0
 11
3400.0
 21
-3614.9999999999968
 31
0.0
1001
ACDBBLOCKREPETAG
1070
     1
1071
      234
1005
123C9C
  0
LINE
  5
123C9D
  8
HIDDEN
 10
3452.5
 20
-3404.9999999999968
 30
0.0
 11
3452.5
 21
-3478.9999999999968
 31
0.0
1001
ACDBBLOCKREPETAG
1070
     1
1071
      235
1005
123C9D
  0
LINE
  5
123C9E
  8
HIDDEN
 10
3347.5
 20
-3404.9999999999968
 30
0.0
 11
3347.5
 21
-3478.9999999999968
 31
0.0
1001
ACDBBLOCKREPETAG
1070
     1
1071
      236
1005
123C9E
  0
LINE
  5
123C9F
  8
OBJECT
 10
3463.499999999874
 20
-3490.9999999999968
 30
0.0
 11
3472.0
 21
-3490.9999999999968
 31
0.0
1001
ACDBBLOCKREPETAG
1070
     1
1071
      277
1005
123C9F
  0
LINE
  5
123CA0
  8
OBJECT
 10
3463.4999999999241
 20
-3590.9999999999968
 30
0.0
 11
3474.9999999999241
 21
-3590.9999999999968
 31
0.0
1001
ACDBBLOCKREPETAG
1070
     1
1071
      278
1005
123CA0
  0
LINE
  5
123CA1
  8
OBJECT
 10
3472.0
 20
-3490.9999999999968
 30
0.0
 11
3472.0
 21
-3478.9999999999968
 31
0.0
1001
ACDBBLOCKREPETAG
1070
     1
1071
      279
1005
123CA1
  0
LINE
  5
123CA2
  8
OBJECT
 10
3463.499999999859
 20
-3478.9999999999968
 30
0.0
 11
3463.5
 21
-3590.9999999999968
 31
0.0
1001
ACDBBLOCKREPETAG
1070
     1
1071
      280
1005
123CA2
  0
LINE
  5
123CA3
  8
OBJECT
 10
2925.0
 20
-3478.9999999999968
 30
0.0
 11
2925.0
 21
-3602.9999999999968
 31
0.0
1001
ACDBBLOCKREPETAG
1070
     1
1071
        6
1005
123CA3
  0
LINE
  5
123CA4
  8
OBJECT
 10
3074.9999999997999
 20
-3602.9999999997758
 30
0.0
 11
3080.0
 21
-3602.9999999999968
 31
0.0
1001
ACDBBLOCKREPETAG
1070
     1
1071
        9
1005
123CA4
  0
LINE
  5
123CA5
  8
OBJECT
 10
3080.0
 20
-3478.9999999999968
 30
0.0
 11
2925.0
 21
-3478.9999999999968
 31
0.0
1001
ACDBBLOCKREPETAG
1070
     1
1071
       10
1005
123CA5
  0
ARC
  5
123CA6
  8
OBJECT
 10
3200.6872746716722
 20
-3594.408099410105
 30
0.0
 40
170.6350503965856
 50
137.44134459184301
 51
149.9194958133665
1001
ACDBBLOCKREPETAG
1070
     1
1071
       15
1005
123CA6
  0
ARC
  5
123CA7
  8
OBJECT
 10
3118.8455987040511
 20
-3550.8827266953631
 30
0.0
 40
78.072222021763665
 50
147.4551531037684
 51
164.663659977186
1001
ACDBBLOCKREPETAG
1070
     1
1071
       16
1005
123CA7
  0
ARC
  5
123CA8
  8
OBJECT
 10
3085.7554349608731
 20
-3540.9999999999968
 30
0.0
 40
43.55353926885617
 50
165.6884523008477
 51
194.3115476991523
1001
ACDBBLOCKREPETAG
1070
     1
1071
       17
1005
123CA8
  0
ARC
  5
123CA9
  8
OBJECT
 10
3200.6872746716722
 20
-3487.5919005898891
 30
0.0
 40
170.6350503965856
 50
210.0805041866335
 51
222.55865540815699
1001
ACDBBLOCKREPETAG
1070
     1
1071
       18
1005
123CA9
  0
ARC
  5
123CAA
  8
OBJECT
 10
3118.8455987040511
 20
-3531.1172733046319
 30
0.0
 40
78.072222021763665
 50
195.33634002281391
 51
212.5448468962316
1001
ACDBBLOCKREPETAG
1070
     1
1071
       19
1005
123CAA
  0
POINT
  5
123CAB
  8
DOTS
 10
3000.0
 20
-3599.9999999999968
 30
0.0
1001
ACDBBLOCKREPETAG
1070
     1
1071
      186
1005
123CAB
  0
LINE
  5
123CAC
  8
OBJECT
 10
3060.0
 20
-3472.9999999999968
 30
0.0
 11
2940.0
 21
-3472.9999999999968
 31
0.0
1001
ACDBBLOCKREPETAG
1070
     1
1071
      215
1005
123CAC
  0
ARC
  5
123CAD
  8
OBJECT
 10
2940.0
 20
-3475.9999999999968
 30
0.0
 40
3.0
 50
90.0
 51
180.0
1001
ACDBBLOCKREPETAG
1070
     1
1071
      216
1005
123CAD
  0
LINE
  5
123CAE
  8
OBJECT
 10
2937.0
 20
-3475.9999999999968
 30
0.0
 11
2937.0
 21
-3478.9999999999968
 31
0.0
1001
ACDBBLOCKREPETAG
1070
     1
1071
      217
1005
123CAE
  0
LINE
  5
123CAF
  8
OBJECT
 10
3063.0
 20
-3475.9999999999968
 30
0.0
 11
3063.0
 21
-3478.9999999999968
 31
0.0
1001
ACDBBLOCKREPETAG
1070
     1
1071
      218
1005
123CAF
  0
ARC
  5
123CB0
  8
OBJECT
 10
3060.0
 20
-3475.9999999999968
 30
0.0
 40
3.0
 50
0.0
 51
90.0
1001
ACDBBLOCKREPETAG
1070
     1
1071
      219
1005
123CB0
  0
LINE
  5
123CB1
  8
OBJECT
 10
2943.0
 20
-3404.9999999999968
 30
0.0
 11
2943.0
 21
-3472.9999999999968
 31
0.0
1001
ACDBBLOCKREPETAG
1070
     1
1071
      220
1005
123CB1
  0
LINE
  5
123CB2
  8
OBJECT
 10
3057.0
 20
-3404.9999999999968
 30
0.0
 11
2943.0
 21
-3404.9999999999968
 31
0.0
1001
ACDBBLOCKREPETAG
1070
     1
1071
      221
1005
123CB2
  0
LINE
  5
123CB3
  8
OBJECT
 10
3057.0
 20
-3404.9999999999968
 30
0.0
 11
3057.0
 21
-3472.9999999999968
 31
0.0
1001
ACDBBLOCKREPETAG
1070
     1
1071
      222
1005
123CB3
  0
LINE
  5
123CB4
  8
CENTER
 10
3000.0
 20
-3389.9999999999968
 30
0.0
 11
3000.0
 21
-3614.9999999999968
 31
0.0
1001
ACDBBLOCKREPETAG
1070
     1
1071
      223
1005
123CB4
  0
LINE
  5
123CB5
  8
HIDDEN
 10
3052.5
 20
-3404.9999999999968
 30
0.0
 11
3052.5
 21
-3478.9999999999968
 31
0.0
1001
ACDBBLOCKREPETAG
1070
     1
1071
      224
1005
123CB5
  0
LINE
  5
123CB6
  8
HIDDEN
 10
2947.5
 20
-3404.9999999999968
 30
0.0
 11
2947.5
 21
-3478.9999999999968
 31
0.0
1001
ACDBBLOCKREPETAG
1070
     1
1071
      225
1005
123CB6
  0
LINE
  5
123CB7
  8
OBJECT
 10
2325.0
 20
-3478.9999999999968
 30
0.0
 11
2325.0
 21
-3602.9999999999968
 31
0.0
1001
ACDBBLOCKREPETAG
1070
     1
1071
       26
1005
123CB7
  0
LINE
  5
123CB8
  8
OBJECT
 10
2472.0
 20
-3478.9999999999968
 30
0.0
 11
2325.0
 21
-3478.9999999999968
 31
0.0
1001
ACDBBLOCKREPETAG
1070
     1
1071
       30
1005
123CB8
  0
LINE
  5
123CB9
  8
OBJECT
 10
2475.0
 20
-3590.9999999999968
 30
0.0
 11
2475.0
 21
-3602.9999999999968
 31
0.0
1001
ACDBBLOCKREPETAG
1070
     1
1071
       34
1005
123CB9
  0
POINT
  5
123CBA
  8
DOTS
 10
2400.0
 20
-3599.9999999999968
 30
0.0
1001
ACDBBLOCKREPETAG
1070
     1
1071
      187
1005
123CBA
  0
LINE
  5
123CBB
  8
OBJECT
 10
2460.0
 20
-3472.9999999999968
 30
0.0
 11
2340.0
 21
-3472.9999999999968
 31
0.0
1001
ACDBBLOCKREPETAG
1070
     1
1071
      226
1005
123CBB
  0
ARC
  5
123CBC
  8
OBJECT
 10
2340.0
 20
-3475.9999999999968
 30
0.0
 40
3.0
 50
90.0
 51
180.0
1001
ACDBBLOCKREPETAG
1070
     1
1071
      227
1005
123CBC
  0
LINE
  5
123CBD
  8
OBJECT
 10
2337.0
 20
-3475.9999999999968
 30
0.0
 11
2337.0
 21
-3478.9999999999968
 31
0.0
1001
ACDBBLOCKREPETAG
1070
     1
1071
      228
1005
123CBD
  0
LINE
  5
123CBE
  8
OBJECT
 10
2463.0
 20
-3475.9999999999968
 30
0.0
 11
2463.0
 21
-3478.9999999999968
 31
0.0
1001
ACDBBLOCKREPETAG
1070
     1
1071
      229
1005
123CBE
  0
ARC
  5
123CBF
  8
OBJECT
 10
2460.0
 20
-3475.9999999999968
 30
0.0
 40
3.0
 50
0.0
 51
90.0
1001
ACDBBLOCKREPETAG
1070
     1
1071
      230
1005
123CBF
  0
LINE
  5
123CC0
  8
OBJECT
 10
2343.0
 20
-3404.9999999999968
 30
0.0
 11
2343.0
 21
-3472.9999999999968
 31
0.0
1001
ACDBBLOCKREPETAG
1070
     1
1071
      231
1005
123CC0
  0
LINE
  5
123CC1
  8
OBJECT
 10
2457.0
 20
-3404.9999999999968
 30
0.0
 11
2343.0
 21
-3404.9999999999968
 31
0.0
1001
ACDBBLOCKREPETAG
1070
     1
1071
      232
1005
123CC1
  0
LINE
  5
123CC2
  8
OBJECT
 10
2457.0
 20
-3404.9999999999968
 30
0.0
 11
2457.0
 21
-3472.9999999999968
 31
0.0
1001
ACDBBLOCKREPETAG
1070
     1
1071
      233
1005
123CC2
  0
LINE
  5
123CC3
  8
CENTER
 10
2400.0
 20
-3389.9999999999968
 30
0.0
 11
2400.0
 21
-3614.9999999999968
 31
0.0
1001
ACDBBLOCKREPETAG
1070
     1
1071
      234
1005
123CC3
  0
LINE
  5
123CC4
  8
HIDDEN
 10
2452.5000000000009
 20
-3404.9999999999968
 30
0.0
 11
2452.5000000000009
 21
-3478.9999999999968
 31
0.0
1001
ACDBBLOCKREPETAG
1070
     1
1071
      235
1005
123CC4
  0
LINE
  5
123CC5
  8
HIDDEN
 10
2347.5
 20
-3404.9999999999968
 30
0.0
 11
2347.5
 21
-3478.9999999999968
 31
0.0
1001
ACDBBLOCKREPETAG
1070
     1
1071
      236
1005
123CC5
  0
LINE
  5
123CC6
  8
OBJECT
 10
2463.499999999874
 20
-3490.9999999999968
 30
0.0
 11
2472.0
 21
-3490.9999999999968
 31
0.0
1001
ACDBBLOCKREPETAG
1070
     1
1071
      277
1005
123CC6
  0
LINE
  5
123CC7
  8
OBJECT
 10
2463.4999999999241
 20
-3590.9999999999968
 30
0.0
 11
2474.9999999999241
 21
-3590.9999999999968
 31
0.0
1001
ACDBBLOCKREPETAG
1070
     1
1071
      278
1005
123CC7
  0
LINE
  5
123CC8
  8
OBJECT
 10
2472.0
 20
-3490.9999999999968
 30
0.0
 11
2472.0
 21
-3478.9999999999968
 31
0.0
1001
ACDBBLOCKREPETAG
1070
     1
1071
      279
1005
123CC8
  0
LINE
  5
123CC9
  8
OBJECT
 10
2463.4999999998581
 20
-3478.9999999999968
 30
0.0
 11
2463.5
 21
-3590.9999999999968
 31
0.0
1001
ACDBBLOCKREPETAG
1070
     1
1071
      280
1005
123CC9
  0
LINE
  5
123CCA
  8
OBJECT
 10
1925.0
 20
-3478.9999999999968
 30
0.0
 11
1925.0
 21
-3602.9999999999968
 31
0.0
1001
ACDBBLOCKREPETAG
1070
     1
1071
        6
1005
123CCA
  0
LINE
  5
123CCB
  8
OBJECT
 10
2074.999999999799
 20
-3602.9999999997758
 30
0.0
 11
2080.0
 21
-3602.9999999999968
 31
0.0
1001
ACDBBLOCKREPETAG
1070
     1
1071
        9
1005
123CCB
  0
LINE
  5
123CCC
  8
OBJECT
 10
2080.0
 20
-3478.9999999999968
 30
0.0
 11
1925.0
 21
-3478.9999999999968
 31
0.0
1001
ACDBBLOCKREPETAG
1070
     1
1071
       10
1005
123CCC
  0
ARC
  5
123CCD
  8
OBJECT
 10
2200.6872746716731
 20
-3594.408099410105
 30
0.0
 40
170.6350503965856
 50
137.44134459184301
 51
149.91949581335999
1001
ACDBBLOCKREPETAG
1070
     1
1071
       15
1005
123CCD
  0
ARC
  5
123CCE
  8
OBJECT
 10
2118.8455987040511
 20
-3550.8827266953631
 30
0.0
 40
78.072222021763665
 50
147.45515310377539
 51
164.663659977186
1001
ACDBBLOCKREPETAG
1070
     1
1071
       16
1005
123CCE
  0
ARC
  5
123CCF
  8
OBJECT
 10
2085.7554349608731
 20
-3540.9999999999968
 30
0.0
 40
43.55353926885617
 50
165.6884523008477
 51
194.3115476991523
1001
ACDBBLOCKREPETAG
1070
     1
1071
       17
1005
123CCF
  0
ARC
  5
123CD0
  8
OBJECT
 10
2200.6872746716731
 20
-3487.5919005898891
 30
0.0
 40
170.6350503965856
 50
210.08050418664001
 51
222.55865540815699
1001
ACDBBLOCKREPETAG
1070
     1
1071
       18
1005
123CD0
  0
ARC
  5
123CD1
  8
OBJECT
 10
2118.8455987040511
 20
-3531.1172733046319
 30
0.0
 40
78.072222021763665
 50
195.33634002281391
 51
212.54484689622461
1001
ACDBBLOCKREPETAG
1070
     1
1071
       19
1005
123CD1
  0
POINT
  5
123CD2
  8
DOTS
 10
2000.0
 20
-3599.9999999999968
 30
0.0
1001
ACDBBLOCKREPETAG
1070
     1
1071
      186
1005
123CD2
  0
LINE
  5
123CD3
  8
OBJECT
 10
2060.0
 20
-3472.9999999999968
 30
0.0
 11
1940.0
 21
-3472.9999999999968
 31
0.0
1001
ACDBBLOCKREPETAG
1070
     1
1071
      215
1005
123CD3
  0
ARC
  5
123CD4
  8
OBJECT
 10
1940.0
 20
-3475.9999999999968
 30
0.0
 40
3.0
 50
90.0
 51
180.0
1001
ACDBBLOCKREPETAG
1070
     1
1071
      216
1005
123CD4
  0
LINE
  5
123CD5
  8
OBJECT
 10
1937.0
 20
-3475.9999999999968
 30
0.0
 11
1937.0
 21
-3478.9999999999968
 31
0.0
1001
ACDBBLOCKREPETAG
1070
     1
1071
      217
1005
123CD5
  0
LINE
  5
123CD6
  8
OBJECT
 10
2063.0
 20
-3475.9999999999968
 30
0.0
 11
2063.0
 21
-3478.9999999999968
 31
0.0
1001
ACDBBLOCKREPETAG
1070
     1
1071
      218
1005
123CD6
  0
ARC
  5
123CD7
  8
OBJECT
 10
2060.0
 20
-3475.9999999999968
 30
0.0
 40
3.0
 50
0.0
 51
90.0
1001
ACDBBLOCKREPETAG
1070
     1
1071
      219
1005
123CD7
  0
LINE
  5
123CD8
  8
OBJECT
 10
1943.0
 20
-3404.9999999999968
 30
0.0
 11
1943.0
 21
-3472.9999999999968
 31
0.0
1001
ACDBBLOCKREPETAG
1070
     1
1071
      220
1005
123CD8
  0
LINE
  5
123CD9
  8
OBJECT
 10
2057.0
 20
-3404.9999999999968
 30
0.0
 11
1943.0
 21
-3404.9999999999968
 31
0.0
1001
ACDBBLOCKREPETAG
1070
     1
1071
      221
1005
123CD9
  0
LINE
  5
123CDA
  8
OBJECT
 10
2057.0
 20
-3404.9999999999968
 30
0.0
 11
2057.0
 21
-3472.9999999999968
 31
0.0
1001
ACDBBLOCKREPETAG
1070
     1
1071
      222
1005
123CDA
  0
LINE
  5
123CDB
  8
CENTER
 10
2000.0
 20
-3389.9999999999968
 30
0.0
 11
2000.0
 21
-3614.9999999999968
 31
0.0
1001
ACDBBLOCKREPETAG
1070
     1
1071
      223
1005
123CDB
  0
LINE
  5
123CDC
  8
HIDDEN
 10
2052.5
 20
-3404.9999999999968
 30
0.0
 11
2052.5
 21
-3478.9999999999968
 31
0.0
1001
ACDBBLOCKREPETAG
1070
     1
1071
      224
1005
123CDC
  0
LINE
  5
123CDD
  8
HIDDEN
 10
1947.4999999999991
 20
-3404.9999999999968
 30
0.0
 11
1947.4999999999991
 21
-3478.9999999999968
 31
0.0
1001
ACDBBLOCKREPETAG
1070
     1
1071
      225
1005
123CDD
  0
LINE
  5
123CDE
  8
DIM
 10
2150.0
 20
-3241.9999999999959
 30
0.0
 11
2228.479620594459
 21
-3241.9999999999959
 31
0.0
  0
LINE
  5
123CDF
  8
DIM
 10
2150.0
 20
-3147.9999999999959
 30
0.0
 11
2228.479620594459
 21
-3147.9999999999959
 31
0.0
  0
LINE
  5
123CE0
  8
DIM
 10
2218.479620594459
 20
-3221.9999999999959
 30
0.0
 11
2218.479620594459
 21
-3167.9999999999959
 31
0.0
  0
INSERT
  5
123CE1
  8
DIM
  2
_OPEN30
 10
2218.479620594459
 20
-3241.9999999999959
 30
0.0
 41
20.0
 42
20.0
 43
20.0
 50
270.0
  0
INSERT
  5
123CE2
  8
DIM
  2
_OPEN30
 10
2218.479620594459
 20
-3147.9999999999959
 30
0.0
 41
20.0
 42
20.0
 43
20.0
 50
90.0
  0
INSERT
  5
123CE3
  8
OBJECT
  2
*U44
 10
0.0
 20
0.0
 30
0.0
  0
LINE
  5
123CE4
  8
DIM
 10
2150.0
 20
-3599.9999999999968
 30
0.0
 11
2226.8409284037339
 21
-3599.9999999999968
 31
0.0
  0
LINE
  5
123CE5
  8
DIM
 10
2165.0
 20
-3555.9999999999968
 30
0.0
 11
2226.8409284037339
 21
-3555.9999999999968
 31
0.0
  0
LINE
  5
123CE6
  8
DIM
 10
2216.840928403733
 20
-3619.9999999999968
 30
0.0
 11
2216.840928403733
 21
-3639.9999999999968
 31
0.0
  0
LINE
  5
123CE7
  8
DIM
 10
2216.840928403733
 20
-3535.9999999999968
 30
0.0
 11
2216.840928403733
 21
-3515.9999999999968
 31
0.0
  0
LINE
  5
123CE8
  8
DIM
 10
2216.840928403733
 20
-3599.9999999999968
 30
0.0
 11
2216.840928403733
 21
-3555.9999999999968
 31
0.0
  0
INSERT
  5
123CE9
  8
DIM
  2
_OPEN30
 10
2216.840928403733
 20
-3599.9999999999968
 30
0.0
 41
20.0
 42
20.0
 43
20.0
 50
90.0
  0
INSERT
  5
123CEA
  8
DIM
  2
_OPEN30
 10
2216.840928403733
 20
-3555.9999999999968
 30
0.0
 41
20.0
 42
20.0
 43
20.0
 50
270.0
  0
INSERT
  5
123CEB
  8
OBJECT
  2
*U45
 10
0.0
 20
0.0
 30
0.0
  0
LINE
  5
123CEC
  8
DIM
 10
2000.0
 20
-3089.9999999999959
 30
0.0
 11
2000.0
 21
-3057.208121984444
 31
0.0
  0
LINE
  5
123CED
  8
DIM
 10
2140.0
 20
-3137.9999999999959
 30
0.0
 11
2140.0
 21
-3057.208121984444
 31
0.0
  0
LINE
  5
123CEE
  8
DIM
 10
2020.0
 20
-3067.208121984444
 30
0.0
 11
2120.0
 21
-3067.208121984444
 31
0.0
  0
INSERT
  5
123CEF
  8
DIM
  2
_OPEN30
 10
2000.0
 20
-3067.208121984444
 30
0.0
 41
20.0
 42
20.0
 43
20.0
 50
180.0
  0
INSERT
  5
123CF0
  8
DIM
  2
_OPEN30
 10
2140.0
 20
-3067.208121984444
 30
0.0
 41
20.0
 42
20.0
 43
20.0
  0
INSERT
  5
123CF1
  8
OBJECT
  2
*U46
 10
0.0
 20
0.0
 30
0.0
  0
TEXT
  5
123CF2
  8
SLIM
 10
2631.0
 20
-2972.50001604727
 30
0.0
 40
40.0
  1
C寸法
 41
0.75
  0
TEXT
  5
123CF3
  8
SLIM
 10
2631.0
 20
-2902.50001604727
 30
0.0
 40
40.0
  1
B寸法
 41
0.75
  0
TEXT
  5
123CF4
  8
SLIM
 10
2630.2857142857142
 20
-2832.50001604727
 30
0.0
 40
40.0
  1
A寸法
 41
0.75
  0
TEXT
  5
123CF5
  8
SLIM
 10
3159.2857142857151
 20
-2972.50001604727
 30
0.0
 40
40.0
  1
150
 41
0.75
  0
TEXT
  5
123CF6
  8
SLIM
 10
3029.2857142857151
 20
-2972.50001604727
 30
0.0
 40
40.0
  1
140
 41
0.75
  0
TEXT
  5
123CF7
  8
SLIM
 10
2769.2857142857151
 20
-2972.50001604727
 30
0.0
 40
40.0
  1
140
 41
0.75
  0
TEXT
  5
123CF8
  8
SLIM
 10
2899.2857142857151
 20
-2972.50001604727
 30
0.0
 40
40.0
  1
140
 41
0.75
  0
TEXT
  5
123CF9
  8
SLIM
 10
3170.7142857142858
 20
-2902.50001604727
 30
0.0
 40
40.0
  1
72
 41
0.75
  0
TEXT
  5
123CFA
  8
SLIM
 10
3041.4285714285711
 20
-2902.50001604727
 30
0.0
 40
40.0
  1
59
 41
0.75
  0
TEXT
  5
123CFB
  8
SLIM
 10
2780.0
 20
-2902.50001604727
 30
0.0
 40
40.0
  1
44
 41
0.75
  0
TEXT
  5
123CFC
  8
SLIM
 10
2910.7142857142858
 20
-2902.50001604727
 30
0.0
 40
40.0
  1
52
 41
0.75
  0
TEXT
  5
123CFD
  8
SLIM
 10
2891.0
 20
-2707.50001604727
 30
0.0
 40
40.0
  1
横枝管サイズ
 41
0.75
  0
TEXT
  5
123CFE
  8
SLIM
 10
3136.2857142857151
 20
-2762.50001604727
 30
0.0
 40
30.0
  1
100（4）
 41
0.75
  0
TEXT
  5
123CFF
  8
SLIM
 10
3014.857142857144
 20
-2762.50001604727
 30
0.0
 40
30.0
  1
75（3）
 41
0.75
  0
TEXT
  5
123D00
  8
SLIM
 10
2884.8571428571431
 20
-2762.50001604727
 30
0.0
 40
30.0
  1
65（2）
 41
0.75
  0
TEXT
  5
123D01
  8
SLIM
 10
2757.0
 20
-2762.50001604727
 30
0.0
 40
30.0
  1
50（1）
 41
0.75
  0
TEXT
  5
123D02
  8
SLIM
 10
3159.2857142857151
 20
-2832.50001604727
 30
0.0
 40
40.0
  1
150
 41
0.75
  0
TEXT
  5
123D03
  8
SLIM
 10
3028.571428571428
 20
-2832.50001604727
 30
0.0
 40
40.0
  1
124
 41
0.75
  0
TEXT
  5
123D04
  8
SLIM
 10
2780.0
 20
-2832.50001604727
 30
0.0
 40
40.0
  1
94
 41
0.75
  0
TEXT
  5
123D05
  8
SLIM
 10
2902.1428571428569
 20
-2832.50001604727
 30
0.0
 40
40.0
  1
110
 41
0.75
  0
TEXT
  5
123D06
  8
SLIM
 10
1849.9999999999991
 20
-2732.5
 30
0.0
 40
75.0
  1
枝管サイズ毎の形状
 41
0.75
  0
LINE
  5
123D07
  8
OBJECT
 10
5150.0
 20
-3452.9999999999968
 30
0.0
 11
5143.0
 21
-3452.9999999999968
 31
0.0
1001
ACDBBLOCKREPETAG
1070
     1
1071
       64
1005
123D07
  0
LINE
  5
123D08
  8
OBJECT
 10
5143.0
 20
-3452.9999999999968
 30
0.0
 11
5143.0
 21
-3599.9999999999968
 31
0.0
1001
ACDBBLOCKREPETAG
1070
     1
1071
       65
1005
123D08
  0
LINE
  5
123D09
  8
OBJECT
 10
5101.5
 20
-3455.9999999999968
 30
0.0
 11
5101.5
 21
-3599.9999999999968
 31
0.0
1001
ACDBBLOCKREPETAG
1070
     1
1071
       66
1005
123D09
  0
LINE
  5
123D0A
  8
OBJECT
 10
5090.0
 20
-3462.4999999999968
 30
0.0
 11
5090.0
 21
-3593.4999999999968
 31
0.0
1001
ACDBBLOCKREPETAG
1070
     1
1071
       67
1005
123D0A
  0
LINE
  5
123D0B
  8
OBJECT
 10
5086.0
 20
-3534.5000000000041
 30
0.0
 11
5086.0
 21
-3599.9999999999968
 31
0.0
1001
ACDBBLOCKREPETAG
1070
     1
1071
       68
1005
123D0B
  0
LINE
  5
123D0C
  8
OBJECT
 10
5150.0
 20
-3599.9999999999968
 30
0.0
 11
5150.0
 21
-3452.9999999999968
 31
0.0
1001
ACDBBLOCKREPETAG
1070
     1
1071
       69
1005
123D0C
  0
LINE
  5
123D0D
  8
CENTER
 10
5165.0
 20
-3527.9999999999968
 30
0.0
 11
5070.4144144144157
 21
-3527.9999999999968
 31
0.0
1001
ACDBBLOCKREPETAG
1070
     1
1071
       70
1005
123D0D
  0
LINE
  5
123D0E
  8
OBJECT
 10
5083.0000000000045
 20
-3602.9999999999968
 30
0.0
 11
5080.0
 21
-3602.9999999999968
 31
0.0
1001
ACDBBLOCKREPETAG
1070
     1
1071
       71
1005
123D0E
  0
ARC
  5
123D0F
  8
OBJECT
 10
5091.8815171830656
 20
-3601.4555591801432
 30
0.0
 40
6.0
 50
60.52411099686767
 51
170.6927439126847
1001
ACDBBLOCKREPETAG
1070
     1
1071
       72
1005
123D0F
  0
ARC
  5
123D10
  8
OBJECT
 10
5083.0
 20
-3599.9999999999968
 30
0.0
 40
3.0
 50
270.0
 51
350.69274391268482
1001
ACDBBLOCKREPETAG
1070
     1
1071
       73
1005
123D10
  0
LINE
  5
123D11
  8
OBJECT
 10
5081.0
 20
-3478.9999999999968
 30
0.0
 11
5080.0
 21
-3478.9999999999968
 31
0.0
1001
ACDBBLOCKREPETAG
1070
     1
1071
       74
1005
123D11
  0
LINE
  5
123D12
  8
OBJECT
 10
5150.0
 20
-3599.9999999999968
 30
0.0
 11
5101.5
 21
-3599.9999999999968
 31
0.0
1001
ACDBBLOCKREPETAG
1070
     1
1071
       75
1005
123D12
  0
LINE
  5
123D13
  8
OBJECT
 10
5101.5
 20
-3455.9999999999968
 30
0.0
 11
5090.0
 21
-3462.4999999999968
 31
0.0
1001
ACDBBLOCKREPETAG
1070
     1
1071
       76
1005
123D13
  0
LINE
  5
123D14
  8
OBJECT
 10
5143.0
 20
-3455.9999999999968
 30
0.0
 11
5101.5
 21
-3455.9999999999968
 31
0.0
1001
ACDBBLOCKREPETAG
1070
     1
1071
       77
1005
123D14
  0
LINE
  5
123D15
  8
OBJECT
 10
5086.0
 20
-3534.5000000000041
 30
0.0
 11
5081.0
 21
-3478.9999999999968
 31
0.0
1001
ACDBBLOCKREPETAG
1070
     1
1071
       78
1005
123D15
  0
LINE
  5
123D16
  8
OBJECT
 10
5090.0
 20
-3462.4999999999968
 30
0.0
 11
5081.0
 21
-3478.9999999999968
 31
0.0
1001
ACDBBLOCKREPETAG
1070
     1
1071
       79
1005
123D16
  0
LINE
  5
123D17
  8
OBJECT
 10
5101.5
 20
-3599.9999999999968
 30
0.0
 11
5094.8338607230708
 21
-3596.232182147819
 31
0.0
1001
ACDBBLOCKREPETAG
1070
     1
1071
       80
1005
123D17
  0
LINE
  5
123D18
  8
HIDDEN
 10
5098.0
 20
-3584.9999999999968
 30
0.0
 11
5098.0
 21
-3470.9999999999968
 31
0.0
1001
ACDBBLOCKREPETAG
1070
     1
1071
       81
1005
123D18
  0
LINE
  5
123D19
  8
OBJECT
 10
5150.0
 20
-3119.9999999999959
 30
0.0
 11
5143.0
 21
-3119.9999999999959
 31
0.0
1001
ACDBBLOCKREPETAG
1070
     1
1071
       67
1005
123D19
  0
LINE
  5
123D1A
  8
OBJECT
 10
5143.0
 20
-3119.9999999999959
 30
0.0
 11
5143.0
 21
-3269.9999999999959
 31
0.0
1001
ACDBBLOCKREPETAG
1070
     1
1071
       68
1005
123D1A
  0
LINE
  5
123D1B
  8
OBJECT
 10
5101.5
 20
-3122.9999999999959
 30
0.0
 11
5101.5
 21
-3266.9999999999959
 31
0.0
1001
ACDBBLOCKREPETAG
1070
     1
1071
       69
1005
123D1B
  0
LINE
  5
123D1C
  8
OBJECT
 10
5090.0
 20
-3129.4999999999959
 30
0.0
 11
5090.0
 21
-3260.4999999999959
 31
0.0
1001
ACDBBLOCKREPETAG
1070
     1
1071
       70
1005
123D1C
  0
LINE
  5
123D1D
  8
OBJECT
 10
5143.0
 20
-3269.9999999999959
 30
0.0
 11
5150.0
 21
-3269.9999999999959
 31
0.0
1001
ACDBBLOCKREPETAG
1070
     1
1071
       71
1005
123D1D
  0
LINE
  5
123D1E
  8
OBJECT
 10
5150.0
 20
-3269.9999999999959
 30
0.0
 11
5150.0
 21
-3119.9999999999959
 31
0.0
1001
ACDBBLOCKREPETAG
1070
     1
1071
       72
1005
123D1E
  0
LINE
  5
123D1F
  8
HIDDEN
 10
5098.0
 20
-3251.9999999999959
 30
0.0
 11
5098.0
 21
-3137.9999999999959
 31
0.0
1001
ACDBBLOCKREPETAG
1070
     1
1071
       73
1005
123D1F
  0
LINE
  5
123D20
  8
CENTER
 10
5165.0
 20
-3194.9999999999959
 30
0.0
 11
5080.0
 21
-3194.9999999999959
 31
0.0
1001
ACDBBLOCKREPETAG
1070
     1
1071
       74
1005
123D20
  0
LINE
  5
123D21
  8
OBJECT
 10
5086.0
 20
-3256.9999999999959
 30
0.0
 11
5080.0
 21
-3256.9999999999959
 31
0.0
1001
ACDBBLOCKREPETAG
1070
     1
1071
       75
1005
123D21
  0
LINE
  5
123D22
  8
OBJECT
 10
5143.0
 20
-3266.9999999999959
 30
0.0
 11
5101.5
 21
-3266.9999999999959
 31
0.0
1001
ACDBBLOCKREPETAG
1070
     1
1071
       76
1005
123D22
  0
LINE
  5
123D23
  8
OBJECT
 10
5101.5
 20
-3266.9999999999959
 30
0.0
 11
5090.0
 21
-3260.4999999999959
 31
0.0
1001
ACDBBLOCKREPETAG
1070
     1
1071
       77
1005
123D23
  0
LINE
  5
123D24
  8
OBJECT
 10
5090.0
 20
-3260.4999999999959
 30
0.0
 11
5086.0
 21
-3256.9999999999959
 31
0.0
1001
ACDBBLOCKREPETAG
1070
     1
1071
       78
1005
123D24
  0
LINE
  5
123D25
  8
OBJECT
 10
5101.5
 20
-3122.9999999999959
 30
0.0
 11
5090.0
 21
-3129.4999999999959
 31
0.0
1001
ACDBBLOCKREPETAG
1070
     1
1071
       79
1005
123D25
  0
LINE
  5
123D26
  8
OBJECT
 10
5090.0
 20
-3129.4999999999959
 30
0.0
 11
5086.0
 21
-3132.9999999999959
 31
0.0
1001
ACDBBLOCKREPETAG
1070
     1
1071
       80
1005
123D26
  0
ARC
  5
123D27
  8
OBJECT
 10
5467.9000000000005
 20
-3194.9999999999959
 30
0.0
 40
386.89999999999998
 50
170.77870136260421
 51
189.22129863739571
1001
ACDBBLOCKREPETAG
1070
     1
1071
       81
1005
123D27
  0
LINE
  5
123D28
  8
OBJECT
 10
5086.0
 20
-3132.9999999999959
 30
0.0
 11
5080.0
 21
-3132.9999999999959
 31
0.0
1001
ACDBBLOCKREPETAG
1070
     1
1071
       82
1005
123D28
  0
LINE
  5
123D29
  8
OBJECT
 10
5143.0
 20
-3122.9999999999959
 30
0.0
 11
5101.5
 21
-3122.9999999999959
 31
0.0
1001
ACDBBLOCKREPETAG
1070
     1
1071
       83
1005
123D29
  0
TEXT
  5
123D2A
  8
SLIM
 10
4884.25
 20
-3717.4999999999959
 30
0.0
 40
35.0
  1
通常枝100（4）
 41
0.75
  0
LINE
  5
123D2B
  8
CENTER
 10
4477.0
 20
-3540.9999999999968
 30
0.0
 11
4323.0
 21
-3540.9999999999968
 31
0.0
1001
ACDBBLOCKREPETAG
1070
     1
1071
       17
1005
123D2B
  0
CIRCLE
  5
123D2C
  8
OBJECT
 10
4400.0
 20
-3540.9999999999968
 30
0.0
 40
41.5
1001
ACDBBLOCKREPETAG
1070
     1
1071
       19
1005
123D2C
  0
CIRCLE
  5
123D2D
  8
OBJECT
 10
4400.0
 20
-3540.9999999999968
 30
0.0
 40
54.0
1001
ACDBBLOCKREPETAG
1070
     1
1071
       20
1005
123D2D
  0
ARC
  5
123D2E
  8
OBJECT
 10
4400.0
 20
-3540.9999999999968
 30
0.0
 40
62.0
 50
287.89655112921122
 51
252.1034488707887
1001
ACDBBLOCKREPETAG
1070
     1
1071
       21
1005
123D2E
  0
LINE
  5
123D2F
  8
OBJECT
 10
4380.947441116743
 20
-3599.9999999999968
 30
0.0
 11
4419.052558883257
 21
-3599.9999999999968
 31
0.0
1001
ACDBBLOCKREPETAG
1070
     1
1071
       22
1005
123D2F
  0
LINE
  5
123D30
  8
OBJECT
 10
4133.0
 20
-3478.9999999999968
 30
0.0
 11
4140.0
 21
-3478.9999999999968
 31
0.0
1001
ACDBBLOCKREPETAG
1070
     1
1071
       45
1005
123D30
  0
LINE
  5
123D31
  8
OBJECT
 10
4140.0
 20
-3478.9999999999968
 30
0.0
 11
4140.0
 21
-3599.9999999999968
 31
0.0
1001
ACDBBLOCKREPETAG
1070
     1
1071
       46
1005
123D31
  0
LINE
  5
123D32
  8
OBJECT
 10
4133.0
 20
-3599.9999999999968
 30
0.0
 11
4133.0
 21
-3478.9999999999968
 31
0.0
1001
ACDBBLOCKREPETAG
1070
     1
1071
       47
1005
123D32
  0
LINE
  5
123D33
  8
CENTER
 10
4155.0
 20
-3540.9999999999968
 30
0.0
 11
4071.0
 21
-3540.9999999999968
 31
0.0
1001
ACDBBLOCKREPETAG
1070
     1
1071
       48
1005
123D33
  0
LINE
  5
123D34
  8
OBJECT
 10
4133.0
 20
-3481.9999999999968
 30
0.0
 11
4097.0
 21
-3481.9999999999968
 31
0.0
1001
ACDBBLOCKREPETAG
1070
     1
1071
       49
1005
123D34
  0
LINE
  5
123D35
  8
OBJECT
 10
4097.0
 20
-3481.9999999999968
 30
0.0
 11
4097.0
 21
-3599.9999999999968
 31
0.0
1001
ACDBBLOCKREPETAG
1070
     1
1071
       50
1005
123D35
  0
LINE
  5
123D36
  8
OBJECT
 10
4097.0
 20
-3599.9999999999968
 30
0.0
 11
4140.0
 21
-3599.9999999999968
 31
0.0
1001
ACDBBLOCKREPETAG
1070
     1
1071
       51
1005
123D36
  0
LINE
  5
123D37
  8
OBJECT
 10
4093.0
 20
-3486.4999999999968
 30
0.0
 11
4086.0
 21
-3486.4999999999968
 31
0.0
1001
ACDBBLOCKREPETAG
1070
     1
1071
       52
1005
123D37
  0
LINE
  5
123D38
  8
OBJECT
 10
4086.0
 20
-3595.4999999999968
 30
0.0
 11
4093.0
 21
-3595.4999999999968
 31
0.0
1001
ACDBBLOCKREPETAG
1070
     1
1071
       53
1005
123D38
  0
LINE
  5
123D39
  8
OBJECT
 10
4093.0
 20
-3595.4999999999968
 30
0.0
 11
4093.0
 21
-3486.4999999999968
 31
0.0
1001
ACDBBLOCKREPETAG
1070
     1
1071
       54
1005
123D39
  0
LINE
  5
123D3A
  8
OBJECT
 10
4097.0
 20
-3481.9999999999968
 30
0.0
 11
4093.0
 21
-3486.4999999999968
 31
0.0
1001
ACDBBLOCKREPETAG
1070
     1
1071
       55
1005
123D3A
  0
LINE
  5
123D3B
  8
OBJECT
 10
4097.0
 20
-3599.9999999999968
 30
0.0
 11
4093.0
 21
-3595.4999999999968
 31
0.0
1001
ACDBBLOCKREPETAG
1070
     1
1071
       56
1005
123D3B
  0
LINE
  5
123D3C
  8
OBJECT
 10
4083.0
 20
-3478.9999999999968
 30
0.0
 11
4080.0
 21
-3478.9999999999968
 31
0.0
1001
ACDBBLOCKREPETAG
1070
     1
1071
       57
1005
123D3C
  0
ARC
  5
123D3D
  8
OBJECT
 10
4083.0
 20
-3481.9999999999968
 30
0.0
 40
3.0
 50
0.0
 51
90.0
1001
ACDBBLOCKREPETAG
1070
     1
1071
       58
1005
123D3D
  0
LINE
  5
123D3E
  8
OBJECT
 10
4080.0
 20
-3602.9999999999968
 30
0.0
 11
4083.0
 21
-3602.9999999999968
 31
0.0
1001
ACDBBLOCKREPETAG
1070
     1
1071
       59
1005
123D3E
  0
ARC
  5
123D3F
  8
OBJECT
 10
4083.0
 20
-3599.9999999999968
 30
0.0
 40
3.0
 50
270.0
 51
0.0
1001
ACDBBLOCKREPETAG
1070
     1
1071
       60
1005
123D3F
  0
LINE
  5
123D40
  8
OBJECT
 10
4086.0
 20
-3599.9999999999968
 30
0.0
 11
4086.0
 21
-3481.9999999999968
 31
0.0
1001
ACDBBLOCKREPETAG
1070
     1
1071
       61
1005
123D40
  0
LINE
  5
123D41
  8
HIDDEN
 10
4088.0
 20
-3496.4999999999968
 30
0.0
 11
4088.0
 21
-3585.4999999999968
 31
0.0
1001
ACDBBLOCKREPETAG
1070
     1
1071
       63
1005
123D41
  0
LINE
  5
123D42
  8
OBJECT
 10
4133.0
 20
-3132.9999999999959
 30
0.0
 11
4140.0
 21
-3132.9999999999959
 31
0.0
1001
ACDBBLOCKREPETAG
1070
     1
1071
       47
1005
123D42
  0
LINE
  5
123D43
  8
OBJECT
 10
4140.0
 20
-3132.9999999999959
 30
0.0
 11
4140.0
 21
-3256.9999999999959
 31
0.0
1001
ACDBBLOCKREPETAG
1070
     1
1071
       48
1005
123D43
  0
LINE
  5
123D44
  8
OBJECT
 10
4140.0
 20
-3256.9999999999959
 30
0.0
 11
4133.0
 21
-3256.9999999999959
 31
0.0
1001
ACDBBLOCKREPETAG
1070
     1
1071
       49
1005
123D44
  0
LINE
  5
123D45
  8
OBJECT
 10
4133.0
 20
-3256.9999999999959
 30
0.0
 11
4133.0
 21
-3132.9999999999959
 31
0.0
1001
ACDBBLOCKREPETAG
1070
     1
1071
       50
1005
123D45
  0
LINE
  5
123D46
  8
CENTER
 10
4155.0
 20
-3194.9999999999959
 30
0.0
 11
4080.0
 21
-3194.9999999999959
 31
0.0
1001
ACDBBLOCKREPETAG
1070
     1
1071
       51
1005
123D46
  0
LINE
  5
123D47
  8
OBJECT
 10
4133.0
 20
-3135.9999999999959
 30
0.0
 11
4097.0
 21
-3135.9999999999959
 31
0.0
1001
ACDBBLOCKREPETAG
1070
     1
1071
       52
1005
123D47
  0
LINE
  5
123D48
  8
OBJECT
 10
4097.0
 20
-3135.9999999999959
 30
0.0
 11
4097.0
 21
-3253.9999999999959
 31
0.0
1001
ACDBBLOCKREPETAG
1070
     1
1071
       53
1005
123D48
  0
LINE
  5
123D49
  8
OBJECT
 10
4097.0
 20
-3253.9999999999959
 30
0.0
 11
4133.0
 21
-3253.9999999999959
 31
0.0
1001
ACDBBLOCKREPETAG
1070
     1
1071
       54
1005
123D49
  0
LINE
  5
123D4A
  8
OBJECT
 10
4093.0
 20
-3140.4999999999959
 30
0.0
 11
4086.0
 21
-3140.4999999999959
 31
0.0
1001
ACDBBLOCKREPETAG
1070
     1
1071
       55
1005
123D4A
  0
LINE
  5
123D4B
  8
OBJECT
 10
4086.0
 20
-3249.4999999999959
 30
0.0
 11
4093.0
 21
-3249.4999999999959
 31
0.0
1001
ACDBBLOCKREPETAG
1070
     1
1071
       56
1005
123D4B
  0
LINE
  5
123D4C
  8
OBJECT
 10
4093.0
 20
-3249.4999999999959
 30
0.0
 11
4093.0
 21
-3140.4999999999959
 31
0.0
1001
ACDBBLOCKREPETAG
1070
     1
1071
       57
1005
123D4C
  0
LINE
  5
123D4D
  8
OBJECT
 10
4097.0
 20
-3135.9999999999959
 30
0.0
 11
4093.0
 21
-3140.4999999999959
 31
0.0
1001
ACDBBLOCKREPETAG
1070
     1
1071
       58
1005
123D4D
  0
LINE
  5
123D4E
  8
OBJECT
 10
4097.0
 20
-3253.9999999999959
 30
0.0
 11
4093.0
 21
-3249.4999999999959
 31
0.0
1001
ACDBBLOCKREPETAG
1070
     1
1071
       59
1005
123D4E
  0
LINE
  5
123D4F
  8
OBJECT
 10
4083.0
 20
-3132.9999999999959
 30
0.0
 11
4080.0
 21
-3132.9999999999959
 31
0.0
1001
ACDBBLOCKREPETAG
1070
     1
1071
       60
1005
123D4F
  0
ARC
  5
123D50
  8
OBJECT
 10
4083.0
 20
-3135.9999999999959
 30
0.0
 40
3.0
 50
0.0
 51
90.0
1001
ACDBBLOCKREPETAG
1070
     1
1071
       61
1005
123D50
  0
LINE
  5
123D51
  8
OBJECT
 10
4080.0
 20
-3256.9999999999959
 30
0.0
 11
4083.0
 21
-3256.9999999999959
 31
0.0
1001
ACDBBLOCKREPETAG
1070
     1
1071
       62
1005
123D51
  0
ARC
  5
123D52
  8
OBJECT
 10
4083.0
 20
-3253.9999999999959
 30
0.0
 40
3.0
 50
270.0
 51
0.0
1001
ACDBBLOCKREPETAG
1070
     1
1071
       63
1005
123D52
  0
LINE
  5
123D53
  8
OBJECT
 10
4086.0
 20
-3253.9999999999959
 30
0.0
 11
4086.0
 21
-3135.9999999999959
 31
0.0
1001
ACDBBLOCKREPETAG
1070
     1
1071
       64
1005
123D53
  0
LINE
  5
123D54
  8
HIDDEN
 10
4088.0
 20
-3150.4999999999959
 30
0.0
 11
4088.0
 21
-3239.4999999999959
 31
0.0
1001
ACDBBLOCKREPETAG
1070
     1
1071
       65
1005
123D54
  0
TEXT
  5
123D55
  8
SLIM
 10
3894.25
 20
-3717.4999999999959
 30
0.0
 40
35.0
  1
通常枝75（3）
 41
0.75
  0
CIRCLE
  5
123D56
  8
OBJECT
 10
3400.0
 20
-3547.9999999999968
 30
0.0
 40
35.5
1001
ACDBBLOCKREPETAG
1070
     1
1071
       10
1005
123D56
  0
CIRCLE
  5
123D57
  8
OBJECT
 10
3400.0
 20
-3540.9999999999968
 30
0.0
 40
62.0
1001
ACDBBLOCKREPETAG
1070
     1
1071
       11
1005
123D57
  0
LINE
  5
123D58
  8
CENTER
 10
3330.0
 20
-3547.9999999999968
 30
0.0
 11
3470.0
 21
-3547.9999999999968
 31
0.0
1001
ACDBBLOCKREPETAG
1070
     1
1071
       12
1005
123D58
  0
CIRCLE
  5
123D59
  8
OBJECT
 10
3400.0
 20
-3547.9999999999968
 30
0.0
 40
47.0
1001
ACDBBLOCKREPETAG
1070
     1
1071
       14
1005
123D59
  0
ARC
  5
123D5A
  8
OBJECT
 10
3400.0
 20
-3547.9999999999968
 30
0.0
 40
55.0
 50
289.01126526011359
 51
250.98873473988641
1001
ACDBBLOCKREPETAG
1070
     1
1071
       15
1005
123D5A
  0
LINE
  5
123D5B
  8
OBJECT
 10
3382.0835271328328
 20
-3599.9999999999968
 30
0.0
 11
3417.9164728671681
 21
-3599.9999999999968
 31
0.0
1001
ACDBBLOCKREPETAG
1070
     1
1071
       16
1005
123D5B
  0
LINE
  5
123D5C
  8
OBJECT
 10
3133.0
 20
-3492.9999999999968
 30
0.0
 11
3140.0
 21
-3492.9999999999968
 31
0.0
1001
ACDBBLOCKREPETAG
1070
     1
1071
       26
1005
123D5C
  0
LINE
  5
123D5D
  8
OBJECT
 10
3140.0
 20
-3492.9999999999968
 30
0.0
 11
3140.0
 21
-3599.9999999999968
 31
0.0
1001
ACDBBLOCKREPETAG
1070
     1
1071
       27
1005
123D5D
  0
LINE
  5
123D5E
  8
OBJECT
 10
3133.0
 20
-3599.9999999999968
 30
0.0
 11
3133.0
 21
-3492.9999999999968
 31
0.0
1001
ACDBBLOCKREPETAG
1070
     1
1071
       28
1005
123D5E
  0
LINE
  5
123D5F
  8
CENTER
 10
3155.0
 20
-3547.9999999999968
 30
0.0
 11
3071.0
 21
-3547.9999999999968
 31
0.0
1001
ACDBBLOCKREPETAG
1070
     1
1071
       29
1005
123D5F
  0
LINE
  5
123D60
  8
OBJECT
 10
3133.0
 20
-3495.9999999999968
 30
0.0
 11
3097.0
 21
-3495.9999999999968
 31
0.0
1001
ACDBBLOCKREPETAG
1070
     1
1071
       30
1005
123D60
  0
LINE
  5
123D61
  8
OBJECT
 10
3097.0
 20
-3495.9999999999968
 30
0.0
 11
3097.0
 21
-3599.9999999999968
 31
0.0
1001
ACDBBLOCKREPETAG
1070
     1
1071
       31
1005
123D61
  0
LINE
  5
123D62
  8
OBJECT
 10
3097.0
 20
-3599.9999999999968
 30
0.0
 11
3140.0
 21
-3599.9999999999968
 31
0.0
1001
ACDBBLOCKREPETAG
1070
     1
1071
       32
1005
123D62
  0
LINE
  5
123D63
  8
OBJECT
 10
3093.0
 20
-3500.4999999999968
 30
0.0
 11
3086.0
 21
-3500.4999999999968
 31
0.0
1001
ACDBBLOCKREPETAG
1070
     1
1071
       33
1005
123D63
  0
LINE
  5
123D64
  8
OBJECT
 10
3086.0
 20
-3595.4999999999968
 30
0.0
 11
3093.0
 21
-3595.4999999999968
 31
0.0
1001
ACDBBLOCKREPETAG
1070
     1
1071
       34
1005
123D64
  0
LINE
  5
123D65
  8
OBJECT
 10
3093.0
 20
-3595.4999999999968
 30
0.0
 11
3093.0
 21
-3500.4999999999968
 31
0.0
1001
ACDBBLOCKREPETAG
1070
     1
1071
       35
1005
123D65
  0
LINE
  5
123D66
  8
OBJECT
 10
3097.0
 20
-3495.9999999999968
 30
0.0
 11
3093.0
 21
-3500.4999999999968
 31
0.0
1001
ACDBBLOCKREPETAG
1070
     1
1071
       36
1005
123D66
  0
LINE
  5
123D67
  8
OBJECT
 10
3097.0
 20
-3599.9999999999968
 30
0.0
 11
3093.0
 21
-3595.4999999999968
 31
0.0
1001
ACDBBLOCKREPETAG
1070
     1
1071
       37
1005
123D67
  0
LINE
  5
123D68
  8
OBJECT
 10
3083.0
 20
-3478.9999999999968
 30
0.0
 11
3080.0
 21
-3478.9999999999968
 31
0.0
1001
ACDBBLOCKREPETAG
1070
     1
1071
       38
1005
123D68
  0
ARC
  5
123D69
  8
OBJECT
 10
3083.0
 20
-3481.9999999999968
 30
0.0
 40
3.0
 50
0.0
 51
90.0
1001
ACDBBLOCKREPETAG
1070
     1
1071
       39
1005
123D69
  0
LINE
  5
123D6A
  8
OBJECT
 10
3080.0
 20
-3602.9999999999968
 30
0.0
 11
3083.0
 21
-3602.9999999999968
 31
0.0
1001
ACDBBLOCKREPETAG
1070
     1
1071
       40
1005
123D6A
  0
ARC
  5
123D6B
  8
OBJECT
 10
3083.0
 20
-3599.9999999999968
 30
0.0
 40
3.0
 50
270.0
 51
0.0
1001
ACDBBLOCKREPETAG
1070
     1
1071
       41
1005
123D6B
  0
LINE
  5
123D6C
  8
OBJECT
 10
3086.0
 20
-3599.9999999999968
 30
0.0
 11
3086.0
 21
-3481.9999999999968
 31
0.0
1001
ACDBBLOCKREPETAG
1070
     1
1071
       42
1005
123D6C
  0
LINE
  5
123D6D
  8
HIDDEN
 10
3088.0
 20
-3509.9999999999968
 30
0.0
 11
3088.0
 21
-3585.9999999999968
 31
0.0
1001
ACDBBLOCKREPETAG
1070
     1
1071
       43
1005
123D6D
  0
LINE
  5
123D6E
  8
OBJECT
 10
3133.0
 20
-3139.9999999999959
 30
0.0
 11
3140.0
 21
-3139.9999999999959
 31
0.0
1001
ACDBBLOCKREPETAG
1070
     1
1071
       27
1005
123D6E
  0
LINE
  5
123D6F
  8
OBJECT
 10
3140.0
 20
-3139.9999999999959
 30
0.0
 11
3140.0
 21
-3249.9999999999959
 31
0.0
1001
ACDBBLOCKREPETAG
1070
     1
1071
       28
1005
123D6F
  0
LINE
  5
123D70
  8
OBJECT
 10
3140.0
 20
-3249.9999999999959
 30
0.0
 11
3133.0
 21
-3249.9999999999959
 31
0.0
1001
ACDBBLOCKREPETAG
1070
     1
1071
       29
1005
123D70
  0
LINE
  5
123D71
  8
OBJECT
 10
3133.0
 20
-3249.9999999999959
 30
0.0
 11
3133.0
 21
-3139.9999999999959
 31
0.0
1001
ACDBBLOCKREPETAG
1070
     1
1071
       30
1005
123D71
  0
LINE
  5
123D72
  8
CENTER
 10
3155.0
 20
-3194.9999999999959
 30
0.0
 11
3080.0
 21
-3194.9999999999959
 31
0.0
1001
ACDBBLOCKREPETAG
1070
     1
1071
       31
1005
123D72
  0
LINE
  5
123D73
  8
OBJECT
 10
3133.0
 20
-3142.9999999999959
 30
0.0
 11
3097.0
 21
-3142.9999999999959
 31
0.0
1001
ACDBBLOCKREPETAG
1070
     1
1071
       32
1005
123D73
  0
LINE
  5
123D74
  8
OBJECT
 10
3097.0
 20
-3142.9999999999959
 30
0.0
 11
3097.0
 21
-3246.9999999999959
 31
0.0
1001
ACDBBLOCKREPETAG
1070
     1
1071
       33
1005
123D74
  0
LINE
  5
123D75
  8
OBJECT
 10
3097.0
 20
-3246.9999999999959
 30
0.0
 11
3133.0
 21
-3246.9999999999959
 31
0.0
1001
ACDBBLOCKREPETAG
1070
     1
1071
       34
1005
123D75
  0
LINE
  5
123D76
  8
OBJECT
 10
3093.0
 20
-3147.4999999999959
 30
0.0
 11
3086.0
 21
-3147.4999999999959
 31
0.0
1001
ACDBBLOCKREPETAG
1070
     1
1071
       35
1005
123D76
  0
LINE
  5
123D77
  8
OBJECT
 10
3086.0
 20
-3242.4999999999959
 30
0.0
 11
3093.0
 21
-3242.4999999999959
 31
0.0
1001
ACDBBLOCKREPETAG
1070
     1
1071
       36
1005
123D77
  0
LINE
  5
123D78
  8
OBJECT
 10
3093.0
 20
-3242.4999999999959
 30
0.0
 11
3093.0
 21
-3147.4999999999959
 31
0.0
1001
ACDBBLOCKREPETAG
1070
     1
1071
       37
1005
123D78
  0
LINE
  5
123D79
  8
OBJECT
 10
3097.0
 20
-3142.9999999999959
 30
0.0
 11
3093.0
 21
-3147.4999999999959
 31
0.0
1001
ACDBBLOCKREPETAG
1070
     1
1071
       38
1005
123D79
  0
LINE
  5
123D7A
  8
OBJECT
 10
3097.0
 20
-3246.9999999999959
 30
0.0
 11
3093.0
 21
-3242.4999999999959
 31
0.0
1001
ACDBBLOCKREPETAG
1070
     1
1071
       39
1005
123D7A
  0
LINE
  5
123D7B
  8
OBJECT
 10
3083.0
 20
-3132.9999999999959
 30
0.0
 11
3080.0
 21
-3132.9999999999959
 31
0.0
1001
ACDBBLOCKREPETAG
1070
     1
1071
       40
1005
123D7B
  0
ARC
  5
123D7C
  8
OBJECT
 10
3083.0
 20
-3135.9999999999959
 30
0.0
 40
3.0
 50
0.0
 51
90.0
1001
ACDBBLOCKREPETAG
1070
     1
1071
       41
1005
123D7C
  0
LINE
  5
123D7D
  8
OBJECT
 10
3080.0
 20
-3256.9999999999959
 30
0.0
 11
3083.0
 21
-3256.9999999999959
 31
0.0
1001
ACDBBLOCKREPETAG
1070
     1
1071
       42
1005
123D7D
  0
ARC
  5
123D7E
  8
OBJECT
 10
3083.0
 20
-3253.9999999999959
 30
0.0
 40
3.0
 50
270.0
 51
0.0
1001
ACDBBLOCKREPETAG
1070
     1
1071
       43
1005
123D7E
  0
LINE
  5
123D7F
  8
OBJECT
 10
3086.0
 20
-3253.9999999999959
 30
0.0
 11
3086.0
 21
-3135.9999999999959
 31
0.0
1001
ACDBBLOCKREPETAG
1070
     1
1071
       44
1005
123D7F
  0
LINE
  5
123D80
  8
HIDDEN
 10
3088.0
 20
-3156.9999999999959
 30
0.0
 11
3088.0
 21
-3232.9999999999959
 31
0.0
1001
ACDBBLOCKREPETAG
1070
     1
1071
       45
1005
123D80
  0
TEXT
  5
123D81
  8
SLIM
 10
2894.25
 20
-3717.4999999999959
 30
0.0
 40
35.0
  1
通常枝65（2）
 41
0.75
  0
CIRCLE
  5
123D82
  8
OBJECT
 10
2400.0
 20
-3540.9999999999968
 30
0.0
 40
62.0
1001
ACDBBLOCKREPETAG
1070
     1
1071
        3
1005
123D82
  0
LINE
  5
123D83
  8
CENTER
 10
2338.0
 20
-3555.9999999999968
 30
0.0
 11
2462.0
 21
-3555.9999999999968
 31
0.0
1001
ACDBBLOCKREPETAG
1070
     1
1071
        4
1005
123D83
  0
CIRCLE
  5
123D84
  8
OBJECT
 10
2400.0
 20
-3555.9999999999968
 30
0.0
 40
28.0
1001
ACDBBLOCKREPETAG
1070
     1
1071
        6
1005
123D84
  0
CIRCLE
  5
123D85
  8
OBJECT
 10
2400.0
 20
-3555.9999999999968
 30
0.0
 40
39.0
1001
ACDBBLOCKREPETAG
1070
     1
1071
        7
1005
123D85
  0
ARC
  5
123D86
  8
OBJECT
 10
2400.0
 20
-3555.9999999999968
 30
0.0
 40
47.0
 50
290.58196921144412
 51
249.41803078855591
1001
ACDBBLOCKREPETAG
1070
     1
1071
        8
1005
123D86
  0
LINE
  5
123D87
  8
OBJECT
 10
2383.4772883581431
 20
-3599.9999999999968
 30
0.0
 11
2416.5227116418569
 21
-3599.9999999999968
 31
0.0
1001
ACDBBLOCKREPETAG
1070
     1
1071
        9
1005
123D87
  0
LINE
  5
123D88
  8
OBJECT
 10
2133.0
 20
-3508.9999999999968
 30
0.0
 11
2140.0
 21
-3508.9999999999968
 31
0.0
1001
ACDBBLOCKREPETAG
1070
     1
1071
        7
1005
123D88
  0
LINE
  5
123D89
  8
OBJECT
 10
2140.0
 20
-3508.9999999999968
 30
0.0
 11
2140.0
 21
-3599.9999999999968
 31
0.0
1001
ACDBBLOCKREPETAG
1070
     1
1071
        8
1005
123D89
  0
LINE
  5
123D8A
  8
OBJECT
 10
2133.0
 20
-3599.9999999999968
 30
0.0
 11
2133.0
 21
-3508.9999999999968
 31
0.0
1001
ACDBBLOCKREPETAG
1070
     1
1071
        9
1005
123D8A
  0
LINE
  5
123D8B
  8
CENTER
 10
2155.0
 20
-3555.9999999999968
 30
0.0
 11
2071.0
 21
-3555.9999999999968
 31
0.0
1001
ACDBBLOCKREPETAG
1070
     1
1071
       10
1005
123D8B
  0
LINE
  5
123D8C
  8
OBJECT
 10
2133.0
 20
-3511.9999999999968
 30
0.0
 11
2097.0
 21
-3511.9999999999968
 31
0.0
1001
ACDBBLOCKREPETAG
1070
     1
1071
       11
1005
123D8C
  0
LINE
  5
123D8D
  8
OBJECT
 10
2097.0
 20
-3511.9999999999968
 30
0.0
 11
2097.0
 21
-3599.9999999999968
 31
0.0
1001
ACDBBLOCKREPETAG
1070
     1
1071
       12
1005
123D8D
  0
LINE
  5
123D8E
  8
OBJECT
 10
2097.0
 20
-3599.9999999999968
 30
0.0
 11
2140.0
 21
-3599.9999999999968
 31
0.0
1001
ACDBBLOCKREPETAG
1070
     1
1071
       13
1005
123D8E
  0
LINE
  5
123D8F
  8
OBJECT
 10
2093.0
 20
-3516.4999999999968
 30
0.0
 11
2086.0
 21
-3516.4999999999968
 31
0.0
1001
ACDBBLOCKREPETAG
1070
     1
1071
       14
1005
123D8F
  0
LINE
  5
123D90
  8
OBJECT
 10
2086.0
 20
-3595.4999999999968
 30
0.0
 11
2093.0
 21
-3595.4999999999968
 31
0.0
1001
ACDBBLOCKREPETAG
1070
     1
1071
       15
1005
123D90
  0
LINE
  5
123D91
  8
OBJECT
 10
2093.0
 20
-3595.4999999999968
 30
0.0
 11
2093.0
 21
-3516.4999999999968
 31
0.0
1001
ACDBBLOCKREPETAG
1070
     1
1071
       16
1005
123D91
  0
LINE
  5
123D92
  8
OBJECT
 10
2097.0
 20
-3511.9999999999968
 30
0.0
 11
2093.0
 21
-3516.4999999999968
 31
0.0
1001
ACDBBLOCKREPETAG
1070
     1
1071
       17
1005
123D92
  0
LINE
  5
123D93
  8
OBJECT
 10
2097.0
 20
-3599.9999999999968
 30
0.0
 11
2093.0
 21
-3595.4999999999968
 31
0.0
1001
ACDBBLOCKREPETAG
1070
     1
1071
       18
1005
123D93
  0
LINE
  5
123D94
  8
OBJECT
 10
2083.0
 20
-3478.9999999999968
 30
0.0
 11
2080.0
 21
-3478.9999999999968
 31
0.0
1001
ACDBBLOCKREPETAG
1070
     1
1071
       19
1005
123D94
  0
ARC
  5
123D95
  8
OBJECT
 10
2083.0
 20
-3481.9999999999968
 30
0.0
 40
3.0
 50
0.0
 51
90.0
1001
ACDBBLOCKREPETAG
1070
     1
1071
       20
1005
123D95
  0
LINE
  5
123D96
  8
OBJECT
 10
2080.0
 20
-3602.9999999999968
 30
0.0
 11
2083.0
 21
-3602.9999999999968
 31
0.0
1001
ACDBBLOCKREPETAG
1070
     1
1071
       21
1005
123D96
  0
ARC
  5
123D97
  8
OBJECT
 10
2083.0
 20
-3599.9999999999968
 30
0.0
 40
3.0
 50
270.0
 51
0.0
1001
ACDBBLOCKREPETAG
1070
     1
1071
       22
1005
123D97
  0
LINE
  5
123D98
  8
OBJECT
 10
2086.0
 20
-3599.9999999999968
 30
0.0
 11
2086.0
 21
-3481.9999999999968
 31
0.0
1001
ACDBBLOCKREPETAG
1070
     1
1071
       23
1005
123D98
  0
LINE
  5
123D99
  8
HIDDEN
 10
2088.0
 20
-3525.9999999999968
 30
0.0
 11
2088.0
 21
-3585.9999999999968
 31
0.0
1001
ACDBBLOCKREPETAG
1070
     1
1071
       24
1005
123D99
  0
LINE
  5
123D9A
  8
OBJECT
 10
2133.0
 20
-3147.9999999999959
 30
0.0
 11
2140.0
 21
-3147.9999999999959
 31
0.0
1001
ACDBBLOCKREPETAG
1070
     1
1071
        7
1005
123D9A
  0
LINE
  5
123D9B
  8
OBJECT
 10
2140.0
 20
-3147.9999999999959
 30
0.0
 11
2140.0
 21
-3241.9999999999959
 31
0.0
1001
ACDBBLOCKREPETAG
1070
     1
1071
        8
1005
123D9B
  0
LINE
  5
123D9C
  8
OBJECT
 10
2140.0
 20
-3241.9999999999959
 30
0.0
 11
2133.0
 21
-3241.9999999999959
 31
0.0
1001
ACDBBLOCKREPETAG
1070
     1
1071
        9
1005
123D9C
  0
LINE
  5
123D9D
  8
OBJECT
 10
2133.0
 20
-3241.9999999999959
 30
0.0
 11
2133.0
 21
-3147.9999999999959
 31
0.0
1001
ACDBBLOCKREPETAG
1070
     1
1071
       10
1005
123D9D
  0
LINE
  5
123D9E
  8
CENTER
 10
2155.0
 20
-3194.9999999999959
 30
0.0
 11
2080.0
 21
-3194.9999999999959
 31
0.0
1001
ACDBBLOCKREPETAG
1070
     1
1071
       11
1005
123D9E
  0
LINE
  5
123D9F
  8
OBJECT
 10
2133.0
 20
-3150.9999999999959
 30
0.0
 11
2097.0
 21
-3150.9999999999959
 31
0.0
1001
ACDBBLOCKREPETAG
1070
     1
1071
       12
1005
123D9F
  0
LINE
  5
123DA0
  8
OBJECT
 10
2097.0
 20
-3150.9999999999959
 30
0.0
 11
2097.0
 21
-3238.9999999999959
 31
0.0
1001
ACDBBLOCKREPETAG
1070
     1
1071
       13
1005
123DA0
  0
LINE
  5
123DA1
  8
OBJECT
 10
2097.0
 20
-3238.9999999999959
 30
0.0
 11
2133.0
 21
-3238.9999999999959
 31
0.0
1001
ACDBBLOCKREPETAG
1070
     1
1071
       14
1005
123DA1
  0
LINE
  5
123DA2
  8
OBJECT
 10
2093.0
 20
-3155.4999999999959
 30
0.0
 11
2086.0
 21
-3155.4999999999959
 31
0.0
1001
ACDBBLOCKREPETAG
1070
     1
1071
       15
1005
123DA2
  0
LINE
  5
123DA3
  8
OBJECT
 10
2086.0
 20
-3234.4999999999959
 30
0.0
 11
2093.0
 21
-3234.4999999999959
 31
0.0
1001
ACDBBLOCKREPETAG
1070
     1
1071
       16
1005
123DA3
  0
LINE
  5
123DA4
  8
OBJECT
 10
2093.0
 20
-3234.4999999999959
 30
0.0
 11
2093.0
 21
-3155.4999999999959
 31
0.0
1001
ACDBBLOCKREPETAG
1070
     1
1071
       17
1005
123DA4
  0
LINE
  5
123DA5
  8
OBJECT
 10
2097.0
 20
-3150.9999999999959
 30
0.0
 11
2093.0
 21
-3155.4999999999959
 31
0.0
1001
ACDBBLOCKREPETAG
1070
     1
1071
       18
1005
123DA5
  0
LINE
  5
123DA6
  8
OBJECT
 10
2097.0
 20
-3238.9999999999959
 30
0.0
 11
2093.0
 21
-3234.4999999999959
 31
0.0
1001
ACDBBLOCKREPETAG
1070
     1
1071
       19
1005
123DA6
  0
LINE
  5
123DA7
  8
OBJECT
 10
2083.0
 20
-3132.9999999999959
 30
0.0
 11
2080.0
 21
-3132.9999999999959
 31
0.0
1001
ACDBBLOCKREPETAG
1070
     1
1071
       20
1005
123DA7
  0
ARC
  5
123DA8
  8
OBJECT
 10
2083.0
 20
-3135.9999999999959
 30
0.0
 40
3.0
 50
0.0
 51
90.0
1001
ACDBBLOCKREPETAG
1070
     1
1071
       21
1005
123DA8
  0
LINE
  5
123DA9
  8
OBJECT
 10
2080.0
 20
-3256.9999999999959
 30
0.0
 11
2083.0
 21
-3256.9999999999959
 31
0.0
1001
ACDBBLOCKREPETAG
1070
     1
1071
       22
1005
123DA9
  0
ARC
  5
123DAA
  8
OBJECT
 10
2083.0
 20
-3253.9999999999959
 30
0.0
 40
3.0
 50
270.0
 51
0.0
1001
ACDBBLOCKREPETAG
1070
     1
1071
       23
1005
123DAA
  0
LINE
  5
123DAB
  8
OBJECT
 10
2086.0
 20
-3253.9999999999959
 30
0.0
 11
2086.0
 21
-3135.9999999999959
 31
0.0
1001
ACDBBLOCKREPETAG
1070
     1
1071
       24
1005
123DAB
  0
LINE
  5
123DAC
  8
HIDDEN
 10
2088.0
 20
-3164.9999999999959
 30
0.0
 11
2088.0
 21
-3224.9999999999959
 31
0.0
1001
ACDBBLOCKREPETAG
1070
     1
1071
       25
1005
123DAC
  0
TEXT
  5
123DAD
  8
SLIM
 10
1896.75
 20
-3717.4999999999959
 30
0.0
 40
35.0
  1
通常枝50（1）
 41
0.75
  0
TEXT
  5
123DAE
  8
SLIM
 10
1837.75
 20
282.50000000000011
 30
0.0
 40
35.0
  1
（枝管サイズ毎に寸法が異なります。管底の位置は全サイズで同じです）
 41
0.75
  0
TEXT
  5
123DAF
  8
SLIM
 10
1850.0
 20
532.5
 30
0.0
 40
75.0
  1
側面図の代表機種
 41
0.75
  0
TEXT
  5
123DB0
  8
SLIM
 10
1850.0
 20
369.99999999999989
 30
0.0
 40
100.0
  1
4SHF-A3
 41
0.75
  0
LINE
  5
123DB1
  8
OBJECT
 10
4443.0
 20
-1099.999999999995
 30
0.0
 11
4557.0
 21
-1099.999999999995
 31
0.0
1001
ACDBBLOCKREPETAG
1070
     1
1071
        0
1005
123DB1
  0
LINE
  5
123DB2
  8
OBJECT
 10
4443.0
 20
-1099.999999999995
 30
0.0
 11
4443.0
 21
-999.99999999999545
 31
0.0
1001
ACDBBLOCKREPETAG
1070
     1
1071
        1
1005
123DB2
  0
LINE
  5
123DB3
  8
OBJECT
 10
4557.0
 20
-1099.999999999995
 30
0.0
 11
4557.0
 21
-999.99999999999545
 31
0.0
1001
ACDBBLOCKREPETAG
1070
     1
1071
        2
1005
123DB3
  0
LINE
  5
123DB4
  8
OBJECT
 10
4443.0
 20
-999.99999999999545
 30
0.0
 11
4557.0
 21
-999.99999999999545
 31
0.0
1001
ACDBBLOCKREPETAG
1070
     1
1071
        3
1005
123DB4
  0
LINE
  5
123DB5
  8
HIDDEN
 10
4450.0
 20
-999.99999999999545
 30
0.0
 11
4450.0
 21
-1099.999999999995
 31
0.0
1001
ACDBBLOCKREPETAG
1070
     1
1071
        4
1005
123DB5
  0
LINE
  5
123DB6
  8
HIDDEN
 10
4550.0
 20
-999.99999999999545
 30
0.0
 11
4550.0
 21
-1099.999999999995
 31
0.0
1001
ACDBBLOCKREPETAG
1070
     1
1071
        5
1005
123DB6
  0
LINE
  5
123DB7
  8
CENTER
 10
4500.0
 20
-789.9999999999992
 30
0.0
 11
4500.0
 21
-1114.999999999995
 31
0.0
1001
ACDBBLOCKREPETAG
1070
     1
1071
        6
1005
123DB7
  0
LINE
  5
123DB8
  8
OBJECT
 10
4425.0
 20
-789.9999999999992
 30
0.0
 11
4425.0
 21
-871.99999999999545
 31
0.0
1001
ACDBBLOCKREPETAG
1070
     1
1071
        7
1005
123DB8
  0
LINE
  5
123DB9
  8
OBJECT
 10
4575.0
 20
-789.9999999999992
 30
0.0
 11
4575.0
 21
-871.99999999999545
 31
0.0
1001
ACDBBLOCKREPETAG
1070
     1
1071
        8
1005
123DB9
  0
LINE
  5
123DBA
  8
OBJECT
 10
4425.0
 20
-871.99999999999545
 30
0.0
 11
4575.0
 21
-871.99999999999545
 31
0.0
1001
ACDBBLOCKREPETAG
1070
     1
1071
        9
1005
123DBA
  0
LINE
  5
123DBB
  8
OBJECT
 10
4425.0
 20
-871.99999999999545
 30
0.0
 11
4443.0
 21
-999.99999999999545
 31
0.0
1001
ACDBBLOCKREPETAG
1070
     1
1071
       10
1005
123DBB
  0
LINE
  5
123DBC
  8
OBJECT
 10
4557.0
 20
-999.99999999999545
 30
0.0
 11
4575.0
 21
-871.99999999999545
 31
0.0
1001
ACDBBLOCKREPETAG
1070
     1
1071
       11
1005
123DBC
  0
LINE
  5
123DBD
  8
OBJECT
 10
3943.0
 20
-1099.999999999995
 30
0.0
 11
4057.0
 21
-1099.999999999995
 31
0.0
1001
ACDBBLOCKREPETAG
1070
     1
1071
        0
1005
123DBD
  0
LINE
  5
123DBE
  8
OBJECT
 10
3943.0
 20
-1099.999999999995
 30
0.0
 11
3943.0
 21
-999.99999999999545
 31
0.0
1001
ACDBBLOCKREPETAG
1070
     1
1071
        1
1005
123DBE
  0
LINE
  5
123DBF
  8
OBJECT
 10
4057.0
 20
-1099.999999999995
 30
0.0
 11
4057.0
 21
-999.99999999999545
 31
0.0
1001
ACDBBLOCKREPETAG
1070
     1
1071
        2
1005
123DBF
  0
LINE
  5
123DC0
  8
OBJECT
 10
3943.0
 20
-999.99999999999545
 30
0.0
 11
4057.0
 21
-999.99999999999545
 31
0.0
1001
ACDBBLOCKREPETAG
1070
     1
1071
        3
1005
123DC0
  0
LINE
  5
123DC1
  8
HIDDEN
 10
3950.0
 20
-999.99999999999545
 30
0.0
 11
3950.0
 21
-1099.999999999995
 31
0.0
1001
ACDBBLOCKREPETAG
1070
     1
1071
        4
1005
123DC1
  0
LINE
  5
123DC2
  8
HIDDEN
 10
4050.0
 20
-999.99999999999545
 30
0.0
 11
4050.0
 21
-1099.999999999995
 31
0.0
1001
ACDBBLOCKREPETAG
1070
     1
1071
        5
1005
123DC2
  0
LINE
  5
123DC3
  8
CENTER
 10
4000.0
 20
-789.9999999999992
 30
0.0
 11
4000.0
 21
-1114.999999999995
 31
0.0
1001
ACDBBLOCKREPETAG
1070
     1
1071
        6
1005
123DC3
  0
LINE
  5
123DC4
  8
OBJECT
 10
3925.0
 20
-789.9999999999992
 30
0.0
 11
3925.0
 21
-871.99999999999545
 31
0.0
1001
ACDBBLOCKREPETAG
1070
     1
1071
        7
1005
123DC4
  0
LINE
  5
123DC5
  8
OBJECT
 10
4075.0
 20
-789.9999999999992
 30
0.0
 11
4075.0
 21
-871.99999999999545
 31
0.0
1001
ACDBBLOCKREPETAG
1070
     1
1071
        8
1005
123DC5
  0
LINE
  5
123DC6
  8
OBJECT
 10
3925.0
 20
-871.99999999999545
 30
0.0
 11
4075.0
 21
-871.99999999999545
 31
0.0
1001
ACDBBLOCKREPETAG
1070
     1
1071
        9
1005
123DC6
  0
LINE
  5
123DC7
  8
OBJECT
 10
3925.0
 20
-871.99999999999545
 30
0.0
 11
3943.0
 21
-999.99999999999545
 31
0.0
1001
ACDBBLOCKREPETAG
1070
     1
1071
       10
1005
123DC7
  0
LINE
  5
123DC8
  8
OBJECT
 10
4057.0
 20
-999.99999999999545
 30
0.0
 11
4075.0
 21
-871.99999999999545
 31
0.0
1001
ACDBBLOCKREPETAG
1070
     1
1071
       11
1005
123DC8
  0
LINE
  5
123DC9
  8
OBJECT
 10
2443.0
 20
-1099.9999999999959
 30
0.0
 11
2557.0
 21
-1099.9999999999959
 31
0.0
1001
ACDBBLOCKREPETAG
1070
     1
1071
        0
1005
123DC9
  0
LINE
  5
123DCA
  8
OBJECT
 10
2443.0
 20
-1099.9999999999959
 30
0.0
 11
2443.0
 21
-999.99999999999602
 31
0.0
1001
ACDBBLOCKREPETAG
1070
     1
1071
        1
1005
123DCA
  0
LINE
  5
123DCB
  8
OBJECT
 10
2557.0
 20
-1099.9999999999959
 30
0.0
 11
2557.0
 21
-999.99999999999602
 31
0.0
1001
ACDBBLOCKREPETAG
1070
     1
1071
        2
1005
123DCB
  0
LINE
  5
123DCC
  8
OBJECT
 10
2443.0
 20
-999.99999999999602
 30
0.0
 11
2557.0
 21
-999.99999999999602
 31
0.0
1001
ACDBBLOCKREPETAG
1070
     1
1071
        3
1005
123DCC
  0
LINE
  5
123DCD
  8
HIDDEN
 10
2450.0
 20
-999.99999999999602
 30
0.0
 11
2450.0
 21
-1099.9999999999959
 31
0.0
1001
ACDBBLOCKREPETAG
1070
     1
1071
        4
1005
123DCD
  0
LINE
  5
123DCE
  8
HIDDEN
 10
2550.0
 20
-999.99999999999602
 30
0.0
 11
2550.0
 21
-1099.9999999999959
 31
0.0
1001
ACDBBLOCKREPETAG
1070
     1
1071
        5
1005
123DCE
  0
LINE
  5
123DCF
  8
CENTER
 10
2500.0
 20
-789.99999999999955
 30
0.0
 11
2500.0
 21
-1114.9999999999959
 31
0.0
1001
ACDBBLOCKREPETAG
1070
     1
1071
        6
1005
123DCF
  0
LINE
  5
123DD0
  8
OBJECT
 10
2425.0
 20
-789.99999999999955
 30
0.0
 11
2425.0
 21
-871.99999999999591
 31
0.0
1001
ACDBBLOCKREPETAG
1070
     1
1071
        7
1005
123DD0
  0
LINE
  5
123DD1
  8
OBJECT
 10
2575.0
 20
-789.99999999999955
 30
0.0
 11
2575.0
 21
-871.99999999999591
 31
0.0
1001
ACDBBLOCKREPETAG
1070
     1
1071
        8
1005
123DD1
  0
LINE
  5
123DD2
  8
OBJECT
 10
2425.0
 20
-871.99999999999591
 30
0.0
 11
2575.0
 21
-871.99999999999591
 31
0.0
1001
ACDBBLOCKREPETAG
1070
     1
1071
        9
1005
123DD2
  0
LINE
  5
123DD3
  8
OBJECT
 10
2425.0
 20
-871.99999999999591
 30
0.0
 11
2443.0
 21
-999.99999999999602
 31
0.0
1001
ACDBBLOCKREPETAG
1070
     1
1071
       10
1005
123DD3
  0
LINE
  5
123DD4
  8
OBJECT
 10
2557.0
 20
-999.99999999999602
 30
0.0
 11
2575.0
 21
-871.99999999999591
 31
0.0
1001
ACDBBLOCKREPETAG
1070
     1
1071
       11
1005
123DD4
  0
LINE
  5
123DD5
  8
OBJECT
 10
1943.0
 20
-1099.9999999999959
 30
0.0
 11
2057.0
 21
-1099.9999999999959
 31
0.0
1001
ACDBBLOCKREPETAG
1070
     1
1071
        0
1005
123DD5
  0
LINE
  5
123DD6
  8
OBJECT
 10
1943.0
 20
-1099.9999999999959
 30
0.0
 11
1943.0
 21
-999.99999999999602
 31
0.0
1001
ACDBBLOCKREPETAG
1070
     1
1071
        1
1005
123DD6
  0
LINE
  5
123DD7
  8
OBJECT
 10
2057.0
 20
-1099.9999999999959
 30
0.0
 11
2057.0
 21
-999.99999999999602
 31
0.0
1001
ACDBBLOCKREPETAG
1070
     1
1071
        2
1005
123DD7
  0
LINE
  5
123DD8
  8
OBJECT
 10
1943.0
 20
-999.99999999999602
 30
0.0
 11
2057.0
 21
-999.99999999999602
 31
0.0
1001
ACDBBLOCKREPETAG
1070
     1
1071
        3
1005
123DD8
  0
LINE
  5
123DD9
  8
HIDDEN
 10
1950.0
 20
-999.99999999999602
 30
0.0
 11
1950.0
 21
-1099.9999999999959
 31
0.0
1001
ACDBBLOCKREPETAG
1070
     1
1071
        4
1005
123DD9
  0
LINE
  5
123DDA
  8
HIDDEN
 10
2050.0
 20
-999.99999999999602
 30
0.0
 11
2050.0
 21
-1099.9999999999959
 31
0.0
1001
ACDBBLOCKREPETAG
1070
     1
1071
        5
1005
123DDA
  0
LINE
  5
123DDB
  8
CENTER
 10
2000.0
 20
-789.99999999999955
 30
0.0
 11
2000.0
 21
-1114.9999999999959
 31
0.0
1001
ACDBBLOCKREPETAG
1070
     1
1071
        6
1005
123DDB
  0
LINE
  5
123DDC
  8
OBJECT
 10
1925.0
 20
-789.99999999999955
 30
0.0
 11
1925.0
 21
-871.99999999999591
 31
0.0
1001
ACDBBLOCKREPETAG
1070
     1
1071
        7
1005
123DDC
  0
LINE
  5
123DDD
  8
OBJECT
 10
2075.0
 20
-789.99999999999955
 30
0.0
 11
2075.0
 21
-871.99999999999591
 31
0.0
1001
ACDBBLOCKREPETAG
1070
     1
1071
        8
1005
123DDD
  0
LINE
  5
123DDE
  8
OBJECT
 10
1925.0
 20
-871.99999999999591
 30
0.0
 11
2075.0
 21
-871.99999999999591
 31
0.0
1001
ACDBBLOCKREPETAG
1070
     1
1071
        9
1005
123DDE
  0
LINE
  5
123DDF
  8
OBJECT
 10
1925.0
 20
-871.99999999999591
 30
0.0
 11
1943.0
 21
-999.99999999999602
 31
0.0
1001
ACDBBLOCKREPETAG
1070
     1
1071
       10
1005
123DDF
  0
LINE
  5
123DE0
  8
OBJECT
 10
2057.0
 20
-999.99999999999602
 30
0.0
 11
2075.0
 21
-871.99999999999591
 31
0.0
1001
ACDBBLOCKREPETAG
1070
     1
1071
       11
1005
123DE0
  0
LINE
  5
123DE1
  8
CENTER
 10
2577.0
 20
-586.0
 30
0.0
 11
2423.0
 21
-586.0
 31
0.0
1001
ACDBBLOCKREPETAG
1070
     1
1071
       17
1005
123DE1
  0
CIRCLE
  5
123DE2
  8
OBJECT
 10
2500.0
 20
-586.0
 30
0.0
 40
41.5
1001
ACDBBLOCKREPETAG
1070
     1
1071
       19
1005
123DE2
  0
CIRCLE
  5
123DE3
  8
OBJECT
 10
2500.0
 20
-586.0
 30
0.0
 40
54.0
1001
ACDBBLOCKREPETAG
1070
     1
1071
       20
1005
123DE3
  0
ARC
  5
123DE4
  8
OBJECT
 10
2500.0
 20
-586.0
 30
0.0
 40
62.0
 50
287.89655112920718
 51
252.10344887079279
1001
ACDBBLOCKREPETAG
1070
     1
1071
       21
1005
123DE4
  0
LINE
  5
123DE5
  8
OBJECT
 10
2480.947441116743
 20
-645.0
 30
0.0
 11
2519.052558883257
 21
-645.0
 31
0.0
1001
ACDBBLOCKREPETAG
1070
     1
1071
       22
1005
123DE5
  0
LINE
  5
123DE6
  8
OBJECT
 10
2133.0
 20
-524.0
 30
0.0
 11
2140.0
 21
-524.0
 31
0.0
1001
ACDBBLOCKREPETAG
1070
     1
1071
       45
1005
123DE6
  0
LINE
  5
123DE7
  8
OBJECT
 10
2140.0
 20
-524.0
 30
0.0
 11
2140.0
 21
-645.0
 31
0.0
1001
ACDBBLOCKREPETAG
1070
     1
1071
       46
1005
123DE7
  0
LINE
  5
123DE8
  8
OBJECT
 10
2133.0
 20
-645.0
 30
0.0
 11
2133.0
 21
-524.0
 31
0.0
1001
ACDBBLOCKREPETAG
1070
     1
1071
       47
1005
123DE8
  0
LINE
  5
123DE9
  8
CENTER
 10
2155.0
 20
-586.0
 30
0.0
 11
2071.0
 21
-586.0
 31
0.0
1001
ACDBBLOCKREPETAG
1070
     1
1071
       48
1005
123DE9
  0
LINE
  5
123DEA
  8
OBJECT
 10
2133.0
 20
-527.0
 30
0.0
 11
2097.0
 21
-527.0
 31
0.0
1001
ACDBBLOCKREPETAG
1070
     1
1071
       49
1005
123DEA
  0
LINE
  5
123DEB
  8
OBJECT
 10
2097.0
 20
-527.0
 30
0.0
 11
2097.0
 21
-645.0
 31
0.0
1001
ACDBBLOCKREPETAG
1070
     1
1071
       50
1005
123DEB
  0
LINE
  5
123DEC
  8
OBJECT
 10
2097.0
 20
-645.0
 30
0.0
 11
2140.0
 21
-645.0
 31
0.0
1001
ACDBBLOCKREPETAG
1070
     1
1071
       51
1005
123DEC
  0
LINE
  5
123DED
  8
OBJECT
 10
2093.0
 20
-531.5
 30
0.0
 11
2086.0
 21
-531.5
 31
0.0
1001
ACDBBLOCKREPETAG
1070
     1
1071
       52
1005
123DED
  0
LINE
  5
123DEE
  8
OBJECT
 10
2086.0
 20
-640.5
 30
0.0
 11
2093.0
 21
-640.5
 31
0.0
1001
ACDBBLOCKREPETAG
1070
     1
1071
       53
1005
123DEE
  0
LINE
  5
123DEF
  8
OBJECT
 10
2093.0
 20
-640.5
 30
0.0
 11
2093.0
 21
-531.5
 31
0.0
1001
ACDBBLOCKREPETAG
1070
     1
1071
       54
1005
123DEF
  0
LINE
  5
123DF0
  8
OBJECT
 10
2097.0
 20
-527.0
 30
0.0
 11
2093.0
 21
-531.5
 31
0.0
1001
ACDBBLOCKREPETAG
1070
     1
1071
       55
1005
123DF0
  0
LINE
  5
123DF1
  8
OBJECT
 10
2097.0
 20
-645.0
 30
0.0
 11
2093.0
 21
-640.5
 31
0.0
1001
ACDBBLOCKREPETAG
1070
     1
1071
       56
1005
123DF1
  0
LINE
  5
123DF2
  8
OBJECT
 10
2083.0
 20
-524.0
 30
0.0
 11
2080.0
 21
-524.0
 31
0.0
1001
ACDBBLOCKREPETAG
1070
     1
1071
       57
1005
123DF2
  0
ARC
  5
123DF3
  8
OBJECT
 10
2083.0
 20
-527.0
 30
0.0
 40
3.0
 50
0.0
 51
90.0
1001
ACDBBLOCKREPETAG
1070
     1
1071
       58
1005
123DF3
  0
LINE
  5
123DF4
  8
OBJECT
 10
2080.0
 20
-648.0
 30
0.0
 11
2083.0
 21
-648.0
 31
0.0
1001
ACDBBLOCKREPETAG
1070
     1
1071
       59
1005
123DF4
  0
ARC
  5
123DF5
  8
OBJECT
 10
2083.0
 20
-645.0
 30
0.0
 40
3.0
 50
270.0
 51
0.0
1001
ACDBBLOCKREPETAG
1070
     1
1071
       60
1005
123DF5
  0
LINE
  5
123DF6
  8
OBJECT
 10
2086.0
 20
-645.0
 30
0.0
 11
2086.0
 21
-527.0
 31
0.0
1001
ACDBBLOCKREPETAG
1070
     1
1071
       61
1005
123DF6
  0
LINE
  5
123DF7
  8
HIDDEN
 10
2088.0
 20
-541.5
 30
0.0
 11
2088.0
 21
-630.49999999999977
 31
0.0
1001
ACDBBLOCKREPETAG
1070
     1
1071
       63
1005
123DF7
  0
LINE
  5
123DF8
  8
OBJECT
 10
2133.0
 20
-137.99999999999909
 30
0.0
 11
2140.0
 21
-137.99999999999909
 31
0.0
1001
ACDBBLOCKREPETAG
1070
     1
1071
       47
1005
123DF8
  0
LINE
  5
123DF9
  8
OBJECT
 10
2140.0
 20
-137.99999999999909
 30
0.0
 11
2140.0
 21
-261.99999999999909
 31
0.0
1001
ACDBBLOCKREPETAG
1070
     1
1071
       48
1005
123DF9
  0
LINE
  5
123DFA
  8
OBJECT
 10
2140.0
 20
-261.99999999999909
 30
0.0
 11
2133.0
 21
-261.99999999999909
 31
0.0
1001
ACDBBLOCKREPETAG
1070
     1
1071
       49
1005
123DFA
  0
LINE
  5
123DFB
  8
OBJECT
 10
2133.0
 20
-261.99999999999909
 30
0.0
 11
2133.0
 21
-137.99999999999909
 31
0.0
1001
ACDBBLOCKREPETAG
1070
     1
1071
       50
1005
123DFB
  0
LINE
  5
123DFC
  8
CENTER
 10
2155.0
 20
-199.99999999999909
 30
0.0
 11
2080.0
 21
-199.99999999999909
 31
0.0
1001
ACDBBLOCKREPETAG
1070
     1
1071
       51
1005
123DFC
  0
LINE
  5
123DFD
  8
OBJECT
 10
2133.0
 20
-140.99999999999909
 30
0.0
 11
2097.0
 21
-140.99999999999909
 31
0.0
1001
ACDBBLOCKREPETAG
1070
     1
1071
       52
1005
123DFD
  0
LINE
  5
123DFE
  8
OBJECT
 10
2097.0
 20
-140.99999999999909
 30
0.0
 11
2097.0
 21
-258.99999999999909
 31
0.0
1001
ACDBBLOCKREPETAG
1070
     1
1071
       53
1005
123DFE
  0
LINE
  5
123DFF
  8
OBJECT
 10
2097.0
 20
-258.99999999999909
 30
0.0
 11
2133.0
 21
-258.99999999999909
 31
0.0
1001
ACDBBLOCKREPETAG
1070
     1
1071
       54
1005
123DFF
  0
LINE
  5
123E00
  8
OBJECT
 10
2093.0
 20
-145.49999999999909
 30
0.0
 11
2086.0
 21
-145.49999999999909
 31
0.0
1001
ACDBBLOCKREPETAG
1070
     1
1071
       55
1005
123E00
  0
LINE
  5
123E01
  8
OBJECT
 10
2086.0
 20
-254.49999999999909
 30
0.0
 11
2093.0
 21
-254.49999999999909
 31
0.0
1001
ACDBBLOCKREPETAG
1070
     1
1071
       56
1005
123E01
  0
LINE
  5
123E02
  8
OBJECT
 10
2093.0
 20
-254.49999999999909
 30
0.0
 11
2093.0
 21
-145.49999999999909
 31
0.0
1001
ACDBBLOCKREPETAG
1070
     1
1071
       57
1005
123E02
  0
LINE
  5
123E03
  8
OBJECT
 10
2097.0
 20
-140.99999999999909
 30
0.0
 11
2093.0
 21
-145.49999999999909
 31
0.0
1001
ACDBBLOCKREPETAG
1070
     1
1071
       58
1005
123E03
  0
LINE
  5
123E04
  8
OBJECT
 10
2097.0
 20
-258.99999999999909
 30
0.0
 11
2093.0
 21
-254.49999999999909
 31
0.0
1001
ACDBBLOCKREPETAG
1070
     1
1071
       59
1005
123E04
  0
LINE
  5
123E05
  8
OBJECT
 10
2083.0
 20
-137.99999999999909
 30
0.0
 11
2080.0
 21
-137.99999999999909
 31
0.0
1001
ACDBBLOCKREPETAG
1070
     1
1071
       60
1005
123E05
  0
ARC
  5
123E06
  8
OBJECT
 10
2083.0
 20
-140.99999999999909
 30
0.0
 40
3.0
 50
0.0
 51
90.0
1001
ACDBBLOCKREPETAG
1070
     1
1071
       61
1005
123E06
  0
LINE
  5
123E07
  8
OBJECT
 10
2080.0
 20
-261.99999999999909
 30
0.0
 11
2083.0
 21
-261.99999999999909
 31
0.0
1001
ACDBBLOCKREPETAG
1070
     1
1071
       62
1005
123E07
  0
ARC
  5
123E08
  8
OBJECT
 10
2083.0
 20
-258.99999999999909
 30
0.0
 40
3.0
 50
270.0
 51
0.0
1001
ACDBBLOCKREPETAG
1070
     1
1071
       63
1005
123E08
  0
LINE
  5
123E09
  8
OBJECT
 10
2086.0
 20
-258.99999999999909
 30
0.0
 11
2086.0
 21
-140.99999999999909
 31
0.0
1001
ACDBBLOCKREPETAG
1070
     1
1071
       64
1005
123E09
  0
LINE
  5
123E0A
  8
HIDDEN
 10
2088.0
 20
-155.49999999999909
 30
0.0
 11
2088.0
 21
-244.49999999999909
 31
0.0
1001
ACDBBLOCKREPETAG
1070
     1
1071
       65
1005
123E0A
  0
LINE
  5
123E0B
  8
OBJECT
 10
465.00000000012182
 20
-546.00000000000955
 30
0.0
 11
465.00000000012182
 21
-553.00000000000966
 31
0.0
1001
ACDBBLOCKREPETAG
1070
     1
1071
       57
1005
123E0B
  0
LINE
  5
123E0C
  8
OBJECT
 10
465.00000000012182
 20
-553.00000000000966
 30
0.0
 11
615.00000000012176
 21
-553.00000000000966
 31
0.0
1001
ACDBBLOCKREPETAG
1070
     1
1071
       58
1005
123E0C
  0
LINE
  5
123E0D
  8
OBJECT
 10
468.00000000012182
 20
-594.50000000000966
 30
0.0
 11
612.00000000012164
 21
-594.50000000000966
 31
0.0
1001
ACDBBLOCKREPETAG
1070
     1
1071
       59
1005
123E0D
  0
LINE
  5
123E0E
  8
OBJECT
 10
474.5000000001217
 20
-606.00000000000955
 30
0.0
 11
605.50000000012187
 21
-606.00000000000955
 31
0.0
1001
ACDBBLOCKREPETAG
1070
     1
1071
       60
1005
123E0E
  0
LINE
  5
123E0F
  8
OBJECT
 10
615.00000000012176
 20
-553.00000000000966
 30
0.0
 11
615.00000000012176
 21
-546.00000000000955
 31
0.0
1001
ACDBBLOCKREPETAG
1070
     1
1071
       61
1005
123E0F
  0
LINE
  5
123E10
  8
OBJECT
 10
615.00000000012176
 20
-546.00000000000955
 30
0.0
 11
465.00000000012182
 21
-546.00000000000955
 31
0.0
1001
ACDBBLOCKREPETAG
1070
     1
1071
       62
1005
123E10
  0
LINE
  5
123E11
  8
OBJECT
 10
602.00000000012187
 20
-610.00000000000955
 30
0.0
 11
602.00000000012187
 21
-616.00000000000955
 31
0.0
1001
ACDBBLOCKREPETAG
1070
     1
1071
       63
1005
123E11
  0
LINE
  5
123E12
  8
OBJECT
 10
612.00000000012164
 20
-553.00000000000966
 30
0.0
 11
612.00000000012164
 21
-594.50000000000966
 31
0.0
1001
ACDBBLOCKREPETAG
1070
     1
1071
       64
1005
123E12
  0
LINE
  5
123E13
  8
OBJECT
 10
612.00000000012164
 20
-594.50000000000966
 30
0.0
 11
605.50000000012187
 21
-606.00000000000955
 31
0.0
1001
ACDBBLOCKREPETAG
1070
     1
1071
       65
1005
123E13
  0
LINE
  5
123E14
  8
OBJECT
 10
605.50000000012187
 20
-606.00000000000955
 30
0.0
 11
602.00000000012187
 21
-610.00000000000955
 31
0.0
1001
ACDBBLOCKREPETAG
1070
     1
1071
       66
1005
123E14
  0
LINE
  5
123E15
  8
OBJECT
 10
468.00000000012182
 20
-594.50000000000966
 30
0.0
 11
474.5000000001217
 21
-606.00000000000955
 31
0.0
1001
ACDBBLOCKREPETAG
1070
     1
1071
       67
1005
123E15
  0
LINE
  5
123E16
  8
OBJECT
 10
474.5000000001217
 20
-606.00000000000955
 30
0.0
 11
478.0000000001217
 21
-610.00000000000955
 31
0.0
1001
ACDBBLOCKREPETAG
1070
     1
1071
       68
1005
123E16
  0
ARC
  5
123E17
  8
OBJECT
 10
540.00000000012176
 20
-228.10000000000809
 30
0.0
 40
386.89999999999998
 50
260.77870136257951
 51
279.22129863742049
1001
ACDBBLOCKREPETAG
1070
     1
1071
       69
1005
123E17
  0
LINE
  5
123E18
  8
OBJECT
 10
478.0000000001217
 20
-610.00000000000955
 30
0.0
 11
478.0000000001217
 21
-616.00000000000955
 31
0.0
1001
ACDBBLOCKREPETAG
1070
     1
1071
       70
1005
123E18
  0
LINE
  5
123E19
  8
OBJECT
 10
468.00000000012182
 20
-553.00000000000966
 30
0.0
 11
468.00000000012182
 21
-594.50000000000966
 31
0.0
1001
ACDBBLOCKREPETAG
1070
     1
1071
       71
1005
123E19
  0
INSERT
  5
123E1A
  8
OBJECT
  2
*U47
 10
0.0
 20
0.0
 30
0.0
  0
LINE
  5
123E1B
  8
HIDDEN
 10
597.00000000012187
 20
-598.00000000000955
 30
0.0
 11
483.0000000001217
 21
-598.00000000000955
 31
0.0
1001
ACDBBLOCKREPETAG
1070
     1
1071
      431
1005
123E1B
  0
INSERT
  5
123E1C
  8
OBJECT
  2
*U48
 10
0.0
 20
0.0
 30
0.0
  0
LINE
  5
123E1D
  8
OBJECT
 10
118.00000000004179
 20
-563.00000000000955
 30
0.0
 11
118.00000000004179
 21
-556.00000000000955
 31
0.0
1001
ACDBBLOCKREPETAG
1070
     1
1071
       39
1005
123E1D
  0
LINE
  5
123E1E
  8
OBJECT
 10
118.00000000004179
 20
-556.00000000000955
 30
0.0
 11
242.00000000004181
 21
-556.00000000000955
 31
0.0
1001
ACDBBLOCKREPETAG
1070
     1
1071
       40
1005
123E1E
  0
LINE
  5
123E1F
  8
OBJECT
 10
242.00000000004181
 20
-556.00000000000955
 30
0.0
 11
242.00000000004181
 21
-563.00000000000955
 31
0.0
1001
ACDBBLOCKREPETAG
1070
     1
1071
       41
1005
123E1F
  0
LINE
  5
123E20
  8
OBJECT
 10
242.00000000004181
 20
-563.00000000000955
 30
0.0
 11
118.00000000004179
 21
-563.00000000000955
 31
0.0
1001
ACDBBLOCKREPETAG
1070
     1
1071
       42
1005
123E20
  0
LINE
  5
123E21
  8
OBJECT
 10
121.00000000004179
 20
-563.00000000000955
 30
0.0
 11
121.00000000004179
 21
-599.00000000000966
 31
0.0
1001
ACDBBLOCKREPETAG
1070
     1
1071
       43
1005
123E21
  0
LINE
  5
123E22
  8
OBJECT
 10
121.00000000004179
 20
-599.00000000000966
 30
0.0
 11
239.00000000004181
 21
-599.00000000000966
 31
0.0
1001
ACDBBLOCKREPETAG
1070
     1
1071
       44
1005
123E22
  0
LINE
  5
123E23
  8
OBJECT
 10
239.00000000004181
 20
-599.00000000000966
 30
0.0
 11
239.00000000004181
 21
-563.00000000000955
 31
0.0
1001
ACDBBLOCKREPETAG
1070
     1
1071
       45
1005
123E23
  0
LINE
  5
123E24
  8
OBJECT
 10
125.50000000004179
 20
-603.00000000000966
 30
0.0
 11
125.50000000004179
 21
-610.00000000000955
 31
0.0
1001
ACDBBLOCKREPETAG
1070
     1
1071
       46
1005
123E24
  0
LINE
  5
123E25
  8
OBJECT
 10
234.50000000004181
 20
-610.00000000000955
 30
0.0
 11
234.50000000004181
 21
-603.00000000000966
 31
0.0
1001
ACDBBLOCKREPETAG
1070
     1
1071
       47
1005
123E25
  0
LINE
  5
123E26
  8
OBJECT
 10
234.50000000004181
 20
-603.00000000000966
 30
0.0
 11
125.50000000004179
 21
-603.00000000000966
 31
0.0
1001
ACDBBLOCKREPETAG
1070
     1
1071
       48
1005
123E26
  0
LINE
  5
123E27
  8
OBJECT
 10
121.00000000004179
 20
-599.00000000000966
 30
0.0
 11
125.50000000004179
 21
-603.00000000000966
 31
0.0
1001
ACDBBLOCKREPETAG
1070
     1
1071
       49
1005
123E27
  0
LINE
  5
123E28
  8
OBJECT
 10
239.00000000004181
 20
-599.00000000000966
 30
0.0
 11
234.50000000004181
 21
-603.00000000000966
 31
0.0
1001
ACDBBLOCKREPETAG
1070
     1
1071
       50
1005
123E28
  0
LINE
  5
123E29
  8
OBJECT
 10
118.00000000004179
 20
-613.00000000000864
 30
0.0
 11
118.00000000004179
 21
-616.00000000000955
 31
0.0
1001
ACDBBLOCKREPETAG
1070
     1
1071
       51
1005
123E29
  0
ARC
  5
123E2A
  8
OBJECT
 10
121.00000000004179
 20
-613.00000000000864
 30
0.0
 40
3.0
 50
90.0
 51
180.0
1001
ACDBBLOCKREPETAG
1070
     1
1071
       52
1005
123E2A
  0
LINE
  5
123E2B
  8
OBJECT
 10
242.00000000004181
 20
-616.00000000000955
 30
0.0
 11
242.00000000004181
 21
-613.00000000001035
 31
0.0
1001
ACDBBLOCKREPETAG
1070
     1
1071
       53
1005
123E2B
  0
ARC
  5
123E2C
  8
OBJECT
 10
239.00000000004181
 20
-613.00000000001035
 30
0.0
 40
3.0
 50
0.0
 51
90.0
1001
ACDBBLOCKREPETAG
1070
     1
1071
       54
1005
123E2C
  0
LINE
  5
123E2D
  8
OBJECT
 10
239.00000000004181
 20
-610.00000000001035
 30
0.0
 11
121.00000000004179
 21
-610.00000000000864
 31
0.0
1001
ACDBBLOCKREPETAG
1070
     1
1071
       55
1005
123E2D
  0
LINE
  5
123E2E
  8
HIDDEN
 10
135.50000000004181
 20
-608.00000000000955
 30
0.0
 11
224.50000000004181
 21
-608.00000000000955
 31
0.0
1001
ACDBBLOCKREPETAG
1070
     1
1071
      426
1005
123E2E
  0
INSERT
  5
123E2F
  8
OBJECT
  2
*U49
 10
0.0
 20
0.0
 30
0.0
  0
LINE
  5
123E30
  8
OBJECT
 10
485.00000000012182
 20
-99.000000000003183
 30
0.0
 11
485.00000000012182
 21
-92.000000000003183
 31
0.0
1001
ACDBBLOCKREPETAG
1070
     1
1071
       20
1005
123E30
  0
LINE
  5
123E31
  8
OBJECT
 10
485.00000000012182
 20
-92.000000000003183
 30
0.0
 11
595.00000000012164
 21
-92.000000000003183
 31
0.0
1001
ACDBBLOCKREPETAG
1070
     1
1071
       21
1005
123E31
  0
LINE
  5
123E32
  8
OBJECT
 10
595.00000000012164
 20
-92.000000000003183
 30
0.0
 11
595.00000000012164
 21
-99.000000000003183
 31
0.0
1001
ACDBBLOCKREPETAG
1070
     1
1071
       22
1005
123E32
  0
LINE
  5
123E33
  8
OBJECT
 10
595.00000000012164
 20
-99.000000000003183
 30
0.0
 11
485.00000000012182
 21
-99.000000000003183
 31
0.0
1001
ACDBBLOCKREPETAG
1070
     1
1071
       23
1005
123E33
  0
LINE
  5
123E34
  8
OBJECT
 10
488.0000000001217
 20
-99.000000000003183
 30
0.0
 11
488.0000000001217
 21
-135.00000000000321
 31
0.0
1001
ACDBBLOCKREPETAG
1070
     1
1071
       24
1005
123E34
  0
LINE
  5
123E35
  8
OBJECT
 10
488.0000000001217
 20
-135.00000000000321
 30
0.0
 11
592.00000000012164
 21
-135.00000000000321
 31
0.0
1001
ACDBBLOCKREPETAG
1070
     1
1071
       25
1005
123E35
  0
LINE
  5
123E36
  8
OBJECT
 10
592.00000000012164
 20
-135.00000000000321
 30
0.0
 11
592.00000000012164
 21
-99.000000000003183
 31
0.0
1001
ACDBBLOCKREPETAG
1070
     1
1071
       26
1005
123E36
  0
LINE
  5
123E37
  8
OBJECT
 10
492.5000000001217
 20
-139.00000000000321
 30
0.0
 11
492.5000000001217
 21
-146.00000000000321
 31
0.0
1001
ACDBBLOCKREPETAG
1070
     1
1071
       27
1005
123E37
  0
LINE
  5
123E38
  8
OBJECT
 10
587.50000000012164
 20
-146.00000000000321
 30
0.0
 11
587.50000000012164
 21
-139.00000000000321
 31
0.0
1001
ACDBBLOCKREPETAG
1070
     1
1071
       28
1005
123E38
  0
LINE
  5
123E39
  8
OBJECT
 10
587.50000000012164
 20
-139.00000000000321
 30
0.0
 11
492.5000000001217
 21
-139.00000000000321
 31
0.0
1001
ACDBBLOCKREPETAG
1070
     1
1071
       29
1005
123E39
  0
LINE
  5
123E3A
  8
OBJECT
 10
488.0000000001217
 20
-135.00000000000321
 30
0.0
 11
492.5000000001217
 21
-139.00000000000321
 31
0.0
1001
ACDBBLOCKREPETAG
1070
     1
1071
       30
1005
123E3A
  0
LINE
  5
123E3B
  8
OBJECT
 10
592.00000000012164
 20
-135.00000000000321
 30
0.0
 11
587.50000000012164
 21
-139.00000000000321
 31
0.0
1001
ACDBBLOCKREPETAG
1070
     1
1071
       31
1005
123E3B
  0
LINE
  5
123E3C
  8
OBJECT
 10
478.0000000001217
 20
-149.0000000000023
 30
0.0
 11
478.0000000001217
 21
-152.0000000000031
 31
0.0
1001
ACDBBLOCKREPETAG
1070
     1
1071
       32
1005
123E3C
  0
ARC
  5
123E3D
  8
OBJECT
 10
481.00000000012182
 20
-149.0000000000023
 30
0.0
 40
3.0
 50
90.0
 51
180.0
1001
ACDBBLOCKREPETAG
1070
     1
1071
       33
1005
123E3D
  0
LINE
  5
123E3E
  8
OBJECT
 10
602.00000000012187
 20
-152.0000000000031
 30
0.0
 11
602.00000000012187
 21
-149.00000000000409
 31
0.0
1001
ACDBBLOCKREPETAG
1070
     1
1071
       34
1005
123E3E
  0
ARC
  5
123E3F
  8
OBJECT
 10
599.00000000012164
 20
-149.00000000000409
 30
0.0
 40
3.0
 50
0.0
 51
90.0
1001
ACDBBLOCKREPETAG
1070
     1
1071
       35
1005
123E3F
  0
LINE
  5
123E40
  8
OBJECT
 10
599.00000000012164
 20
-146.00000000000409
 30
0.0
 11
481.00000000012182
 21
-146.0000000000023
 31
0.0
1001
ACDBBLOCKREPETAG
1070
     1
1071
       36
1005
123E40
  0
LINE
  5
123E41
  8
HIDDEN
 10
502.00000000012182
 20
-144.00000000000321
 30
0.0
 11
578.00000000012164
 21
-144.00000000000321
 31
0.0
1001
ACDBBLOCKREPETAG
1070
     1
1071
      423
1005
123E41
  0
INSERT
  5
123E42
  8
OBJECT
  2
*U50
 10
0.0
 20
0.0
 30
0.0
  0
LINE
  5
123E43
  8
OBJECT
 10
133.00000000004169
 20
-99.000000000003183
 30
0.0
 11
133.00000000004169
 21
-92.000000000003183
 31
0.0
1001
ACDBBLOCKREPETAG
1070
     1
1071
        1
1005
123E43
  0
LINE
  5
123E44
  8
OBJECT
 10
133.00000000004169
 20
-92.000000000003183
 30
0.0
 11
227.00000000004181
 21
-92.000000000003183
 31
0.0
1001
ACDBBLOCKREPETAG
1070
     1
1071
        2
1005
123E44
  0
LINE
  5
123E45
  8
OBJECT
 10
227.00000000004181
 20
-92.000000000003183
 30
0.0
 11
227.00000000004181
 21
-99.000000000003183
 31
0.0
1001
ACDBBLOCKREPETAG
1070
     1
1071
        3
1005
123E45
  0
LINE
  5
123E46
  8
OBJECT
 10
227.00000000004181
 20
-99.000000000003183
 30
0.0
 11
133.00000000004169
 21
-99.000000000003183
 31
0.0
1001
ACDBBLOCKREPETAG
1070
     1
1071
        4
1005
123E46
  0
LINE
  5
123E47
  8
OBJECT
 10
136.00000000004169
 20
-99.000000000003183
 30
0.0
 11
136.00000000004169
 21
-135.00000000000321
 31
0.0
1001
ACDBBLOCKREPETAG
1070
     1
1071
        5
1005
123E47
  0
LINE
  5
123E48
  8
OBJECT
 10
136.00000000004169
 20
-135.00000000000321
 30
0.0
 11
224.00000000004181
 21
-135.00000000000321
 31
0.0
1001
ACDBBLOCKREPETAG
1070
     1
1071
        6
1005
123E48
  0
LINE
  5
123E49
  8
OBJECT
 10
224.00000000004181
 20
-135.00000000000321
 30
0.0
 11
224.00000000004181
 21
-99.000000000003183
 31
0.0
1001
ACDBBLOCKREPETAG
1070
     1
1071
        7
1005
123E49
  0
LINE
  5
123E4A
  8
OBJECT
 10
140.50000000004181
 20
-139.00000000000321
 30
0.0
 11
140.50000000004181
 21
-146.00000000000321
 31
0.0
1001
ACDBBLOCKREPETAG
1070
     1
1071
        8
1005
123E4A
  0
LINE
  5
123E4B
  8
OBJECT
 10
219.50000000004189
 20
-146.00000000000321
 30
0.0
 11
219.50000000004189
 21
-139.00000000000321
 31
0.0
1001
ACDBBLOCKREPETAG
1070
     1
1071
        9
1005
123E4B
  0
LINE
  5
123E4C
  8
OBJECT
 10
219.50000000004189
 20
-139.00000000000321
 30
0.0
 11
140.50000000004181
 21
-139.00000000000321
 31
0.0
1001
ACDBBLOCKREPETAG
1070
     1
1071
       10
1005
123E4C
  0
LINE
  5
123E4D
  8
OBJECT
 10
136.00000000004169
 20
-135.00000000000321
 30
0.0
 11
140.50000000004181
 21
-139.00000000000321
 31
0.0
1001
ACDBBLOCKREPETAG
1070
     1
1071
       11
1005
123E4D
  0
LINE
  5
123E4E
  8
OBJECT
 10
224.00000000004181
 20
-135.00000000000321
 30
0.0
 11
219.50000000004189
 21
-139.00000000000321
 31
0.0
1001
ACDBBLOCKREPETAG
1070
     1
1071
       12
1005
123E4E
  0
LINE
  5
123E4F
  8
OBJECT
 10
118.00000000004179
 20
-149.0000000000023
 30
0.0
 11
118.00000000004179
 21
-152.0000000000031
 31
0.0
1001
ACDBBLOCKREPETAG
1070
     1
1071
       13
1005
123E4F
  0
ARC
  5
123E50
  8
OBJECT
 10
121.00000000004179
 20
-149.0000000000023
 30
0.0
 40
3.0
 50
90.0
 51
180.0
1001
ACDBBLOCKREPETAG
1070
     1
1071
       14
1005
123E50
  0
LINE
  5
123E51
  8
OBJECT
 10
242.00000000004181
 20
-152.0000000000031
 30
0.0
 11
242.00000000004181
 21
-149.00000000000409
 31
0.0
1001
ACDBBLOCKREPETAG
1070
     1
1071
       15
1005
123E51
  0
ARC
  5
123E52
  8
OBJECT
 10
239.00000000004181
 20
-149.00000000000409
 30
0.0
 40
3.0
 50
0.0
 51
90.0
1001
ACDBBLOCKREPETAG
1070
     1
1071
       16
1005
123E52
  0
LINE
  5
123E53
  8
OBJECT
 10
239.00000000004181
 20
-146.00000000000409
 30
0.0
 11
121.00000000004179
 21
-146.0000000000023
 31
0.0
1001
ACDBBLOCKREPETAG
1070
     1
1071
       17
1005
123E53
  0
LINE
  5
123E54
  8
HIDDEN
 10
150.00000000004181
 20
-144.00000000000321
 30
0.0
 11
210.00000000004181
 21
-144.00000000000321
 31
0.0
1001
ACDBBLOCKREPETAG
1070
     1
1071
      420
1005
123E54
  0
POLYLINE
  5
123E55
  8
HIDDEN
 66
     1
 10
0.0
 20
0.0
 30
0.0
 70
     1
1001
ACDBBLOCKREPETAG
1070
     1
1071
      105
1005
0
  0
VERTEX
  5
1261CE
  8
HIDDEN
 10
359.99999999987818
 20
0.0
 30
0.0
  0
VERTEX
  5
1261CF
  8
HIDDEN
 10
719.99999999975626
 20
0.0
 30
0.0
  0
VERTEX
  5
1261D0
  8
HIDDEN
 10
719.99999999975626
 20
-463.99999999984158
 30
0.0
  0
VERTEX
  5
1261D1
  8
HIDDEN
 10
359.99999999987818
 20
-463.99999999984158
 30
0.0
  0
SEQEND
  5
1261D2
  8
HIDDEN
  0
POLYLINE
  5
123E56
  8
HIDDEN
 66
     1
 10
0.0
 20
0.0
 30
0.0
 70
     1
1001
ACDBBLOCKREPETAG
1070
     1
1071
      110
1005
0
  0
VERTEX
  5
1261D3
  8
HIDDEN
 10
0.0
 20
0.0
 30
0.0
  0
VERTEX
  5
1261D4
  8
HIDDEN
 10
359.99999999987818
 20
0.0
 30
0.0
  0
VERTEX
  5
1261D5
  8
HIDDEN
 10
359.99999999987818
 20
-463.99999999984158
 30
0.0
  0
VERTEX
  5
1261D6
  8
HIDDEN
 10
0.0
 20
-463.99999999984158
 30
0.0
  0
SEQEND
  5
1261D7
  8
HIDDEN
  0
POLYLINE
  5
123E57
  8
HIDDEN
 66
     1
 10
0.0
 20
0.0
 30
0.0
 70
     1
1001
ACDBBLOCKREPETAG
1070
     1
1071
      120
1005
0
  0
VERTEX
  5
1261D8
  8
HIDDEN
 10
359.99999999987818
 20
-463.99999999984158
 30
0.0
  0
VERTEX
  5
1261D9
  8
HIDDEN
 10
719.99999999975626
 20
-463.99999999984158
 30
0.0
  0
VERTEX
  5
1261DA
  8
HIDDEN
 10
719.99999999975626
 20
-927.99999999968372
 30
0.0
  0
VERTEX
  5
1261DB
  8
HIDDEN
 10
359.99999999987818
 20
-927.99999999968372
 30
0.0
  0
SEQEND
  5
1261DC
  8
HIDDEN
  0
POLYLINE
  5
123E58
  8
HIDDEN
 66
     1
 10
0.0
 20
0.0
 30
0.0
 70
     1
1001
ACDBBLOCKREPETAG
1070
     1
1071
      125
1005
0
  0
VERTEX
  5
1261DD
  8
HIDDEN
 10
0.0
 20
-463.99999999984158
 30
0.0
  0
VERTEX
  5
1261DE
  8
HIDDEN
 10
359.99999999987818
 20
-463.99999999984158
 30
0.0
  0
VERTEX
  5
1261DF
  8
HIDDEN
 10
359.99999999987818
 20
-927.99999999968372
 30
0.0
  0
VERTEX
  5
1261E0
  8
HIDDEN
 10
0.0
 20
-927.99999999968372
 30
0.0
  0
SEQEND
  5
1261E1
  8
HIDDEN
  0
TEXT
  5
123E59
  8
SLIM
 10
508.28571428553232
 20
-907.999999999691
 30
0.0
 40
48.0
  1
A4
 41
0.75
1001
ACDBBLOCKREPETAG
1070
     1
1071
      119
1005
F4955
  0
TEXT
  5
123E5A
  8
SLIM
 10
149.14285714279711
 20
-907.999999999691
 30
0.0
 40
48.0
  1
A3
 41
0.75
1001
ACDBBLOCKREPETAG
1070
     1
1071
      119
1005
F4955
  0
TEXT
  5
123E5B
  8
SLIM
 10
509.1428571426751
 20
-443.99999999984919
 30
0.0
 40
48.0
  1
A2
 41
0.75
1001
ACDBBLOCKREPETAG
1070
     1
1071
      119
1005
F4955
  0
TEXT
  5
123E5C
  8
SLIM
 10
156.85714285708281
 20
-443.99999999984919
 30
0.0
 40
48.0
  1
A1
 41
0.75
1001
ACDBBLOCKREPETAG
1070
     1
1071
      119
1005
F4955
  0
TEXT
  5
123E5D
  8
SLIM
 10
0.0000035665234464
 20
24.000004585317601
 30
0.0
 40
79.999999999972701
  1
枝管バリエーション
 41
0.75
1001
ACDBBLOCKREPETAG
1070
     1
1071
      119
1005
F48AB
  0
TEXT
  5
123E5E
  8
SLIM
 10
3771.4000000000001
 20
-1430.666666666664
 30
0.0
 40
28.0
  1
※ 対応スラブ厚　180｛150｝～340
 41
0.75
  0
TEXT
  5
123E5F
  8
SLIM
 10
3733.3000000000011
 20
-1477.333333333331
 30
0.0
 40
28.0
  1
｛｝内はカンペイ立て管との組み合わせの場合
 41
0.75
  0
TEXT
  5
123E60
  8
SLIM
 10
3611.4999999999991
 20
-1570.666666666664
 30
0.0
 40
28.0
  1
国土交通大臣認定・（財）日本消防設備安全センター性能評定取得品
 41
0.75
  0
TEXT
  5
123E61
  8
SLIM
 10
3631.1000000000022
 20
-1617.333333333331
 30
0.0
 40
28.0
  1
注）ご採用にあたり、認定書及び評定書の内容をご確認ください。
 41
0.75
  0
TEXT
  5
123E62
  8
SLIM
 10
3741.625
 20
-1367.499999999997
 30
0.0
 40
35.0
  1
片受けスタイル（S）＋シンドカット
 41
0.75
  0
TEXT
  5
123E63
  8
SLIM
 10
1856.25
 20
-1367.499999999998
 30
0.0
 40
35.0
  1
片受けスタイル（S）
 41
0.75
  0
TEXT
  5
123E64
  8
SLIM
 10
0.0
 20
370.0
 30
0.0
 40
100.0
  1
4SHF-AX-S
 41
0.75
  0
VIEWPORT
  5
F6BA7
 67
     1
  8
0
 10
195.9179030619629
 20
101.8328354358673
 30
0.0
 40
435.32876295022521
 41
222.2737448475267
 68
     1
 69
     1
1001
ACAD
1000
MVIEW
1002
{
1070
    16
1010
0.0
1020
0.0
1030
0.0
1010
0.0
1020
0.0
1030
1.0
1040
0.0
1040
222.2737448475267
1040
195.9179030619629
1040
101.8328354358673
1040
50.0
1040
0.0
1040
0.0
1070
     0
1070
     0
1070
     1
1070
     1
1070
     0
1070
     0
1070
     0
1070
     0
1040
0.0
1040
0.0
1040
0.0
1040
10.0
1040
10.0
1040
10.0
1040
10.0
1070
     0
1002
{
1002
}
1002
}
  0
VIEWPORT
  5
F6BA9
 67
     1
  8
OBJECT
 10
145.3303314447403
 20
101.8328338861465
 30
0.0
 40
232.5285303115844
 41
162.93253421783439
 68
     2
 69
     2
1001
ACAD
1000
MVIEW
1002
{
1070
    16
1010
0.0
1020
0.0
1030
0.0
1010
0.0
1020
0.0
1030
1.0
1040
0.0
1040
25942.55904403147
1040
2377.604457077377
1040
-7591.5176687056619
1040
50.0
1040
0.0
1040
0.0
1070
     0
1070
   600
1070
     1
1070
     1
1070
     0
1070
     0
1070
     0
1070
     0
1040
0.0
1040
0.0
1040
0.0
1040
1.0
1040
1.0
1040
0.0
1040
0.0
1070
     0
1002
{
1002
}
1002
}
  0
ENDSEC
  0
EOF
