  0
SECTION
  2
HEADER
  9
$ACADVER
  1
AC1009
  9
$INSBASE
 10
0.0
 20
0.0
 30
0.0
  9
$EXTMIN
 10
0.0
 20
-1859.0
 30
0.0
  9
$EXTMAX
 10
12387.100000000009
 20
770.0
 30
0.0
  9
$LIMMIN
 10
0.0
 20
0.0
  9
$LIMMAX
 10
210.0
 20
297.0
  9
$ORTHOMODE
 70
     0
  9
$REGENMODE
 70
     1
  9
$FILLMODE
 70
     1
  9
$QTEXTMODE
 70
     0
  9
$MIRRTEXT
 70
     0
  9
$DRAGMODE
 70
     2
  9
$LTSCALE
 40
1.0
  9
$OSMODE
 70
   109
  9
$ATTMODE
 70
     1
  9
$TEXTSIZE
 40
4.0
  9
$TRACEWID
 40
0.05
  9
$TEXTSTYLE
  7
STANDARD
  9
$CLAYER
  8
OBJECT
  9
$CELTYPE
  6
BYLAYER
  9
$CECOLOR
 62
   256
  9
$DIMSCALE
 40
10.0
  9
$DIMASZ
 40
2.0
  9
$DIMEXO
 40
1.0
  9
$DIMDLI
 40
10.0
  9
$DIMRND
 40
0.0
  9
$DIMDLE
 40
0.0
  9
$DIMEXE
 40
1.0
  9
$DIMTP
 40
0.0
  9
$DIMTM
 40
0.0
  9
$DIMTXT
 40
3.2000000000000002
  9
$DIMCEN
 40
0.0
  9
$DIMTSZ
 40
0.0
  9
$DIMTOL
 70
     0
  9
$DIMLIM
 70
     0
  9
$DIMTIH
 70
     0
  9
$DIMTOH
 70
     0
  9
$DIMSE1
 70
     0
  9
$DIMSE2
 70
     0
  9
$DIMTAD
 70
     1
  9
$DIMZIN
 70
     8
  9
$DIMBLK
  1
OPEN30
  9
$DIMASO
 70
     1
  9
$DIMSHO
 70
     1
  9
$DIMPOST
  1

  9
$DIMAPOST
  1

  9
$DIMALT
 70
     0
  9
$DIMALTD
 70
     2
  9
$DIMALTF
 40
25.399999999999999
  9
$DIMLFAC
 40
1.0
  9
$DIMTOFL
 70
     1
  9
$DIMTVP
 40
0.0
  9
$DIMTIX
 70
     0
  9
$DIMSOXD
 70
     0
  9
$DIMSAH
 70
     0
  9
$DIMBLK1
  1

  9
$DIMBLK2
  1

  9
$DIMSTYLE
  2
S10
  9
$DIMCLRD
 70
   256
  9
$DIMCLRE
 70
   256
  9
$DIMCLRT
 70
   256
  9
$DIMTFAC
 40
1.0
  9
$DIMGAP
 40
0.9
  9
$LUNITS
 70
     2
  9
$LUPREC
 70
     2
  9
$SKETCHINC
 40
0.1
  9
$FILLETRAD
 40
0.0
  9
$AUNITS
 70
     0
  9
$AUPREC
 70
     2
  9
$MENU
  1
ACAD
  9
$ELEVATION
 40
0.0
  9
$PELEVATION
 40
0.0
  9
$THICKNESS
 40
0.0
  9
$LIMCHECK
 70
     0
  9
$BLIPMODE
 70
     0
  9
$CHAMFERA
 40
2.0
  9
$CHAMFERB
 40
2.0
  9
$SKPOLY
 70
     0
  9
$TDCREATE
 40
2453095.4929404748
  9
$TDUPDATE
 40
2456735.6755673029
  9
$TDINDWG
 40
18.4915172338
  9
$TDUSRTIMER
 40
18.491516689800001
  9
$USRTIMER
 70
     1
  9
$ANGBASE
 50
0.0
  9
$ANGDIR
 70
     0
  9
$PDMODE
 70
    35
  9
$PDSIZE
 40
2.0
  9
$PLINEWID
 40
0.0
  9
$COORDS
 70
     1
  9
$SPLFRAME
 70
     0
  9
$SPLINETYPE
 70
     6
  9
$SPLINESEGS
 70
     8
  9
$ATTDIA
 70
     0
  9
$ATTREQ
 70
     1
  9
$HANDLING
 70
     1
  9
$HANDSEED
  5
12B962
  9
$SURFTAB1
 70
     6
  9
$SURFTAB2
 70
     6
  9
$SURFTYPE
 70
     6
  9
$SURFU
 70
     6
  9
$SURFV
 70
     6
  9
$UCSNAME
  2

  9
$UCSORG
 10
0.0
 20
0.0
 30
0.0
  9
$UCSXDIR
 10
1.0
 20
0.0
 30
0.0
  9
$UCSYDIR
 10
0.0
 20
1.0
 30
0.0
  9
$PUCSNAME
  2

  9
$PUCSORG
 10
0.0
 20
0.0
 30
0.0
  9
$PUCSXDIR
 10
1.0
 20
0.0
 30
0.0
  9
$PUCSYDIR
 10
0.0
 20
1.0
 30
0.0
  9
$USERI1
 70
     0
  9
$USERI2
 70
     0
  9
$USERI3
 70
     0
  9
$USERI4
 70
     0
  9
$USERI5
 70
     0
  9
$USERR1
 40
0.0
  9
$USERR2
 40
0.0
  9
$USERR3
 40
0.0
  9
$USERR4
 40
0.0
  9
$USERR5
 40
0.0
  9
$WORLDVIEW
 70
     1
  9
$SHADEDGE
 70
     3
  9
$SHADEDIF
 70
    70
  9
$TILEMODE
 70
     1
  9
$MAXACTVP
 70
    64
  9
$PLIMCHECK
 70
     0
  9
$PEXTMIN
 10
29.066066288948051
 20
20.366566777229309
 30
0.0
  9
$PEXTMAX
 10
261.5945966005325
 20
183.29910099506381
 30
0.0
  9
$PLIMMIN
 10
-3.17498779296875
 20
-3.1749999523162842
  9
$PLIMMAX
 10
293.83566284179687
 20
206.8406708240509
  9
$UNITMODE
 70
     0
  9
$VISRETAIN
 70
     1
  9
$PLINEGEN
 70
     0
  9
$PSLTSCALE
 70
     1
  0
ENDSEC
  0
SECTION
  2
TABLES
  0
TABLE
  2
VPORT
 70
     1
  0
VPORT
  2
*ACTIVE
 70
     0
 10
0.0
 20
0.0
 11
1.0
 21
1.0
 12
5860.6952978592726
 22
700.96897536120468
 13
0.0
 23
0.0
 14
1.0
 24
1.0
 15
0.0
 25
0.0
 16
0.0
 26
0.0
 36
1.0
 17
0.0
 27
0.0
 37
0.0
 40
9971.8295866851877
 41
1.6778074866310151
 42
50.0
 43
0.0
 44
0.0
 50
0.0
 51
0.0
 71
     0
 72
   600
 73
     1
 74
     1
 75
     0
 76
     0
 77
     0
 78
     0
  0
ENDTAB
  0
TABLE
  2
LTYPE
 70
     4
  0
LTYPE
  2
CONTINUOUS
 70
     0
  3
Solid line
 72
    65
 73
     0
 40
0.0
  0
LTYPE
  2
PHANTOM2
 70
     0
  3
___ _ _ ___ _ _ ___ _ _ ___ _ _
 72
    65
 73
     6
 40
1.25
 49
0.625
 49
-0.125
 49
0.125
 49
-0.125
 49
0.125
 49
-0.125
  0
LTYPE
  2
ACAD_ISO08W100
 70
     0
  3
ISO long-dash short-dash ____ __ ____ __ ____ _
 72
    65
 73
     4
 40
36.0
 49
24.0
 49
-3.0
 49
6.0
 49
-3.0
  0
LTYPE
  2
ACAD_ISO02W100
 70
     0
  3
ISO dash __ __ __ __ __ __ __ __ __ __ __ __ __
 72
    65
 73
     2
 40
15.0
 49
12.0
 49
-3.0
  0
ENDTAB
  0
TABLE
  2
LAYER
 70
     7
  0
LAYER
  2
0
 70
     0
 62
     7
  6
CONTINUOUS
  0
LAYER
  2
OBJECT
 70
     0
 62
     4
  6
CONTINUOUS
  0
LAYER
  2
DEFPOINTS
 70
     0
 62
     7
  6
CONTINUOUS
  0
LAYER
  2
HIDDEN
 70
     0
 62
     2
  6
ACAD_ISO02W100
  0
LAYER
  2
CENTER
 70
     0
 62
     2
  6
ACAD_ISO08W100
  0
LAYER
  2
DOTS
 70
     0
 62
     1
  6
CONTINUOUS
  0
LAYER
  2
SLIM
 70
     0
 62
     2
  6
CONTINUOUS
  0
ENDTAB
  0
TABLE
  2
STYLE
 70
     2
  0
STYLE
  2
STANDARD
 70
     0
 40
0.0
 41
0.75
 50
0.0
 71
     0
 42
4.0
  3
simplex.shx
  4
bigfont.shx
  0
ENDTAB
  0
TABLE
  2
VIEW
 70
     0
  0
ENDTAB
  0
TABLE
  2
UCS
 70
     0
  0
ENDTAB
  0
TABLE
  2
APPID
 70
    18
  0
APPID
  2
ACAD
 70
     0
  0
APPID
  2
ACADANNOTATIVE
 70
     0
  0
APPID
  2
ACAD_PSEXT
 70
     0
  0
APPID
  2
ACAD_EXEMPT_FROM_CAD_STANDARDS
 70
     0
  0
APPID
  2
ACAECLAYERSTANDARD
 70
     0
  0
APPID
  2
ACAUTHENVIRON
 70
     0
  0
APPID
  2
ACDBDYNAMICBLOCKTRUENAME
 70
     0
  0
APPID
  2
ACDBDYNAMICBLOCKGUID
 70
     0
  0
APPID
  2
ACDBBLOCKREPETAG
 70
     0
  0
APPID
  2
ACDBBLOCKREPBTAG
 70
     0
  0
APPID
  2
ACAD_NAV_VCDISPLAY
 70
     0
  0
APPID
  2
ACAD_DSTYLE_DIMRADIAL_EXTENSION
 70
     0
  0
APPID
  2
ACAD_DSTYLE_DIMJAG
 70
     0
  0
APPID
  2
ACAD_DSTYLE_DIMTALN
 70
     0
  0
APPID
  2
ACADANNOPO
 70
     0
  0
APPID
  2
GRADIENTCOLOR1ACI
 70
     0
  0
APPID
  2
GRADIENTCOLOR2ACI
 70
     0
  0
APPID
  2
ACAD_MLEADERVER
 70
     0
  0
ENDTAB
  0
TABLE
  2
DIMSTYLE
 70
     3
  0
DIMSTYLE
  2
STANDARD
 70
     0
  3

  4

  5

  6

  7

 40
1.0
 41
0.18
 42
0.0625
 43
0.38
 44
0.18
 45
0.0
 46
0.0
 47
0.0
 48
0.0
140
0.18
141
0.09
142
0.0
143
25.399999999999999
144
1.0
145
0.0
146
1.0
147
0.09
 71
     0
 72
     0
 73
     1
 74
     1
 75
     0
 76
     0
 77
     0
 78
     0
170
     0
171
     2
172
     0
173
     0
174
     0
175
     0
176
     0
177
     0
178
     0
  0
DIMSTYLE
  2
S10
 70
     0
  3

  4

  5

  6

  7

 40
10.0
 41
2.0
 42
1.0
 43
10.0
 44
1.0
 45
0.0
 46
0.0
 47
0.0
 48
0.0
140
3.2000000000000002
141
0.0
142
0.0
143
25.399999999999999
144
1.0
145
0.0
146
1.0
147
0.9
 71
     0
 72
     0
 73
     0
 74
     0
 75
     0
 76
     0
 77
     1
 78
     8
170
     0
171
     2
172
     1
173
     0
174
     0
175
     0
176
   256
177
   256
178
   256
  0
ENDTAB
  0
ENDSEC
  0
SECTION
  2
BLOCKS
  0
BLOCK
  8
0
  2
$MODEL_SPACE
 70
     0
 10
0.0
 20
0.0
 30
0.0
  3
$MODEL_SPACE
  1

  0
ENDBLK
  5
12B6F9
  8
0
  0
BLOCK
 67
     1
  8
0
  2
$PAPER_SPACE
 70
     0
 10
0.0
 20
0.0
 30
0.0
  3
$PAPER_SPACE
  1

  0
ENDBLK
  5
12B6F5
 67
     1
  8
0
  0
BLOCK
  8
0
  2
_OPEN30
 70
     0
 10
0.0
 20
0.0
 30
0.0
  3
_OPEN30
  1

  0
LINE
  5
202
  8
0
  6
BYBLOCK
 62
     0
 10
-1.0
 20
0.26794919
 30
0.0
 11
0.0
 21
0.0
 31
0.0
  0
LINE
  5
203
  8
0
  6
BYBLOCK
 62
     0
 10
0.0
 20
0.0
 30
0.0
 11
-1.0
 21
-0.26794919
 31
0.0
  0
LINE
  5
204
  8
0
  6
BYBLOCK
 62
     0
 10
0.0
 20
0.0
 30
0.0
 11
-1.0
 21
0.0
 31
0.0
  0
ENDBLK
  5
206
  8
0
  0
ENDSEC
  0
SECTION
  2
ENTITIES
  0
LINE
  5
12AC7B
  8
OBJECT
 10
11923.0
 20
-570.99999999999432
 30
0.0
 11
11923.0
 21
-549.99999999999432
 31
0.0
1001
ACDBBLOCKREPETAG
1070
     1
1071
       36
1005
12AC7B
  0
LINE
  5
12AC7C
  8
OBJECT
 10
11923.0
 20
-549.99999999999432
 30
0.0
 11
12077.0
 21
-549.99999999999432
 31
0.0
1001
ACDBBLOCKREPETAG
1070
     1
1071
       37
1005
12AC7C
  0
LINE
  5
12AC7D
  8
HIDDEN
 10
11943.0
 20
-619.99999999999432
 30
0.0
 11
12057.0
 21
-619.99999999999432
 31
0.0
1001
ACDBBLOCKREPETAG
1070
     1
1071
       38
1005
12AC7D
  0
LINE
  5
12AC7E
  8
OBJECT
 10
12077.0
 20
-549.99999999999432
 30
0.0
 11
12077.0
 21
-570.99999999999432
 31
0.0
1001
ACDBBLOCKREPETAG
1070
     1
1071
       39
1005
12AC7E
  0
LINE
  5
12AC7F
  8
OBJECT
 10
12077.0
 20
-570.99999999999432
 30
0.0
 11
11923.0
 21
-570.99999999999432
 31
0.0
1001
ACDBBLOCKREPETAG
1070
     1
1071
       40
1005
12AC7F
  0
LINE
  5
12AC80
  8
CENTER
 10
12000.0
 20
-534.99999999999432
 30
0.0
 11
12000.0
 21
-769.9999999999942
 31
0.0
1001
ACDBBLOCKREPETAG
1070
     1
1071
       41
1005
12AC80
  0
LINE
  5
12AC81
  8
OBJECT
 10
11928.0
 20
-570.99999999999432
 30
0.0
 11
11928.0
 21
-633.99999999999432
 31
0.0
1001
ACDBBLOCKREPETAG
1070
     1
1071
       42
1005
12AC81
  0
LINE
  5
12AC82
  8
OBJECT
 10
12072.0
 20
-633.99999999999432
 30
0.0
 11
12072.0
 21
-570.99999999999432
 31
0.0
1001
ACDBBLOCKREPETAG
1070
     1
1071
       43
1005
12AC82
  0
LINE
  5
12AC83
  8
OBJECT
 10
11920.0
 20
-757.9999999999942
 30
0.0
 11
12080.0
 21
-757.9999999999942
 31
0.0
1001
ACDBBLOCKREPETAG
1070
     1
1071
       44
1005
12AC83
  0
LINE
  5
12AC84
  8
OBJECT
 10
12080.0
 20
-633.99999999999432
 30
0.0
 11
11920.0
 21
-633.99999999999432
 31
0.0
1001
ACDBBLOCKREPETAG
1070
     1
1071
       45
1005
12AC84
  0
LINE
  5
12AC85
  8
OBJECT
 10
11920.0
 20
-757.9999999999942
 30
0.0
 11
11920.0
 21
-769.9999999999942
 31
0.0
1001
ACDBBLOCKREPETAG
1070
     1
1071
       46
1005
12AC85
  0
LINE
  5
12AC86
  8
OBJECT
 10
11920.0
 20
-769.9999999999942
 30
0.0
 11
12080.0
 21
-769.9999999999942
 31
0.0
1001
ACDBBLOCKREPETAG
1070
     1
1071
       47
1005
12AC86
  0
LINE
  5
12AC87
  8
OBJECT
 10
12080.0
 20
-769.9999999999942
 30
0.0
 11
12080.0
 21
-757.9999999999942
 31
0.0
1001
ACDBBLOCKREPETAG
1070
     1
1071
       48
1005
12AC87
  0
ARC
  5
12AC88
  8
OBJECT
 10
12200.687274671671
 20
-749.40809941010195
 30
0.0
 40
170.6350503965856
 50
137.44134459184301
 51
149.91949581337221
1001
ACDBBLOCKREPETAG
1070
     1
1071
       52
1005
12AC88
  0
ARC
  5
12AC89
  8
OBJECT
 10
12200.687274671671
 20
-642.59190058988645
 30
0.0
 40
170.6350503965856
 50
210.08050418662771
 51
222.55865540815699
1001
ACDBBLOCKREPETAG
1070
     1
1071
       53
1005
12AC89
  0
ARC
  5
12AC8A
  8
OBJECT
 10
11799.312725328329
 20
-749.40809941010195
 30
0.0
 40
170.6350503965856
 50
30.080504186787142
 51
42.558655408456282
1001
ACDBBLOCKREPETAG
1070
     1
1071
       54
1005
12AC8A
  0
ARC
  5
12AC8B
  8
OBJECT
 10
11799.312725328329
 20
-642.59190058988645
 30
0.0
 40
170.6350503965856
 50
317.44134459154373
 51
329.9194958132129
1001
ACDBBLOCKREPETAG
1070
     1
1071
       55
1005
12AC8B
  0
POINT
  5
12AC8C
  8
DOTS
 10
12000.0
 20
-754.9999999999942
 30
0.0
1001
ACDBBLOCKREPETAG
1070
     1
1071
      184
1005
12AC8C
  0
LINE
  5
12AC8D
  8
SLIM
 10
11945.256670426101
 20
-137.99999999999909
 30
0.0
 11
11955.954840369581
 21
-127.30183005652231
 31
0.0
1001
GRADIENTCOLOR1ACI
1070
     5
1001
GRADIENTCOLOR2ACI
1070
     2
1001
ACAD
1010
0.0
1020
0.0
1030
0.0
1001
ACDBBLOCKREPETAG
1070
     1
1071
      428
1005
12AC8D
  0
LINE
  5
12AC8E
  8
SLIM
 10
11954.23692654717
 20
-137.99999999999909
 30
0.0
 11
11972.75077447633
 21
-119.4861520708364
 31
0.0
1001
GRADIENTCOLOR1ACI
1070
     5
1001
GRADIENTCOLOR2ACI
1070
     2
1001
ACAD
1010
0.0
1020
0.0
1030
0.0
1001
ACDBBLOCKREPETAG
1070
     1
1071
      429
1005
12AC8E
  0
LINE
  5
12AC8F
  8
SLIM
 10
11973.521224312461
 20
-127.6959583557812
 30
0.0
 11
11984.857514674861
 21
-116.359667993377
 31
0.0
1001
GRADIENTCOLOR1ACI
1070
     5
1001
GRADIENTCOLOR2ACI
1070
     2
1001
ACAD
1010
0.0
1020
0.0
1030
0.0
1001
ACDBBLOCKREPETAG
1070
     1
1071
      430
1005
12AC8F
  0
LINE
  5
12AC90
  8
SLIM
 10
11985.894417146121
 20
-124.30302164318159
 30
0.0
 11
11995.05338120025
 21
-115.1440575890517
 31
0.0
1001
GRADIENTCOLOR1ACI
1070
     5
1001
GRADIENTCOLOR2ACI
1070
     2
1001
ACAD
1010
0.0
1020
0.0
1030
0.0
1001
ACDBBLOCKREPETAG
1070
     1
1071
      431
1005
12AC90
  0
LINE
  5
12AC91
  8
SLIM
 10
11996.077732749211
 20
-123.0999621611699
 30
0.0
 11
12000.0
 21
-119.1776949103767
 31
0.0
1001
GRADIENTCOLOR1ACI
1070
     5
1001
GRADIENTCOLOR2ACI
1070
     2
1001
ACAD
1010
0.0
1020
0.0
1030
0.0
1001
ACDBBLOCKREPETAG
1070
     1
1071
      432
1005
12AC91
  0
LINE
  5
12AC92
  8
SLIM
 10
12000.0
 20
-119.1776949103767
 30
0.0
 11
12004.0797313529
 21
-115.0979635574724
 31
0.0
1001
GRADIENTCOLOR1ACI
1070
     5
1001
GRADIENTCOLOR2ACI
1070
     2
1001
ACAD
1010
0.0
1020
0.0
1030
0.0
1001
ACDBBLOCKREPETAG
1070
     1
1071
      433
1005
12AC92
  0
LINE
  5
12AC93
  8
SLIM
 10
12004.995720254279
 20
-123.1622307771683
 30
0.0
 11
12012.267978410569
 21
-115.88997262087101
 31
0.0
1001
GRADIENTCOLOR1ACI
1070
     5
1001
GRADIENTCOLOR2ACI
1070
     2
1001
ACAD
1010
0.0
1020
0.0
1030
0.0
1001
ACDBBLOCKREPETAG
1070
     1
1071
      434
1005
12AC93
  0
LINE
  5
12AC94
  8
SLIM
 10
12013.028059366959
 20
-124.1101477855505
 30
0.0
 11
12019.799941457361
 21
-117.3382656951526
 31
0.0
1001
GRADIENTCOLOR1ACI
1070
     5
1001
GRADIENTCOLOR2ACI
1070
     2
1001
ACAD
1010
0.0
1020
0.0
1030
0.0
1001
ACDBBLOCKREPETAG
1070
     1
1071
      435
1005
12AC94
  0
LINE
  5
12AC95
  8
SLIM
 10
12020.374081314239
 20
-125.7443819593383
 30
0.0
 11
12026.787203867279
 21
-119.3312594063044
 31
0.0
1001
GRADIENTCOLOR1ACI
1070
     5
1001
GRADIENTCOLOR2ACI
1070
     2
1001
ACAD
1010
0.0
1020
0.0
1030
0.0
1001
ACDBBLOCKREPETAG
1070
     1
1071
      436
1005
12AC95
  0
LINE
  5
12AC96
  8
SLIM
 10
12027.15247199887
 20
-127.946247395778
 30
0.0
 11
12033.303003076029
 21
-121.7957163186195
 31
0.0
1001
GRADIENTCOLOR1ACI
1070
     5
1001
GRADIENTCOLOR2ACI
1070
     2
1001
ACAD
1010
0.0
1020
0.0
1030
0.0
1001
ACDBBLOCKREPETAG
1070
     1
1071
      437
1005
12AC96
  0
LINE
  5
12AC97
  8
SLIM
 10
12033.43909865133
 20
-130.63987686439191
 30
0.0
 11
12039.397311984379
 21
-124.6816635313439
 31
0.0
1001
GRADIENTCOLOR1ACI
1070
     5
1001
GRADIENTCOLOR2ACI
1070
     2
1001
ACAD
1010
0.0
1020
0.0
1030
0.0
1001
ACDBBLOCKREPETAG
1070
     1
1071
      438
1005
12AC97
  0
LINE
  5
12AC98
  8
SLIM
 10
12039.284224621801
 20
-133.77500701499321
 30
0.0
 11
12045.10477053437
 21
-127.95446110242381
 31
0.0
1001
GRADIENTCOLOR1ACI
1070
     5
1001
GRADIENTCOLOR2ACI
1070
     2
1001
ACAD
1010
0.0
1020
0.0
1030
0.0
1001
ACDBBLOCKREPETAG
1070
     1
1071
      439
1005
12AC98
  0
LINE
  5
12AC99
  8
SLIM
 10
12044.721280169801
 20
-137.31820758805651
 30
0.0
 11
12050.449155789191
 21
-131.59033196866449
 31
0.0
1001
GRADIENTCOLOR1ACI
1070
     5
1001
GRADIENTCOLOR2ACI
1070
     2
1001
ACAD
1010
0.0
1020
0.0
1030
0.0
1001
ACDBBLOCKREPETAG
1070
     1
1071
      440
1005
12AC99
  0
LINE
  5
12AC9A
  8
SLIM
 10
12053.01974387892
 20
-137.99999999999909
 30
0.0
 11
12055.445994186401
 21
-135.57374969252561
 31
0.0
1001
GRADIENTCOLOR1ACI
1070
     5
1001
GRADIENTCOLOR2ACI
1070
     2
1001
ACAD
1010
0.0
1020
0.0
1030
0.0
1001
ACDBBLOCKREPETAG
1070
     1
1071
      441
1005
12AC9A
  0
LINE
  5
12AC9B
  8
CENTER
 10
12000.0
 20
-279.99999999999909
 30
0.0
 11
12000.0
 21
-99.999999999999091
 31
0.0
1001
ACDBBLOCKREPETAG
1070
     1
1071
      160
1005
12AC9B
  0
CIRCLE
  5
12AC9C
  8
OBJECT
 10
12000.0
 20
-199.99999999999909
 30
0.0
 40
70.0
1001
ACDBBLOCKREPETAG
1070
     1
1071
      161
1005
12AC9C
  0
CIRCLE
  5
12AC9D
  8
OBJECT
 10
12000.0
 20
-199.99999999999909
 30
0.0
 40
77.0
1001
ACDBBLOCKREPETAG
1070
     1
1071
      162
1005
12AC9D
  0
LINE
  5
12AC9E
  8
OBJECT
 10
12045.661800227321
 20
-137.99999999999909
 30
0.0
 11
12080.0
 21
-137.99999999999909
 31
0.0
1001
ACDBBLOCKREPETAG
1070
     1
1071
      164
1005
12AC9E
  0
LINE
  5
12AC9F
  8
OBJECT
 10
12062.0
 20
-261.99999999999909
 30
0.0
 11
12080.0
 21
-261.99999999999909
 31
0.0
1001
ACDBBLOCKREPETAG
1070
     1
1071
      165
1005
12AC9F
  0
LINE
  5
12ACA0
  8
OBJECT
 10
12062.0
 20
-261.99999999999909
 30
0.0
 11
12062.0
 21
-279.99999999999909
 31
0.0
1001
ACDBBLOCKREPETAG
1070
     1
1071
      167
1005
12ACA0
  0
LINE
  5
12ACA1
  8
OBJECT
 10
11938.0
 20
-261.99999999999909
 30
0.0
 11
11938.0
 21
-279.99999999999909
 31
0.0
1001
ACDBBLOCKREPETAG
1070
     1
1071
      168
1005
12ACA1
  0
LINE
  5
12ACA2
  8
OBJECT
 10
11938.0
 20
-261.99999999999909
 30
0.0
 11
11920.0
 21
-261.99999999999909
 31
0.0
1001
ACDBBLOCKREPETAG
1070
     1
1071
      170
1005
12ACA2
  0
LINE
  5
12ACA3
  8
OBJECT
 10
11954.33819977267
 20
-137.99999999999909
 30
0.0
 11
11920.0
 21
-137.99999999999909
 31
0.0
1001
ACDBBLOCKREPETAG
1070
     1
1071
      171
1005
12ACA3
  0
LINE
  5
12ACA4
  8
OBJECT
 10
11945.55277784863
 20
-254.44722215136329
 30
0.0
 11
11938.0
 21
-261.99999999999909
 31
0.0
1001
ACDBBLOCKREPETAG
1070
     1
1071
      180
1005
12ACA4
  0
LINE
  5
12ACA5
  8
OBJECT
 10
12054.447222151361
 20
-254.44722215136329
 30
0.0
 11
12062.0
 21
-261.99999999999909
 31
0.0
1001
ACDBBLOCKREPETAG
1070
     1
1071
      181
1005
12ACA5
  0
ARC
  5
12ACA6
  8
OBJECT
 10
12000.0
 20
-199.99999999999909
 30
0.0
 40
85.0
 50
46.837102859844251
 51
133.16289714015571
1001
ACDBBLOCKREPETAG
1070
     1
1071
      183
1005
12ACA6
  0
LINE
  5
12ACA7
  8
OBJECT
 10
12024.1029330933
 20
-243.80694712371681
 30
0.0
 11
12020.659656999989
 21
-232.55462199999889
 31
0.0
1001
ACDBBLOCKREPETAG
1070
     1
1071
      314
1005
12ACA7
  0
LINE
  5
12ACA8
  8
OBJECT
 10
11986.79274990136
 20
-218.22553374208019
 30
0.0
 11
12020.659656999989
 21
-232.5546219999969
 31
0.0
1001
ACDBBLOCKREPETAG
1070
     1
1071
      316
1005
12ACA8
  0
ARC
  5
12ACA9
  8
OBJECT
 10
11982.8961697619
 20
-227.4351299990567
 30
0.0
 40
10.0
 50
67.066778292911366
 51
154.01473437031629
1001
ACDBBLOCKREPETAG
1070
     1
1071
      317
1005
12ACA9
  0
ARC
  5
12ACAA
  8
OBJECT
 10
11986.148839038129
 20
-225.55386256729159
 30
0.0
 40
7.0
 50
67.066778292911366
 51
154.0147337749826
1001
ACDBBLOCKREPETAG
1070
     1
1071
      318
1005
12ACAA
  0
LINE
  5
12ACAB
  8
OBJECT
 10
11969.4199755553
 20
-243.89888500818171
 30
0.0
 11
11979.85649182323
 21
-222.48688253356801
 31
0.0
1001
ACDBBLOCKREPETAG
1070
     1
1071
      349
1005
12ACAB
  0
LINE
  5
12ACAC
  8
OBJECT
 10
11965.29721690061
 20
-240.71813901882729
 30
0.0
 11
11973.90710226651
 21
-223.05373004430751
 31
0.0
1001
ACDBBLOCKREPETAG
1070
     1
1071
      350
1005
12ACAC
  0
ARC
  5
12ACAD
  8
OBJECT
 10
11976.57969530731
 20
-207.1289369828437
 30
0.0
 40
60.031113246032611
 50
314.07020130422319
 51
322.33936106089681
1001
ACDBBLOCKREPETAG
1070
     1
1071
      351
1005
12ACAD
  0
CIRCLE
  5
12ACAE
  8
OBJECT
 10
12000.0
 20
-199.99999999999909
 30
0.0
 40
53.5
1001
ACDBBLOCKREPETAG
1070
     1
1071
      352
1005
12ACAE
  0
POINT
  5
12ACAF
  8
DOTS
 10
12000.0
 20
-199.99999999999909
 30
0.0
 50
270.0
1001
ACDBBLOCKREPETAG
1070
     1
1071
      364
1005
12ACAF
  0
ARC
  5
12ACB0
  8
OBJECT
 10
12000.0
 20
-199.99999999999909
 30
0.0
 40
50.0
 50
298.81994300000417
 51
228.5237695596397
1001
ACDBBLOCKREPETAG
1070
     1
1071
      157
1005
12ACB0
  0
LINE
  5
12ACB1
  8
CENTER
 10
12080.0
 20
-199.99999999999909
 30
0.0
 11
11920.0
 21
-199.99999999999909
 31
0.0
1001
ACDBBLOCKREPETAG
1070
     1
1071
      158
1005
12ACB1
  0
LINE
  5
12ACB2
  8
OBJECT
 10
11787.00000000002
 20
-137.99999999999909
 30
0.0
 11
11780.00000000002
 21
-137.99999999999909
 31
0.0
1001
ACDBBLOCKREPETAG
1070
     1
1071
      110
1005
12ACB2
  0
LINE
  5
12ACB3
  8
OBJECT
 10
11780.00000000002
 20
-137.99999999999909
 30
0.0
 11
11780.00000000002
 21
-261.99999999999909
 31
0.0
1001
ACDBBLOCKREPETAG
1070
     1
1071
      111
1005
12ACB3
  0
LINE
  5
12ACB4
  8
OBJECT
 10
11780.00000000002
 20
-261.99999999999909
 30
0.0
 11
11787.00000000002
 21
-261.99999999999909
 31
0.0
1001
ACDBBLOCKREPETAG
1070
     1
1071
      112
1005
12ACB4
  0
LINE
  5
12ACB5
  8
OBJECT
 10
11787.00000000002
 20
-261.99999999999909
 30
0.0
 11
11787.00000000002
 21
-137.99999999999909
 31
0.0
1001
ACDBBLOCKREPETAG
1070
     1
1071
      113
1005
12ACB5
  0
LINE
  5
12ACB6
  8
CENTER
 10
11765.00000000002
 20
-199.99999999999909
 30
0.0
 11
11920.0
 21
-199.99999999999909
 31
0.0
1001
ACDBBLOCKREPETAG
1070
     1
1071
      114
1005
12ACB6
  0
LINE
  5
12ACB7
  8
OBJECT
 10
11840.00002503581
 20
-245.0000000000027
 30
0.0
 11
11914.0
 21
-244.99999999999909
 31
0.0
1001
ACDBBLOCKREPETAG
1070
     1
1071
      115
1005
12ACB7
  0
LINE
  5
12ACB8
  8
OBJECT
 10
11840.00002503581
 20
-154.99999999999909
 30
0.0
 11
11914.0
 21
-154.99999999999909
 31
0.0
1001
ACDBBLOCKREPETAG
1070
     1
1071
      116
1005
12ACB8
  0
LINE
  5
12ACB9
  8
OBJECT
 10
11787.00000000002
 20
-140.99999999999909
 30
0.0
 11
11823.00000000002
 21
-140.99999999999909
 31
0.0
1001
ACDBBLOCKREPETAG
1070
     1
1071
      117
1005
12ACB9
  0
LINE
  5
12ACBA
  8
OBJECT
 10
11823.00000000002
 20
-140.99999999999909
 30
0.0
 11
11823.00000000002
 21
-258.99999999999909
 31
0.0
1001
ACDBBLOCKREPETAG
1070
     1
1071
      118
1005
12ACBA
  0
LINE
  5
12ACBB
  8
OBJECT
 10
11823.00000000002
 20
-258.99999999999909
 30
0.0
 11
11787.00000000002
 21
-258.99999999999909
 31
0.0
1001
ACDBBLOCKREPETAG
1070
     1
1071
      119
1005
12ACBB
  0
LINE
  5
12ACBC
  8
OBJECT
 10
11827.00000000002
 20
-145.49999999999909
 30
0.0
 11
11840.00000000002
 21
-145.49999999999909
 31
0.0
1001
ACDBBLOCKREPETAG
1070
     1
1071
      120
1005
12ACBC
  0
LINE
  5
12ACBD
  8
OBJECT
 10
11840.00000000002
 20
-254.49999999999909
 30
0.0
 11
11827.00000000002
 21
-254.49999999999909
 31
0.0
1001
ACDBBLOCKREPETAG
1070
     1
1071
      121
1005
12ACBD
  0
LINE
  5
12ACBE
  8
OBJECT
 10
11827.00000000002
 20
-254.49999999999909
 30
0.0
 11
11827.00000000002
 21
-145.49999999999909
 31
0.0
1001
ACDBBLOCKREPETAG
1070
     1
1071
      122
1005
12ACBE
  0
LINE
  5
12ACBF
  8
OBJECT
 10
11823.00000000002
 20
-140.99999999999909
 30
0.0
 11
11827.00000000002
 21
-145.49999999999909
 31
0.0
1001
ACDBBLOCKREPETAG
1070
     1
1071
      123
1005
12ACBF
  0
LINE
  5
12ACC0
  8
OBJECT
 10
11823.00000000002
 20
-258.99999999999909
 30
0.0
 11
11827.00000000002
 21
-254.49999999999909
 31
0.0
1001
ACDBBLOCKREPETAG
1070
     1
1071
      124
1005
12ACC0
  0
LINE
  5
12ACC1
  8
OBJECT
 10
11917.0
 20
-137.99999999999909
 30
0.0
 11
11920.0
 21
-137.99999999999909
 31
0.0
1001
ACDBBLOCKREPETAG
1070
     1
1071
      125
1005
12ACC1
  0
ARC
  5
12ACC2
  8
OBJECT
 10
11917.0
 20
-140.99999999999909
 30
0.0
 40
3.0
 50
90.0
 51
180.0
1001
ACDBBLOCKREPETAG
1070
     1
1071
      126
1005
12ACC2
  0
LINE
  5
12ACC3
  8
OBJECT
 10
11920.0
 20
-261.99999999999909
 30
0.0
 11
11917.0
 21
-261.99999999999909
 31
0.0
1001
ACDBBLOCKREPETAG
1070
     1
1071
      127
1005
12ACC3
  0
ARC
  5
12ACC4
  8
OBJECT
 10
11917.0
 20
-258.99999999999909
 30
0.0
 40
3.0
 50
180.0
 51
270.0
1001
ACDBBLOCKREPETAG
1070
     1
1071
      128
1005
12ACC4
  0
LINE
  5
12ACC5
  8
OBJECT
 10
11914.0
 20
-258.99999999999909
 30
0.0
 11
11914.0
 21
-222.44994432063581
 31
0.0
1001
ACDBBLOCKREPETAG
1070
     1
1071
      129
1005
12ACC5
  0
LINE
  5
12ACC6
  8
OBJECT
 10
11914.0
 20
-177.55005567935859
 30
0.0
 11
11914.0
 21
-140.99999999999909
 31
0.0
1001
ACDBBLOCKREPETAG
1070
     1
1071
      130
1005
12ACC6
  0
LINE
  5
12ACC7
  8
HIDDEN
 10
11832.00000000002
 20
-155.49999999999909
 30
0.0
 11
11832.00000000002
 21
-244.49999999999909
 31
0.0
1001
ACDBBLOCKREPETAG
1070
     1
1071
      131
1005
12ACC7
  0
LINE
  5
12ACC8
  8
OBJECT
 10
11840.00002503581
 20
-254.4999509238105
 30
0.0
 11
11840.00002503581
 21
-145.4999509238105
 31
0.0
1001
ACDBBLOCKREPETAG
1070
     1
1071
      133
1005
12ACC8
  0
ARC
  5
12ACC9
  8
OBJECT
 10
11875.0
 20
-199.99999999999909
 30
0.0
 40
45.000000000000547
 50
270.0
 51
90.0
1001
ACDBBLOCKREPETAG
1070
     1
1071
      134
1005
12ACC9
  0
LINE
  5
12ACCA
  8
CENTER
 10
12000.0
 20
-300.99999999999898
 30
0.0
 11
12000.0
 21
-279.99999999999909
 31
0.0
1001
ACDBBLOCKREPETAG
1070
     1
1071
        0
1005
12ACCA
  0
LINE
  5
12ACCB
  8
OBJECT
 10
12062.0
 20
-283.0
 30
0.0
 11
12062.0
 21
-279.99999999999909
 31
0.0
1001
ACDBBLOCKREPETAG
1070
     1
1071
        1
1005
12ACCB
  0
ARC
  5
12ACCC
  8
OBJECT
 10
12059.0
 20
-283.0
 30
0.0
 40
3.0
 50
270.0
 51
0.0
1001
ACDBBLOCKREPETAG
1070
     1
1071
        2
1005
12ACCC
  0
LINE
  5
12ACCD
  8
OBJECT
 10
11938.0
 20
-279.99999999999909
 30
0.0
 11
11938.0
 21
-282.99999999999818
 31
0.0
1001
ACDBBLOCKREPETAG
1070
     1
1071
        3
1005
12ACCD
  0
ARC
  5
12ACCE
  8
OBJECT
 10
11941.0
 20
-282.99999999999818
 30
0.0
 40
3.0
 50
180.0
 51
270.0
1001
ACDBBLOCKREPETAG
1070
     1
1071
        4
1005
12ACCE
  0
LINE
  5
12ACCF
  8
OBJECT
 10
11941.0
 20
-285.99999999999818
 30
0.0
 11
12059.0
 21
-286.0
 31
0.0
1001
ACDBBLOCKREPETAG
1070
     1
1071
        5
1005
12ACCF
  0
LINE
  5
12ACD0
  8
OBJECT
 10
12212.99999999998
 20
-137.99999999999909
 30
0.0
 11
12219.99999999998
 21
-137.99999999999909
 31
0.0
1001
ACDBBLOCKREPETAG
1070
     1
1071
      110
1005
12ACD0
  0
LINE
  5
12ACD1
  8
OBJECT
 10
12219.99999999998
 20
-137.99999999999909
 30
0.0
 11
12219.99999999998
 21
-261.99999999999909
 31
0.0
1001
ACDBBLOCKREPETAG
1070
     1
1071
      111
1005
12ACD1
  0
LINE
  5
12ACD2
  8
OBJECT
 10
12219.99999999998
 20
-261.99999999999909
 30
0.0
 11
12212.99999999998
 21
-261.99999999999909
 31
0.0
1001
ACDBBLOCKREPETAG
1070
     1
1071
      112
1005
12ACD2
  0
LINE
  5
12ACD3
  8
OBJECT
 10
12212.99999999998
 20
-261.99999999999909
 30
0.0
 11
12212.99999999998
 21
-137.99999999999909
 31
0.0
1001
ACDBBLOCKREPETAG
1070
     1
1071
      113
1005
12ACD3
  0
LINE
  5
12ACD4
  8
CENTER
 10
12234.99999999998
 20
-199.99999999999909
 30
0.0
 11
12080.0
 21
-199.99999999999909
 31
0.0
1001
ACDBBLOCKREPETAG
1070
     1
1071
      114
1005
12ACD4
  0
LINE
  5
12ACD5
  8
OBJECT
 10
12159.999974964179
 20
-245.0000000000027
 30
0.0
 11
12086.0
 21
-244.99999999999909
 31
0.0
1001
ACDBBLOCKREPETAG
1070
     1
1071
      115
1005
12ACD5
  0
LINE
  5
12ACD6
  8
OBJECT
 10
12159.999974964179
 20
-154.99999999999909
 30
0.0
 11
12086.0
 21
-154.99999999999909
 31
0.0
1001
ACDBBLOCKREPETAG
1070
     1
1071
      116
1005
12ACD6
  0
LINE
  5
12ACD7
  8
OBJECT
 10
12212.99999999998
 20
-140.99999999999909
 30
0.0
 11
12176.99999999998
 21
-140.99999999999909
 31
0.0
1001
ACDBBLOCKREPETAG
1070
     1
1071
      117
1005
12ACD7
  0
LINE
  5
12ACD8
  8
OBJECT
 10
12176.99999999998
 20
-140.99999999999909
 30
0.0
 11
12176.99999999998
 21
-258.99999999999909
 31
0.0
1001
ACDBBLOCKREPETAG
1070
     1
1071
      118
1005
12ACD8
  0
LINE
  5
12ACD9
  8
OBJECT
 10
12176.99999999998
 20
-258.99999999999909
 30
0.0
 11
12212.99999999998
 21
-258.99999999999909
 31
0.0
1001
ACDBBLOCKREPETAG
1070
     1
1071
      119
1005
12ACD9
  0
LINE
  5
12ACDA
  8
OBJECT
 10
12172.99999999998
 20
-145.49999999999909
 30
0.0
 11
12159.99999999998
 21
-145.49999999999909
 31
0.0
1001
ACDBBLOCKREPETAG
1070
     1
1071
      120
1005
12ACDA
  0
LINE
  5
12ACDB
  8
OBJECT
 10
12159.99999999998
 20
-254.49999999999909
 30
0.0
 11
12172.99999999998
 21
-254.49999999999909
 31
0.0
1001
ACDBBLOCKREPETAG
1070
     1
1071
      121
1005
12ACDB
  0
LINE
  5
12ACDC
  8
OBJECT
 10
12172.99999999998
 20
-254.49999999999909
 30
0.0
 11
12172.99999999998
 21
-145.49999999999909
 31
0.0
1001
ACDBBLOCKREPETAG
1070
     1
1071
      122
1005
12ACDC
  0
LINE
  5
12ACDD
  8
OBJECT
 10
12176.99999999998
 20
-140.99999999999909
 30
0.0
 11
12172.99999999998
 21
-145.49999999999909
 31
0.0
1001
ACDBBLOCKREPETAG
1070
     1
1071
      123
1005
12ACDD
  0
LINE
  5
12ACDE
  8
OBJECT
 10
12176.99999999998
 20
-258.99999999999909
 30
0.0
 11
12172.99999999998
 21
-254.49999999999909
 31
0.0
1001
ACDBBLOCKREPETAG
1070
     1
1071
      124
1005
12ACDE
  0
LINE
  5
12ACDF
  8
OBJECT
 10
12083.0
 20
-137.99999999999909
 30
0.0
 11
12080.0
 21
-137.99999999999909
 31
0.0
1001
ACDBBLOCKREPETAG
1070
     1
1071
      125
1005
12ACDF
  0
ARC
  5
12ACE0
  8
OBJECT
 10
12083.0
 20
-140.99999999999909
 30
0.0
 40
3.0
 50
0.0
 51
90.0
1001
ACDBBLOCKREPETAG
1070
     1
1071
      126
1005
12ACE0
  0
LINE
  5
12ACE1
  8
OBJECT
 10
12080.0
 20
-261.99999999999909
 30
0.0
 11
12083.0
 21
-261.99999999999909
 31
0.0
1001
ACDBBLOCKREPETAG
1070
     1
1071
      127
1005
12ACE1
  0
ARC
  5
12ACE2
  8
OBJECT
 10
12083.0
 20
-258.99999999999909
 30
0.0
 40
3.0
 50
270.0
 51
0.0
1001
ACDBBLOCKREPETAG
1070
     1
1071
      128
1005
12ACE2
  0
LINE
  5
12ACE3
  8
OBJECT
 10
12086.0
 20
-258.99999999999909
 30
0.0
 11
12086.0
 21
-222.44994432063581
 31
0.0
1001
ACDBBLOCKREPETAG
1070
     1
1071
      129
1005
12ACE3
  0
LINE
  5
12ACE4
  8
OBJECT
 10
12086.0
 20
-177.55005567935859
 30
0.0
 11
12086.0
 21
-140.99999999999909
 31
0.0
1001
ACDBBLOCKREPETAG
1070
     1
1071
      130
1005
12ACE4
  0
LINE
  5
12ACE5
  8
HIDDEN
 10
12167.99999999998
 20
-155.49999999999909
 30
0.0
 11
12167.99999999998
 21
-244.49999999999909
 31
0.0
1001
ACDBBLOCKREPETAG
1070
     1
1071
      131
1005
12ACE5
  0
LINE
  5
12ACE6
  8
OBJECT
 10
12159.999974964179
 20
-254.4999509238105
 30
0.0
 11
12159.999974964179
 21
-145.4999509238105
 31
0.0
1001
ACDBBLOCKREPETAG
1070
     1
1071
      133
1005
12ACE6
  0
ARC
  5
12ACE7
  8
OBJECT
 10
12125.0
 20
-199.99999999999909
 30
0.0
 40
45.000000000000547
 50
90.0
 51
270.0
1001
ACDBBLOCKREPETAG
1070
     1
1071
      134
1005
12ACE7
  0
LINE
  5
12ACE8
  8
OBJECT
 10
11787.0
 20
-553.0
 30
0.0
 11
11780.000000000009
 21
-553.0
 31
0.0
1001
ACDBBLOCKREPETAG
1070
     1
1071
      106
1005
12ACE8
  0
LINE
  5
12ACE9
  8
OBJECT
 10
11780.000000000009
 20
-553.0
 30
0.0
 11
11780.000000000009
 21
-677.0
 31
0.0
1001
ACDBBLOCKREPETAG
1070
     1
1071
      107
1005
12ACE9
  0
LINE
  5
12ACEA
  8
OBJECT
 10
11914.0
 20
-653.3502637757274
 30
0.0
 11
11914.0
 21
-755.00000000000102
 31
0.0
1001
ACDBBLOCKREPETAG
1070
     1
1071
      108
1005
12ACEA
  0
LINE
  5
12ACEB
  8
OBJECT
 10
11780.000000000009
 20
-677.0
 30
0.0
 11
11787.0
 21
-677.0
 31
0.0
1001
ACDBBLOCKREPETAG
1070
     1
1071
      109
1005
12ACEB
  0
LINE
  5
12ACEC
  8
OBJECT
 10
11787.0
 20
-677.0
 30
0.0
 11
11787.0
 21
-553.0
 31
0.0
1001
ACDBBLOCKREPETAG
1070
     1
1071
      110
1005
12ACEC
  0
LINE
  5
12ACED
  8
CENTER
 10
11855.000000000009
 20
-615.0000000000008
 30
0.0
 11
11765.0
 21
-615.0
 31
0.0
1001
ACDBBLOCKREPETAG
1070
     1
1071
      111
1005
12ACED
  0
LINE
  5
12ACEE
  8
OBJECT
 10
11920.00000000002
 20
-758.0
 30
0.0
 11
11917.000000000009
 21
-758.0000000000008
 31
0.0
1001
ACDBBLOCKREPETAG
1070
     1
1071
      112
1005
12ACEE
  0
ARC
  5
12ACEF
  8
OBJECT
 10
11917.000000000009
 20
-755.00000000000102
 30
0.0
 40
3.0
 50
180.0
 51
270.0
1001
ACDBBLOCKREPETAG
1070
     1
1071
      113
1005
12ACEF
  0
LINE
  5
12ACF0
  8
OBJECT
 10
11787.0
 20
-556.0
 30
0.0
 11
11823.000000000009
 21
-556.0000000000008
 31
0.0
1001
ACDBBLOCKREPETAG
1070
     1
1071
      114
1005
12ACF0
  0
LINE
  5
12ACF1
  8
OBJECT
 10
11823.000000000009
 20
-556.0000000000008
 30
0.0
 11
11823.000000000009
 21
-653.15756805667843
 31
0.0
1001
ACDBBLOCKREPETAG
1070
     1
1071
      115
1005
12ACF1
  0
LINE
  5
12ACF2
  8
OBJECT
 10
11827.0
 20
-560.5000000000008
 30
0.0
 11
11827.00000000002
 21
-645.74491827928705
 31
0.0
1001
ACDBBLOCKREPETAG
1070
     1
1071
      116
1005
12ACF2
  0
LINE
  5
12ACF3
  8
OBJECT
 10
11827.0
 20
-560.5000000000008
 30
0.0
 11
11840.000000000009
 21
-560.5000000000008
 31
0.0
1001
ACDBBLOCKREPETAG
1070
     1
1071
      117
1005
12ACF3
  0
LINE
  5
12ACF4
  8
OBJECT
 10
11831.343683174529
 20
-674.0000000000008
 30
0.0
 11
11787.0
 21
-674.0
 31
0.0
1001
ACDBBLOCKREPETAG
1070
     1
1071
      118
1005
12ACF4
  0
LINE
  5
12ACF5
  8
OBJECT
 10
11823.000000000009
 20
-556.0000000000008
 30
0.0
 11
11827.0
 21
-560.5000000000008
 31
0.0
1001
ACDBBLOCKREPETAG
1070
     1
1071
      119
1005
12ACF5
  0
LINE
  5
12ACF6
  8
OBJECT
 10
11840.000000000009
 20
-560.5000000000008
 30
0.0
 11
11840.000000000009
 21
-645.74491827928784
 31
0.0
1001
ACDBBLOCKREPETAG
1070
     1
1071
      120
1005
12ACF6
  0
ARC
  5
12ACF7
  8
OBJECT
 10
11908.0
 20
-637.27386365609345
 30
0.0
 40
85.0
 50
205.5991387218653
 51
231.40900676279119
1001
ACDBBLOCKREPETAG
1070
     1
1071
      121
1005
12ACF7
  0
ARC
  5
12ACF8
  8
OBJECT
 10
11837.20000000001
 20
-655.00000000000068
 30
0.0
 40
85.0
 50
19.925932125430649
 51
88.112268108168848
1001
ACDBBLOCKREPETAG
1070
     1
1071
      122
1005
12ACF8
  0
LINE
  5
12ACF9
  8
OBJECT
 10
11914.0
 20
-750.81075719270905
 30
0.0
 11
11854.9806774564
 21
-703.71143914629454
 31
0.0
1001
ACDBBLOCKREPETAG
1070
     1
1071
      123
1005
12ACF9
  0
LINE
  5
12ACFA
  8
OBJECT
 10
11827.00000000002
 20
-645.74491827928705
 30
0.0
 11
11840.000000000009
 21
-645.74491827928784
 31
0.0
1001
ACDBBLOCKREPETAG
1070
     1
1071
      124
1005
12ACFA
  0
LINE
  5
12ACFB
  8
OBJECT
 10
11823.000000000009
 20
-653.15756805667843
 30
0.0
 11
11827.00000000002
 21
-645.74491827928705
 31
0.0
1001
ACDBBLOCKREPETAG
1070
     1
1071
      125
1005
12ACFB
  0
LINE
  5
12ACFC
  8
OBJECT
 10
11919.99999999998
 20
-634.0
 30
0.0
 11
11917.111387840379
 21
-626.03156729425325
 31
0.0
1001
ACDBBLOCKREPETAG
1070
     1
1071
      126
1005
12ACFC
  0
LINE
  5
12ACFD
  8
OBJECT
 10
11919.99999999998
 20
-634.0
 30
0.0
 11
11914.0
 21
-653.3502637757274
 31
0.0
1001
ACDBBLOCKREPETAG
1070
     1
1071
      127
1005
12ACFD
  0
LINE
  5
12ACFE
  8
HIDDEN
 10
11832.0
 20
-570.5000000000008
 30
0.0
 11
11832.0
 21
-659.50000000000068
 31
0.0
1001
ACDBBLOCKREPETAG
1070
     1
1071
      129
1005
12ACFE
  0
CIRCLE
  5
12ACFF
  8
OBJECT
 10
12000.0
 20
-696.0
 30
0.0
 40
62.0
1001
ACDBBLOCKREPETAG
1070
     1
1071
        0
1005
12ACFF
  0
LINE
  5
12AD00
  8
OBJECT
 10
12212.99999999998
 20
-553.0000000000008
 30
0.0
 11
12219.99999999998
 21
-553.0000000000008
 31
0.0
1001
ACDBBLOCKREPETAG
1070
     1
1071
      106
1005
12AD00
  0
LINE
  5
12AD01
  8
OBJECT
 10
12219.99999999998
 20
-553.0000000000008
 30
0.0
 11
12219.99999999998
 21
-677.0000000000008
 31
0.0
1001
ACDBBLOCKREPETAG
1070
     1
1071
      107
1005
12AD01
  0
LINE
  5
12AD02
  8
OBJECT
 10
12085.99999999998
 20
-653.3502637757274
 30
0.0
 11
12085.99999999998
 21
-755.00000000000102
 31
0.0
1001
ACDBBLOCKREPETAG
1070
     1
1071
      108
1005
12AD02
  0
LINE
  5
12AD03
  8
OBJECT
 10
12219.99999999998
 20
-677.0000000000008
 30
0.0
 11
12212.99999999998
 21
-677.0000000000008
 31
0.0
1001
ACDBBLOCKREPETAG
1070
     1
1071
      109
1005
12AD03
  0
LINE
  5
12AD04
  8
OBJECT
 10
12212.99999999998
 20
-677.0000000000008
 30
0.0
 11
12212.99999999998
 21
-553.0000000000008
 31
0.0
1001
ACDBBLOCKREPETAG
1070
     1
1071
      110
1005
12AD04
  0
LINE
  5
12AD05
  8
CENTER
 10
12144.99999999998
 20
-615.0000000000008
 30
0.0
 11
12234.99999999998
 21
-615.0000000000008
 31
0.0
1001
ACDBBLOCKREPETAG
1070
     1
1071
      111
1005
12AD05
  0
LINE
  5
12AD06
  8
OBJECT
 10
12079.99999999998
 20
-758.0
 30
0.0
 11
12082.99999999998
 21
-758.0000000000008
 31
0.0
1001
ACDBBLOCKREPETAG
1070
     1
1071
      112
1005
12AD06
  0
ARC
  5
12AD07
  8
OBJECT
 10
12082.99999999998
 20
-755.00000000000102
 30
0.0
 40
3.0
 50
270.0
 51
0.0
1001
ACDBBLOCKREPETAG
1070
     1
1071
      113
1005
12AD07
  0
LINE
  5
12AD08
  8
OBJECT
 10
12212.99999999998
 20
-556.0000000000008
 30
0.0
 11
12176.99999999998
 21
-556.0000000000008
 31
0.0
1001
ACDBBLOCKREPETAG
1070
     1
1071
      114
1005
12AD08
  0
LINE
  5
12AD09
  8
OBJECT
 10
12176.99999999998
 20
-556.0000000000008
 30
0.0
 11
12176.99999999998
 21
-653.15756805667843
 31
0.0
1001
ACDBBLOCKREPETAG
1070
     1
1071
      115
1005
12AD09
  0
LINE
  5
12AD0A
  8
OBJECT
 10
12172.99999999998
 20
-560.5000000000008
 30
0.0
 11
12172.99999999998
 21
-645.74491827928705
 31
0.0
1001
ACDBBLOCKREPETAG
1070
     1
1071
      116
1005
12AD0A
  0
LINE
  5
12AD0B
  8
OBJECT
 10
12172.99999999998
 20
-560.5000000000008
 30
0.0
 11
12159.99999999998
 21
-560.5000000000008
 31
0.0
1001
ACDBBLOCKREPETAG
1070
     1
1071
      117
1005
12AD0B
  0
LINE
  5
12AD0C
  8
OBJECT
 10
12168.656316825471
 20
-674.0000000000008
 30
0.0
 11
12212.99999999998
 21
-674.0000000000008
 31
0.0
1001
ACDBBLOCKREPETAG
1070
     1
1071
      118
1005
12AD0C
  0
LINE
  5
12AD0D
  8
OBJECT
 10
12176.99999999998
 20
-556.0000000000008
 30
0.0
 11
12172.99999999998
 21
-560.5000000000008
 31
0.0
1001
ACDBBLOCKREPETAG
1070
     1
1071
      119
1005
12AD0D
  0
LINE
  5
12AD0E
  8
OBJECT
 10
12159.99999999998
 20
-560.5000000000008
 30
0.0
 11
12159.99999999998
 21
-645.74491827928784
 31
0.0
1001
ACDBBLOCKREPETAG
1070
     1
1071
      120
1005
12AD0E
  0
ARC
  5
12AD0F
  8
OBJECT
 10
12091.99999999998
 20
-637.27386365609345
 30
0.0
 40
85.0
 50
308.59099323720869
 51
334.4008612781347
1001
ACDBBLOCKREPETAG
1070
     1
1071
      121
1005
12AD0F
  0
ARC
  5
12AD10
  8
OBJECT
 10
12162.799999999979
 20
-655.00000000000068
 30
0.0
 40
85.0
 50
91.887731891831123
 51
160.07406787456929
1001
ACDBBLOCKREPETAG
1070
     1
1071
      122
1005
12AD10
  0
LINE
  5
12AD11
  8
OBJECT
 10
12085.99999999998
 20
-750.81075719270905
 30
0.0
 11
12145.0193225436
 21
-703.71143914629454
 31
0.0
1001
ACDBBLOCKREPETAG
1070
     1
1071
      123
1005
12AD11
  0
LINE
  5
12AD12
  8
OBJECT
 10
12172.99999999998
 20
-645.74491827928705
 30
0.0
 11
12159.99999999998
 21
-645.74491827928784
 31
0.0
1001
ACDBBLOCKREPETAG
1070
     1
1071
      124
1005
12AD12
  0
LINE
  5
12AD13
  8
OBJECT
 10
12176.99999999998
 20
-653.15756805667843
 30
0.0
 11
12172.99999999998
 21
-645.74491827928705
 31
0.0
1001
ACDBBLOCKREPETAG
1070
     1
1071
      125
1005
12AD13
  0
LINE
  5
12AD14
  8
OBJECT
 10
12080.00000000002
 20
-634.0
 30
0.0
 11
12082.888612159621
 21
-626.03156729425325
 31
0.0
1001
ACDBBLOCKREPETAG
1070
     1
1071
      126
1005
12AD14
  0
LINE
  5
12AD15
  8
OBJECT
 10
12080.00000000002
 20
-634.0
 30
0.0
 11
12085.99999999998
 21
-653.3502637757274
 31
0.0
1001
ACDBBLOCKREPETAG
1070
     1
1071
      127
1005
12AD15
  0
LINE
  5
12AD16
  8
HIDDEN
 10
12167.99999999998
 20
-570.5000000000008
 30
0.0
 11
12167.99999999998
 21
-659.50000000000068
 31
0.0
1001
ACDBBLOCKREPETAG
1070
     1
1071
      129
1005
12AD16
  0
LINE
  5
12AD17
  8
OBJECT
 10
9923.0
 20
-570.99999999999432
 30
0.0
 11
9923.0
 21
-549.99999999999432
 31
0.0
1001
ACDBBLOCKREPETAG
1070
     1
1071
       36
1005
12AD17
  0
LINE
  5
12AD18
  8
OBJECT
 10
9923.0
 20
-549.99999999999432
 30
0.0
 11
10077.0
 21
-549.99999999999432
 31
0.0
1001
ACDBBLOCKREPETAG
1070
     1
1071
       37
1005
12AD18
  0
LINE
  5
12AD19
  8
HIDDEN
 10
9943.0
 20
-619.99999999999432
 30
0.0
 11
10057.0
 21
-619.99999999999432
 31
0.0
1001
ACDBBLOCKREPETAG
1070
     1
1071
       38
1005
12AD19
  0
LINE
  5
12AD1A
  8
OBJECT
 10
10077.0
 20
-549.99999999999432
 30
0.0
 11
10077.0
 21
-570.99999999999432
 31
0.0
1001
ACDBBLOCKREPETAG
1070
     1
1071
       39
1005
12AD1A
  0
LINE
  5
12AD1B
  8
OBJECT
 10
10077.0
 20
-570.99999999999432
 30
0.0
 11
9923.0
 21
-570.99999999999432
 31
0.0
1001
ACDBBLOCKREPETAG
1070
     1
1071
       40
1005
12AD1B
  0
LINE
  5
12AD1C
  8
CENTER
 10
10000.0
 20
-534.99999999999432
 30
0.0
 11
10000.0
 21
-769.9999999999942
 31
0.0
1001
ACDBBLOCKREPETAG
1070
     1
1071
       41
1005
12AD1C
  0
LINE
  5
12AD1D
  8
OBJECT
 10
9928.0
 20
-570.99999999999432
 30
0.0
 11
9928.0
 21
-633.99999999999432
 31
0.0
1001
ACDBBLOCKREPETAG
1070
     1
1071
       42
1005
12AD1D
  0
LINE
  5
12AD1E
  8
OBJECT
 10
10072.0
 20
-633.99999999999432
 30
0.0
 11
10072.0
 21
-570.99999999999432
 31
0.0
1001
ACDBBLOCKREPETAG
1070
     1
1071
       43
1005
12AD1E
  0
LINE
  5
12AD1F
  8
OBJECT
 10
9920.0
 20
-757.9999999999942
 30
0.0
 11
10080.0
 21
-757.9999999999942
 31
0.0
1001
ACDBBLOCKREPETAG
1070
     1
1071
       44
1005
12AD1F
  0
LINE
  5
12AD20
  8
OBJECT
 10
10080.0
 20
-633.99999999999432
 30
0.0
 11
9920.0
 21
-633.99999999999432
 31
0.0
1001
ACDBBLOCKREPETAG
1070
     1
1071
       45
1005
12AD20
  0
LINE
  5
12AD21
  8
OBJECT
 10
9920.0
 20
-757.9999999999942
 30
0.0
 11
9920.0
 21
-769.9999999999942
 31
0.0
1001
ACDBBLOCKREPETAG
1070
     1
1071
       46
1005
12AD21
  0
LINE
  5
12AD22
  8
OBJECT
 10
9920.0
 20
-769.9999999999942
 30
0.0
 11
10080.0
 21
-769.9999999999942
 31
0.0
1001
ACDBBLOCKREPETAG
1070
     1
1071
       47
1005
12AD22
  0
LINE
  5
12AD23
  8
OBJECT
 10
10080.0
 20
-769.9999999999942
 30
0.0
 11
10080.0
 21
-757.9999999999942
 31
0.0
1001
ACDBBLOCKREPETAG
1070
     1
1071
       48
1005
12AD23
  0
ARC
  5
12AD24
  8
OBJECT
 10
10200.687274671671
 20
-749.40809941010195
 30
0.0
 40
170.6350503965856
 50
137.44134459184301
 51
149.91949581337221
1001
ACDBBLOCKREPETAG
1070
     1
1071
       52
1005
12AD24
  0
ARC
  5
12AD25
  8
OBJECT
 10
10200.687274671671
 20
-642.59190058988645
 30
0.0
 40
170.6350503965856
 50
210.08050418662771
 51
222.55865540815699
1001
ACDBBLOCKREPETAG
1070
     1
1071
       53
1005
12AD25
  0
ARC
  5
12AD26
  8
OBJECT
 10
9799.3127253283274
 20
-749.40809941010195
 30
0.0
 40
170.6350503965856
 50
30.080504186787142
 51
42.558655408456282
1001
ACDBBLOCKREPETAG
1070
     1
1071
       54
1005
12AD26
  0
ARC
  5
12AD27
  8
OBJECT
 10
9799.3127253283274
 20
-642.59190058988645
 30
0.0
 40
170.6350503965856
 50
317.44134459154373
 51
329.9194958132129
1001
ACDBBLOCKREPETAG
1070
     1
1071
       55
1005
12AD27
  0
POINT
  5
12AD28
  8
DOTS
 10
10000.0
 20
-754.9999999999942
 30
0.0
1001
ACDBBLOCKREPETAG
1070
     1
1071
      184
1005
12AD28
  0
LINE
  5
12AD29
  8
SLIM
 10
9945.2566704261044
 20
-137.99999999999909
 30
0.0
 11
9955.9548403695771
 21
-127.30183005652231
 31
0.0
1001
GRADIENTCOLOR1ACI
1070
     5
1001
GRADIENTCOLOR2ACI
1070
     2
1001
ACAD
1010
0.0
1020
0.0
1030
0.0
1001
ACDBBLOCKREPETAG
1070
     1
1071
      428
1005
12AD29
  0
LINE
  5
12AD2A
  8
SLIM
 10
9954.2369265471734
 20
-137.99999999999909
 30
0.0
 11
9972.7507744763316
 21
-119.4861520708364
 31
0.0
1001
GRADIENTCOLOR1ACI
1070
     5
1001
GRADIENTCOLOR2ACI
1070
     2
1001
ACAD
1010
0.0
1020
0.0
1030
0.0
1001
ACDBBLOCKREPETAG
1070
     1
1071
      429
1005
12AD2A
  0
LINE
  5
12AD2B
  8
SLIM
 10
9973.5212243124606
 20
-127.6959583557812
 30
0.0
 11
9984.8575146748644
 21
-116.359667993377
 31
0.0
1001
GRADIENTCOLOR1ACI
1070
     5
1001
GRADIENTCOLOR2ACI
1070
     2
1001
ACAD
1010
0.0
1020
0.0
1030
0.0
1001
ACDBBLOCKREPETAG
1070
     1
1071
      430
1005
12AD2B
  0
LINE
  5
12AD2C
  8
SLIM
 10
9985.8944171461262
 20
-124.30302164318159
 30
0.0
 11
9995.0533812002577
 21
-115.1440575890517
 31
0.0
1001
GRADIENTCOLOR1ACI
1070
     5
1001
GRADIENTCOLOR2ACI
1070
     2
1001
ACAD
1010
0.0
1020
0.0
1030
0.0
1001
ACDBBLOCKREPETAG
1070
     1
1071
      431
1005
12AD2C
  0
LINE
  5
12AD2D
  8
SLIM
 10
9996.0777327492033
 20
-123.0999621611699
 30
0.0
 11
10000.0
 21
-119.1776949103767
 31
0.0
1001
GRADIENTCOLOR1ACI
1070
     5
1001
GRADIENTCOLOR2ACI
1070
     2
1001
ACAD
1010
0.0
1020
0.0
1030
0.0
1001
ACDBBLOCKREPETAG
1070
     1
1071
      432
1005
12AD2D
  0
LINE
  5
12AD2E
  8
SLIM
 10
10000.0
 20
-119.1776949103767
 30
0.0
 11
10004.0797313529
 21
-115.0979635574724
 31
0.0
1001
GRADIENTCOLOR1ACI
1070
     5
1001
GRADIENTCOLOR2ACI
1070
     2
1001
ACAD
1010
0.0
1020
0.0
1030
0.0
1001
ACDBBLOCKREPETAG
1070
     1
1071
      433
1005
12AD2E
  0
LINE
  5
12AD2F
  8
SLIM
 10
10004.99572025427
 20
-123.1622307771683
 30
0.0
 11
10012.26797841056
 21
-115.88997262087101
 31
0.0
1001
GRADIENTCOLOR1ACI
1070
     5
1001
GRADIENTCOLOR2ACI
1070
     2
1001
ACAD
1010
0.0
1020
0.0
1030
0.0
1001
ACDBBLOCKREPETAG
1070
     1
1071
      434
1005
12AD2F
  0
LINE
  5
12AD30
  8
SLIM
 10
10013.028059366959
 20
-124.1101477855505
 30
0.0
 11
10019.799941457361
 21
-117.3382656951526
 31
0.0
1001
GRADIENTCOLOR1ACI
1070
     5
1001
GRADIENTCOLOR2ACI
1070
     2
1001
ACAD
1010
0.0
1020
0.0
1030
0.0
1001
ACDBBLOCKREPETAG
1070
     1
1071
      435
1005
12AD30
  0
LINE
  5
12AD31
  8
SLIM
 10
10020.374081314239
 20
-125.7443819593383
 30
0.0
 11
10026.787203867279
 21
-119.3312594063044
 31
0.0
1001
GRADIENTCOLOR1ACI
1070
     5
1001
GRADIENTCOLOR2ACI
1070
     2
1001
ACAD
1010
0.0
1020
0.0
1030
0.0
1001
ACDBBLOCKREPETAG
1070
     1
1071
      436
1005
12AD31
  0
LINE
  5
12AD32
  8
SLIM
 10
10027.15247199887
 20
-127.946247395778
 30
0.0
 11
10033.303003076029
 21
-121.7957163186195
 31
0.0
1001
GRADIENTCOLOR1ACI
1070
     5
1001
GRADIENTCOLOR2ACI
1070
     2
1001
ACAD
1010
0.0
1020
0.0
1030
0.0
1001
ACDBBLOCKREPETAG
1070
     1
1071
      437
1005
12AD32
  0
LINE
  5
12AD33
  8
SLIM
 10
10033.43909865133
 20
-130.63987686439191
 30
0.0
 11
10039.39731198437
 21
-124.6816635313439
 31
0.0
1001
GRADIENTCOLOR1ACI
1070
     5
1001
GRADIENTCOLOR2ACI
1070
     2
1001
ACAD
1010
0.0
1020
0.0
1030
0.0
1001
ACDBBLOCKREPETAG
1070
     1
1071
      438
1005
12AD33
  0
LINE
  5
12AD34
  8
SLIM
 10
10039.284224621801
 20
-133.77500701499321
 30
0.0
 11
10045.104770534361
 21
-127.95446110242381
 31
0.0
1001
GRADIENTCOLOR1ACI
1070
     5
1001
GRADIENTCOLOR2ACI
1070
     2
1001
ACAD
1010
0.0
1020
0.0
1030
0.0
1001
ACDBBLOCKREPETAG
1070
     1
1071
      439
1005
12AD34
  0
LINE
  5
12AD35
  8
SLIM
 10
10044.721280169801
 20
-137.31820758805651
 30
0.0
 11
10050.449155789191
 21
-131.59033196866449
 31
0.0
1001
GRADIENTCOLOR1ACI
1070
     5
1001
GRADIENTCOLOR2ACI
1070
     2
1001
ACAD
1010
0.0
1020
0.0
1030
0.0
1001
ACDBBLOCKREPETAG
1070
     1
1071
      440
1005
12AD35
  0
LINE
  5
12AD36
  8
SLIM
 10
10053.019743878929
 20
-137.99999999999909
 30
0.0
 11
10055.445994186401
 21
-135.57374969252561
 31
0.0
1001
GRADIENTCOLOR1ACI
1070
     5
1001
GRADIENTCOLOR2ACI
1070
     2
1001
ACAD
1010
0.0
1020
0.0
1030
0.0
1001
ACDBBLOCKREPETAG
1070
     1
1071
      441
1005
12AD36
  0
LINE
  5
12AD37
  8
CENTER
 10
10000.0
 20
-279.99999999999909
 30
0.0
 11
10000.0
 21
-99.999999999999091
 31
0.0
1001
ACDBBLOCKREPETAG
1070
     1
1071
      160
1005
12AD37
  0
CIRCLE
  5
12AD38
  8
OBJECT
 10
10000.0
 20
-199.99999999999909
 30
0.0
 40
70.0
1001
ACDBBLOCKREPETAG
1070
     1
1071
      161
1005
12AD38
  0
CIRCLE
  5
12AD39
  8
OBJECT
 10
10000.0
 20
-199.99999999999909
 30
0.0
 40
77.0
1001
ACDBBLOCKREPETAG
1070
     1
1071
      162
1005
12AD39
  0
LINE
  5
12AD3A
  8
OBJECT
 10
10045.661800227321
 20
-137.99999999999909
 30
0.0
 11
10080.0
 21
-137.99999999999909
 31
0.0
1001
ACDBBLOCKREPETAG
1070
     1
1071
      164
1005
12AD3A
  0
LINE
  5
12AD3B
  8
OBJECT
 10
10062.0
 20
-261.99999999999909
 30
0.0
 11
10080.0
 21
-261.99999999999909
 31
0.0
1001
ACDBBLOCKREPETAG
1070
     1
1071
      165
1005
12AD3B
  0
LINE
  5
12AD3C
  8
OBJECT
 10
10062.0
 20
-261.99999999999909
 30
0.0
 11
10062.0
 21
-279.99999999999909
 31
0.0
1001
ACDBBLOCKREPETAG
1070
     1
1071
      167
1005
12AD3C
  0
LINE
  5
12AD3D
  8
OBJECT
 10
9938.0
 20
-261.99999999999909
 30
0.0
 11
9938.0
 21
-279.99999999999909
 31
0.0
1001
ACDBBLOCKREPETAG
1070
     1
1071
      168
1005
12AD3D
  0
LINE
  5
12AD3E
  8
OBJECT
 10
9938.0
 20
-261.99999999999909
 30
0.0
 11
9920.0
 21
-261.99999999999909
 31
0.0
1001
ACDBBLOCKREPETAG
1070
     1
1071
      170
1005
12AD3E
  0
LINE
  5
12AD3F
  8
OBJECT
 10
9954.3381997726756
 20
-137.99999999999909
 30
0.0
 11
9920.0
 21
-137.99999999999909
 31
0.0
1001
ACDBBLOCKREPETAG
1070
     1
1071
      171
1005
12AD3F
  0
LINE
  5
12AD40
  8
OBJECT
 10
9945.5527778486357
 20
-254.44722215136329
 30
0.0
 11
9938.0
 21
-261.99999999999909
 31
0.0
1001
ACDBBLOCKREPETAG
1070
     1
1071
      180
1005
12AD40
  0
LINE
  5
12AD41
  8
OBJECT
 10
10054.447222151361
 20
-254.44722215136329
 30
0.0
 11
10062.0
 21
-261.99999999999909
 31
0.0
1001
ACDBBLOCKREPETAG
1070
     1
1071
      181
1005
12AD41
  0
ARC
  5
12AD42
  8
OBJECT
 10
10000.0
 20
-199.99999999999909
 30
0.0
 40
85.0
 50
46.837102859844251
 51
133.16289714015571
1001
ACDBBLOCKREPETAG
1070
     1
1071
      183
1005
12AD42
  0
LINE
  5
12AD43
  8
OBJECT
 10
10024.1029330933
 20
-243.80694712371681
 30
0.0
 11
10020.659656999989
 21
-232.55462199999889
 31
0.0
1001
ACDBBLOCKREPETAG
1070
     1
1071
      314
1005
12AD43
  0
LINE
  5
12AD44
  8
OBJECT
 10
9986.7927499013749
 20
-218.22553374208019
 30
0.0
 11
10020.659656999989
 21
-232.5546219999969
 31
0.0
1001
ACDBBLOCKREPETAG
1070
     1
1071
      316
1005
12AD44
  0
ARC
  5
12AD45
  8
OBJECT
 10
9982.8961697618997
 20
-227.4351299990567
 30
0.0
 40
10.0
 50
67.066778292911366
 51
154.01473437031629
1001
ACDBBLOCKREPETAG
1070
     1
1071
      317
1005
12AD45
  0
ARC
  5
12AD46
  8
OBJECT
 10
9986.1488390381292
 20
-225.55386256729159
 30
0.0
 40
7.0
 50
67.066778292911366
 51
154.0147337749826
1001
ACDBBLOCKREPETAG
1070
     1
1071
      318
1005
12AD46
  0
LINE
  5
12AD47
  8
OBJECT
 10
9969.4199755553
 20
-243.89888500818171
 30
0.0
 11
9979.8564918232369
 21
-222.48688253356801
 31
0.0
1001
ACDBBLOCKREPETAG
1070
     1
1071
      349
1005
12AD47
  0
LINE
  5
12AD48
  8
OBJECT
 10
9965.2972169006098
 20
-240.71813901882729
 30
0.0
 11
9973.9071022665084
 21
-223.05373004430751
 31
0.0
1001
ACDBBLOCKREPETAG
1070
     1
1071
      350
1005
12AD48
  0
ARC
  5
12AD49
  8
OBJECT
 10
9976.5796953073132
 20
-207.1289369828437
 30
0.0
 40
60.031113246032611
 50
314.07020130422319
 51
322.33936106089681
1001
ACDBBLOCKREPETAG
1070
     1
1071
      351
1005
12AD49
  0
CIRCLE
  5
12AD4A
  8
OBJECT
 10
10000.0
 20
-199.99999999999909
 30
0.0
 40
53.5
1001
ACDBBLOCKREPETAG
1070
     1
1071
      352
1005
12AD4A
  0
POINT
  5
12AD4B
  8
DOTS
 10
10000.0
 20
-199.99999999999909
 30
0.0
 50
270.0
1001
ACDBBLOCKREPETAG
1070
     1
1071
      364
1005
12AD4B
  0
ARC
  5
12AD4C
  8
OBJECT
 10
10000.0
 20
-199.99999999999909
 30
0.0
 40
50.0
 50
298.81994300000417
 51
228.5237695596397
1001
ACDBBLOCKREPETAG
1070
     1
1071
      157
1005
12AD4C
  0
LINE
  5
12AD4D
  8
CENTER
 10
10080.0
 20
-199.99999999999909
 30
0.0
 11
9920.0
 21
-199.99999999999909
 31
0.0
1001
ACDBBLOCKREPETAG
1070
     1
1071
      158
1005
12AD4D
  0
LINE
  5
12AD4E
  8
OBJECT
 10
9787.00000000002
 20
-137.99999999999909
 30
0.0
 11
9780.0000000000182
 21
-137.99999999999909
 31
0.0
1001
ACDBBLOCKREPETAG
1070
     1
1071
      110
1005
12AD4E
  0
LINE
  5
12AD4F
  8
OBJECT
 10
9780.0000000000182
 20
-137.99999999999909
 30
0.0
 11
9780.0000000000182
 21
-261.99999999999909
 31
0.0
1001
ACDBBLOCKREPETAG
1070
     1
1071
      111
1005
12AD4F
  0
LINE
  5
12AD50
  8
OBJECT
 10
9780.0000000000182
 20
-261.99999999999909
 30
0.0
 11
9787.00000000002
 21
-261.99999999999909
 31
0.0
1001
ACDBBLOCKREPETAG
1070
     1
1071
      112
1005
12AD50
  0
LINE
  5
12AD51
  8
OBJECT
 10
9787.00000000002
 20
-261.99999999999909
 30
0.0
 11
9787.00000000002
 21
-137.99999999999909
 31
0.0
1001
ACDBBLOCKREPETAG
1070
     1
1071
      113
1005
12AD51
  0
LINE
  5
12AD52
  8
CENTER
 10
9765.0000000000218
 20
-199.99999999999909
 30
0.0
 11
9920.0
 21
-199.99999999999909
 31
0.0
1001
ACDBBLOCKREPETAG
1070
     1
1071
      114
1005
12AD52
  0
LINE
  5
12AD53
  8
OBJECT
 10
9840.0000250358207
 20
-245.0000000000027
 30
0.0
 11
9914.0000000000055
 21
-244.99999999999909
 31
0.0
1001
ACDBBLOCKREPETAG
1070
     1
1071
      115
1005
12AD53
  0
LINE
  5
12AD54
  8
OBJECT
 10
9840.0000250358207
 20
-154.99999999999909
 30
0.0
 11
9914.0000000000055
 21
-154.99999999999909
 31
0.0
1001
ACDBBLOCKREPETAG
1070
     1
1071
      116
1005
12AD54
  0
LINE
  5
12AD55
  8
OBJECT
 10
9787.00000000002
 20
-140.99999999999909
 30
0.0
 11
9823.0000000000182
 21
-140.99999999999909
 31
0.0
1001
ACDBBLOCKREPETAG
1070
     1
1071
      117
1005
12AD55
  0
LINE
  5
12AD56
  8
OBJECT
 10
9823.0000000000182
 20
-140.99999999999909
 30
0.0
 11
9823.0000000000182
 21
-258.99999999999909
 31
0.0
1001
ACDBBLOCKREPETAG
1070
     1
1071
      118
1005
12AD56
  0
LINE
  5
12AD57
  8
OBJECT
 10
9823.0000000000182
 20
-258.99999999999909
 30
0.0
 11
9787.00000000002
 21
-258.99999999999909
 31
0.0
1001
ACDBBLOCKREPETAG
1070
     1
1071
      119
1005
12AD57
  0
LINE
  5
12AD58
  8
OBJECT
 10
9827.0000000000182
 20
-145.49999999999909
 30
0.0
 11
9840.0000000000182
 21
-145.49999999999909
 31
0.0
1001
ACDBBLOCKREPETAG
1070
     1
1071
      120
1005
12AD58
  0
LINE
  5
12AD59
  8
OBJECT
 10
9840.0000000000182
 20
-254.49999999999909
 30
0.0
 11
9827.0000000000182
 21
-254.49999999999909
 31
0.0
1001
ACDBBLOCKREPETAG
1070
     1
1071
      121
1005
12AD59
  0
LINE
  5
12AD5A
  8
OBJECT
 10
9827.0000000000182
 20
-254.49999999999909
 30
0.0
 11
9827.0000000000182
 21
-145.49999999999909
 31
0.0
1001
ACDBBLOCKREPETAG
1070
     1
1071
      122
1005
12AD5A
  0
LINE
  5
12AD5B
  8
OBJECT
 10
9823.0000000000182
 20
-140.99999999999909
 30
0.0
 11
9827.0000000000182
 21
-145.49999999999909
 31
0.0
1001
ACDBBLOCKREPETAG
1070
     1
1071
      123
1005
12AD5B
  0
LINE
  5
12AD5C
  8
OBJECT
 10
9823.0000000000182
 20
-258.99999999999909
 30
0.0
 11
9827.0000000000182
 21
-254.49999999999909
 31
0.0
1001
ACDBBLOCKREPETAG
1070
     1
1071
      124
1005
12AD5C
  0
LINE
  5
12AD5D
  8
OBJECT
 10
9917.0000000000055
 20
-137.99999999999909
 30
0.0
 11
9920.0000000000055
 21
-137.99999999999909
 31
0.0
1001
ACDBBLOCKREPETAG
1070
     1
1071
      125
1005
12AD5D
  0
ARC
  5
12AD5E
  8
OBJECT
 10
9917.0000000000055
 20
-140.99999999999909
 30
0.0
 40
3.0
 50
90.0
 51
180.0
1001
ACDBBLOCKREPETAG
1070
     1
1071
      126
1005
12AD5E
  0
LINE
  5
12AD5F
  8
OBJECT
 10
9920.0000000000055
 20
-261.99999999999909
 30
0.0
 11
9917.0000000000055
 21
-261.99999999999909
 31
0.0
1001
ACDBBLOCKREPETAG
1070
     1
1071
      127
1005
12AD5F
  0
ARC
  5
12AD60
  8
OBJECT
 10
9917.0000000000055
 20
-258.99999999999909
 30
0.0
 40
3.0
 50
180.0
 51
270.0
1001
ACDBBLOCKREPETAG
1070
     1
1071
      128
1005
12AD60
  0
LINE
  5
12AD61
  8
OBJECT
 10
9914.0000000000055
 20
-258.99999999999909
 30
0.0
 11
9914.0000000000055
 21
-222.44994432063581
 31
0.0
1001
ACDBBLOCKREPETAG
1070
     1
1071
      129
1005
12AD61
  0
LINE
  5
12AD62
  8
OBJECT
 10
9914.0000000000055
 20
-177.55005567935859
 30
0.0
 11
9914.0000000000055
 21
-140.99999999999909
 31
0.0
1001
ACDBBLOCKREPETAG
1070
     1
1071
      130
1005
12AD62
  0
LINE
  5
12AD63
  8
HIDDEN
 10
9832.0000000000182
 20
-155.49999999999909
 30
0.0
 11
9832.0000000000182
 21
-244.49999999999909
 31
0.0
1001
ACDBBLOCKREPETAG
1070
     1
1071
      131
1005
12AD63
  0
LINE
  5
12AD64
  8
OBJECT
 10
9840.0000250358207
 20
-254.4999509238105
 30
0.0
 11
9840.0000250358207
 21
-145.4999509238105
 31
0.0
1001
ACDBBLOCKREPETAG
1070
     1
1071
      133
1005
12AD64
  0
ARC
  5
12AD65
  8
OBJECT
 10
9875.0
 20
-199.99999999999909
 30
0.0
 40
45.000000000000547
 50
270.0
 51
90.0
1001
ACDBBLOCKREPETAG
1070
     1
1071
      134
1005
12AD65
  0
LINE
  5
12AD66
  8
CENTER
 10
10000.0
 20
-300.99999999999898
 30
0.0
 11
10000.0
 21
-279.99999999999909
 31
0.0
1001
ACDBBLOCKREPETAG
1070
     1
1071
        0
1005
12AD66
  0
LINE
  5
12AD67
  8
OBJECT
 10
10062.0
 20
-283.0
 30
0.0
 11
10062.0
 21
-279.99999999999909
 31
0.0
1001
ACDBBLOCKREPETAG
1070
     1
1071
        1
1005
12AD67
  0
ARC
  5
12AD68
  8
OBJECT
 10
10059.0
 20
-283.0
 30
0.0
 40
3.0
 50
270.0
 51
0.0
1001
ACDBBLOCKREPETAG
1070
     1
1071
        2
1005
12AD68
  0
LINE
  5
12AD69
  8
OBJECT
 10
9938.0
 20
-279.99999999999909
 30
0.0
 11
9938.0
 21
-282.99999999999818
 31
0.0
1001
ACDBBLOCKREPETAG
1070
     1
1071
        3
1005
12AD69
  0
ARC
  5
12AD6A
  8
OBJECT
 10
9941.0
 20
-282.99999999999818
 30
0.0
 40
3.0
 50
180.0
 51
270.0
1001
ACDBBLOCKREPETAG
1070
     1
1071
        4
1005
12AD6A
  0
LINE
  5
12AD6B
  8
OBJECT
 10
9941.0
 20
-285.99999999999818
 30
0.0
 11
10059.0
 21
-286.0
 31
0.0
1001
ACDBBLOCKREPETAG
1070
     1
1071
        5
1005
12AD6B
  0
LINE
  5
12AD6C
  8
OBJECT
 10
10212.99999999998
 20
-137.99999999999909
 30
0.0
 11
10219.99999999998
 21
-137.99999999999909
 31
0.0
1001
ACDBBLOCKREPETAG
1070
     1
1071
      110
1005
12AD6C
  0
LINE
  5
12AD6D
  8
OBJECT
 10
10219.99999999998
 20
-137.99999999999909
 30
0.0
 11
10219.99999999998
 21
-261.99999999999909
 31
0.0
1001
ACDBBLOCKREPETAG
1070
     1
1071
      111
1005
12AD6D
  0
LINE
  5
12AD6E
  8
OBJECT
 10
10219.99999999998
 20
-261.99999999999909
 30
0.0
 11
10212.99999999998
 21
-261.99999999999909
 31
0.0
1001
ACDBBLOCKREPETAG
1070
     1
1071
      112
1005
12AD6E
  0
LINE
  5
12AD6F
  8
OBJECT
 10
10212.99999999998
 20
-261.99999999999909
 30
0.0
 11
10212.99999999998
 21
-137.99999999999909
 31
0.0
1001
ACDBBLOCKREPETAG
1070
     1
1071
      113
1005
12AD6F
  0
LINE
  5
12AD70
  8
CENTER
 10
10234.99999999998
 20
-199.99999999999909
 30
0.0
 11
10080.0
 21
-199.99999999999909
 31
0.0
1001
ACDBBLOCKREPETAG
1070
     1
1071
      114
1005
12AD70
  0
LINE
  5
12AD71
  8
OBJECT
 10
10159.999974964179
 20
-245.0000000000027
 30
0.0
 11
10086.0
 21
-244.99999999999909
 31
0.0
1001
ACDBBLOCKREPETAG
1070
     1
1071
      115
1005
12AD71
  0
LINE
  5
12AD72
  8
OBJECT
 10
10159.999974964179
 20
-154.99999999999909
 30
0.0
 11
10086.0
 21
-154.99999999999909
 31
0.0
1001
ACDBBLOCKREPETAG
1070
     1
1071
      116
1005
12AD72
  0
LINE
  5
12AD73
  8
OBJECT
 10
10212.99999999998
 20
-140.99999999999909
 30
0.0
 11
10176.99999999998
 21
-140.99999999999909
 31
0.0
1001
ACDBBLOCKREPETAG
1070
     1
1071
      117
1005
12AD73
  0
LINE
  5
12AD74
  8
OBJECT
 10
10176.99999999998
 20
-140.99999999999909
 30
0.0
 11
10176.99999999998
 21
-258.99999999999909
 31
0.0
1001
ACDBBLOCKREPETAG
1070
     1
1071
      118
1005
12AD74
  0
LINE
  5
12AD75
  8
OBJECT
 10
10176.99999999998
 20
-258.99999999999909
 30
0.0
 11
10212.99999999998
 21
-258.99999999999909
 31
0.0
1001
ACDBBLOCKREPETAG
1070
     1
1071
      119
1005
12AD75
  0
LINE
  5
12AD76
  8
OBJECT
 10
10172.99999999998
 20
-145.49999999999909
 30
0.0
 11
10159.99999999998
 21
-145.49999999999909
 31
0.0
1001
ACDBBLOCKREPETAG
1070
     1
1071
      120
1005
12AD76
  0
LINE
  5
12AD77
  8
OBJECT
 10
10159.99999999998
 20
-254.49999999999909
 30
0.0
 11
10172.99999999998
 21
-254.49999999999909
 31
0.0
1001
ACDBBLOCKREPETAG
1070
     1
1071
      121
1005
12AD77
  0
LINE
  5
12AD78
  8
OBJECT
 10
10172.99999999998
 20
-254.49999999999909
 30
0.0
 11
10172.99999999998
 21
-145.49999999999909
 31
0.0
1001
ACDBBLOCKREPETAG
1070
     1
1071
      122
1005
12AD78
  0
LINE
  5
12AD79
  8
OBJECT
 10
10176.99999999998
 20
-140.99999999999909
 30
0.0
 11
10172.99999999998
 21
-145.49999999999909
 31
0.0
1001
ACDBBLOCKREPETAG
1070
     1
1071
      123
1005
12AD79
  0
LINE
  5
12AD7A
  8
OBJECT
 10
10176.99999999998
 20
-258.99999999999909
 30
0.0
 11
10172.99999999998
 21
-254.49999999999909
 31
0.0
1001
ACDBBLOCKREPETAG
1070
     1
1071
      124
1005
12AD7A
  0
LINE
  5
12AD7B
  8
OBJECT
 10
10083.0
 20
-137.99999999999909
 30
0.0
 11
10080.0
 21
-137.99999999999909
 31
0.0
1001
ACDBBLOCKREPETAG
1070
     1
1071
      125
1005
12AD7B
  0
ARC
  5
12AD7C
  8
OBJECT
 10
10083.0
 20
-140.99999999999909
 30
0.0
 40
3.0
 50
0.0
 51
90.0
1001
ACDBBLOCKREPETAG
1070
     1
1071
      126
1005
12AD7C
  0
LINE
  5
12AD7D
  8
OBJECT
 10
10080.0
 20
-261.99999999999909
 30
0.0
 11
10083.0
 21
-261.99999999999909
 31
0.0
1001
ACDBBLOCKREPETAG
1070
     1
1071
      127
1005
12AD7D
  0
ARC
  5
12AD7E
  8
OBJECT
 10
10083.0
 20
-258.99999999999909
 30
0.0
 40
3.0
 50
270.0
 51
0.0
1001
ACDBBLOCKREPETAG
1070
     1
1071
      128
1005
12AD7E
  0
LINE
  5
12AD7F
  8
OBJECT
 10
10086.0
 20
-258.99999999999909
 30
0.0
 11
10086.0
 21
-222.44994432063581
 31
0.0
1001
ACDBBLOCKREPETAG
1070
     1
1071
      129
1005
12AD7F
  0
LINE
  5
12AD80
  8
OBJECT
 10
10086.0
 20
-177.55005567935859
 30
0.0
 11
10086.0
 21
-140.99999999999909
 31
0.0
1001
ACDBBLOCKREPETAG
1070
     1
1071
      130
1005
12AD80
  0
LINE
  5
12AD81
  8
HIDDEN
 10
10167.99999999998
 20
-155.49999999999909
 30
0.0
 11
10167.99999999998
 21
-244.49999999999909
 31
0.0
1001
ACDBBLOCKREPETAG
1070
     1
1071
      131
1005
12AD81
  0
LINE
  5
12AD82
  8
OBJECT
 10
10159.999974964179
 20
-254.4999509238105
 30
0.0
 11
10159.999974964179
 21
-145.4999509238105
 31
0.0
1001
ACDBBLOCKREPETAG
1070
     1
1071
      133
1005
12AD82
  0
ARC
  5
12AD83
  8
OBJECT
 10
10125.0
 20
-199.99999999999909
 30
0.0
 40
45.000000000000547
 50
90.0
 51
270.0
1001
ACDBBLOCKREPETAG
1070
     1
1071
      134
1005
12AD83
  0
LINE
  5
12AD84
  8
OBJECT
 10
9787.0000000000127
 20
-553.0
 30
0.0
 11
9780.0000000000127
 21
-553.0
 31
0.0
1001
ACDBBLOCKREPETAG
1070
     1
1071
      106
1005
12AD84
  0
LINE
  5
12AD85
  8
OBJECT
 10
9780.0000000000127
 20
-553.0
 30
0.0
 11
9780.0000000000127
 21
-677.0
 31
0.0
1001
ACDBBLOCKREPETAG
1070
     1
1071
      107
1005
12AD85
  0
LINE
  5
12AD86
  8
OBJECT
 10
9914.0000000000127
 20
-653.3502637757274
 30
0.0
 11
9914.0000000000127
 21
-755.00000000000102
 31
0.0
1001
ACDBBLOCKREPETAG
1070
     1
1071
      108
1005
12AD86
  0
LINE
  5
12AD87
  8
OBJECT
 10
9780.0000000000127
 20
-677.0
 30
0.0
 11
9787.0000000000127
 21
-677.0
 31
0.0
1001
ACDBBLOCKREPETAG
1070
     1
1071
      109
1005
12AD87
  0
LINE
  5
12AD88
  8
OBJECT
 10
9787.0000000000127
 20
-677.0
 30
0.0
 11
9787.0000000000127
 21
-553.0
 31
0.0
1001
ACDBBLOCKREPETAG
1070
     1
1071
      110
1005
12AD88
  0
LINE
  5
12AD89
  8
CENTER
 10
9855.0000000000182
 20
-615.0000000000008
 30
0.0
 11
9765.0000000000146
 21
-615.0
 31
0.0
1001
ACDBBLOCKREPETAG
1070
     1
1071
      111
1005
12AD89
  0
LINE
  5
12AD8A
  8
OBJECT
 10
9920.0000000000182
 20
-758.0
 30
0.0
 11
9917.0000000000146
 21
-758.0000000000008
 31
0.0
1001
ACDBBLOCKREPETAG
1070
     1
1071
      112
1005
12AD8A
  0
ARC
  5
12AD8B
  8
OBJECT
 10
9917.0000000000146
 20
-755.00000000000102
 30
0.0
 40
3.0
 50
180.0
 51
270.0
1001
ACDBBLOCKREPETAG
1070
     1
1071
      113
1005
12AD8B
  0
LINE
  5
12AD8C
  8
OBJECT
 10
9787.0000000000127
 20
-556.0
 30
0.0
 11
9823.0000000000146
 21
-556.0000000000008
 31
0.0
1001
ACDBBLOCKREPETAG
1070
     1
1071
      114
1005
12AD8C
  0
LINE
  5
12AD8D
  8
OBJECT
 10
9823.0000000000146
 20
-556.0000000000008
 30
0.0
 11
9823.0000000000146
 21
-653.15756805667843
 31
0.0
1001
ACDBBLOCKREPETAG
1070
     1
1071
      115
1005
12AD8D
  0
LINE
  5
12AD8E
  8
OBJECT
 10
9827.0000000000127
 20
-560.5000000000008
 30
0.0
 11
9827.0000000000182
 21
-645.74491827928705
 31
0.0
1001
ACDBBLOCKREPETAG
1070
     1
1071
      116
1005
12AD8E
  0
LINE
  5
12AD8F
  8
OBJECT
 10
9827.0000000000127
 20
-560.5000000000008
 30
0.0
 11
9840.0000000000146
 21
-560.5000000000008
 31
0.0
1001
ACDBBLOCKREPETAG
1070
     1
1071
      117
1005
12AD8F
  0
LINE
  5
12AD90
  8
OBJECT
 10
9831.3436831745348
 20
-674.0000000000008
 30
0.0
 11
9787.0000000000127
 21
-674.0
 31
0.0
1001
ACDBBLOCKREPETAG
1070
     1
1071
      118
1005
12AD90
  0
LINE
  5
12AD91
  8
OBJECT
 10
9823.0000000000146
 20
-556.0000000000008
 30
0.0
 11
9827.0000000000127
 21
-560.5000000000008
 31
0.0
1001
ACDBBLOCKREPETAG
1070
     1
1071
      119
1005
12AD91
  0
LINE
  5
12AD92
  8
OBJECT
 10
9840.0000000000146
 20
-560.5000000000008
 30
0.0
 11
9840.0000000000146
 21
-645.74491827928784
 31
0.0
1001
ACDBBLOCKREPETAG
1070
     1
1071
      120
1005
12AD92
  0
ARC
  5
12AD93
  8
OBJECT
 10
9908.0000000000127
 20
-637.27386365609345
 30
0.0
 40
85.0
 50
205.5991387218653
 51
231.40900676279119
1001
ACDBBLOCKREPETAG
1070
     1
1071
      121
1005
12AD93
  0
ARC
  5
12AD94
  8
OBJECT
 10
9837.2000000000171
 20
-655.00000000000068
 30
0.0
 40
85.0
 50
19.925932125430649
 51
88.112268108168848
1001
ACDBBLOCKREPETAG
1070
     1
1071
      122
1005
12AD94
  0
LINE
  5
12AD95
  8
OBJECT
 10
9914.0000000000127
 20
-750.81075719270905
 30
0.0
 11
9854.9806774563986
 21
-703.71143914629454
 31
0.0
1001
ACDBBLOCKREPETAG
1070
     1
1071
      123
1005
12AD95
  0
LINE
  5
12AD96
  8
OBJECT
 10
9827.0000000000182
 20
-645.74491827928705
 30
0.0
 11
9840.0000000000146
 21
-645.74491827928784
 31
0.0
1001
ACDBBLOCKREPETAG
1070
     1
1071
      124
1005
12AD96
  0
LINE
  5
12AD97
  8
OBJECT
 10
9823.0000000000146
 20
-653.15756805667843
 30
0.0
 11
9827.0000000000182
 21
-645.74491827928705
 31
0.0
1001
ACDBBLOCKREPETAG
1070
     1
1071
      125
1005
12AD97
  0
LINE
  5
12AD98
  8
OBJECT
 10
9919.99999999998
 20
-634.0
 30
0.0
 11
9917.1113878403758
 21
-626.03156729425325
 31
0.0
1001
ACDBBLOCKREPETAG
1070
     1
1071
      126
1005
12AD98
  0
LINE
  5
12AD99
  8
OBJECT
 10
9919.99999999998
 20
-634.0
 30
0.0
 11
9914.0000000000127
 21
-653.3502637757274
 31
0.0
1001
ACDBBLOCKREPETAG
1070
     1
1071
      127
1005
12AD99
  0
LINE
  5
12AD9A
  8
HIDDEN
 10
9832.0000000000146
 20
-570.5000000000008
 30
0.0
 11
9832.0000000000146
 21
-659.50000000000068
 31
0.0
1001
ACDBBLOCKREPETAG
1070
     1
1071
      129
1005
12AD9A
  0
CIRCLE
  5
12AD9B
  8
OBJECT
 10
10000.0
 20
-696.0
 30
0.0
 40
62.0
1001
ACDBBLOCKREPETAG
1070
     1
1071
        0
1005
12AD9B
  0
LINE
  5
12AD9C
  8
OBJECT
 10
10212.99999999998
 20
-553.0000000000008
 30
0.0
 11
10219.99999999998
 21
-553.0000000000008
 31
0.0
1001
ACDBBLOCKREPETAG
1070
     1
1071
      106
1005
12AD9C
  0
LINE
  5
12AD9D
  8
OBJECT
 10
10219.99999999998
 20
-553.0000000000008
 30
0.0
 11
10219.99999999998
 21
-677.0000000000008
 31
0.0
1001
ACDBBLOCKREPETAG
1070
     1
1071
      107
1005
12AD9D
  0
LINE
  5
12AD9E
  8
OBJECT
 10
10085.99999999998
 20
-653.3502637757274
 30
0.0
 11
10085.99999999998
 21
-755.00000000000102
 31
0.0
1001
ACDBBLOCKREPETAG
1070
     1
1071
      108
1005
12AD9E
  0
LINE
  5
12AD9F
  8
OBJECT
 10
10219.99999999998
 20
-677.0000000000008
 30
0.0
 11
10212.99999999998
 21
-677.0000000000008
 31
0.0
1001
ACDBBLOCKREPETAG
1070
     1
1071
      109
1005
12AD9F
  0
LINE
  5
12ADA0
  8
OBJECT
 10
10212.99999999998
 20
-677.0000000000008
 30
0.0
 11
10212.99999999998
 21
-553.0000000000008
 31
0.0
1001
ACDBBLOCKREPETAG
1070
     1
1071
      110
1005
12ADA0
  0
LINE
  5
12ADA1
  8
CENTER
 10
10144.99999999998
 20
-615.0000000000008
 30
0.0
 11
10234.99999999998
 21
-615.0000000000008
 31
0.0
1001
ACDBBLOCKREPETAG
1070
     1
1071
      111
1005
12ADA1
  0
LINE
  5
12ADA2
  8
OBJECT
 10
10079.99999999998
 20
-758.0
 30
0.0
 11
10082.99999999998
 21
-758.0000000000008
 31
0.0
1001
ACDBBLOCKREPETAG
1070
     1
1071
      112
1005
12ADA2
  0
ARC
  5
12ADA3
  8
OBJECT
 10
10082.99999999998
 20
-755.00000000000102
 30
0.0
 40
3.0
 50
270.0
 51
0.0
1001
ACDBBLOCKREPETAG
1070
     1
1071
      113
1005
12ADA3
  0
LINE
  5
12ADA4
  8
OBJECT
 10
10212.99999999998
 20
-556.0000000000008
 30
0.0
 11
10176.99999999998
 21
-556.0000000000008
 31
0.0
1001
ACDBBLOCKREPETAG
1070
     1
1071
      114
1005
12ADA4
  0
LINE
  5
12ADA5
  8
OBJECT
 10
10176.99999999998
 20
-556.0000000000008
 30
0.0
 11
10176.99999999998
 21
-653.15756805667843
 31
0.0
1001
ACDBBLOCKREPETAG
1070
     1
1071
      115
1005
12ADA5
  0
LINE
  5
12ADA6
  8
OBJECT
 10
10172.99999999998
 20
-560.5000000000008
 30
0.0
 11
10172.99999999998
 21
-645.74491827928705
 31
0.0
1001
ACDBBLOCKREPETAG
1070
     1
1071
      116
1005
12ADA6
  0
LINE
  5
12ADA7
  8
OBJECT
 10
10172.99999999998
 20
-560.5000000000008
 30
0.0
 11
10159.99999999998
 21
-560.5000000000008
 31
0.0
1001
ACDBBLOCKREPETAG
1070
     1
1071
      117
1005
12ADA7
  0
LINE
  5
12ADA8
  8
OBJECT
 10
10168.656316825471
 20
-674.0000000000008
 30
0.0
 11
10212.99999999998
 21
-674.0000000000008
 31
0.0
1001
ACDBBLOCKREPETAG
1070
     1
1071
      118
1005
12ADA8
  0
LINE
  5
12ADA9
  8
OBJECT
 10
10176.99999999998
 20
-556.0000000000008
 30
0.0
 11
10172.99999999998
 21
-560.5000000000008
 31
0.0
1001
ACDBBLOCKREPETAG
1070
     1
1071
      119
1005
12ADA9
  0
LINE
  5
12ADAA
  8
OBJECT
 10
10159.99999999998
 20
-560.5000000000008
 30
0.0
 11
10159.99999999998
 21
-645.74491827928784
 31
0.0
1001
ACDBBLOCKREPETAG
1070
     1
1071
      120
1005
12ADAA
  0
ARC
  5
12ADAB
  8
OBJECT
 10
10091.99999999998
 20
-637.27386365609345
 30
0.0
 40
85.0
 50
308.59099323720869
 51
334.4008612781347
1001
ACDBBLOCKREPETAG
1070
     1
1071
      121
1005
12ADAB
  0
ARC
  5
12ADAC
  8
OBJECT
 10
10162.799999999979
 20
-655.00000000000068
 30
0.0
 40
85.0
 50
91.887731891831123
 51
160.07406787456929
1001
ACDBBLOCKREPETAG
1070
     1
1071
      122
1005
12ADAC
  0
LINE
  5
12ADAD
  8
OBJECT
 10
10085.99999999998
 20
-750.81075719270905
 30
0.0
 11
10145.0193225436
 21
-703.71143914629454
 31
0.0
1001
ACDBBLOCKREPETAG
1070
     1
1071
      123
1005
12ADAD
  0
LINE
  5
12ADAE
  8
OBJECT
 10
10172.99999999998
 20
-645.74491827928705
 30
0.0
 11
10159.99999999998
 21
-645.74491827928784
 31
0.0
1001
ACDBBLOCKREPETAG
1070
     1
1071
      124
1005
12ADAE
  0
LINE
  5
12ADAF
  8
OBJECT
 10
10176.99999999998
 20
-653.15756805667843
 30
0.0
 11
10172.99999999998
 21
-645.74491827928705
 31
0.0
1001
ACDBBLOCKREPETAG
1070
     1
1071
      125
1005
12ADAF
  0
LINE
  5
12ADB0
  8
OBJECT
 10
10080.00000000002
 20
-634.0
 30
0.0
 11
10082.888612159621
 21
-626.03156729425325
 31
0.0
1001
ACDBBLOCKREPETAG
1070
     1
1071
      126
1005
12ADB0
  0
LINE
  5
12ADB1
  8
OBJECT
 10
10080.00000000002
 20
-634.0
 30
0.0
 11
10085.99999999998
 21
-653.3502637757274
 31
0.0
1001
ACDBBLOCKREPETAG
1070
     1
1071
      127
1005
12ADB1
  0
LINE
  5
12ADB2
  8
HIDDEN
 10
10167.99999999998
 20
-570.5000000000008
 30
0.0
 11
10167.99999999998
 21
-659.50000000000068
 31
0.0
1001
ACDBBLOCKREPETAG
1070
     1
1071
      129
1005
12ADB2
  0
LINE
  5
12ADB3
  8
OBJECT
 10
7923.0
 20
-570.99999999999432
 30
0.0
 11
7923.0
 21
-549.99999999999432
 31
0.0
1001
ACDBBLOCKREPETAG
1070
     1
1071
       36
1005
12ADB3
  0
LINE
  5
12ADB4
  8
OBJECT
 10
7923.0
 20
-549.99999999999432
 30
0.0
 11
8077.0
 21
-549.99999999999432
 31
0.0
1001
ACDBBLOCKREPETAG
1070
     1
1071
       37
1005
12ADB4
  0
LINE
  5
12ADB5
  8
HIDDEN
 10
7943.0
 20
-619.99999999999432
 30
0.0
 11
8057.0
 21
-619.99999999999432
 31
0.0
1001
ACDBBLOCKREPETAG
1070
     1
1071
       38
1005
12ADB5
  0
LINE
  5
12ADB6
  8
OBJECT
 10
8077.0
 20
-549.99999999999432
 30
0.0
 11
8077.0
 21
-570.99999999999432
 31
0.0
1001
ACDBBLOCKREPETAG
1070
     1
1071
       39
1005
12ADB6
  0
LINE
  5
12ADB7
  8
OBJECT
 10
8077.0
 20
-570.99999999999432
 30
0.0
 11
7923.0
 21
-570.99999999999432
 31
0.0
1001
ACDBBLOCKREPETAG
1070
     1
1071
       40
1005
12ADB7
  0
LINE
  5
12ADB8
  8
CENTER
 10
8000.0
 20
-534.99999999999432
 30
0.0
 11
8000.0
 21
-769.9999999999942
 31
0.0
1001
ACDBBLOCKREPETAG
1070
     1
1071
       41
1005
12ADB8
  0
LINE
  5
12ADB9
  8
OBJECT
 10
7928.0
 20
-570.99999999999432
 30
0.0
 11
7928.0
 21
-633.99999999999432
 31
0.0
1001
ACDBBLOCKREPETAG
1070
     1
1071
       42
1005
12ADB9
  0
LINE
  5
12ADBA
  8
OBJECT
 10
8072.0
 20
-633.99999999999432
 30
0.0
 11
8072.0
 21
-570.99999999999432
 31
0.0
1001
ACDBBLOCKREPETAG
1070
     1
1071
       43
1005
12ADBA
  0
LINE
  5
12ADBB
  8
OBJECT
 10
7920.0
 20
-757.9999999999942
 30
0.0
 11
8080.0
 21
-757.9999999999942
 31
0.0
1001
ACDBBLOCKREPETAG
1070
     1
1071
       44
1005
12ADBB
  0
LINE
  5
12ADBC
  8
OBJECT
 10
8080.0
 20
-633.99999999999432
 30
0.0
 11
7920.0
 21
-633.99999999999432
 31
0.0
1001
ACDBBLOCKREPETAG
1070
     1
1071
       45
1005
12ADBC
  0
LINE
  5
12ADBD
  8
OBJECT
 10
7920.0
 20
-757.9999999999942
 30
0.0
 11
7920.0
 21
-769.9999999999942
 31
0.0
1001
ACDBBLOCKREPETAG
1070
     1
1071
       46
1005
12ADBD
  0
LINE
  5
12ADBE
  8
OBJECT
 10
7920.0
 20
-769.9999999999942
 30
0.0
 11
8080.0
 21
-769.9999999999942
 31
0.0
1001
ACDBBLOCKREPETAG
1070
     1
1071
       47
1005
12ADBE
  0
LINE
  5
12ADBF
  8
OBJECT
 10
8080.0
 20
-769.9999999999942
 30
0.0
 11
8080.0
 21
-757.9999999999942
 31
0.0
1001
ACDBBLOCKREPETAG
1070
     1
1071
       48
1005
12ADBF
  0
ARC
  5
12ADC0
  8
OBJECT
 10
8200.6872746716726
 20
-749.40809941010195
 30
0.0
 40
170.6350503965856
 50
137.44134459184301
 51
149.91949581337221
1001
ACDBBLOCKREPETAG
1070
     1
1071
       52
1005
12ADC0
  0
ARC
  5
12ADC1
  8
OBJECT
 10
8200.6872746716726
 20
-642.59190058988645
 30
0.0
 40
170.6350503965856
 50
210.08050418662771
 51
222.55865540815699
1001
ACDBBLOCKREPETAG
1070
     1
1071
       53
1005
12ADC1
  0
ARC
  5
12ADC2
  8
OBJECT
 10
7799.3127253283265
 20
-749.40809941010195
 30
0.0
 40
170.6350503965856
 50
30.080504186787142
 51
42.558655408456282
1001
ACDBBLOCKREPETAG
1070
     1
1071
       54
1005
12ADC2
  0
ARC
  5
12ADC3
  8
OBJECT
 10
7799.3127253283265
 20
-642.59190058988645
 30
0.0
 40
170.6350503965856
 50
317.44134459154373
 51
329.9194958132129
1001
ACDBBLOCKREPETAG
1070
     1
1071
       55
1005
12ADC3
  0
POINT
  5
12ADC4
  8
DOTS
 10
8000.0
 20
-754.9999999999942
 30
0.0
1001
ACDBBLOCKREPETAG
1070
     1
1071
      184
1005
12ADC4
  0
LINE
  5
12ADC5
  8
SLIM
 10
7945.2566704260989
 20
-137.99999999999909
 30
0.0
 11
7955.9548403695781
 21
-127.30183005652231
 31
0.0
1001
GRADIENTCOLOR1ACI
1070
     5
1001
GRADIENTCOLOR2ACI
1070
     2
1001
ACAD
1010
0.0
1020
0.0
1030
0.0
1001
ACDBBLOCKREPETAG
1070
     1
1071
      428
1005
12ADC5
  0
LINE
  5
12ADC6
  8
SLIM
 10
7954.2369265471707
 20
-137.99999999999909
 30
0.0
 11
7972.7507744763334
 21
-119.4861520708364
 31
0.0
1001
GRADIENTCOLOR1ACI
1070
     5
1001
GRADIENTCOLOR2ACI
1070
     2
1001
ACAD
1010
0.0
1020
0.0
1030
0.0
1001
ACDBBLOCKREPETAG
1070
     1
1071
      429
1005
12ADC6
  0
LINE
  5
12ADC7
  8
SLIM
 10
7973.5212243124561
 20
-127.6959583557812
 30
0.0
 11
7984.8575146748608
 21
-116.359667993377
 31
0.0
1001
GRADIENTCOLOR1ACI
1070
     5
1001
GRADIENTCOLOR2ACI
1070
     2
1001
ACAD
1010
0.0
1020
0.0
1030
0.0
1001
ACDBBLOCKREPETAG
1070
     1
1071
      430
1005
12ADC7
  0
LINE
  5
12ADC8
  8
SLIM
 10
7985.8944171461262
 20
-124.30302164318159
 30
0.0
 11
7995.0533812002559
 21
-115.1440575890517
 31
0.0
1001
GRADIENTCOLOR1ACI
1070
     5
1001
GRADIENTCOLOR2ACI
1070
     2
1001
ACAD
1010
0.0
1020
0.0
1030
0.0
1001
ACDBBLOCKREPETAG
1070
     1
1071
      431
1005
12ADC8
  0
LINE
  5
12ADC9
  8
SLIM
 10
7996.077732749206
 20
-123.0999621611699
 30
0.0
 11
8000.0
 21
-119.1776949103767
 31
0.0
1001
GRADIENTCOLOR1ACI
1070
     5
1001
GRADIENTCOLOR2ACI
1070
     2
1001
ACAD
1010
0.0
1020
0.0
1030
0.0
1001
ACDBBLOCKREPETAG
1070
     1
1071
      432
1005
12ADC9
  0
LINE
  5
12ADCA
  8
SLIM
 10
8000.0
 20
-119.1776949103767
 30
0.0
 11
8004.0797313529074
 21
-115.0979635574724
 31
0.0
1001
GRADIENTCOLOR1ACI
1070
     5
1001
GRADIENTCOLOR2ACI
1070
     2
1001
ACAD
1010
0.0
1020
0.0
1030
0.0
1001
ACDBBLOCKREPETAG
1070
     1
1071
      433
1005
12ADCA
  0
LINE
  5
12ADCB
  8
SLIM
 10
8004.9957202542737
 20
-123.1622307771683
 30
0.0
 11
8012.2679784105749
 21
-115.88997262087101
 31
0.0
1001
GRADIENTCOLOR1ACI
1070
     5
1001
GRADIENTCOLOR2ACI
1070
     2
1001
ACAD
1010
0.0
1020
0.0
1030
0.0
1001
ACDBBLOCKREPETAG
1070
     1
1071
      434
1005
12ADCB
  0
LINE
  5
12ADCC
  8
SLIM
 10
8013.028059366964
 20
-124.1101477855505
 30
0.0
 11
8019.7999414573624
 21
-117.3382656951526
 31
0.0
1001
GRADIENTCOLOR1ACI
1070
     5
1001
GRADIENTCOLOR2ACI
1070
     2
1001
ACAD
1010
0.0
1020
0.0
1030
0.0
1001
ACDBBLOCKREPETAG
1070
     1
1071
      435
1005
12ADCC
  0
LINE
  5
12ADCD
  8
SLIM
 10
8020.3740813142458
 20
-125.7443819593383
 30
0.0
 11
8026.7872038672767
 21
-119.3312594063044
 31
0.0
1001
GRADIENTCOLOR1ACI
1070
     5
1001
GRADIENTCOLOR2ACI
1070
     2
1001
ACAD
1010
0.0
1020
0.0
1030
0.0
1001
ACDBBLOCKREPETAG
1070
     1
1071
      436
1005
12ADCD
  0
LINE
  5
12ADCE
  8
SLIM
 10
8027.1524719988738
 20
-127.946247395778
 30
0.0
 11
8033.3030030760328
 21
-121.7957163186195
 31
0.0
1001
GRADIENTCOLOR1ACI
1070
     5
1001
GRADIENTCOLOR2ACI
1070
     2
1001
ACAD
1010
0.0
1020
0.0
1030
0.0
1001
ACDBBLOCKREPETAG
1070
     1
1071
      437
1005
12ADCE
  0
LINE
  5
12ADCF
  8
SLIM
 10
8033.4390986513308
 20
-130.63987686439191
 30
0.0
 11
8039.3973119843777
 21
-124.6816635313439
 31
0.0
1001
GRADIENTCOLOR1ACI
1070
     5
1001
GRADIENTCOLOR2ACI
1070
     2
1001
ACAD
1010
0.0
1020
0.0
1030
0.0
1001
ACDBBLOCKREPETAG
1070
     1
1071
      438
1005
12ADCF
  0
LINE
  5
12ADD0
  8
SLIM
 10
8039.2842246217979
 20
-133.77500701499321
 30
0.0
 11
8045.1047705343699
 21
-127.95446110242381
 31
0.0
1001
GRADIENTCOLOR1ACI
1070
     5
1001
GRADIENTCOLOR2ACI
1070
     2
1001
ACAD
1010
0.0
1020
0.0
1030
0.0
1001
ACDBBLOCKREPETAG
1070
     1
1071
      439
1005
12ADD0
  0
LINE
  5
12ADD1
  8
SLIM
 10
8044.7212801698061
 20
-137.31820758805651
 30
0.0
 11
8050.449155789197
 21
-131.59033196866449
 31
0.0
1001
GRADIENTCOLOR1ACI
1070
     5
1001
GRADIENTCOLOR2ACI
1070
     2
1001
ACAD
1010
0.0
1020
0.0
1030
0.0
1001
ACDBBLOCKREPETAG
1070
     1
1071
      440
1005
12ADD1
  0
LINE
  5
12ADD2
  8
SLIM
 10
8053.0197438789319
 20
-137.99999999999909
 30
0.0
 11
8055.4459941864034
 21
-135.57374969252561
 31
0.0
1001
GRADIENTCOLOR1ACI
1070
     5
1001
GRADIENTCOLOR2ACI
1070
     2
1001
ACAD
1010
0.0
1020
0.0
1030
0.0
1001
ACDBBLOCKREPETAG
1070
     1
1071
      441
1005
12ADD2
  0
LINE
  5
12ADD3
  8
CENTER
 10
8000.0
 20
-279.99999999999909
 30
0.0
 11
8000.0
 21
-99.999999999999091
 31
0.0
1001
ACDBBLOCKREPETAG
1070
     1
1071
      160
1005
12ADD3
  0
CIRCLE
  5
12ADD4
  8
OBJECT
 10
8000.0
 20
-199.99999999999909
 30
0.0
 40
70.0
1001
ACDBBLOCKREPETAG
1070
     1
1071
      161
1005
12ADD4
  0
CIRCLE
  5
12ADD5
  8
OBJECT
 10
8000.0
 20
-199.99999999999909
 30
0.0
 40
77.0
1001
ACDBBLOCKREPETAG
1070
     1
1071
      162
1005
12ADD5
  0
LINE
  5
12ADD6
  8
OBJECT
 10
8045.6618002273271
 20
-137.99999999999909
 30
0.0
 11
8080.0
 21
-137.99999999999909
 31
0.0
1001
ACDBBLOCKREPETAG
1070
     1
1071
      164
1005
12ADD6
  0
LINE
  5
12ADD7
  8
OBJECT
 10
8062.0
 20
-261.99999999999909
 30
0.0
 11
8080.0
 21
-261.99999999999909
 31
0.0
1001
ACDBBLOCKREPETAG
1070
     1
1071
      165
1005
12ADD7
  0
LINE
  5
12ADD8
  8
OBJECT
 10
8062.0
 20
-261.99999999999909
 30
0.0
 11
8062.0
 21
-279.99999999999909
 31
0.0
1001
ACDBBLOCKREPETAG
1070
     1
1071
      167
1005
12ADD8
  0
LINE
  5
12ADD9
  8
OBJECT
 10
7938.0
 20
-261.99999999999909
 30
0.0
 11
7938.0
 21
-279.99999999999909
 31
0.0
1001
ACDBBLOCKREPETAG
1070
     1
1071
      168
1005
12ADD9
  0
LINE
  5
12ADDA
  8
OBJECT
 10
7938.0
 20
-261.99999999999909
 30
0.0
 11
7920.0
 21
-261.99999999999909
 31
0.0
1001
ACDBBLOCKREPETAG
1070
     1
1071
      170
1005
12ADDA
  0
LINE
  5
12ADDB
  8
OBJECT
 10
7954.3381997726747
 20
-137.99999999999909
 30
0.0
 11
7920.0
 21
-137.99999999999909
 31
0.0
1001
ACDBBLOCKREPETAG
1070
     1
1071
      171
1005
12ADDB
  0
LINE
  5
12ADDC
  8
OBJECT
 10
7945.5527778486357
 20
-254.44722215136329
 30
0.0
 11
7938.0
 21
-261.99999999999909
 31
0.0
1001
ACDBBLOCKREPETAG
1070
     1
1071
      180
1005
12ADDC
  0
LINE
  5
12ADDD
  8
OBJECT
 10
8054.4472221513652
 20
-254.44722215136329
 30
0.0
 11
8062.0
 21
-261.99999999999909
 31
0.0
1001
ACDBBLOCKREPETAG
1070
     1
1071
      181
1005
12ADDD
  0
ARC
  5
12ADDE
  8
OBJECT
 10
8000.0
 20
-199.99999999999909
 30
0.0
 40
85.0
 50
46.837102859806208
 51
133.16289714019371
1001
ACDBBLOCKREPETAG
1070
     1
1071
      183
1005
12ADDE
  0
LINE
  5
12ADDF
  8
OBJECT
 10
8024.1029330933006
 20
-243.80694712371681
 30
0.0
 11
8020.6596569999974
 21
-232.55462199999889
 31
0.0
1001
ACDBBLOCKREPETAG
1070
     1
1071
      314
1005
12ADDF
  0
LINE
  5
12ADE0
  8
OBJECT
 10
7986.7927499013749
 20
-218.22553374208019
 30
0.0
 11
8020.6596569999974
 21
-232.5546219999969
 31
0.0
1001
ACDBBLOCKREPETAG
1070
     1
1071
      316
1005
12ADE0
  0
ARC
  5
12ADE1
  8
OBJECT
 10
7982.8961697618997
 20
-227.4351299990567
 30
0.0
 40
10.0
 50
67.066778292911366
 51
154.0147343702935
1001
ACDBBLOCKREPETAG
1070
     1
1071
      317
1005
12ADE1
  0
ARC
  5
12ADE2
  8
OBJECT
 10
7986.1488390381273
 20
-225.55386256729159
 30
0.0
 40
7.0
 50
67.066778292911366
 51
154.0147337749826
1001
ACDBBLOCKREPETAG
1070
     1
1071
      318
1005
12ADE2
  0
LINE
  5
12ADE3
  8
OBJECT
 10
7969.4199755553009
 20
-243.89888500818171
 30
0.0
 11
7979.8564918232369
 21
-222.48688253356801
 31
0.0
1001
ACDBBLOCKREPETAG
1070
     1
1071
      349
1005
12ADE3
  0
LINE
  5
12ADE4
  8
OBJECT
 10
7965.2972169006098
 20
-240.71813901882729
 30
0.0
 11
7973.9071022665084
 21
-223.05373004430751
 31
0.0
1001
ACDBBLOCKREPETAG
1070
     1
1071
      350
1005
12ADE4
  0
ARC
  5
12ADE5
  8
OBJECT
 10
7976.5796953073141
 20
-207.1289369828437
 30
0.0
 40
60.031113246032611
 50
314.07020130418567
 51
322.33936106089681
1001
ACDBBLOCKREPETAG
1070
     1
1071
      351
1005
12ADE5
  0
CIRCLE
  5
12ADE6
  8
OBJECT
 10
8000.0
 20
-199.99999999999909
 30
0.0
 40
53.5
1001
ACDBBLOCKREPETAG
1070
     1
1071
      352
1005
12ADE6
  0
POINT
  5
12ADE7
  8
DOTS
 10
8000.0
 20
-199.99999999999909
 30
0.0
 50
270.0
1001
ACDBBLOCKREPETAG
1070
     1
1071
      364
1005
12ADE7
  0
ARC
  5
12ADE8
  8
OBJECT
 10
8000.0
 20
-199.99999999999909
 30
0.0
 40
50.0
 50
298.81994300000417
 51
228.5237695596397
1001
ACDBBLOCKREPETAG
1070
     1
1071
      157
1005
12ADE8
  0
LINE
  5
12ADE9
  8
CENTER
 10
8080.0
 20
-199.99999999999909
 30
0.0
 11
7920.0
 21
-199.99999999999909
 31
0.0
1001
ACDBBLOCKREPETAG
1070
     1
1071
      158
1005
12ADE9
  0
LINE
  5
12ADEA
  8
OBJECT
 10
7787.0000000000191
 20
-137.99999999999909
 30
0.0
 11
7780.0000000000182
 21
-137.99999999999909
 31
0.0
1001
ACDBBLOCKREPETAG
1070
     1
1071
      110
1005
12ADEA
  0
LINE
  5
12ADEB
  8
OBJECT
 10
7780.0000000000182
 20
-137.99999999999909
 30
0.0
 11
7780.0000000000182
 21
-261.99999999999909
 31
0.0
1001
ACDBBLOCKREPETAG
1070
     1
1071
      111
1005
12ADEB
  0
LINE
  5
12ADEC
  8
OBJECT
 10
7780.0000000000182
 20
-261.99999999999909
 30
0.0
 11
7787.0000000000191
 21
-261.99999999999909
 31
0.0
1001
ACDBBLOCKREPETAG
1070
     1
1071
      112
1005
12ADEC
  0
LINE
  5
12ADED
  8
OBJECT
 10
7787.0000000000191
 20
-261.99999999999909
 30
0.0
 11
7787.0000000000191
 21
-137.99999999999909
 31
0.0
1001
ACDBBLOCKREPETAG
1070
     1
1071
      113
1005
12ADED
  0
LINE
  5
12ADEE
  8
CENTER
 10
7765.0000000000191
 20
-199.99999999999909
 30
0.0
 11
7920.0
 21
-199.99999999999909
 31
0.0
1001
ACDBBLOCKREPETAG
1070
     1
1071
      114
1005
12ADEE
  0
LINE
  5
12ADEF
  8
OBJECT
 10
7840.0000250358171
 20
-245.0000000000027
 30
0.0
 11
7914.0000000000027
 21
-244.99999999999909
 31
0.0
1001
ACDBBLOCKREPETAG
1070
     1
1071
      115
1005
12ADEF
  0
LINE
  5
12ADF0
  8
OBJECT
 10
7840.0000250358171
 20
-154.99999999999909
 30
0.0
 11
7914.0000000000027
 21
-154.99999999999909
 31
0.0
1001
ACDBBLOCKREPETAG
1070
     1
1071
      116
1005
12ADF0
  0
LINE
  5
12ADF1
  8
OBJECT
 10
7787.0000000000191
 20
-140.99999999999909
 30
0.0
 11
7823.0000000000191
 21
-140.99999999999909
 31
0.0
1001
ACDBBLOCKREPETAG
1070
     1
1071
      117
1005
12ADF1
  0
LINE
  5
12ADF2
  8
OBJECT
 10
7823.0000000000191
 20
-140.99999999999909
 30
0.0
 11
7823.0000000000191
 21
-258.99999999999909
 31
0.0
1001
ACDBBLOCKREPETAG
1070
     1
1071
      118
1005
12ADF2
  0
LINE
  5
12ADF3
  8
OBJECT
 10
7823.0000000000191
 20
-258.99999999999909
 30
0.0
 11
7787.0000000000191
 21
-258.99999999999909
 31
0.0
1001
ACDBBLOCKREPETAG
1070
     1
1071
      119
1005
12ADF3
  0
LINE
  5
12ADF4
  8
OBJECT
 10
7827.0000000000182
 20
-145.49999999999909
 30
0.0
 11
7840.0000000000191
 21
-145.49999999999909
 31
0.0
1001
ACDBBLOCKREPETAG
1070
     1
1071
      120
1005
12ADF4
  0
LINE
  5
12ADF5
  8
OBJECT
 10
7840.0000000000191
 20
-254.49999999999909
 30
0.0
 11
7827.0000000000182
 21
-254.49999999999909
 31
0.0
1001
ACDBBLOCKREPETAG
1070
     1
1071
      121
1005
12ADF5
  0
LINE
  5
12ADF6
  8
OBJECT
 10
7827.0000000000182
 20
-254.49999999999909
 30
0.0
 11
7827.0000000000182
 21
-145.49999999999909
 31
0.0
1001
ACDBBLOCKREPETAG
1070
     1
1071
      122
1005
12ADF6
  0
LINE
  5
12ADF7
  8
OBJECT
 10
7823.0000000000191
 20
-140.99999999999909
 30
0.0
 11
7827.0000000000182
 21
-145.49999999999909
 31
0.0
1001
ACDBBLOCKREPETAG
1070
     1
1071
      123
1005
12ADF7
  0
LINE
  5
12ADF8
  8
OBJECT
 10
7823.0000000000191
 20
-258.99999999999909
 30
0.0
 11
7827.0000000000182
 21
-254.49999999999909
 31
0.0
1001
ACDBBLOCKREPETAG
1070
     1
1071
      124
1005
12ADF8
  0
LINE
  5
12ADF9
  8
OBJECT
 10
7917.0000000000027
 20
-137.99999999999909
 30
0.0
 11
7920.0000000000027
 21
-137.99999999999909
 31
0.0
1001
ACDBBLOCKREPETAG
1070
     1
1071
      125
1005
12ADF9
  0
ARC
  5
12ADFA
  8
OBJECT
 10
7917.0000000000027
 20
-140.99999999999909
 30
0.0
 40
3.0
 50
90.0
 51
180.0
1001
ACDBBLOCKREPETAG
1070
     1
1071
      126
1005
12ADFA
  0
LINE
  5
12ADFB
  8
OBJECT
 10
7920.0000000000027
 20
-261.99999999999909
 30
0.0
 11
7917.0000000000027
 21
-261.99999999999909
 31
0.0
1001
ACDBBLOCKREPETAG
1070
     1
1071
      127
1005
12ADFB
  0
ARC
  5
12ADFC
  8
OBJECT
 10
7917.0000000000027
 20
-258.99999999999909
 30
0.0
 40
3.0
 50
180.0
 51
270.0
1001
ACDBBLOCKREPETAG
1070
     1
1071
      128
1005
12ADFC
  0
LINE
  5
12ADFD
  8
OBJECT
 10
7914.0000000000027
 20
-258.99999999999909
 30
0.0
 11
7914.0000000000027
 21
-222.44994432063581
 31
0.0
1001
ACDBBLOCKREPETAG
1070
     1
1071
      129
1005
12ADFD
  0
LINE
  5
12ADFE
  8
OBJECT
 10
7914.0000000000027
 20
-177.55005567935859
 30
0.0
 11
7914.0000000000027
 21
-140.99999999999909
 31
0.0
1001
ACDBBLOCKREPETAG
1070
     1
1071
      130
1005
12ADFE
  0
LINE
  5
12ADFF
  8
HIDDEN
 10
7832.0000000000182
 20
-155.49999999999909
 30
0.0
 11
7832.0000000000182
 21
-244.49999999999909
 31
0.0
1001
ACDBBLOCKREPETAG
1070
     1
1071
      131
1005
12ADFF
  0
LINE
  5
12AE00
  8
OBJECT
 10
7840.0000250358171
 20
-254.4999509238105
 30
0.0
 11
7840.0000250358171
 21
-145.4999509238105
 31
0.0
1001
ACDBBLOCKREPETAG
1070
     1
1071
      133
1005
12AE00
  0
ARC
  5
12AE01
  8
OBJECT
 10
7875.0
 20
-199.99999999999909
 30
0.0
 40
45.000000000000547
 50
270.0
 51
90.0
1001
ACDBBLOCKREPETAG
1070
     1
1071
      134
1005
12AE01
  0
LINE
  5
12AE02
  8
CENTER
 10
8000.0
 20
-300.99999999999898
 30
0.0
 11
8000.0
 21
-279.99999999999909
 31
0.0
1001
ACDBBLOCKREPETAG
1070
     1
1071
        0
1005
12AE02
  0
LINE
  5
12AE03
  8
OBJECT
 10
8062.0
 20
-283.0
 30
0.0
 11
8062.0
 21
-279.99999999999909
 31
0.0
1001
ACDBBLOCKREPETAG
1070
     1
1071
        1
1005
12AE03
  0
ARC
  5
12AE04
  8
OBJECT
 10
8059.0
 20
-283.0
 30
0.0
 40
3.0
 50
270.0
 51
0.0
1001
ACDBBLOCKREPETAG
1070
     1
1071
        2
1005
12AE04
  0
LINE
  5
12AE05
  8
OBJECT
 10
7938.0
 20
-279.99999999999909
 30
0.0
 11
7938.0
 21
-282.99999999999818
 31
0.0
1001
ACDBBLOCKREPETAG
1070
     1
1071
        3
1005
12AE05
  0
ARC
  5
12AE06
  8
OBJECT
 10
7941.0
 20
-282.99999999999818
 30
0.0
 40
3.0
 50
180.0
 51
270.0
1001
ACDBBLOCKREPETAG
1070
     1
1071
        4
1005
12AE06
  0
LINE
  5
12AE07
  8
OBJECT
 10
7941.0
 20
-285.99999999999818
 30
0.0
 11
8059.0
 21
-286.0
 31
0.0
1001
ACDBBLOCKREPETAG
1070
     1
1071
        5
1005
12AE07
  0
LINE
  5
12AE08
  8
OBJECT
 10
8212.9999999999836
 20
-137.99999999999909
 30
0.0
 11
8219.9999999999873
 21
-137.99999999999909
 31
0.0
1001
ACDBBLOCKREPETAG
1070
     1
1071
      110
1005
12AE08
  0
LINE
  5
12AE09
  8
OBJECT
 10
8219.9999999999873
 20
-137.99999999999909
 30
0.0
 11
8219.9999999999873
 21
-261.99999999999909
 31
0.0
1001
ACDBBLOCKREPETAG
1070
     1
1071
      111
1005
12AE09
  0
LINE
  5
12AE0A
  8
OBJECT
 10
8219.9999999999873
 20
-261.99999999999909
 30
0.0
 11
8212.9999999999836
 21
-261.99999999999909
 31
0.0
1001
ACDBBLOCKREPETAG
1070
     1
1071
      112
1005
12AE0A
  0
LINE
  5
12AE0B
  8
OBJECT
 10
8212.9999999999836
 20
-261.99999999999909
 30
0.0
 11
8212.9999999999836
 21
-137.99999999999909
 31
0.0
1001
ACDBBLOCKREPETAG
1070
     1
1071
      113
1005
12AE0B
  0
LINE
  5
12AE0C
  8
CENTER
 10
8234.9999999999873
 20
-199.99999999999909
 30
0.0
 11
8080.0000000000027
 21
-199.99999999999909
 31
0.0
1001
ACDBBLOCKREPETAG
1070
     1
1071
      114
1005
12AE0C
  0
LINE
  5
12AE0D
  8
OBJECT
 10
8159.9999749641838
 20
-245.0000000000027
 30
0.0
 11
8086.0
 21
-244.99999999999909
 31
0.0
1001
ACDBBLOCKREPETAG
1070
     1
1071
      115
1005
12AE0D
  0
LINE
  5
12AE0E
  8
OBJECT
 10
8159.9999749641838
 20
-154.99999999999909
 30
0.0
 11
8086.0
 21
-154.99999999999909
 31
0.0
1001
ACDBBLOCKREPETAG
1070
     1
1071
      116
1005
12AE0E
  0
LINE
  5
12AE0F
  8
OBJECT
 10
8212.9999999999836
 20
-140.99999999999909
 30
0.0
 11
8176.9999999999873
 21
-140.99999999999909
 31
0.0
1001
ACDBBLOCKREPETAG
1070
     1
1071
      117
1005
12AE0F
  0
LINE
  5
12AE10
  8
OBJECT
 10
8176.9999999999873
 20
-140.99999999999909
 30
0.0
 11
8176.9999999999873
 21
-258.99999999999909
 31
0.0
1001
ACDBBLOCKREPETAG
1070
     1
1071
      118
1005
12AE10
  0
LINE
  5
12AE11
  8
OBJECT
 10
8176.9999999999873
 20
-258.99999999999909
 30
0.0
 11
8212.9999999999836
 21
-258.99999999999909
 31
0.0
1001
ACDBBLOCKREPETAG
1070
     1
1071
      119
1005
12AE11
  0
LINE
  5
12AE12
  8
OBJECT
 10
8172.9999999999854
 20
-145.49999999999909
 30
0.0
 11
8159.9999999999873
 21
-145.49999999999909
 31
0.0
1001
ACDBBLOCKREPETAG
1070
     1
1071
      120
1005
12AE12
  0
LINE
  5
12AE13
  8
OBJECT
 10
8159.9999999999873
 20
-254.49999999999909
 30
0.0
 11
8172.9999999999854
 21
-254.49999999999909
 31
0.0
1001
ACDBBLOCKREPETAG
1070
     1
1071
      121
1005
12AE13
  0
LINE
  5
12AE14
  8
OBJECT
 10
8172.9999999999854
 20
-254.49999999999909
 30
0.0
 11
8172.9999999999854
 21
-145.49999999999909
 31
0.0
1001
ACDBBLOCKREPETAG
1070
     1
1071
      122
1005
12AE14
  0
LINE
  5
12AE15
  8
OBJECT
 10
8176.9999999999873
 20
-140.99999999999909
 30
0.0
 11
8172.9999999999854
 21
-145.49999999999909
 31
0.0
1001
ACDBBLOCKREPETAG
1070
     1
1071
      123
1005
12AE15
  0
LINE
  5
12AE16
  8
OBJECT
 10
8176.9999999999873
 20
-258.99999999999909
 30
0.0
 11
8172.9999999999854
 21
-254.49999999999909
 31
0.0
1001
ACDBBLOCKREPETAG
1070
     1
1071
      124
1005
12AE16
  0
LINE
  5
12AE17
  8
OBJECT
 10
8083.0
 20
-137.99999999999909
 30
0.0
 11
8080.0
 21
-137.99999999999909
 31
0.0
1001
ACDBBLOCKREPETAG
1070
     1
1071
      125
1005
12AE17
  0
ARC
  5
12AE18
  8
OBJECT
 10
8083.0
 20
-140.99999999999909
 30
0.0
 40
3.0
 50
0.0
 51
90.0
1001
ACDBBLOCKREPETAG
1070
     1
1071
      126
1005
12AE18
  0
LINE
  5
12AE19
  8
OBJECT
 10
8080.0
 20
-261.99999999999909
 30
0.0
 11
8083.0
 21
-261.99999999999909
 31
0.0
1001
ACDBBLOCKREPETAG
1070
     1
1071
      127
1005
12AE19
  0
ARC
  5
12AE1A
  8
OBJECT
 10
8083.0
 20
-258.99999999999909
 30
0.0
 40
3.0
 50
270.0
 51
0.0
1001
ACDBBLOCKREPETAG
1070
     1
1071
      128
1005
12AE1A
  0
LINE
  5
12AE1B
  8
OBJECT
 10
8086.0
 20
-258.99999999999909
 30
0.0
 11
8086.0
 21
-222.44994432063581
 31
0.0
1001
ACDBBLOCKREPETAG
1070
     1
1071
      129
1005
12AE1B
  0
LINE
  5
12AE1C
  8
OBJECT
 10
8086.0
 20
-177.55005567935859
 30
0.0
 11
8086.0
 21
-140.99999999999909
 31
0.0
1001
ACDBBLOCKREPETAG
1070
     1
1071
      130
1005
12AE1C
  0
LINE
  5
12AE1D
  8
HIDDEN
 10
8167.9999999999864
 20
-155.49999999999909
 30
0.0
 11
8167.9999999999864
 21
-244.49999999999909
 31
0.0
1001
ACDBBLOCKREPETAG
1070
     1
1071
      131
1005
12AE1D
  0
LINE
  5
12AE1E
  8
OBJECT
 10
8159.9999749641838
 20
-254.4999509238105
 30
0.0
 11
8159.9999749641838
 21
-145.4999509238105
 31
0.0
1001
ACDBBLOCKREPETAG
1070
     1
1071
      133
1005
12AE1E
  0
ARC
  5
12AE1F
  8
OBJECT
 10
8125.0000000000027
 20
-199.99999999999909
 30
0.0
 40
45.000000000000547
 50
90.0
 51
270.0
1001
ACDBBLOCKREPETAG
1070
     1
1071
      134
1005
12AE1F
  0
LINE
  5
12AE20
  8
OBJECT
 10
7787.0000000000127
 20
-553.0
 30
0.0
 11
7780.0000000000136
 21
-553.0
 31
0.0
1001
ACDBBLOCKREPETAG
1070
     1
1071
      106
1005
12AE20
  0
LINE
  5
12AE21
  8
OBJECT
 10
7780.0000000000136
 20
-553.0
 30
0.0
 11
7780.0000000000136
 21
-677.0
 31
0.0
1001
ACDBBLOCKREPETAG
1070
     1
1071
      107
1005
12AE21
  0
LINE
  5
12AE22
  8
OBJECT
 10
7914.0000000000136
 20
-653.3502637757274
 30
0.0
 11
7914.0000000000136
 21
-755.00000000000102
 31
0.0
1001
ACDBBLOCKREPETAG
1070
     1
1071
      108
1005
12AE22
  0
LINE
  5
12AE23
  8
OBJECT
 10
7780.0000000000136
 20
-677.0
 30
0.0
 11
7787.0000000000127
 21
-677.0
 31
0.0
1001
ACDBBLOCKREPETAG
1070
     1
1071
      109
1005
12AE23
  0
LINE
  5
12AE24
  8
OBJECT
 10
7787.0000000000127
 20
-677.0
 30
0.0
 11
7787.0000000000127
 21
-553.0
 31
0.0
1001
ACDBBLOCKREPETAG
1070
     1
1071
      110
1005
12AE24
  0
LINE
  5
12AE25
  8
CENTER
 10
7855.0000000000136
 20
-615.0000000000008
 30
0.0
 11
7765.0000000000127
 21
-615.0
 31
0.0
1001
ACDBBLOCKREPETAG
1070
     1
1071
      111
1005
12AE25
  0
LINE
  5
12AE26
  8
OBJECT
 10
7920.0000000000191
 20
-758.0
 30
0.0
 11
7917.0000000000136
 21
-758.0000000000008
 31
0.0
1001
ACDBBLOCKREPETAG
1070
     1
1071
      112
1005
12AE26
  0
ARC
  5
12AE27
  8
OBJECT
 10
7917.0000000000136
 20
-755.00000000000102
 30
0.0
 40
3.0
 50
180.0
 51
270.0
1001
ACDBBLOCKREPETAG
1070
     1
1071
      113
1005
12AE27
  0
LINE
  5
12AE28
  8
OBJECT
 10
7787.0000000000127
 20
-556.0
 30
0.0
 11
7823.0000000000127
 21
-556.0000000000008
 31
0.0
1001
ACDBBLOCKREPETAG
1070
     1
1071
      114
1005
12AE28
  0
LINE
  5
12AE29
  8
OBJECT
 10
7823.0000000000127
 20
-556.0000000000008
 30
0.0
 11
7823.0000000000127
 21
-653.15756805667843
 31
0.0
1001
ACDBBLOCKREPETAG
1070
     1
1071
      115
1005
12AE29
  0
LINE
  5
12AE2A
  8
OBJECT
 10
7827.0000000000136
 20
-560.5000000000008
 30
0.0
 11
7827.0000000000182
 21
-645.74491827928705
 31
0.0
1001
ACDBBLOCKREPETAG
1070
     1
1071
      116
1005
12AE2A
  0
LINE
  5
12AE2B
  8
OBJECT
 10
7827.0000000000136
 20
-560.5000000000008
 30
0.0
 11
7840.0000000000136
 21
-560.5000000000008
 31
0.0
1001
ACDBBLOCKREPETAG
1070
     1
1071
      117
1005
12AE2B
  0
LINE
  5
12AE2C
  8
OBJECT
 10
7831.3436831745303
 20
-674.0000000000008
 30
0.0
 11
7787.0000000000127
 21
-674.0
 31
0.0
1001
ACDBBLOCKREPETAG
1070
     1
1071
      118
1005
12AE2C
  0
LINE
  5
12AE2D
  8
OBJECT
 10
7823.0000000000127
 20
-556.0000000000008
 30
0.0
 11
7827.0000000000136
 21
-560.5000000000008
 31
0.0
1001
ACDBBLOCKREPETAG
1070
     1
1071
      119
1005
12AE2D
  0
LINE
  5
12AE2E
  8
OBJECT
 10
7840.0000000000136
 20
-560.5000000000008
 30
0.0
 11
7840.0000000000136
 21
-645.74491827928784
 31
0.0
1001
ACDBBLOCKREPETAG
1070
     1
1071
      120
1005
12AE2E
  0
ARC
  5
12AE2F
  8
OBJECT
 10
7908.0000000000136
 20
-637.27386365609345
 30
0.0
 40
85.0
 50
205.5991387218879
 51
231.40900676279119
1001
ACDBBLOCKREPETAG
1070
     1
1071
      121
1005
12AE2F
  0
ARC
  5
12AE30
  8
OBJECT
 10
7837.2000000000171
 20
-655.00000000000068
 30
0.0
 40
85.0
 50
19.925932125430649
 51
88.112268108168848
1001
ACDBBLOCKREPETAG
1070
     1
1071
      122
1005
12AE30
  0
LINE
  5
12AE31
  8
OBJECT
 10
7914.0000000000136
 20
-750.81075719270905
 30
0.0
 11
7854.9806774563967
 21
-703.71143914629454
 31
0.0
1001
ACDBBLOCKREPETAG
1070
     1
1071
      123
1005
12AE31
  0
LINE
  5
12AE32
  8
OBJECT
 10
7827.0000000000182
 20
-645.74491827928705
 30
0.0
 11
7840.0000000000136
 21
-645.74491827928784
 31
0.0
1001
ACDBBLOCKREPETAG
1070
     1
1071
      124
1005
12AE32
  0
LINE
  5
12AE33
  8
OBJECT
 10
7823.0000000000127
 20
-653.15756805667843
 30
0.0
 11
7827.0000000000182
 21
-645.74491827928705
 31
0.0
1001
ACDBBLOCKREPETAG
1070
     1
1071
      125
1005
12AE33
  0
LINE
  5
12AE34
  8
OBJECT
 10
7919.99999999998
 20
-634.0
 30
0.0
 11
7917.1113878403758
 21
-626.03156729425325
 31
0.0
1001
ACDBBLOCKREPETAG
1070
     1
1071
      126
1005
12AE34
  0
LINE
  5
12AE35
  8
OBJECT
 10
7919.99999999998
 20
-634.0
 30
0.0
 11
7914.0000000000136
 21
-653.3502637757274
 31
0.0
1001
ACDBBLOCKREPETAG
1070
     1
1071
      127
1005
12AE35
  0
LINE
  5
12AE36
  8
HIDDEN
 10
7832.0000000000136
 20
-570.5000000000008
 30
0.0
 11
7832.0000000000136
 21
-659.50000000000068
 31
0.0
1001
ACDBBLOCKREPETAG
1070
     1
1071
      129
1005
12AE36
  0
CIRCLE
  5
12AE37
  8
OBJECT
 10
8000.0
 20
-696.0
 30
0.0
 40
62.0
1001
ACDBBLOCKREPETAG
1070
     1
1071
        0
1005
12AE37
  0
LINE
  5
12AE38
  8
OBJECT
 10
8212.9999999999836
 20
-553.0000000000008
 30
0.0
 11
8219.9999999999873
 21
-553.0000000000008
 31
0.0
1001
ACDBBLOCKREPETAG
1070
     1
1071
      106
1005
12AE38
  0
LINE
  5
12AE39
  8
OBJECT
 10
8219.9999999999873
 20
-553.0000000000008
 30
0.0
 11
8219.9999999999873
 21
-677.0000000000008
 31
0.0
1001
ACDBBLOCKREPETAG
1070
     1
1071
      107
1005
12AE39
  0
LINE
  5
12AE3A
  8
OBJECT
 10
8085.9999999999873
 20
-653.3502637757274
 30
0.0
 11
8085.9999999999873
 21
-755.00000000000102
 31
0.0
1001
ACDBBLOCKREPETAG
1070
     1
1071
      108
1005
12AE3A
  0
LINE
  5
12AE3B
  8
OBJECT
 10
8219.9999999999873
 20
-677.0000000000008
 30
0.0
 11
8212.9999999999836
 21
-677.0000000000008
 31
0.0
1001
ACDBBLOCKREPETAG
1070
     1
1071
      109
1005
12AE3B
  0
LINE
  5
12AE3C
  8
OBJECT
 10
8212.9999999999836
 20
-677.0000000000008
 30
0.0
 11
8212.9999999999836
 21
-553.0000000000008
 31
0.0
1001
ACDBBLOCKREPETAG
1070
     1
1071
      110
1005
12AE3C
  0
LINE
  5
12AE3D
  8
CENTER
 10
8144.9999999999873
 20
-615.0000000000008
 30
0.0
 11
8234.9999999999873
 21
-615.0000000000008
 31
0.0
1001
ACDBBLOCKREPETAG
1070
     1
1071
      111
1005
12AE3D
  0
LINE
  5
12AE3E
  8
OBJECT
 10
8079.9999999999818
 20
-758.0
 30
0.0
 11
8082.9999999999873
 21
-758.0000000000008
 31
0.0
1001
ACDBBLOCKREPETAG
1070
     1
1071
      112
1005
12AE3E
  0
ARC
  5
12AE3F
  8
OBJECT
 10
8082.9999999999873
 20
-755.00000000000102
 30
0.0
 40
3.0
 50
270.0
 51
0.0
1001
ACDBBLOCKREPETAG
1070
     1
1071
      113
1005
12AE3F
  0
LINE
  5
12AE40
  8
OBJECT
 10
8212.9999999999836
 20
-556.0000000000008
 30
0.0
 11
8176.9999999999873
 21
-556.0000000000008
 31
0.0
1001
ACDBBLOCKREPETAG
1070
     1
1071
      114
1005
12AE40
  0
LINE
  5
12AE41
  8
OBJECT
 10
8176.9999999999873
 20
-556.0000000000008
 30
0.0
 11
8176.9999999999873
 21
-653.15756805667843
 31
0.0
1001
ACDBBLOCKREPETAG
1070
     1
1071
      115
1005
12AE41
  0
LINE
  5
12AE42
  8
OBJECT
 10
8172.9999999999854
 20
-560.5000000000008
 30
0.0
 11
8172.99999999998
 21
-645.74491827928705
 31
0.0
1001
ACDBBLOCKREPETAG
1070
     1
1071
      116
1005
12AE42
  0
LINE
  5
12AE43
  8
OBJECT
 10
8172.9999999999854
 20
-560.5000000000008
 30
0.0
 11
8159.9999999999873
 21
-560.5000000000008
 31
0.0
1001
ACDBBLOCKREPETAG
1070
     1
1071
      117
1005
12AE43
  0
LINE
  5
12AE44
  8
OBJECT
 10
8168.6563168254688
 20
-674.0000000000008
 30
0.0
 11
8212.9999999999836
 21
-674.0000000000008
 31
0.0
1001
ACDBBLOCKREPETAG
1070
     1
1071
      118
1005
12AE44
  0
LINE
  5
12AE45
  8
OBJECT
 10
8176.9999999999873
 20
-556.0000000000008
 30
0.0
 11
8172.9999999999854
 21
-560.5000000000008
 31
0.0
1001
ACDBBLOCKREPETAG
1070
     1
1071
      119
1005
12AE45
  0
LINE
  5
12AE46
  8
OBJECT
 10
8159.9999999999873
 20
-560.5000000000008
 30
0.0
 11
8159.9999999999873
 21
-645.74491827928784
 31
0.0
1001
ACDBBLOCKREPETAG
1070
     1
1071
      120
1005
12AE46
  0
ARC
  5
12AE47
  8
OBJECT
 10
8091.9999999999864
 20
-637.27386365609345
 30
0.0
 40
85.0
 50
308.59099323720869
 51
334.40086127811207
1001
ACDBBLOCKREPETAG
1070
     1
1071
      121
1005
12AE47
  0
ARC
  5
12AE48
  8
OBJECT
 10
8162.7999999999838
 20
-655.00000000000068
 30
0.0
 40
85.0
 50
91.887731891831123
 51
160.07406787456929
1001
ACDBBLOCKREPETAG
1070
     1
1071
      122
1005
12AE48
  0
LINE
  5
12AE49
  8
OBJECT
 10
8085.9999999999873
 20
-750.81075719270905
 30
0.0
 11
8145.0193225436024
 21
-703.71143914629454
 31
0.0
1001
ACDBBLOCKREPETAG
1070
     1
1071
      123
1005
12AE49
  0
LINE
  5
12AE4A
  8
OBJECT
 10
8172.99999999998
 20
-645.74491827928705
 30
0.0
 11
8159.9999999999873
 21
-645.74491827928784
 31
0.0
1001
ACDBBLOCKREPETAG
1070
     1
1071
      124
1005
12AE4A
  0
LINE
  5
12AE4B
  8
OBJECT
 10
8176.9999999999873
 20
-653.15756805667843
 30
0.0
 11
8172.99999999998
 21
-645.74491827928705
 31
0.0
1001
ACDBBLOCKREPETAG
1070
     1
1071
      125
1005
12AE4B
  0
LINE
  5
12AE4C
  8
OBJECT
 10
8080.0000000000173
 20
-634.0
 30
0.0
 11
8082.8886121596206
 21
-626.03156729425325
 31
0.0
1001
ACDBBLOCKREPETAG
1070
     1
1071
      126
1005
12AE4C
  0
LINE
  5
12AE4D
  8
OBJECT
 10
8080.0000000000173
 20
-634.0
 30
0.0
 11
8085.9999999999873
 21
-653.3502637757274
 31
0.0
1001
ACDBBLOCKREPETAG
1070
     1
1071
      127
1005
12AE4D
  0
LINE
  5
12AE4E
  8
HIDDEN
 10
8167.9999999999864
 20
-570.5000000000008
 30
0.0
 11
8167.9999999999864
 21
-659.50000000000068
 31
0.0
1001
ACDBBLOCKREPETAG
1070
     1
1071
      129
1005
12AE4E
  0
LINE
  5
12AE4F
  8
OBJECT
 10
5923.0
 20
-570.99999999999432
 30
0.0
 11
5923.0
 21
-549.99999999999432
 31
0.0
1001
ACDBBLOCKREPETAG
1070
     1
1071
       36
1005
12AE4F
  0
LINE
  5
12AE50
  8
OBJECT
 10
5923.0
 20
-549.99999999999432
 30
0.0
 11
6077.0
 21
-549.99999999999432
 31
0.0
1001
ACDBBLOCKREPETAG
1070
     1
1071
       37
1005
12AE50
  0
LINE
  5
12AE51
  8
HIDDEN
 10
5943.0
 20
-619.99999999999432
 30
0.0
 11
6057.0
 21
-619.99999999999432
 31
0.0
1001
ACDBBLOCKREPETAG
1070
     1
1071
       38
1005
12AE51
  0
LINE
  5
12AE52
  8
OBJECT
 10
6077.0
 20
-549.99999999999432
 30
0.0
 11
6077.0
 21
-570.99999999999432
 31
0.0
1001
ACDBBLOCKREPETAG
1070
     1
1071
       39
1005
12AE52
  0
LINE
  5
12AE53
  8
OBJECT
 10
6077.0
 20
-570.99999999999432
 30
0.0
 11
5923.0
 21
-570.99999999999432
 31
0.0
1001
ACDBBLOCKREPETAG
1070
     1
1071
       40
1005
12AE53
  0
LINE
  5
12AE54
  8
CENTER
 10
6000.0
 20
-534.99999999999432
 30
0.0
 11
6000.0
 21
-769.9999999999942
 31
0.0
1001
ACDBBLOCKREPETAG
1070
     1
1071
       41
1005
12AE54
  0
LINE
  5
12AE55
  8
OBJECT
 10
5928.0
 20
-570.99999999999432
 30
0.0
 11
5928.0
 21
-633.99999999999432
 31
0.0
1001
ACDBBLOCKREPETAG
1070
     1
1071
       42
1005
12AE55
  0
LINE
  5
12AE56
  8
OBJECT
 10
6072.0
 20
-633.99999999999432
 30
0.0
 11
6072.0
 21
-570.99999999999432
 31
0.0
1001
ACDBBLOCKREPETAG
1070
     1
1071
       43
1005
12AE56
  0
LINE
  5
12AE57
  8
OBJECT
 10
5920.0
 20
-757.9999999999942
 30
0.0
 11
6080.0
 21
-757.9999999999942
 31
0.0
1001
ACDBBLOCKREPETAG
1070
     1
1071
       44
1005
12AE57
  0
LINE
  5
12AE58
  8
OBJECT
 10
6080.0
 20
-633.99999999999432
 30
0.0
 11
5920.0
 21
-633.99999999999432
 31
0.0
1001
ACDBBLOCKREPETAG
1070
     1
1071
       45
1005
12AE58
  0
LINE
  5
12AE59
  8
OBJECT
 10
5920.0
 20
-757.9999999999942
 30
0.0
 11
5920.0
 21
-769.9999999999942
 31
0.0
1001
ACDBBLOCKREPETAG
1070
     1
1071
       46
1005
12AE59
  0
LINE
  5
12AE5A
  8
OBJECT
 10
5920.0
 20
-769.9999999999942
 30
0.0
 11
6080.0
 21
-769.9999999999942
 31
0.0
1001
ACDBBLOCKREPETAG
1070
     1
1071
       47
1005
12AE5A
  0
LINE
  5
12AE5B
  8
OBJECT
 10
6080.0
 20
-769.9999999999942
 30
0.0
 11
6080.0
 21
-757.9999999999942
 31
0.0
1001
ACDBBLOCKREPETAG
1070
     1
1071
       48
1005
12AE5B
  0
ARC
  5
12AE5C
  8
OBJECT
 10
6200.6872746716735
 20
-749.40809941010195
 30
0.0
 40
170.6350503965856
 50
137.44134459184301
 51
149.91949581337221
1001
ACDBBLOCKREPETAG
1070
     1
1071
       52
1005
12AE5C
  0
ARC
  5
12AE5D
  8
OBJECT
 10
6200.6872746716735
 20
-642.59190058988645
 30
0.0
 40
170.6350503965856
 50
210.08050418662771
 51
222.55865540815699
1001
ACDBBLOCKREPETAG
1070
     1
1071
       53
1005
12AE5D
  0
ARC
  5
12AE5E
  8
OBJECT
 10
5799.3127253283274
 20
-749.40809941010195
 30
0.0
 40
170.6350503965856
 50
30.080504186787142
 51
42.558655408456282
1001
ACDBBLOCKREPETAG
1070
     1
1071
       54
1005
12AE5E
  0
ARC
  5
12AE5F
  8
OBJECT
 10
5799.3127253283274
 20
-642.59190058988645
 30
0.0
 40
170.6350503965856
 50
317.44134459154373
 51
329.9194958132129
1001
ACDBBLOCKREPETAG
1070
     1
1071
       55
1005
12AE5F
  0
POINT
  5
12AE60
  8
DOTS
 10
6000.0
 20
-754.9999999999942
 30
0.0
1001
ACDBBLOCKREPETAG
1070
     1
1071
      184
1005
12AE60
  0
LINE
  5
12AE61
  8
OBJECT
 10
5969.4199755553018
 20
-243.89888500818171
 30
0.0
 11
5979.8564918232369
 21
-222.48688253356801
 31
0.0
1001
ACDBBLOCKREPETAG
1070
     1
1071
      305
1005
12AE61
  0
LINE
  5
12AE62
  8
OBJECT
 10
5965.2972169006089
 20
-240.71813901882729
 30
0.0
 11
5973.9071022665084
 21
-223.05373004430751
 31
0.0
1001
ACDBBLOCKREPETAG
1070
     1
1071
      306
1005
12AE62
  0
LINE
  5
12AE63
  8
OBJECT
 10
6024.1029330933034
 20
-243.80694712371681
 30
0.0
 11
6020.6596569999956
 21
-232.55462199999889
 31
0.0
1001
ACDBBLOCKREPETAG
1070
     1
1071
      307
1005
12AE63
  0
ARC
  5
12AE64
  8
OBJECT
 10
5976.5796953073141
 20
-207.1289369828437
 30
0.0
 40
60.031113246032611
 50
314.07020130418567
 51
322.33936106089681
1001
ACDBBLOCKREPETAG
1070
     1
1071
      308
1005
12AE64
  0
LINE
  5
12AE65
  8
OBJECT
 10
5986.7927499013749
 20
-218.22553374208019
 30
0.0
 11
6020.6596569999956
 21
-232.5546219999969
 31
0.0
1001
ACDBBLOCKREPETAG
1070
     1
1071
      309
1005
12AE65
  0
ARC
  5
12AE66
  8
OBJECT
 10
5982.8961697618997
 20
-227.4351299990567
 30
0.0
 40
10.0
 50
67.066778292911366
 51
154.0147343702935
1001
ACDBBLOCKREPETAG
1070
     1
1071
      310
1005
12AE66
  0
ARC
  5
12AE67
  8
OBJECT
 10
5986.1488390381273
 20
-225.55386256729159
 30
0.0
 40
7.0
 50
67.066778292911366
 51
154.0147337749826
1001
ACDBBLOCKREPETAG
1070
     1
1071
      311
1005
12AE67
  0
CIRCLE
  5
12AE68
  8
OBJECT
 10
6000.0
 20
-199.99999999999909
 30
0.0
 40
53.5
1001
ACDBBLOCKREPETAG
1070
     1
1071
      340
1005
12AE68
  0
POINT
  5
12AE69
  8
DOTS
 10
6000.0
 20
-199.99999999999909
 30
0.0
 50
270.0
1001
ACDBBLOCKREPETAG
1070
     1
1071
      153
1005
12AE69
  0
ARC
  5
12AE6A
  8
OBJECT
 10
6000.0
 20
-199.99999999999909
 30
0.0
 40
50.0
 50
298.81994300000417
 51
228.52376955965491
1001
ACDBBLOCKREPETAG
1070
     1
1071
       48
1005
12AE6A
  0
LINE
  5
12AE6B
  8
CENTER
 10
6080.0
 20
-199.99999999999909
 30
0.0
 11
5920.0
 21
-199.99999999999909
 31
0.0
1001
ACDBBLOCKREPETAG
1070
     1
1071
       49
1005
12AE6B
  0
LINE
  5
12AE6C
  8
CENTER
 10
6000.0
 20
-279.99999999999909
 30
0.0
 11
6000.0
 21
-104.9999999999991
 31
0.0
1001
ACDBBLOCKREPETAG
1070
     1
1071
       50
1005
12AE6C
  0
CIRCLE
  5
12AE6D
  8
OBJECT
 10
6000.0
 20
-199.99999999999909
 30
0.0
 40
70.0
1001
ACDBBLOCKREPETAG
1070
     1
1071
       51
1005
12AE6D
  0
CIRCLE
  5
12AE6E
  8
OBJECT
 10
6000.0
 20
-199.99999999999909
 30
0.0
 40
77.0
1001
ACDBBLOCKREPETAG
1070
     1
1071
       52
1005
12AE6E
  0
ARC
  5
12AE6F
  8
OBJECT
 10
6000.0
 20
-199.99999999999909
 30
0.0
 40
80.0
 50
50.80503257388439
 51
129.1949674261156
1001
ACDBBLOCKREPETAG
1070
     1
1071
       53
1005
12AE6F
  0
LINE
  5
12AE70
  8
OBJECT
 10
6045.6618002273253
 20
-137.99999999999909
 30
0.0
 11
6080.0
 21
-137.99999999999909
 31
0.0
1001
ACDBBLOCKREPETAG
1070
     1
1071
       54
1005
12AE70
  0
LINE
  5
12AE71
  8
OBJECT
 10
6062.0
 20
-261.99999999999909
 30
0.0
 11
6080.0
 21
-261.99999999999909
 31
0.0
1001
ACDBBLOCKREPETAG
1070
     1
1071
       55
1005
12AE71
  0
LINE
  5
12AE72
  8
OBJECT
 10
6062.0
 20
-261.99999999999909
 30
0.0
 11
6062.0
 21
-279.99999999999909
 31
0.0
1001
ACDBBLOCKREPETAG
1070
     1
1071
       57
1005
12AE72
  0
LINE
  5
12AE73
  8
OBJECT
 10
5938.0
 20
-261.99999999999909
 30
0.0
 11
5938.0
 21
-279.99999999999909
 31
0.0
1001
ACDBBLOCKREPETAG
1070
     1
1071
       58
1005
12AE73
  0
LINE
  5
12AE74
  8
OBJECT
 10
5938.0
 20
-261.99999999999909
 30
0.0
 11
5920.0
 21
-261.99999999999909
 31
0.0
1001
ACDBBLOCKREPETAG
1070
     1
1071
       60
1005
12AE74
  0
LINE
  5
12AE75
  8
OBJECT
 10
5954.3381997726738
 20
-137.99999999999909
 30
0.0
 11
5920.0
 21
-137.99999999999909
 31
0.0
1001
ACDBBLOCKREPETAG
1070
     1
1071
       61
1005
12AE75
  0
LINE
  5
12AE76
  8
OBJECT
 10
5945.5527778486367
 20
-254.44722215136329
 30
0.0
 11
5938.0
 21
-261.99999999999909
 31
0.0
1001
ACDBBLOCKREPETAG
1070
     1
1071
       42
1005
12AE76
  0
LINE
  5
12AE77
  8
OBJECT
 10
6054.4472221513633
 20
-254.44722215136329
 30
0.0
 11
6062.0
 21
-261.99999999999909
 31
0.0
1001
ACDBBLOCKREPETAG
1070
     1
1071
       43
1005
12AE77
  0
LINE
  5
12AE78
  8
OBJECT
 10
5787.0000000000182
 20
-137.99999999999909
 30
0.0
 11
5780.0000000000182
 21
-137.99999999999909
 31
0.0
1001
ACDBBLOCKREPETAG
1070
     1
1071
      110
1005
12AE78
  0
LINE
  5
12AE79
  8
OBJECT
 10
5780.0000000000182
 20
-137.99999999999909
 30
0.0
 11
5780.0000000000182
 21
-261.99999999999909
 31
0.0
1001
ACDBBLOCKREPETAG
1070
     1
1071
      111
1005
12AE79
  0
LINE
  5
12AE7A
  8
OBJECT
 10
5780.0000000000182
 20
-261.99999999999909
 30
0.0
 11
5787.0000000000182
 21
-261.99999999999909
 31
0.0
1001
ACDBBLOCKREPETAG
1070
     1
1071
      112
1005
12AE7A
  0
LINE
  5
12AE7B
  8
OBJECT
 10
5787.0000000000182
 20
-261.99999999999909
 30
0.0
 11
5787.0000000000182
 21
-137.99999999999909
 31
0.0
1001
ACDBBLOCKREPETAG
1070
     1
1071
      113
1005
12AE7B
  0
LINE
  5
12AE7C
  8
CENTER
 10
5765.0000000000182
 20
-199.99999999999909
 30
0.0
 11
5920.0
 21
-199.99999999999909
 31
0.0
1001
ACDBBLOCKREPETAG
1070
     1
1071
      114
1005
12AE7C
  0
LINE
  5
12AE7D
  8
OBJECT
 10
5840.0000250358171
 20
-245.0000000000027
 30
0.0
 11
5914.0000000000036
 21
-244.99999999999909
 31
0.0
1001
ACDBBLOCKREPETAG
1070
     1
1071
      115
1005
12AE7D
  0
LINE
  5
12AE7E
  8
OBJECT
 10
5840.0000250358171
 20
-154.99999999999909
 30
0.0
 11
5914.0000000000036
 21
-154.99999999999909
 31
0.0
1001
ACDBBLOCKREPETAG
1070
     1
1071
      116
1005
12AE7E
  0
LINE
  5
12AE7F
  8
OBJECT
 10
5787.0000000000182
 20
-140.99999999999909
 30
0.0
 11
5823.0000000000182
 21
-140.99999999999909
 31
0.0
1001
ACDBBLOCKREPETAG
1070
     1
1071
      117
1005
12AE7F
  0
LINE
  5
12AE80
  8
OBJECT
 10
5823.0000000000182
 20
-140.99999999999909
 30
0.0
 11
5823.0000000000182
 21
-258.99999999999909
 31
0.0
1001
ACDBBLOCKREPETAG
1070
     1
1071
      118
1005
12AE80
  0
LINE
  5
12AE81
  8
OBJECT
 10
5823.0000000000182
 20
-258.99999999999909
 30
0.0
 11
5787.0000000000182
 21
-258.99999999999909
 31
0.0
1001
ACDBBLOCKREPETAG
1070
     1
1071
      119
1005
12AE81
  0
LINE
  5
12AE82
  8
OBJECT
 10
5827.0000000000182
 20
-145.49999999999909
 30
0.0
 11
5840.0000000000182
 21
-145.49999999999909
 31
0.0
1001
ACDBBLOCKREPETAG
1070
     1
1071
      120
1005
12AE82
  0
LINE
  5
12AE83
  8
OBJECT
 10
5840.0000000000182
 20
-254.49999999999909
 30
0.0
 11
5827.0000000000182
 21
-254.49999999999909
 31
0.0
1001
ACDBBLOCKREPETAG
1070
     1
1071
      121
1005
12AE83
  0
LINE
  5
12AE84
  8
OBJECT
 10
5827.0000000000182
 20
-254.49999999999909
 30
0.0
 11
5827.0000000000182
 21
-145.49999999999909
 31
0.0
1001
ACDBBLOCKREPETAG
1070
     1
1071
      122
1005
12AE84
  0
LINE
  5
12AE85
  8
OBJECT
 10
5823.0000000000182
 20
-140.99999999999909
 30
0.0
 11
5827.0000000000182
 21
-145.49999999999909
 31
0.0
1001
ACDBBLOCKREPETAG
1070
     1
1071
      123
1005
12AE85
  0
LINE
  5
12AE86
  8
OBJECT
 10
5823.0000000000182
 20
-258.99999999999909
 30
0.0
 11
5827.0000000000182
 21
-254.49999999999909
 31
0.0
1001
ACDBBLOCKREPETAG
1070
     1
1071
      124
1005
12AE86
  0
LINE
  5
12AE87
  8
OBJECT
 10
5917.0000000000036
 20
-137.99999999999909
 30
0.0
 11
5920.0000000000036
 21
-137.99999999999909
 31
0.0
1001
ACDBBLOCKREPETAG
1070
     1
1071
      125
1005
12AE87
  0
ARC
  5
12AE88
  8
OBJECT
 10
5917.0000000000036
 20
-140.99999999999909
 30
0.0
 40
3.0
 50
90.0
 51
180.0
1001
ACDBBLOCKREPETAG
1070
     1
1071
      126
1005
12AE88
  0
LINE
  5
12AE89
  8
OBJECT
 10
5920.0000000000036
 20
-261.99999999999909
 30
0.0
 11
5917.0000000000036
 21
-261.99999999999909
 31
0.0
1001
ACDBBLOCKREPETAG
1070
     1
1071
      127
1005
12AE89
  0
ARC
  5
12AE8A
  8
OBJECT
 10
5917.0000000000036
 20
-258.99999999999909
 30
0.0
 40
3.0
 50
180.0
 51
270.0
1001
ACDBBLOCKREPETAG
1070
     1
1071
      128
1005
12AE8A
  0
LINE
  5
12AE8B
  8
OBJECT
 10
5914.0000000000036
 20
-258.99999999999909
 30
0.0
 11
5914.0000000000036
 21
-222.44994432063581
 31
0.0
1001
ACDBBLOCKREPETAG
1070
     1
1071
      129
1005
12AE8B
  0
LINE
  5
12AE8C
  8
OBJECT
 10
5914.0000000000036
 20
-177.55005567935859
 30
0.0
 11
5914.0000000000036
 21
-140.99999999999909
 31
0.0
1001
ACDBBLOCKREPETAG
1070
     1
1071
      130
1005
12AE8C
  0
LINE
  5
12AE8D
  8
HIDDEN
 10
5832.0000000000182
 20
-155.49999999999909
 30
0.0
 11
5832.0000000000182
 21
-244.49999999999909
 31
0.0
1001
ACDBBLOCKREPETAG
1070
     1
1071
      131
1005
12AE8D
  0
LINE
  5
12AE8E
  8
OBJECT
 10
5840.0000250358171
 20
-254.4999509238105
 30
0.0
 11
5840.0000250358171
 21
-145.4999509238105
 31
0.0
1001
ACDBBLOCKREPETAG
1070
     1
1071
      133
1005
12AE8E
  0
ARC
  5
12AE8F
  8
OBJECT
 10
5875.0
 20
-199.99999999999909
 30
0.0
 40
45.000000000000547
 50
270.0
 51
90.0
1001
ACDBBLOCKREPETAG
1070
     1
1071
      134
1005
12AE8F
  0
LINE
  5
12AE90
  8
CENTER
 10
6000.0
 20
-300.99999999999898
 30
0.0
 11
6000.0
 21
-279.99999999999909
 31
0.0
1001
ACDBBLOCKREPETAG
1070
     1
1071
        0
1005
12AE90
  0
LINE
  5
12AE91
  8
OBJECT
 10
6062.0
 20
-283.0
 30
0.0
 11
6062.0
 21
-279.99999999999909
 31
0.0
1001
ACDBBLOCKREPETAG
1070
     1
1071
        1
1005
12AE91
  0
ARC
  5
12AE92
  8
OBJECT
 10
6059.0
 20
-283.0
 30
0.0
 40
3.0
 50
270.0
 51
0.0
1001
ACDBBLOCKREPETAG
1070
     1
1071
        2
1005
12AE92
  0
LINE
  5
12AE93
  8
OBJECT
 10
5938.0
 20
-279.99999999999909
 30
0.0
 11
5938.0
 21
-282.99999999999818
 31
0.0
1001
ACDBBLOCKREPETAG
1070
     1
1071
        3
1005
12AE93
  0
ARC
  5
12AE94
  8
OBJECT
 10
5941.0
 20
-282.99999999999818
 30
0.0
 40
3.0
 50
180.0
 51
270.0
1001
ACDBBLOCKREPETAG
1070
     1
1071
        4
1005
12AE94
  0
LINE
  5
12AE95
  8
OBJECT
 10
5941.0
 20
-285.99999999999818
 30
0.0
 11
6059.0
 21
-286.0
 31
0.0
1001
ACDBBLOCKREPETAG
1070
     1
1071
        5
1005
12AE95
  0
LINE
  5
12AE96
  8
OBJECT
 10
6212.9999999999864
 20
-137.99999999999909
 30
0.0
 11
6219.9999999999873
 21
-137.99999999999909
 31
0.0
1001
ACDBBLOCKREPETAG
1070
     1
1071
      110
1005
12AE96
  0
LINE
  5
12AE97
  8
OBJECT
 10
6219.9999999999873
 20
-137.99999999999909
 30
0.0
 11
6219.9999999999873
 21
-261.99999999999909
 31
0.0
1001
ACDBBLOCKREPETAG
1070
     1
1071
      111
1005
12AE97
  0
LINE
  5
12AE98
  8
OBJECT
 10
6219.9999999999873
 20
-261.99999999999909
 30
0.0
 11
6212.9999999999864
 21
-261.99999999999909
 31
0.0
1001
ACDBBLOCKREPETAG
1070
     1
1071
      112
1005
12AE98
  0
LINE
  5
12AE99
  8
OBJECT
 10
6212.9999999999864
 20
-261.99999999999909
 30
0.0
 11
6212.9999999999864
 21
-137.99999999999909
 31
0.0
1001
ACDBBLOCKREPETAG
1070
     1
1071
      113
1005
12AE99
  0
LINE
  5
12AE9A
  8
CENTER
 10
6234.9999999999864
 20
-199.99999999999909
 30
0.0
 11
6080.0000000000036
 21
-199.99999999999909
 31
0.0
1001
ACDBBLOCKREPETAG
1070
     1
1071
      114
1005
12AE9A
  0
LINE
  5
12AE9B
  8
OBJECT
 10
6159.9999749641856
 20
-245.0000000000027
 30
0.0
 11
6086.0
 21
-244.99999999999909
 31
0.0
1001
ACDBBLOCKREPETAG
1070
     1
1071
      115
1005
12AE9B
  0
LINE
  5
12AE9C
  8
OBJECT
 10
6159.9999749641856
 20
-154.99999999999909
 30
0.0
 11
6086.0
 21
-154.99999999999909
 31
0.0
1001
ACDBBLOCKREPETAG
1070
     1
1071
      116
1005
12AE9C
  0
LINE
  5
12AE9D
  8
OBJECT
 10
6212.9999999999864
 20
-140.99999999999909
 30
0.0
 11
6176.9999999999873
 21
-140.99999999999909
 31
0.0
1001
ACDBBLOCKREPETAG
1070
     1
1071
      117
1005
12AE9D
  0
LINE
  5
12AE9E
  8
OBJECT
 10
6176.9999999999873
 20
-140.99999999999909
 30
0.0
 11
6176.9999999999873
 21
-258.99999999999909
 31
0.0
1001
ACDBBLOCKREPETAG
1070
     1
1071
      118
1005
12AE9E
  0
LINE
  5
12AE9F
  8
OBJECT
 10
6176.9999999999873
 20
-258.99999999999909
 30
0.0
 11
6212.9999999999864
 21
-258.99999999999909
 31
0.0
1001
ACDBBLOCKREPETAG
1070
     1
1071
      119
1005
12AE9F
  0
LINE
  5
12AEA0
  8
OBJECT
 10
6172.9999999999864
 20
-145.49999999999909
 30
0.0
 11
6159.9999999999864
 21
-145.49999999999909
 31
0.0
1001
ACDBBLOCKREPETAG
1070
     1
1071
      120
1005
12AEA0
  0
LINE
  5
12AEA1
  8
OBJECT
 10
6159.9999999999864
 20
-254.49999999999909
 30
0.0
 11
6172.9999999999864
 21
-254.49999999999909
 31
0.0
1001
ACDBBLOCKREPETAG
1070
     1
1071
      121
1005
12AEA1
  0
LINE
  5
12AEA2
  8
OBJECT
 10
6172.9999999999864
 20
-254.49999999999909
 30
0.0
 11
6172.9999999999864
 21
-145.49999999999909
 31
0.0
1001
ACDBBLOCKREPETAG
1070
     1
1071
      122
1005
12AEA2
  0
LINE
  5
12AEA3
  8
OBJECT
 10
6176.9999999999873
 20
-140.99999999999909
 30
0.0
 11
6172.9999999999864
 21
-145.49999999999909
 31
0.0
1001
ACDBBLOCKREPETAG
1070
     1
1071
      123
1005
12AEA3
  0
LINE
  5
12AEA4
  8
OBJECT
 10
6176.9999999999873
 20
-258.99999999999909
 30
0.0
 11
6172.9999999999864
 21
-254.49999999999909
 31
0.0
1001
ACDBBLOCKREPETAG
1070
     1
1071
      124
1005
12AEA4
  0
LINE
  5
12AEA5
  8
OBJECT
 10
6083.0
 20
-137.99999999999909
 30
0.0
 11
6080.0
 21
-137.99999999999909
 31
0.0
1001
ACDBBLOCKREPETAG
1070
     1
1071
      125
1005
12AEA5
  0
ARC
  5
12AEA6
  8
OBJECT
 10
6083.0
 20
-140.99999999999909
 30
0.0
 40
3.0
 50
0.0
 51
90.0
1001
ACDBBLOCKREPETAG
1070
     1
1071
      126
1005
12AEA6
  0
LINE
  5
12AEA7
  8
OBJECT
 10
6080.0
 20
-261.99999999999909
 30
0.0
 11
6083.0
 21
-261.99999999999909
 31
0.0
1001
ACDBBLOCKREPETAG
1070
     1
1071
      127
1005
12AEA7
  0
ARC
  5
12AEA8
  8
OBJECT
 10
6083.0
 20
-258.99999999999909
 30
0.0
 40
3.0
 50
270.0
 51
0.0
1001
ACDBBLOCKREPETAG
1070
     1
1071
      128
1005
12AEA8
  0
LINE
  5
12AEA9
  8
OBJECT
 10
6086.0
 20
-258.99999999999909
 30
0.0
 11
6086.0
 21
-222.44994432063581
 31
0.0
1001
ACDBBLOCKREPETAG
1070
     1
1071
      129
1005
12AEA9
  0
LINE
  5
12AEAA
  8
OBJECT
 10
6086.0
 20
-177.55005567935859
 30
0.0
 11
6086.0
 21
-140.99999999999909
 31
0.0
1001
ACDBBLOCKREPETAG
1070
     1
1071
      130
1005
12AEAA
  0
LINE
  5
12AEAB
  8
HIDDEN
 10
6167.9999999999864
 20
-155.49999999999909
 30
0.0
 11
6167.9999999999864
 21
-244.49999999999909
 31
0.0
1001
ACDBBLOCKREPETAG
1070
     1
1071
      131
1005
12AEAB
  0
LINE
  5
12AEAC
  8
OBJECT
 10
6159.9999749641856
 20
-254.4999509238105
 30
0.0
 11
6159.9999749641856
 21
-145.4999509238105
 31
0.0
1001
ACDBBLOCKREPETAG
1070
     1
1071
      133
1005
12AEAC
  0
ARC
  5
12AEAD
  8
OBJECT
 10
6125.0000000000027
 20
-199.99999999999909
 30
0.0
 40
45.000000000000547
 50
90.0
 51
270.0
1001
ACDBBLOCKREPETAG
1070
     1
1071
      134
1005
12AEAD
  0
LINE
  5
12AEAE
  8
OBJECT
 10
5787.0000000000146
 20
-553.0
 30
0.0
 11
5780.0000000000146
 21
-553.0
 31
0.0
1001
ACDBBLOCKREPETAG
1070
     1
1071
      106
1005
12AEAE
  0
LINE
  5
12AEAF
  8
OBJECT
 10
5780.0000000000146
 20
-553.0
 30
0.0
 11
5780.0000000000146
 21
-677.0
 31
0.0
1001
ACDBBLOCKREPETAG
1070
     1
1071
      107
1005
12AEAF
  0
LINE
  5
12AEB0
  8
OBJECT
 10
5914.0000000000146
 20
-653.3502637757274
 30
0.0
 11
5914.0000000000146
 21
-755.00000000000102
 31
0.0
1001
ACDBBLOCKREPETAG
1070
     1
1071
      108
1005
12AEB0
  0
LINE
  5
12AEB1
  8
OBJECT
 10
5780.0000000000146
 20
-677.0
 30
0.0
 11
5787.0000000000146
 21
-677.0
 31
0.0
1001
ACDBBLOCKREPETAG
1070
     1
1071
      109
1005
12AEB1
  0
LINE
  5
12AEB2
  8
OBJECT
 10
5787.0000000000146
 20
-677.0
 30
0.0
 11
5787.0000000000146
 21
-553.0
 31
0.0
1001
ACDBBLOCKREPETAG
1070
     1
1071
      110
1005
12AEB2
  0
LINE
  5
12AEB3
  8
CENTER
 10
5855.0000000000136
 20
-615.0000000000008
 30
0.0
 11
5765.0000000000136
 21
-615.0
 31
0.0
1001
ACDBBLOCKREPETAG
1070
     1
1071
      111
1005
12AEB3
  0
LINE
  5
12AEB4
  8
OBJECT
 10
5920.0000000000182
 20
-758.0
 30
0.0
 11
5917.0000000000136
 21
-758.0000000000008
 31
0.0
1001
ACDBBLOCKREPETAG
1070
     1
1071
      112
1005
12AEB4
  0
ARC
  5
12AEB5
  8
OBJECT
 10
5917.0000000000136
 20
-755.00000000000102
 30
0.0
 40
3.0
 50
180.0
 51
270.0
1001
ACDBBLOCKREPETAG
1070
     1
1071
      113
1005
12AEB5
  0
LINE
  5
12AEB6
  8
OBJECT
 10
5787.0000000000146
 20
-556.0
 30
0.0
 11
5823.0000000000136
 21
-556.0000000000008
 31
0.0
1001
ACDBBLOCKREPETAG
1070
     1
1071
      114
1005
12AEB6
  0
LINE
  5
12AEB7
  8
OBJECT
 10
5823.0000000000136
 20
-556.0000000000008
 30
0.0
 11
5823.0000000000136
 21
-653.15756805667843
 31
0.0
1001
ACDBBLOCKREPETAG
1070
     1
1071
      115
1005
12AEB7
  0
LINE
  5
12AEB8
  8
OBJECT
 10
5827.0000000000146
 20
-560.5000000000008
 30
0.0
 11
5827.0000000000182
 21
-645.74491827928705
 31
0.0
1001
ACDBBLOCKREPETAG
1070
     1
1071
      116
1005
12AEB8
  0
LINE
  5
12AEB9
  8
OBJECT
 10
5827.0000000000146
 20
-560.5000000000008
 30
0.0
 11
5840.0000000000136
 21
-560.5000000000008
 31
0.0
1001
ACDBBLOCKREPETAG
1070
     1
1071
      117
1005
12AEB9
  0
LINE
  5
12AEBA
  8
OBJECT
 10
5831.3436831745312
 20
-674.0000000000008
 30
0.0
 11
5787.0000000000146
 21
-674.0
 31
0.0
1001
ACDBBLOCKREPETAG
1070
     1
1071
      118
1005
12AEBA
  0
LINE
  5
12AEBB
  8
OBJECT
 10
5823.0000000000136
 20
-556.0000000000008
 30
0.0
 11
5827.0000000000146
 21
-560.5000000000008
 31
0.0
1001
ACDBBLOCKREPETAG
1070
     1
1071
      119
1005
12AEBB
  0
LINE
  5
12AEBC
  8
OBJECT
 10
5840.0000000000136
 20
-560.5000000000008
 30
0.0
 11
5840.0000000000136
 21
-645.74491827928784
 31
0.0
1001
ACDBBLOCKREPETAG
1070
     1
1071
      120
1005
12AEBC
  0
ARC
  5
12AEBD
  8
OBJECT
 10
5908.0000000000146
 20
-637.27386365609345
 30
0.0
 40
85.0
 50
205.5991387218879
 51
231.40900676279119
1001
ACDBBLOCKREPETAG
1070
     1
1071
      121
1005
12AEBD
  0
ARC
  5
12AEBE
  8
OBJECT
 10
5837.2000000000171
 20
-655.00000000000068
 30
0.0
 40
85.0
 50
19.925932125430649
 51
88.112268108168848
1001
ACDBBLOCKREPETAG
1070
     1
1071
      122
1005
12AEBE
  0
LINE
  5
12AEBF
  8
OBJECT
 10
5914.0000000000146
 20
-750.81075719270905
 30
0.0
 11
5854.9806774563986
 21
-703.71143914629454
 31
0.0
1001
ACDBBLOCKREPETAG
1070
     1
1071
      123
1005
12AEBF
  0
LINE
  5
12AEC0
  8
OBJECT
 10
5827.0000000000182
 20
-645.74491827928705
 30
0.0
 11
5840.0000000000136
 21
-645.74491827928784
 31
0.0
1001
ACDBBLOCKREPETAG
1070
     1
1071
      124
1005
12AEC0
  0
LINE
  5
12AEC1
  8
OBJECT
 10
5823.0000000000136
 20
-653.15756805667843
 30
0.0
 11
5827.0000000000182
 21
-645.74491827928705
 31
0.0
1001
ACDBBLOCKREPETAG
1070
     1
1071
      125
1005
12AEC1
  0
LINE
  5
12AEC2
  8
OBJECT
 10
5919.9999999999818
 20
-634.0
 30
0.0
 11
5917.1113878403776
 21
-626.03156729425325
 31
0.0
1001
ACDBBLOCKREPETAG
1070
     1
1071
      126
1005
12AEC2
  0
LINE
  5
12AEC3
  8
OBJECT
 10
5919.9999999999818
 20
-634.0
 30
0.0
 11
5914.0000000000146
 21
-653.3502637757274
 31
0.0
1001
ACDBBLOCKREPETAG
1070
     1
1071
      127
1005
12AEC3
  0
LINE
  5
12AEC4
  8
HIDDEN
 10
5832.0000000000136
 20
-570.5000000000008
 30
0.0
 11
5832.0000000000136
 21
-659.50000000000068
 31
0.0
1001
ACDBBLOCKREPETAG
1070
     1
1071
      129
1005
12AEC4
  0
CIRCLE
  5
12AEC5
  8
OBJECT
 10
6000.0
 20
-696.0
 30
0.0
 40
62.0
1001
ACDBBLOCKREPETAG
1070
     1
1071
        0
1005
12AEC5
  0
LINE
  5
12AEC6
  8
OBJECT
 10
6212.9999999999864
 20
-553.0000000000008
 30
0.0
 11
6219.9999999999873
 21
-553.0000000000008
 31
0.0
1001
ACDBBLOCKREPETAG
1070
     1
1071
      106
1005
12AEC6
  0
LINE
  5
12AEC7
  8
OBJECT
 10
6219.9999999999873
 20
-553.0000000000008
 30
0.0
 11
6219.9999999999873
 21
-677.0000000000008
 31
0.0
1001
ACDBBLOCKREPETAG
1070
     1
1071
      107
1005
12AEC7
  0
LINE
  5
12AEC8
  8
OBJECT
 10
6085.9999999999864
 20
-653.3502637757274
 30
0.0
 11
6085.9999999999864
 21
-755.00000000000102
 31
0.0
1001
ACDBBLOCKREPETAG
1070
     1
1071
      108
1005
12AEC8
  0
LINE
  5
12AEC9
  8
OBJECT
 10
6219.9999999999873
 20
-677.0000000000008
 30
0.0
 11
6212.9999999999864
 21
-677.0000000000008
 31
0.0
1001
ACDBBLOCKREPETAG
1070
     1
1071
      109
1005
12AEC9
  0
LINE
  5
12AECA
  8
OBJECT
 10
6212.9999999999864
 20
-677.0000000000008
 30
0.0
 11
6212.9999999999864
 21
-553.0000000000008
 31
0.0
1001
ACDBBLOCKREPETAG
1070
     1
1071
      110
1005
12AECA
  0
LINE
  5
12AECB
  8
CENTER
 10
6144.9999999999873
 20
-615.0000000000008
 30
0.0
 11
6234.9999999999864
 21
-615.0000000000008
 31
0.0
1001
ACDBBLOCKREPETAG
1070
     1
1071
      111
1005
12AECB
  0
LINE
  5
12AECC
  8
OBJECT
 10
6079.9999999999818
 20
-758.0
 30
0.0
 11
6082.9999999999864
 21
-758.0000000000008
 31
0.0
1001
ACDBBLOCKREPETAG
1070
     1
1071
      112
1005
12AECC
  0
ARC
  5
12AECD
  8
OBJECT
 10
6082.9999999999864
 20
-755.00000000000102
 30
0.0
 40
3.0
 50
270.0
 51
0.0
1001
ACDBBLOCKREPETAG
1070
     1
1071
      113
1005
12AECD
  0
LINE
  5
12AECE
  8
OBJECT
 10
6212.9999999999864
 20
-556.0000000000008
 30
0.0
 11
6176.9999999999873
 21
-556.0000000000008
 31
0.0
1001
ACDBBLOCKREPETAG
1070
     1
1071
      114
1005
12AECE
  0
LINE
  5
12AECF
  8
OBJECT
 10
6176.9999999999873
 20
-556.0000000000008
 30
0.0
 11
6176.9999999999873
 21
-653.15756805667843
 31
0.0
1001
ACDBBLOCKREPETAG
1070
     1
1071
      115
1005
12AECF
  0
LINE
  5
12AED0
  8
OBJECT
 10
6172.9999999999864
 20
-560.5000000000008
 30
0.0
 11
6172.9999999999818
 21
-645.74491827928705
 31
0.0
1001
ACDBBLOCKREPETAG
1070
     1
1071
      116
1005
12AED0
  0
LINE
  5
12AED1
  8
OBJECT
 10
6172.9999999999864
 20
-560.5000000000008
 30
0.0
 11
6159.9999999999864
 21
-560.5000000000008
 31
0.0
1001
ACDBBLOCKREPETAG
1070
     1
1071
      117
1005
12AED1
  0
LINE
  5
12AED2
  8
OBJECT
 10
6168.6563168254688
 20
-674.0000000000008
 30
0.0
 11
6212.9999999999864
 21
-674.0000000000008
 31
0.0
1001
ACDBBLOCKREPETAG
1070
     1
1071
      118
1005
12AED2
  0
LINE
  5
12AED3
  8
OBJECT
 10
6176.9999999999873
 20
-556.0000000000008
 30
0.0
 11
6172.9999999999864
 21
-560.5000000000008
 31
0.0
1001
ACDBBLOCKREPETAG
1070
     1
1071
      119
1005
12AED3
  0
LINE
  5
12AED4
  8
OBJECT
 10
6159.9999999999864
 20
-560.5000000000008
 30
0.0
 11
6159.9999999999864
 21
-645.74491827928784
 31
0.0
1001
ACDBBLOCKREPETAG
1070
     1
1071
      120
1005
12AED4
  0
ARC
  5
12AED5
  8
OBJECT
 10
6091.9999999999873
 20
-637.27386365609345
 30
0.0
 40
85.0
 50
308.59099323720869
 51
334.40086127811207
1001
ACDBBLOCKREPETAG
1070
     1
1071
      121
1005
12AED5
  0
ARC
  5
12AED6
  8
OBJECT
 10
6162.7999999999856
 20
-655.00000000000068
 30
0.0
 40
85.0
 50
91.887731891831123
 51
160.07406787456929
1001
ACDBBLOCKREPETAG
1070
     1
1071
      122
1005
12AED6
  0
LINE
  5
12AED7
  8
OBJECT
 10
6085.9999999999864
 20
-750.81075719270905
 30
0.0
 11
6145.0193225436024
 21
-703.71143914629454
 31
0.0
1001
ACDBBLOCKREPETAG
1070
     1
1071
      123
1005
12AED7
  0
LINE
  5
12AED8
  8
OBJECT
 10
6172.9999999999818
 20
-645.74491827928705
 30
0.0
 11
6159.9999999999864
 21
-645.74491827928784
 31
0.0
1001
ACDBBLOCKREPETAG
1070
     1
1071
      124
1005
12AED8
  0
LINE
  5
12AED9
  8
OBJECT
 10
6176.9999999999873
 20
-653.15756805667843
 30
0.0
 11
6172.9999999999818
 21
-645.74491827928705
 31
0.0
1001
ACDBBLOCKREPETAG
1070
     1
1071
      125
1005
12AED9
  0
LINE
  5
12AEDA
  8
OBJECT
 10
6080.0000000000182
 20
-634.0
 30
0.0
 11
6082.8886121596233
 21
-626.03156729425325
 31
0.0
1001
ACDBBLOCKREPETAG
1070
     1
1071
      126
1005
12AEDA
  0
LINE
  5
12AEDB
  8
OBJECT
 10
6080.0000000000182
 20
-634.0
 30
0.0
 11
6085.9999999999864
 21
-653.3502637757274
 31
0.0
1001
ACDBBLOCKREPETAG
1070
     1
1071
      127
1005
12AEDB
  0
LINE
  5
12AEDC
  8
HIDDEN
 10
6167.9999999999864
 20
-570.5000000000008
 30
0.0
 11
6167.9999999999864
 21
-659.50000000000068
 31
0.0
1001
ACDBBLOCKREPETAG
1070
     1
1071
      129
1005
12AEDC
  0
LINE
  5
12AEDD
  8
OBJECT
 10
3923.0
 20
-570.99999999999432
 30
0.0
 11
3923.0
 21
-549.99999999999432
 31
0.0
1001
ACDBBLOCKREPETAG
1070
     1
1071
       36
1005
12AEDD
  0
LINE
  5
12AEDE
  8
OBJECT
 10
3923.0
 20
-549.99999999999432
 30
0.0
 11
4077.0
 21
-549.99999999999432
 31
0.0
1001
ACDBBLOCKREPETAG
1070
     1
1071
       37
1005
12AEDE
  0
LINE
  5
12AEDF
  8
HIDDEN
 10
3943.0
 20
-619.99999999999432
 30
0.0
 11
4057.0
 21
-619.99999999999432
 31
0.0
1001
ACDBBLOCKREPETAG
1070
     1
1071
       38
1005
12AEDF
  0
LINE
  5
12AEE0
  8
OBJECT
 10
4077.0
 20
-549.99999999999432
 30
0.0
 11
4077.0
 21
-570.99999999999432
 31
0.0
1001
ACDBBLOCKREPETAG
1070
     1
1071
       39
1005
12AEE0
  0
LINE
  5
12AEE1
  8
OBJECT
 10
4077.0
 20
-570.99999999999432
 30
0.0
 11
3923.0
 21
-570.99999999999432
 31
0.0
1001
ACDBBLOCKREPETAG
1070
     1
1071
       40
1005
12AEE1
  0
LINE
  5
12AEE2
  8
CENTER
 10
4000.0
 20
-534.99999999999432
 30
0.0
 11
4000.0
 21
-769.9999999999942
 31
0.0
1001
ACDBBLOCKREPETAG
1070
     1
1071
       41
1005
12AEE2
  0
LINE
  5
12AEE3
  8
OBJECT
 10
3928.0
 20
-570.99999999999432
 30
0.0
 11
3928.0
 21
-633.99999999999432
 31
0.0
1001
ACDBBLOCKREPETAG
1070
     1
1071
       42
1005
12AEE3
  0
LINE
  5
12AEE4
  8
OBJECT
 10
4072.0
 20
-633.99999999999432
 30
0.0
 11
4072.0
 21
-570.99999999999432
 31
0.0
1001
ACDBBLOCKREPETAG
1070
     1
1071
       43
1005
12AEE4
  0
LINE
  5
12AEE5
  8
OBJECT
 10
3920.0
 20
-757.9999999999942
 30
0.0
 11
4080.0
 21
-757.9999999999942
 31
0.0
1001
ACDBBLOCKREPETAG
1070
     1
1071
       44
1005
12AEE5
  0
LINE
  5
12AEE6
  8
OBJECT
 10
4080.0
 20
-633.99999999999432
 30
0.0
 11
3920.0
 21
-633.99999999999432
 31
0.0
1001
ACDBBLOCKREPETAG
1070
     1
1071
       45
1005
12AEE6
  0
LINE
  5
12AEE7
  8
OBJECT
 10
3920.0
 20
-757.9999999999942
 30
0.0
 11
3920.0
 21
-769.9999999999942
 31
0.0
1001
ACDBBLOCKREPETAG
1070
     1
1071
       46
1005
12AEE7
  0
LINE
  5
12AEE8
  8
OBJECT
 10
3920.0
 20
-769.9999999999942
 30
0.0
 11
4080.0
 21
-769.9999999999942
 31
0.0
1001
ACDBBLOCKREPETAG
1070
     1
1071
       47
1005
12AEE8
  0
LINE
  5
12AEE9
  8
OBJECT
 10
4080.0
 20
-769.9999999999942
 30
0.0
 11
4080.0
 21
-757.9999999999942
 31
0.0
1001
ACDBBLOCKREPETAG
1070
     1
1071
       48
1005
12AEE9
  0
ARC
  5
12AEEA
  8
OBJECT
 10
4200.6872746716726
 20
-749.40809941010195
 30
0.0
 40
170.6350503965856
 50
137.44134459184301
 51
149.91949581337221
1001
ACDBBLOCKREPETAG
1070
     1
1071
       52
1005
12AEEA
  0
ARC
  5
12AEEB
  8
OBJECT
 10
4200.6872746716726
 20
-642.59190058988645
 30
0.0
 40
170.6350503965856
 50
210.08050418662771
 51
222.55865540815699
1001
ACDBBLOCKREPETAG
1070
     1
1071
       53
1005
12AEEB
  0
ARC
  5
12AEEC
  8
OBJECT
 10
3799.3127253283278
 20
-749.40809941010195
 30
0.0
 40
170.6350503965856
 50
30.080504186774089
 51
42.558655408456282
1001
ACDBBLOCKREPETAG
1070
     1
1071
       54
1005
12AEEC
  0
ARC
  5
12AEED
  8
OBJECT
 10
3799.3127253283278
 20
-642.59190058988645
 30
0.0
 40
170.6350503965856
 50
317.44134459154373
 51
329.91949581322592
1001
ACDBBLOCKREPETAG
1070
     1
1071
       55
1005
12AEED
  0
POINT
  5
12AEEE
  8
DOTS
 10
4000.0
 20
-754.9999999999942
 30
0.0
1001
ACDBBLOCKREPETAG
1070
     1
1071
      184
1005
12AEEE
  0
LINE
  5
12AEEF
  8
OBJECT
 10
3969.4199755553018
 20
-243.89888500818171
 30
0.0
 11
3979.8564918232369
 21
-222.48688253356801
 31
0.0
1001
ACDBBLOCKREPETAG
1070
     1
1071
      305
1005
12AEEF
  0
LINE
  5
12AEF0
  8
OBJECT
 10
3965.2972169006089
 20
-240.71813901882729
 30
0.0
 11
3973.9071022665089
 21
-223.05373004430751
 31
0.0
1001
ACDBBLOCKREPETAG
1070
     1
1071
      306
1005
12AEF0
  0
LINE
  5
12AEF1
  8
OBJECT
 10
4024.102933093302
 20
-243.80694712371681
 30
0.0
 11
4020.6596569999951
 21
-232.55462199999889
 31
0.0
1001
ACDBBLOCKREPETAG
1070
     1
1071
      307
1005
12AEF1
  0
ARC
  5
12AEF2
  8
OBJECT
 10
3976.579695307315
 20
-207.1289369828437
 30
0.0
 40
60.031113246032611
 50
314.07020130418567
 51
322.33936106091278
1001
ACDBBLOCKREPETAG
1070
     1
1071
      308
1005
12AEF2
  0
LINE
  5
12AEF3
  8
OBJECT
 10
3986.7927499013749
 20
-218.22553374208019
 30
0.0
 11
4020.6596569999951
 21
-232.5546219999969
 31
0.0
1001
ACDBBLOCKREPETAG
1070
     1
1071
      309
1005
12AEF3
  0
ARC
  5
12AEF4
  8
OBJECT
 10
3982.896169761902
 20
-227.4351299990567
 30
0.0
 40
10.0
 50
67.066778292911366
 51
154.0147343702935
1001
ACDBBLOCKREPETAG
1070
     1
1071
      310
1005
12AEF4
  0
ARC
  5
12AEF5
  8
OBJECT
 10
3986.1488390381278
 20
-225.55386256729159
 30
0.0
 40
7.0
 50
67.066778292911366
 51
154.01473377497121
1001
ACDBBLOCKREPETAG
1070
     1
1071
      311
1005
12AEF5
  0
CIRCLE
  5
12AEF6
  8
OBJECT
 10
4000.0
 20
-199.99999999999909
 30
0.0
 40
53.5
1001
ACDBBLOCKREPETAG
1070
     1
1071
      340
1005
12AEF6
  0
POINT
  5
12AEF7
  8
DOTS
 10
4000.0
 20
-199.99999999999909
 30
0.0
 50
270.0
1001
ACDBBLOCKREPETAG
1070
     1
1071
      153
1005
12AEF7
  0
ARC
  5
12AEF8
  8
OBJECT
 10
4000.0
 20
-199.99999999999909
 30
0.0
 40
50.0
 50
298.81994300000417
 51
228.52376955967449
1001
ACDBBLOCKREPETAG
1070
     1
1071
       48
1005
12AEF8
  0
LINE
  5
12AEF9
  8
CENTER
 10
4080.0
 20
-199.99999999999909
 30
0.0
 11
3920.0
 21
-199.99999999999909
 31
0.0
1001
ACDBBLOCKREPETAG
1070
     1
1071
       49
1005
12AEF9
  0
LINE
  5
12AEFA
  8
CENTER
 10
4000.0
 20
-279.99999999999909
 30
0.0
 11
4000.0
 21
-104.9999999999991
 31
0.0
1001
ACDBBLOCKREPETAG
1070
     1
1071
       50
1005
12AEFA
  0
CIRCLE
  5
12AEFB
  8
OBJECT
 10
4000.0
 20
-199.99999999999909
 30
0.0
 40
70.0
1001
ACDBBLOCKREPETAG
1070
     1
1071
       51
1005
12AEFB
  0
CIRCLE
  5
12AEFC
  8
OBJECT
 10
4000.0
 20
-199.99999999999909
 30
0.0
 40
77.0
1001
ACDBBLOCKREPETAG
1070
     1
1071
       52
1005
12AEFC
  0
ARC
  5
12AEFD
  8
OBJECT
 10
4000.0
 20
-199.99999999999909
 30
0.0
 40
80.0
 50
50.805032573864182
 51
129.1949674261358
1001
ACDBBLOCKREPETAG
1070
     1
1071
       53
1005
12AEFD
  0
LINE
  5
12AEFE
  8
OBJECT
 10
4045.661800227324
 20
-137.99999999999909
 30
0.0
 11
4080.0
 21
-137.99999999999909
 31
0.0
1001
ACDBBLOCKREPETAG
1070
     1
1071
       54
1005
12AEFE
  0
LINE
  5
12AEFF
  8
OBJECT
 10
4062.0
 20
-261.99999999999909
 30
0.0
 11
4080.0
 21
-261.99999999999909
 31
0.0
1001
ACDBBLOCKREPETAG
1070
     1
1071
       55
1005
12AEFF
  0
LINE
  5
12AF00
  8
OBJECT
 10
4062.0
 20
-261.99999999999909
 30
0.0
 11
4062.0
 21
-279.99999999999909
 31
0.0
1001
ACDBBLOCKREPETAG
1070
     1
1071
       57
1005
12AF00
  0
LINE
  5
12AF01
  8
OBJECT
 10
3938.0
 20
-261.99999999999909
 30
0.0
 11
3938.0
 21
-279.99999999999909
 31
0.0
1001
ACDBBLOCKREPETAG
1070
     1
1071
       58
1005
12AF01
  0
LINE
  5
12AF02
  8
OBJECT
 10
3938.0
 20
-261.99999999999909
 30
0.0
 11
3920.0
 21
-261.99999999999909
 31
0.0
1001
ACDBBLOCKREPETAG
1070
     1
1071
       60
1005
12AF02
  0
LINE
  5
12AF03
  8
OBJECT
 10
3954.338199772676
 20
-137.99999999999909
 30
0.0
 11
3920.0
 21
-137.99999999999909
 31
0.0
1001
ACDBBLOCKREPETAG
1070
     1
1071
       61
1005
12AF03
  0
LINE
  5
12AF04
  8
OBJECT
 10
3945.5527778486362
 20
-254.44722215136329
 30
0.0
 11
3938.0
 21
-261.99999999999909
 31
0.0
1001
ACDBBLOCKREPETAG
1070
     1
1071
       42
1005
12AF04
  0
LINE
  5
12AF05
  8
OBJECT
 10
4054.4472221513638
 20
-254.44722215136329
 30
0.0
 11
4062.0
 21
-261.99999999999909
 31
0.0
1001
ACDBBLOCKREPETAG
1070
     1
1071
       43
1005
12AF05
  0
LINE
  5
12AF06
  8
OBJECT
 10
3787.0000000000191
 20
-137.99999999999909
 30
0.0
 11
3780.0000000000182
 21
-137.99999999999909
 31
0.0
1001
ACDBBLOCKREPETAG
1070
     1
1071
      110
1005
12AF06
  0
LINE
  5
12AF07
  8
OBJECT
 10
3780.0000000000182
 20
-137.99999999999909
 30
0.0
 11
3780.0000000000182
 21
-261.99999999999909
 31
0.0
1001
ACDBBLOCKREPETAG
1070
     1
1071
      111
1005
12AF07
  0
LINE
  5
12AF08
  8
OBJECT
 10
3780.0000000000182
 20
-261.99999999999909
 30
0.0
 11
3787.0000000000191
 21
-261.99999999999909
 31
0.0
1001
ACDBBLOCKREPETAG
1070
     1
1071
      112
1005
12AF08
  0
LINE
  5
12AF09
  8
OBJECT
 10
3787.0000000000191
 20
-261.99999999999909
 30
0.0
 11
3787.0000000000191
 21
-137.99999999999909
 31
0.0
1001
ACDBBLOCKREPETAG
1070
     1
1071
      113
1005
12AF09
  0
LINE
  5
12AF0A
  8
CENTER
 10
3765.0000000000182
 20
-199.99999999999909
 30
0.0
 11
3920.0
 21
-199.99999999999909
 31
0.0
1001
ACDBBLOCKREPETAG
1070
     1
1071
      114
1005
12AF0A
  0
LINE
  5
12AF0B
  8
OBJECT
 10
3840.0000250358171
 20
-245.0000000000027
 30
0.0
 11
3914.000000000005
 21
-244.99999999999909
 31
0.0
1001
ACDBBLOCKREPETAG
1070
     1
1071
      115
1005
12AF0B
  0
LINE
  5
12AF0C
  8
OBJECT
 10
3840.0000250358171
 20
-154.99999999999909
 30
0.0
 11
3914.000000000005
 21
-154.99999999999909
 31
0.0
1001
ACDBBLOCKREPETAG
1070
     1
1071
      116
1005
12AF0C
  0
LINE
  5
12AF0D
  8
OBJECT
 10
3787.0000000000191
 20
-140.99999999999909
 30
0.0
 11
3823.0000000000182
 21
-140.99999999999909
 31
0.0
1001
ACDBBLOCKREPETAG
1070
     1
1071
      117
1005
12AF0D
  0
LINE
  5
12AF0E
  8
OBJECT
 10
3823.0000000000182
 20
-140.99999999999909
 30
0.0
 11
3823.0000000000182
 21
-258.99999999999909
 31
0.0
1001
ACDBBLOCKREPETAG
1070
     1
1071
      118
1005
12AF0E
  0
LINE
  5
12AF0F
  8
OBJECT
 10
3823.0000000000182
 20
-258.99999999999909
 30
0.0
 11
3787.0000000000191
 21
-258.99999999999909
 31
0.0
1001
ACDBBLOCKREPETAG
1070
     1
1071
      119
1005
12AF0F
  0
LINE
  5
12AF10
  8
OBJECT
 10
3827.0000000000182
 20
-145.49999999999909
 30
0.0
 11
3840.0000000000191
 21
-145.49999999999909
 31
0.0
1001
ACDBBLOCKREPETAG
1070
     1
1071
      120
1005
12AF10
  0
LINE
  5
12AF11
  8
OBJECT
 10
3840.0000000000191
 20
-254.49999999999909
 30
0.0
 11
3827.0000000000182
 21
-254.49999999999909
 31
0.0
1001
ACDBBLOCKREPETAG
1070
     1
1071
      121
1005
12AF11
  0
LINE
  5
12AF12
  8
OBJECT
 10
3827.0000000000182
 20
-254.49999999999909
 30
0.0
 11
3827.0000000000182
 21
-145.49999999999909
 31
0.0
1001
ACDBBLOCKREPETAG
1070
     1
1071
      122
1005
12AF12
  0
LINE
  5
12AF13
  8
OBJECT
 10
3823.0000000000182
 20
-140.99999999999909
 30
0.0
 11
3827.0000000000182
 21
-145.49999999999909
 31
0.0
1001
ACDBBLOCKREPETAG
1070
     1
1071
      123
1005
12AF13
  0
LINE
  5
12AF14
  8
OBJECT
 10
3823.0000000000182
 20
-258.99999999999909
 30
0.0
 11
3827.0000000000182
 21
-254.49999999999909
 31
0.0
1001
ACDBBLOCKREPETAG
1070
     1
1071
      124
1005
12AF14
  0
LINE
  5
12AF15
  8
OBJECT
 10
3917.000000000005
 20
-137.99999999999909
 30
0.0
 11
3920.0000000000041
 21
-137.99999999999909
 31
0.0
1001
ACDBBLOCKREPETAG
1070
     1
1071
      125
1005
12AF15
  0
ARC
  5
12AF16
  8
OBJECT
 10
3917.000000000005
 20
-140.99999999999909
 30
0.0
 40
3.0
 50
90.0
 51
180.0
1001
ACDBBLOCKREPETAG
1070
     1
1071
      126
1005
12AF16
  0
LINE
  5
12AF17
  8
OBJECT
 10
3920.0000000000041
 20
-261.99999999999909
 30
0.0
 11
3917.000000000005
 21
-261.99999999999909
 31
0.0
1001
ACDBBLOCKREPETAG
1070
     1
1071
      127
1005
12AF17
  0
ARC
  5
12AF18
  8
OBJECT
 10
3917.000000000005
 20
-258.99999999999909
 30
0.0
 40
3.0
 50
180.0
 51
270.0
1001
ACDBBLOCKREPETAG
1070
     1
1071
      128
1005
12AF18
  0
LINE
  5
12AF19
  8
OBJECT
 10
3914.000000000005
 20
-258.99999999999909
 30
0.0
 11
3914.000000000005
 21
-222.44994432063581
 31
0.0
1001
ACDBBLOCKREPETAG
1070
     1
1071
      129
1005
12AF19
  0
LINE
  5
12AF1A
  8
OBJECT
 10
3914.000000000005
 20
-177.55005567935859
 30
0.0
 11
3914.000000000005
 21
-140.99999999999909
 31
0.0
1001
ACDBBLOCKREPETAG
1070
     1
1071
      130
1005
12AF1A
  0
LINE
  5
12AF1B
  8
HIDDEN
 10
3832.0000000000182
 20
-155.49999999999909
 30
0.0
 11
3832.0000000000182
 21
-244.49999999999909
 31
0.0
1001
ACDBBLOCKREPETAG
1070
     1
1071
      131
1005
12AF1B
  0
LINE
  5
12AF1C
  8
OBJECT
 10
3840.0000250358171
 20
-254.4999509238105
 30
0.0
 11
3840.0000250358171
 21
-145.4999509238105
 31
0.0
1001
ACDBBLOCKREPETAG
1070
     1
1071
      133
1005
12AF1C
  0
ARC
  5
12AF1D
  8
OBJECT
 10
3875.0
 20
-199.99999999999909
 30
0.0
 40
45.000000000000547
 50
270.0
 51
90.0
1001
ACDBBLOCKREPETAG
1070
     1
1071
      134
1005
12AF1D
  0
LINE
  5
12AF1E
  8
CENTER
 10
4000.0
 20
-300.99999999999898
 30
0.0
 11
4000.0
 21
-279.99999999999909
 31
0.0
1001
ACDBBLOCKREPETAG
1070
     1
1071
        0
1005
12AF1E
  0
LINE
  5
12AF1F
  8
OBJECT
 10
4062.0
 20
-283.0
 30
0.0
 11
4062.0
 21
-279.99999999999909
 31
0.0
1001
ACDBBLOCKREPETAG
1070
     1
1071
        1
1005
12AF1F
  0
ARC
  5
12AF20
  8
OBJECT
 10
4059.0
 20
-283.0
 30
0.0
 40
3.0
 50
270.0
 51
0.0
1001
ACDBBLOCKREPETAG
1070
     1
1071
        2
1005
12AF20
  0
LINE
  5
12AF21
  8
OBJECT
 10
3938.0
 20
-279.99999999999909
 30
0.0
 11
3938.0
 21
-282.99999999999818
 31
0.0
1001
ACDBBLOCKREPETAG
1070
     1
1071
        3
1005
12AF21
  0
ARC
  5
12AF22
  8
OBJECT
 10
3941.0
 20
-282.99999999999818
 30
0.0
 40
3.0
 50
180.0
 51
270.0
1001
ACDBBLOCKREPETAG
1070
     1
1071
        4
1005
12AF22
  0
LINE
  5
12AF23
  8
OBJECT
 10
3941.0
 20
-285.99999999999818
 30
0.0
 11
4059.0
 21
-286.0
 31
0.0
1001
ACDBBLOCKREPETAG
1070
     1
1071
        5
1005
12AF23
  0
LINE
  5
12AF24
  8
OBJECT
 10
4212.9999999999854
 20
-137.99999999999909
 30
0.0
 11
4219.9999999999854
 21
-137.99999999999909
 31
0.0
1001
ACDBBLOCKREPETAG
1070
     1
1071
      110
1005
12AF24
  0
LINE
  5
12AF25
  8
OBJECT
 10
4219.9999999999854
 20
-137.99999999999909
 30
0.0
 11
4219.9999999999854
 21
-261.99999999999909
 31
0.0
1001
ACDBBLOCKREPETAG
1070
     1
1071
      111
1005
12AF25
  0
LINE
  5
12AF26
  8
OBJECT
 10
4219.9999999999854
 20
-261.99999999999909
 30
0.0
 11
4212.9999999999854
 21
-261.99999999999909
 31
0.0
1001
ACDBBLOCKREPETAG
1070
     1
1071
      112
1005
12AF26
  0
LINE
  5
12AF27
  8
OBJECT
 10
4212.9999999999854
 20
-261.99999999999909
 30
0.0
 11
4212.9999999999854
 21
-137.99999999999909
 31
0.0
1001
ACDBBLOCKREPETAG
1070
     1
1071
      113
1005
12AF27
  0
LINE
  5
12AF28
  8
CENTER
 10
4234.9999999999854
 20
-199.99999999999909
 30
0.0
 11
4080.0000000000041
 21
-199.99999999999909
 31
0.0
1001
ACDBBLOCKREPETAG
1070
     1
1071
      114
1005
12AF28
  0
LINE
  5
12AF29
  8
OBJECT
 10
4159.9999749641847
 20
-245.0000000000027
 30
0.0
 11
4086.0
 21
-244.99999999999909
 31
0.0
1001
ACDBBLOCKREPETAG
1070
     1
1071
      115
1005
12AF29
  0
LINE
  5
12AF2A
  8
OBJECT
 10
4159.9999749641847
 20
-154.99999999999909
 30
0.0
 11
4086.0
 21
-154.99999999999909
 31
0.0
1001
ACDBBLOCKREPETAG
1070
     1
1071
      116
1005
12AF2A
  0
LINE
  5
12AF2B
  8
OBJECT
 10
4212.9999999999854
 20
-140.99999999999909
 30
0.0
 11
4176.9999999999854
 21
-140.99999999999909
 31
0.0
1001
ACDBBLOCKREPETAG
1070
     1
1071
      117
1005
12AF2B
  0
LINE
  5
12AF2C
  8
OBJECT
 10
4176.9999999999854
 20
-140.99999999999909
 30
0.0
 11
4176.9999999999854
 21
-258.99999999999909
 31
0.0
1001
ACDBBLOCKREPETAG
1070
     1
1071
      118
1005
12AF2C
  0
LINE
  5
12AF2D
  8
OBJECT
 10
4176.9999999999854
 20
-258.99999999999909
 30
0.0
 11
4212.9999999999854
 21
-258.99999999999909
 31
0.0
1001
ACDBBLOCKREPETAG
1070
     1
1071
      119
1005
12AF2D
  0
LINE
  5
12AF2E
  8
OBJECT
 10
4172.9999999999854
 20
-145.49999999999909
 30
0.0
 11
4159.9999999999854
 21
-145.49999999999909
 31
0.0
1001
ACDBBLOCKREPETAG
1070
     1
1071
      120
1005
12AF2E
  0
LINE
  5
12AF2F
  8
OBJECT
 10
4159.9999999999854
 20
-254.49999999999909
 30
0.0
 11
4172.9999999999854
 21
-254.49999999999909
 31
0.0
1001
ACDBBLOCKREPETAG
1070
     1
1071
      121
1005
12AF2F
  0
LINE
  5
12AF30
  8
OBJECT
 10
4172.9999999999854
 20
-254.49999999999909
 30
0.0
 11
4172.9999999999854
 21
-145.49999999999909
 31
0.0
1001
ACDBBLOCKREPETAG
1070
     1
1071
      122
1005
12AF30
  0
LINE
  5
12AF31
  8
OBJECT
 10
4176.9999999999854
 20
-140.99999999999909
 30
0.0
 11
4172.9999999999854
 21
-145.49999999999909
 31
0.0
1001
ACDBBLOCKREPETAG
1070
     1
1071
      123
1005
12AF31
  0
LINE
  5
12AF32
  8
OBJECT
 10
4176.9999999999854
 20
-258.99999999999909
 30
0.0
 11
4172.9999999999854
 21
-254.49999999999909
 31
0.0
1001
ACDBBLOCKREPETAG
1070
     1
1071
      124
1005
12AF32
  0
LINE
  5
12AF33
  8
OBJECT
 10
4083.0
 20
-137.99999999999909
 30
0.0
 11
4080.0
 21
-137.99999999999909
 31
0.0
1001
ACDBBLOCKREPETAG
1070
     1
1071
      125
1005
12AF33
  0
ARC
  5
12AF34
  8
OBJECT
 10
4083.0
 20
-140.99999999999909
 30
0.0
 40
3.0
 50
0.0
 51
90.0
1001
ACDBBLOCKREPETAG
1070
     1
1071
      126
1005
12AF34
  0
LINE
  5
12AF35
  8
OBJECT
 10
4080.0
 20
-261.99999999999909
 30
0.0
 11
4083.0
 21
-261.99999999999909
 31
0.0
1001
ACDBBLOCKREPETAG
1070
     1
1071
      127
1005
12AF35
  0
ARC
  5
12AF36
  8
OBJECT
 10
4083.0
 20
-258.99999999999909
 30
0.0
 40
3.0
 50
270.0
 51
0.0
1001
ACDBBLOCKREPETAG
1070
     1
1071
      128
1005
12AF36
  0
LINE
  5
12AF37
  8
OBJECT
 10
4086.0
 20
-258.99999999999909
 30
0.0
 11
4086.0
 21
-222.44994432063581
 31
0.0
1001
ACDBBLOCKREPETAG
1070
     1
1071
      129
1005
12AF37
  0
LINE
  5
12AF38
  8
OBJECT
 10
4086.0
 20
-177.55005567935859
 30
0.0
 11
4086.0
 21
-140.99999999999909
 31
0.0
1001
ACDBBLOCKREPETAG
1070
     1
1071
      130
1005
12AF38
  0
LINE
  5
12AF39
  8
HIDDEN
 10
4167.9999999999854
 20
-155.49999999999909
 30
0.0
 11
4167.9999999999854
 21
-244.49999999999909
 31
0.0
1001
ACDBBLOCKREPETAG
1070
     1
1071
      131
1005
12AF39
  0
LINE
  5
12AF3A
  8
OBJECT
 10
4159.9999749641847
 20
-254.4999509238105
 30
0.0
 11
4159.9999749641847
 21
-145.4999509238105
 31
0.0
1001
ACDBBLOCKREPETAG
1070
     1
1071
      133
1005
12AF3A
  0
ARC
  5
12AF3B
  8
OBJECT
 10
4125.0000000000018
 20
-199.99999999999909
 30
0.0
 40
45.000000000000547
 50
90.0
 51
270.0
1001
ACDBBLOCKREPETAG
1070
     1
1071
      134
1005
12AF3B
  0
LINE
  5
12AF3C
  8
OBJECT
 10
3787.000000000015
 20
-553.0
 30
0.0
 11
3780.000000000015
 21
-553.0
 31
0.0
1001
ACDBBLOCKREPETAG
1070
     1
1071
      106
1005
12AF3C
  0
LINE
  5
12AF3D
  8
OBJECT
 10
3780.000000000015
 20
-553.0
 30
0.0
 11
3780.000000000015
 21
-677.0
 31
0.0
1001
ACDBBLOCKREPETAG
1070
     1
1071
      107
1005
12AF3D
  0
LINE
  5
12AF3E
  8
OBJECT
 10
3914.0000000000159
 20
-653.3502637757274
 30
0.0
 11
3914.0000000000159
 21
-755.00000000000102
 31
0.0
1001
ACDBBLOCKREPETAG
1070
     1
1071
      108
1005
12AF3E
  0
LINE
  5
12AF3F
  8
OBJECT
 10
3780.000000000015
 20
-677.0
 30
0.0
 11
3787.000000000015
 21
-677.0
 31
0.0
1001
ACDBBLOCKREPETAG
1070
     1
1071
      109
1005
12AF3F
  0
LINE
  5
12AF40
  8
OBJECT
 10
3787.000000000015
 20
-677.0
 30
0.0
 11
3787.000000000015
 21
-553.0
 31
0.0
1001
ACDBBLOCKREPETAG
1070
     1
1071
      110
1005
12AF40
  0
LINE
  5
12AF41
  8
CENTER
 10
3855.0000000000141
 20
-615.0000000000008
 30
0.0
 11
3765.0000000000159
 21
-615.0
 31
0.0
1001
ACDBBLOCKREPETAG
1070
     1
1071
      111
1005
12AF41
  0
LINE
  5
12AF42
  8
OBJECT
 10
3920.0000000000182
 20
-758.0
 30
0.0
 11
3917.0000000000141
 21
-758.0000000000008
 31
0.0
1001
ACDBBLOCKREPETAG
1070
     1
1071
      112
1005
12AF42
  0
ARC
  5
12AF43
  8
OBJECT
 10
3917.0000000000141
 20
-755.00000000000102
 30
0.0
 40
3.0
 50
180.0
 51
270.0
1001
ACDBBLOCKREPETAG
1070
     1
1071
      113
1005
12AF43
  0
LINE
  5
12AF44
  8
OBJECT
 10
3787.000000000015
 20
-556.0
 30
0.0
 11
3823.0000000000141
 21
-556.0000000000008
 31
0.0
1001
ACDBBLOCKREPETAG
1070
     1
1071
      114
1005
12AF44
  0
LINE
  5
12AF45
  8
OBJECT
 10
3823.0000000000141
 20
-556.0000000000008
 30
0.0
 11
3823.0000000000141
 21
-653.15756805667843
 31
0.0
1001
ACDBBLOCKREPETAG
1070
     1
1071
      115
1005
12AF45
  0
LINE
  5
12AF46
  8
OBJECT
 10
3827.000000000015
 20
-560.5000000000008
 30
0.0
 11
3827.0000000000182
 21
-645.74491827928705
 31
0.0
1001
ACDBBLOCKREPETAG
1070
     1
1071
      116
1005
12AF46
  0
LINE
  5
12AF47
  8
OBJECT
 10
3827.000000000015
 20
-560.5000000000008
 30
0.0
 11
3840.0000000000159
 21
-560.5000000000008
 31
0.0
1001
ACDBBLOCKREPETAG
1070
     1
1071
      117
1005
12AF47
  0
LINE
  5
12AF48
  8
OBJECT
 10
3831.3436831745321
 20
-674.0000000000008
 30
0.0
 11
3787.000000000015
 21
-674.0
 31
0.0
1001
ACDBBLOCKREPETAG
1070
     1
1071
      118
1005
12AF48
  0
LINE
  5
12AF49
  8
OBJECT
 10
3823.0000000000141
 20
-556.0000000000008
 30
0.0
 11
3827.000000000015
 21
-560.5000000000008
 31
0.0
1001
ACDBBLOCKREPETAG
1070
     1
1071
      119
1005
12AF49
  0
LINE
  5
12AF4A
  8
OBJECT
 10
3840.0000000000159
 20
-560.5000000000008
 30
0.0
 11
3840.0000000000159
 21
-645.74491827928784
 31
0.0
1001
ACDBBLOCKREPETAG
1070
     1
1071
      120
1005
12AF4A
  0
ARC
  5
12AF4B
  8
OBJECT
 10
3908.000000000015
 20
-637.27386365609345
 30
0.0
 40
85.0
 50
205.59913872187661
 51
231.40900676279119
1001
ACDBBLOCKREPETAG
1070
     1
1071
      121
1005
12AF4B
  0
ARC
  5
12AF4C
  8
OBJECT
 10
3837.2000000000162
 20
-655.00000000000068
 30
0.0
 40
85.0
 50
19.925932125430649
 51
88.112268108168848
1001
ACDBBLOCKREPETAG
1070
     1
1071
      122
1005
12AF4C
  0
LINE
  5
12AF4D
  8
OBJECT
 10
3914.0000000000159
 20
-750.81075719270905
 30
0.0
 11
3854.9806774563981
 21
-703.71143914629454
 31
0.0
1001
ACDBBLOCKREPETAG
1070
     1
1071
      123
1005
12AF4D
  0
LINE
  5
12AF4E
  8
OBJECT
 10
3827.0000000000182
 20
-645.74491827928705
 30
0.0
 11
3840.0000000000159
 21
-645.74491827928784
 31
0.0
1001
ACDBBLOCKREPETAG
1070
     1
1071
      124
1005
12AF4E
  0
LINE
  5
12AF4F
  8
OBJECT
 10
3823.0000000000141
 20
-653.15756805667843
 30
0.0
 11
3827.0000000000182
 21
-645.74491827928705
 31
0.0
1001
ACDBBLOCKREPETAG
1070
     1
1071
      125
1005
12AF4F
  0
LINE
  5
12AF50
  8
OBJECT
 10
3919.9999999999818
 20
-634.0
 30
0.0
 11
3917.111387840378
 21
-626.03156729425325
 31
0.0
1001
ACDBBLOCKREPETAG
1070
     1
1071
      126
1005
12AF50
  0
LINE
  5
12AF51
  8
OBJECT
 10
3919.9999999999818
 20
-634.0
 30
0.0
 11
3914.0000000000159
 21
-653.3502637757274
 31
0.0
1001
ACDBBLOCKREPETAG
1070
     1
1071
      127
1005
12AF51
  0
LINE
  5
12AF52
  8
HIDDEN
 10
3832.0000000000159
 20
-570.5000000000008
 30
0.0
 11
3832.0000000000159
 21
-659.50000000000068
 31
0.0
1001
ACDBBLOCKREPETAG
1070
     1
1071
      129
1005
12AF52
  0
CIRCLE
  5
12AF53
  8
OBJECT
 10
4000.0
 20
-696.0
 30
0.0
 40
62.0
1001
ACDBBLOCKREPETAG
1070
     1
1071
        0
1005
12AF53
  0
LINE
  5
12AF54
  8
OBJECT
 10
4212.9999999999854
 20
-553.0000000000008
 30
0.0
 11
4219.9999999999854
 21
-553.0000000000008
 31
0.0
1001
ACDBBLOCKREPETAG
1070
     1
1071
      106
1005
12AF54
  0
LINE
  5
12AF55
  8
OBJECT
 10
4219.9999999999854
 20
-553.0000000000008
 30
0.0
 11
4219.9999999999854
 21
-677.0000000000008
 31
0.0
1001
ACDBBLOCKREPETAG
1070
     1
1071
      107
1005
12AF55
  0
LINE
  5
12AF56
  8
OBJECT
 10
4085.9999999999859
 20
-653.3502637757274
 30
0.0
 11
4085.9999999999859
 21
-755.00000000000102
 31
0.0
1001
ACDBBLOCKREPETAG
1070
     1
1071
      108
1005
12AF56
  0
LINE
  5
12AF57
  8
OBJECT
 10
4219.9999999999854
 20
-677.0000000000008
 30
0.0
 11
4212.9999999999854
 21
-677.0000000000008
 31
0.0
1001
ACDBBLOCKREPETAG
1070
     1
1071
      109
1005
12AF57
  0
LINE
  5
12AF58
  8
OBJECT
 10
4212.9999999999854
 20
-677.0000000000008
 30
0.0
 11
4212.9999999999854
 21
-553.0000000000008
 31
0.0
1001
ACDBBLOCKREPETAG
1070
     1
1071
      110
1005
12AF58
  0
LINE
  5
12AF59
  8
CENTER
 10
4144.9999999999854
 20
-615.0000000000008
 30
0.0
 11
4234.9999999999854
 21
-615.0000000000008
 31
0.0
1001
ACDBBLOCKREPETAG
1070
     1
1071
      111
1005
12AF59
  0
LINE
  5
12AF5A
  8
OBJECT
 10
4079.9999999999818
 20
-758.0
 30
0.0
 11
4082.999999999985
 21
-758.0000000000008
 31
0.0
1001
ACDBBLOCKREPETAG
1070
     1
1071
      112
1005
12AF5A
  0
ARC
  5
12AF5B
  8
OBJECT
 10
4082.999999999985
 20
-755.00000000000102
 30
0.0
 40
3.0
 50
270.0
 51
0.0
1001
ACDBBLOCKREPETAG
1070
     1
1071
      113
1005
12AF5B
  0
LINE
  5
12AF5C
  8
OBJECT
 10
4212.9999999999854
 20
-556.0000000000008
 30
0.0
 11
4176.9999999999854
 21
-556.0000000000008
 31
0.0
1001
ACDBBLOCKREPETAG
1070
     1
1071
      114
1005
12AF5C
  0
LINE
  5
12AF5D
  8
OBJECT
 10
4176.9999999999854
 20
-556.0000000000008
 30
0.0
 11
4176.9999999999854
 21
-653.15756805667843
 31
0.0
1001
ACDBBLOCKREPETAG
1070
     1
1071
      115
1005
12AF5D
  0
LINE
  5
12AF5E
  8
OBJECT
 10
4172.9999999999854
 20
-560.5000000000008
 30
0.0
 11
4172.9999999999818
 21
-645.74491827928705
 31
0.0
1001
ACDBBLOCKREPETAG
1070
     1
1071
      116
1005
12AF5E
  0
LINE
  5
12AF5F
  8
OBJECT
 10
4172.9999999999854
 20
-560.5000000000008
 30
0.0
 11
4159.9999999999854
 21
-560.5000000000008
 31
0.0
1001
ACDBBLOCKREPETAG
1070
     1
1071
      117
1005
12AF5F
  0
LINE
  5
12AF60
  8
OBJECT
 10
4168.6563168254679
 20
-674.0000000000008
 30
0.0
 11
4212.9999999999854
 21
-674.0000000000008
 31
0.0
1001
ACDBBLOCKREPETAG
1070
     1
1071
      118
1005
12AF60
  0
LINE
  5
12AF61
  8
OBJECT
 10
4176.9999999999854
 20
-556.0000000000008
 30
0.0
 11
4172.9999999999854
 21
-560.5000000000008
 31
0.0
1001
ACDBBLOCKREPETAG
1070
     1
1071
      119
1005
12AF61
  0
LINE
  5
12AF62
  8
OBJECT
 10
4159.9999999999854
 20
-560.5000000000008
 30
0.0
 11
4159.9999999999854
 21
-645.74491827928784
 31
0.0
1001
ACDBBLOCKREPETAG
1070
     1
1071
      120
1005
12AF62
  0
ARC
  5
12AF63
  8
OBJECT
 10
4091.9999999999841
 20
-637.27386365609345
 30
0.0
 40
85.0
 50
308.59099323720869
 51
334.40086127812339
1001
ACDBBLOCKREPETAG
1070
     1
1071
      121
1005
12AF63
  0
ARC
  5
12AF64
  8
OBJECT
 10
4162.7999999999847
 20
-655.00000000000068
 30
0.0
 40
85.0
 50
91.887731891831123
 51
160.07406787456929
1001
ACDBBLOCKREPETAG
1070
     1
1071
      122
1005
12AF64
  0
LINE
  5
12AF65
  8
OBJECT
 10
4085.9999999999859
 20
-750.81075719270905
 30
0.0
 11
4145.0193225436024
 21
-703.71143914629454
 31
0.0
1001
ACDBBLOCKREPETAG
1070
     1
1071
      123
1005
12AF65
  0
LINE
  5
12AF66
  8
OBJECT
 10
4172.9999999999818
 20
-645.74491827928705
 30
0.0
 11
4159.9999999999854
 21
-645.74491827928784
 31
0.0
1001
ACDBBLOCKREPETAG
1070
     1
1071
      124
1005
12AF66
  0
LINE
  5
12AF67
  8
OBJECT
 10
4176.9999999999854
 20
-653.15756805667843
 30
0.0
 11
4172.9999999999818
 21
-645.74491827928705
 31
0.0
1001
ACDBBLOCKREPETAG
1070
     1
1071
      125
1005
12AF67
  0
LINE
  5
12AF68
  8
OBJECT
 10
4080.0000000000168
 20
-634.0
 30
0.0
 11
4082.8886121596229
 21
-626.03156729425325
 31
0.0
1001
ACDBBLOCKREPETAG
1070
     1
1071
      126
1005
12AF68
  0
LINE
  5
12AF69
  8
OBJECT
 10
4080.0000000000168
 20
-634.0
 30
0.0
 11
4085.9999999999859
 21
-653.3502637757274
 31
0.0
1001
ACDBBLOCKREPETAG
1070
     1
1071
      127
1005
12AF69
  0
LINE
  5
12AF6A
  8
HIDDEN
 10
4167.9999999999854
 20
-570.5000000000008
 30
0.0
 11
4167.9999999999854
 21
-659.50000000000068
 31
0.0
1001
ACDBBLOCKREPETAG
1070
     1
1071
      129
1005
12AF6A
  0
LINE
  5
12AF6B
  8
OBJECT
 10
1923.0
 20
-570.99999999999432
 30
0.0
 11
1923.0
 21
-549.99999999999432
 31
0.0
1001
ACDBBLOCKREPETAG
1070
     1
1071
       36
1005
12AF6B
  0
LINE
  5
12AF6C
  8
OBJECT
 10
1923.0
 20
-549.99999999999432
 30
0.0
 11
2077.0
 21
-549.99999999999432
 31
0.0
1001
ACDBBLOCKREPETAG
1070
     1
1071
       37
1005
12AF6C
  0
LINE
  5
12AF6D
  8
HIDDEN
 10
1943.0
 20
-619.99999999999432
 30
0.0
 11
2057.0
 21
-619.99999999999432
 31
0.0
1001
ACDBBLOCKREPETAG
1070
     1
1071
       38
1005
12AF6D
  0
LINE
  5
12AF6E
  8
OBJECT
 10
2077.0
 20
-549.99999999999432
 30
0.0
 11
2077.0
 21
-570.99999999999432
 31
0.0
1001
ACDBBLOCKREPETAG
1070
     1
1071
       39
1005
12AF6E
  0
LINE
  5
12AF6F
  8
OBJECT
 10
2077.0
 20
-570.99999999999432
 30
0.0
 11
1923.0
 21
-570.99999999999432
 31
0.0
1001
ACDBBLOCKREPETAG
1070
     1
1071
       40
1005
12AF6F
  0
LINE
  5
12AF70
  8
CENTER
 10
2000.0
 20
-534.99999999999432
 30
0.0
 11
2000.0
 21
-769.9999999999942
 31
0.0
1001
ACDBBLOCKREPETAG
1070
     1
1071
       41
1005
12AF70
  0
LINE
  5
12AF71
  8
OBJECT
 10
1928.0
 20
-570.99999999999432
 30
0.0
 11
1928.0
 21
-633.99999999999432
 31
0.0
1001
ACDBBLOCKREPETAG
1070
     1
1071
       42
1005
12AF71
  0
LINE
  5
12AF72
  8
OBJECT
 10
2072.0
 20
-633.99999999999432
 30
0.0
 11
2072.0
 21
-570.99999999999432
 31
0.0
1001
ACDBBLOCKREPETAG
1070
     1
1071
       43
1005
12AF72
  0
LINE
  5
12AF73
  8
OBJECT
 10
1920.0
 20
-757.9999999999942
 30
0.0
 11
2080.0
 21
-757.9999999999942
 31
0.0
1001
ACDBBLOCKREPETAG
1070
     1
1071
       44
1005
12AF73
  0
LINE
  5
12AF74
  8
OBJECT
 10
2080.0
 20
-633.99999999999432
 30
0.0
 11
1920.0
 21
-633.99999999999432
 31
0.0
1001
ACDBBLOCKREPETAG
1070
     1
1071
       45
1005
12AF74
  0
LINE
  5
12AF75
  8
OBJECT
 10
1920.0
 20
-757.9999999999942
 30
0.0
 11
1920.0
 21
-769.9999999999942
 31
0.0
1001
ACDBBLOCKREPETAG
1070
     1
1071
       46
1005
12AF75
  0
LINE
  5
12AF76
  8
OBJECT
 10
1920.0
 20
-769.9999999999942
 30
0.0
 11
2080.0
 21
-769.9999999999942
 31
0.0
1001
ACDBBLOCKREPETAG
1070
     1
1071
       47
1005
12AF76
  0
LINE
  5
12AF77
  8
OBJECT
 10
2080.0
 20
-769.9999999999942
 30
0.0
 11
2080.0
 21
-757.9999999999942
 31
0.0
1001
ACDBBLOCKREPETAG
1070
     1
1071
       48
1005
12AF77
  0
ARC
  5
12AF78
  8
OBJECT
 10
2200.6872746716731
 20
-749.40809941010195
 30
0.0
 40
170.6350503965856
 50
137.44134459184301
 51
149.91949581336559
1001
ACDBBLOCKREPETAG
1070
     1
1071
       52
1005
12AF78
  0
ARC
  5
12AF79
  8
OBJECT
 10
2200.6872746716731
 20
-642.59190058988645
 30
0.0
 40
170.6350503965856
 50
210.0805041866343
 51
222.55865540815699
1001
ACDBBLOCKREPETAG
1070
     1
1071
       53
1005
12AF79
  0
ARC
  5
12AF7A
  8
OBJECT
 10
1799.312725328326
 20
-749.40809941010195
 30
0.0
 40
170.6350503965856
 50
30.080504186774089
 51
42.558655408447443
1001
ACDBBLOCKREPETAG
1070
     1
1071
       54
1005
12AF7A
  0
ARC
  5
12AF7B
  8
OBJECT
 10
1799.312725328326
 20
-642.59190058988645
 30
0.0
 40
170.6350503965856
 50
317.44134459155248
 51
329.91949581322592
1001
ACDBBLOCKREPETAG
1070
     1
1071
       55
1005
12AF7B
  0
POINT
  5
12AF7C
  8
DOTS
 10
2000.0
 20
-754.9999999999942
 30
0.0
1001
ACDBBLOCKREPETAG
1070
     1
1071
      184
1005
12AF7C
  0
LINE
  5
12AF7D
  8
OBJECT
 10
1969.4199755553
 20
-243.89888500818171
 30
0.0
 11
1979.856491823236
 21
-222.48688253356801
 31
0.0
1001
ACDBBLOCKREPETAG
1070
     1
1071
      305
1005
12AF7D
  0
LINE
  5
12AF7E
  8
OBJECT
 10
1965.2972169006091
 20
-240.71813901882729
 30
0.0
 11
1973.907102266508
 21
-223.05373004430751
 31
0.0
1001
ACDBBLOCKREPETAG
1070
     1
1071
      306
1005
12AF7E
  0
LINE
  5
12AF7F
  8
OBJECT
 10
2024.102933093302
 20
-243.80694712371681
 30
0.0
 11
2020.659656999997
 21
-232.55462199999889
 31
0.0
1001
ACDBBLOCKREPETAG
1070
     1
1071
      307
1005
12AF7F
  0
ARC
  5
12AF80
  8
OBJECT
 10
1976.579695307315
 20
-207.1289369828437
 30
0.0
 40
60.031113246032611
 50
314.07020130418567
 51
322.33936106091278
1001
ACDBBLOCKREPETAG
1070
     1
1071
      308
1005
12AF80
  0
LINE
  5
12AF81
  8
OBJECT
 10
1986.7927499013749
 20
-218.22553374208019
 30
0.0
 11
2020.659656999997
 21
-232.5546219999969
 31
0.0
1001
ACDBBLOCKREPETAG
1070
     1
1071
      309
1005
12AF81
  0
ARC
  5
12AF82
  8
OBJECT
 10
1982.8961697619
 20
-227.4351299990567
 30
0.0
 40
10.0
 50
67.066778292923374
 51
154.0147343702935
1001
ACDBBLOCKREPETAG
1070
     1
1071
      310
1005
12AF82
  0
ARC
  5
12AF83
  8
OBJECT
 10
1986.1488390381271
 20
-225.55386256729159
 30
0.0
 40
7.0
 50
67.066778292923374
 51
154.01473377497121
1001
ACDBBLOCKREPETAG
1070
     1
1071
      311
1005
12AF83
  0
CIRCLE
  5
12AF84
  8
OBJECT
 10
2000.0
 20
-199.99999999999909
 30
0.0
 40
53.5
1001
ACDBBLOCKREPETAG
1070
     1
1071
      340
1005
12AF84
  0
POINT
  5
12AF85
  8
DOTS
 10
2000.0
 20
-199.99999999999909
 30
0.0
 50
270.0
1001
ACDBBLOCKREPETAG
1070
     1
1071
      153
1005
12AF85
  0
ARC
  5
12AF86
  8
OBJECT
 10
2000.0
 20
-199.99999999999909
 30
0.0
 40
50.0
 50
298.81994300000417
 51
228.52376955967449
1001
ACDBBLOCKREPETAG
1070
     1
1071
       48
1005
12AF86
  0
LINE
  5
12AF87
  8
CENTER
 10
2080.0
 20
-199.99999999999909
 30
0.0
 11
1920.0
 21
-199.99999999999909
 31
0.0
1001
ACDBBLOCKREPETAG
1070
     1
1071
       49
1005
12AF87
  0
LINE
  5
12AF88
  8
CENTER
 10
2000.0
 20
-279.99999999999909
 30
0.0
 11
2000.0
 21
-104.9999999999991
 31
0.0
1001
ACDBBLOCKREPETAG
1070
     1
1071
       50
1005
12AF88
  0
CIRCLE
  5
12AF89
  8
OBJECT
 10
2000.0
 20
-199.99999999999909
 30
0.0
 40
70.0
1001
ACDBBLOCKREPETAG
1070
     1
1071
       51
1005
12AF89
  0
CIRCLE
  5
12AF8A
  8
OBJECT
 10
2000.0
 20
-199.99999999999909
 30
0.0
 40
77.0
1001
ACDBBLOCKREPETAG
1070
     1
1071
       52
1005
12AF8A
  0
ARC
  5
12AF8B
  8
OBJECT
 10
2000.0
 20
-199.99999999999909
 30
0.0
 40
80.0
 50
50.805032573864182
 51
129.1949674261358
1001
ACDBBLOCKREPETAG
1070
     1
1071
       53
1005
12AF8B
  0
LINE
  5
12AF8C
  8
OBJECT
 10
2045.6618002273251
 20
-137.99999999999909
 30
0.0
 11
2080.0
 21
-137.99999999999909
 31
0.0
1001
ACDBBLOCKREPETAG
1070
     1
1071
       54
1005
12AF8C
  0
LINE
  5
12AF8D
  8
OBJECT
 10
2062.0
 20
-261.99999999999909
 30
0.0
 11
2080.0
 21
-261.99999999999909
 31
0.0
1001
ACDBBLOCKREPETAG
1070
     1
1071
       55
1005
12AF8D
  0
LINE
  5
12AF8E
  8
OBJECT
 10
2062.0
 20
-261.99999999999909
 30
0.0
 11
2062.0
 21
-279.99999999999909
 31
0.0
1001
ACDBBLOCKREPETAG
1070
     1
1071
       57
1005
12AF8E
  0
LINE
  5
12AF8F
  8
OBJECT
 10
1938.0
 20
-261.99999999999909
 30
0.0
 11
1938.0
 21
-279.99999999999909
 31
0.0
1001
ACDBBLOCKREPETAG
1070
     1
1071
       58
1005
12AF8F
  0
LINE
  5
12AF90
  8
OBJECT
 10
1938.0
 20
-261.99999999999909
 30
0.0
 11
1920.0
 21
-261.99999999999909
 31
0.0
1001
ACDBBLOCKREPETAG
1070
     1
1071
       60
1005
12AF90
  0
LINE
  5
12AF91
  8
OBJECT
 10
1954.3381997726749
 20
-137.99999999999909
 30
0.0
 11
1920.0
 21
-137.99999999999909
 31
0.0
1001
ACDBBLOCKREPETAG
1070
     1
1071
       61
1005
12AF91
  0
LINE
  5
12AF92
  8
OBJECT
 10
1945.5527778486351
 20
-254.44722215136329
 30
0.0
 11
1938.0
 21
-261.99999999999909
 31
0.0
1001
ACDBBLOCKREPETAG
1070
     1
1071
       42
1005
12AF92
  0
LINE
  5
12AF93
  8
OBJECT
 10
2054.4472221513638
 20
-254.44722215136329
 30
0.0
 11
2062.0
 21
-261.99999999999909
 31
0.0
1001
ACDBBLOCKREPETAG
1070
     1
1071
       43
1005
12AF93
  0
LINE
  5
12AF94
  8
OBJECT
 10
1787.000000000018
 20
-137.99999999999909
 30
0.0
 11
1780.000000000018
 21
-137.99999999999909
 31
0.0
1001
ACDBBLOCKREPETAG
1070
     1
1071
      110
1005
12AF94
  0
LINE
  5
12AF95
  8
OBJECT
 10
1780.000000000018
 20
-137.99999999999909
 30
0.0
 11
1780.000000000018
 21
-261.99999999999909
 31
0.0
1001
ACDBBLOCKREPETAG
1070
     1
1071
      111
1005
12AF95
  0
LINE
  5
12AF96
  8
OBJECT
 10
1780.000000000018
 20
-261.99999999999909
 30
0.0
 11
1787.000000000018
 21
-261.99999999999909
 31
0.0
1001
ACDBBLOCKREPETAG
1070
     1
1071
      112
1005
12AF96
  0
LINE
  5
12AF97
  8
OBJECT
 10
1787.000000000018
 20
-261.99999999999909
 30
0.0
 11
1787.000000000018
 21
-137.99999999999909
 31
0.0
1001
ACDBBLOCKREPETAG
1070
     1
1071
      113
1005
12AF97
  0
LINE
  5
12AF98
  8
CENTER
 10
1765.000000000018
 20
-199.99999999999909
 30
0.0
 11
1920.0
 21
-199.99999999999909
 31
0.0
1001
ACDBBLOCKREPETAG
1070
     1
1071
      114
1005
12AF98
  0
LINE
  5
12AF99
  8
OBJECT
 10
1840.0000250358171
 20
-245.0000000000027
 30
0.0
 11
1914.000000000003
 21
-244.99999999999909
 31
0.0
1001
ACDBBLOCKREPETAG
1070
     1
1071
      115
1005
12AF99
  0
LINE
  5
12AF9A
  8
OBJECT
 10
1840.0000250358171
 20
-154.99999999999909
 30
0.0
 11
1914.000000000003
 21
-154.99999999999909
 31
0.0
1001
ACDBBLOCKREPETAG
1070
     1
1071
      116
1005
12AF9A
  0
LINE
  5
12AF9B
  8
OBJECT
 10
1787.000000000018
 20
-140.99999999999909
 30
0.0
 11
1823.000000000018
 21
-140.99999999999909
 31
0.0
1001
ACDBBLOCKREPETAG
1070
     1
1071
      117
1005
12AF9B
  0
LINE
  5
12AF9C
  8
OBJECT
 10
1823.000000000018
 20
-140.99999999999909
 30
0.0
 11
1823.000000000018
 21
-258.99999999999909
 31
0.0
1001
ACDBBLOCKREPETAG
1070
     1
1071
      118
1005
12AF9C
  0
LINE
  5
12AF9D
  8
OBJECT
 10
1823.000000000018
 20
-258.99999999999909
 30
0.0
 11
1787.000000000018
 21
-258.99999999999909
 31
0.0
1001
ACDBBLOCKREPETAG
1070
     1
1071
      119
1005
12AF9D
  0
LINE
  5
12AF9E
  8
OBJECT
 10
1827.000000000018
 20
-145.49999999999909
 30
0.0
 11
1840.000000000018
 21
-145.49999999999909
 31
0.0
1001
ACDBBLOCKREPETAG
1070
     1
1071
      120
1005
12AF9E
  0
LINE
  5
12AF9F
  8
OBJECT
 10
1840.000000000018
 20
-254.49999999999909
 30
0.0
 11
1827.000000000018
 21
-254.49999999999909
 31
0.0
1001
ACDBBLOCKREPETAG
1070
     1
1071
      121
1005
12AF9F
  0
LINE
  5
12AFA0
  8
OBJECT
 10
1827.000000000018
 20
-254.49999999999909
 30
0.0
 11
1827.000000000018
 21
-145.49999999999909
 31
0.0
1001
ACDBBLOCKREPETAG
1070
     1
1071
      122
1005
12AFA0
  0
LINE
  5
12AFA1
  8
OBJECT
 10
1823.000000000018
 20
-140.99999999999909
 30
0.0
 11
1827.000000000018
 21
-145.49999999999909
 31
0.0
1001
ACDBBLOCKREPETAG
1070
     1
1071
      123
1005
12AFA1
  0
LINE
  5
12AFA2
  8
OBJECT
 10
1823.000000000018
 20
-258.99999999999909
 30
0.0
 11
1827.000000000018
 21
-254.49999999999909
 31
0.0
1001
ACDBBLOCKREPETAG
1070
     1
1071
      124
1005
12AFA2
  0
LINE
  5
12AFA3
  8
OBJECT
 10
1917.0000000000041
 20
-137.99999999999909
 30
0.0
 11
1920.0000000000041
 21
-137.99999999999909
 31
0.0
1001
ACDBBLOCKREPETAG
1070
     1
1071
      125
1005
12AFA3
  0
ARC
  5
12AFA4
  8
OBJECT
 10
1917.0000000000041
 20
-140.99999999999909
 30
0.0
 40
3.0
 50
90.0
 51
180.0
1001
ACDBBLOCKREPETAG
1070
     1
1071
      126
1005
12AFA4
  0
LINE
  5
12AFA5
  8
OBJECT
 10
1920.0000000000041
 20
-261.99999999999909
 30
0.0
 11
1917.0000000000041
 21
-261.99999999999909
 31
0.0
1001
ACDBBLOCKREPETAG
1070
     1
1071
      127
1005
12AFA5
  0
ARC
  5
12AFA6
  8
OBJECT
 10
1917.0000000000041
 20
-258.99999999999909
 30
0.0
 40
3.0
 50
180.0
 51
270.0
1001
ACDBBLOCKREPETAG
1070
     1
1071
      128
1005
12AFA6
  0
LINE
  5
12AFA7
  8
OBJECT
 10
1914.000000000003
 20
-258.99999999999909
 30
0.0
 11
1914.000000000003
 21
-222.44994432063581
 31
0.0
1001
ACDBBLOCKREPETAG
1070
     1
1071
      129
1005
12AFA7
  0
LINE
  5
12AFA8
  8
OBJECT
 10
1914.000000000003
 20
-177.55005567935859
 30
0.0
 11
1914.000000000003
 21
-140.99999999999909
 31
0.0
1001
ACDBBLOCKREPETAG
1070
     1
1071
      130
1005
12AFA8
  0
LINE
  5
12AFA9
  8
HIDDEN
 10
1832.000000000018
 20
-155.49999999999909
 30
0.0
 11
1832.000000000018
 21
-244.49999999999909
 31
0.0
1001
ACDBBLOCKREPETAG
1070
     1
1071
      131
1005
12AFA9
  0
LINE
  5
12AFAA
  8
OBJECT
 10
1840.0000250358171
 20
-254.4999509238105
 30
0.0
 11
1840.0000250358171
 21
-145.4999509238105
 31
0.0
1001
ACDBBLOCKREPETAG
1070
     1
1071
      133
1005
12AFAA
  0
ARC
  5
12AFAB
  8
OBJECT
 10
1875.0
 20
-199.99999999999909
 30
0.0
 40
45.000000000000547
 50
270.0
 51
90.0
1001
ACDBBLOCKREPETAG
1070
     1
1071
      134
1005
12AFAB
  0
LINE
  5
12AFAC
  8
CENTER
 10
2000.0
 20
-300.99999999999898
 30
0.0
 11
2000.0
 21
-279.99999999999909
 31
0.0
1001
ACDBBLOCKREPETAG
1070
     1
1071
        0
1005
12AFAC
  0
LINE
  5
12AFAD
  8
OBJECT
 10
2062.0
 20
-283.0
 30
0.0
 11
2062.0
 21
-279.99999999999909
 31
0.0
1001
ACDBBLOCKREPETAG
1070
     1
1071
        1
1005
12AFAD
  0
ARC
  5
12AFAE
  8
OBJECT
 10
2059.0
 20
-283.0
 30
0.0
 40
3.0
 50
270.0
 51
0.0
1001
ACDBBLOCKREPETAG
1070
     1
1071
        2
1005
12AFAE
  0
LINE
  5
12AFAF
  8
OBJECT
 10
1938.0
 20
-279.99999999999909
 30
0.0
 11
1938.0
 21
-282.99999999999818
 31
0.0
1001
ACDBBLOCKREPETAG
1070
     1
1071
        3
1005
12AFAF
  0
ARC
  5
12AFB0
  8
OBJECT
 10
1941.0
 20
-282.99999999999818
 30
0.0
 40
3.0
 50
180.0
 51
270.0
1001
ACDBBLOCKREPETAG
1070
     1
1071
        4
1005
12AFB0
  0
LINE
  5
12AFB1
  8
OBJECT
 10
1941.0
 20
-285.99999999999818
 30
0.0
 11
2059.0
 21
-286.0
 31
0.0
1001
ACDBBLOCKREPETAG
1070
     1
1071
        5
1005
12AFB1
  0
LINE
  5
12AFB2
  8
OBJECT
 10
2212.999999999985
 20
-137.99999999999909
 30
0.0
 11
2219.999999999985
 21
-137.99999999999909
 31
0.0
1001
ACDBBLOCKREPETAG
1070
     1
1071
      110
1005
12AFB2
  0
LINE
  5
12AFB3
  8
OBJECT
 10
2219.999999999985
 20
-137.99999999999909
 30
0.0
 11
2219.999999999985
 21
-261.99999999999909
 31
0.0
1001
ACDBBLOCKREPETAG
1070
     1
1071
      111
1005
12AFB3
  0
LINE
  5
12AFB4
  8
OBJECT
 10
2219.999999999985
 20
-261.99999999999909
 30
0.0
 11
2212.999999999985
 21
-261.99999999999909
 31
0.0
1001
ACDBBLOCKREPETAG
1070
     1
1071
      112
1005
12AFB4
  0
LINE
  5
12AFB5
  8
OBJECT
 10
2212.999999999985
 20
-261.99999999999909
 30
0.0
 11
2212.999999999985
 21
-137.99999999999909
 31
0.0
1001
ACDBBLOCKREPETAG
1070
     1
1071
      113
1005
12AFB5
  0
LINE
  5
12AFB6
  8
CENTER
 10
2234.9999999999859
 20
-199.99999999999909
 30
0.0
 11
2080.0000000000041
 21
-199.99999999999909
 31
0.0
1001
ACDBBLOCKREPETAG
1070
     1
1071
      114
1005
12AFB6
  0
LINE
  5
12AFB7
  8
OBJECT
 10
2159.999974964187
 20
-245.0000000000027
 30
0.0
 11
2086.0
 21
-244.99999999999909
 31
0.0
1001
ACDBBLOCKREPETAG
1070
     1
1071
      115
1005
12AFB7
  0
LINE
  5
12AFB8
  8
OBJECT
 10
2159.999974964187
 20
-154.99999999999909
 30
0.0
 11
2086.0
 21
-154.99999999999909
 31
0.0
1001
ACDBBLOCKREPETAG
1070
     1
1071
      116
1005
12AFB8
  0
LINE
  5
12AFB9
  8
OBJECT
 10
2212.999999999985
 20
-140.99999999999909
 30
0.0
 11
2176.999999999985
 21
-140.99999999999909
 31
0.0
1001
ACDBBLOCKREPETAG
1070
     1
1071
      117
1005
12AFB9
  0
LINE
  5
12AFBA
  8
OBJECT
 10
2176.999999999985
 20
-140.99999999999909
 30
0.0
 11
2176.999999999985
 21
-258.99999999999909
 31
0.0
1001
ACDBBLOCKREPETAG
1070
     1
1071
      118
1005
12AFBA
  0
LINE
  5
12AFBB
  8
OBJECT
 10
2176.999999999985
 20
-258.99999999999909
 30
0.0
 11
2212.999999999985
 21
-258.99999999999909
 31
0.0
1001
ACDBBLOCKREPETAG
1070
     1
1071
      119
1005
12AFBB
  0
LINE
  5
12AFBC
  8
OBJECT
 10
2172.999999999985
 20
-145.49999999999909
 30
0.0
 11
2159.999999999985
 21
-145.49999999999909
 31
0.0
1001
ACDBBLOCKREPETAG
1070
     1
1071
      120
1005
12AFBC
  0
LINE
  5
12AFBD
  8
OBJECT
 10
2159.999999999985
 20
-254.49999999999909
 30
0.0
 11
2172.999999999985
 21
-254.49999999999909
 31
0.0
1001
ACDBBLOCKREPETAG
1070
     1
1071
      121
1005
12AFBD
  0
LINE
  5
12AFBE
  8
OBJECT
 10
2172.999999999985
 20
-254.49999999999909
 30
0.0
 11
2172.999999999985
 21
-145.49999999999909
 31
0.0
1001
ACDBBLOCKREPETAG
1070
     1
1071
      122
1005
12AFBE
  0
LINE
  5
12AFBF
  8
OBJECT
 10
2176.999999999985
 20
-140.99999999999909
 30
0.0
 11
2172.999999999985
 21
-145.49999999999909
 31
0.0
1001
ACDBBLOCKREPETAG
1070
     1
1071
      123
1005
12AFBF
  0
LINE
  5
12AFC0
  8
OBJECT
 10
2176.999999999985
 20
-258.99999999999909
 30
0.0
 11
2172.999999999985
 21
-254.49999999999909
 31
0.0
1001
ACDBBLOCKREPETAG
1070
     1
1071
      124
1005
12AFC0
  0
LINE
  5
12AFC1
  8
OBJECT
 10
2083.0
 20
-137.99999999999909
 30
0.0
 11
2080.0
 21
-137.99999999999909
 31
0.0
1001
ACDBBLOCKREPETAG
1070
     1
1071
      125
1005
12AFC1
  0
ARC
  5
12AFC2
  8
OBJECT
 10
2083.0
 20
-140.99999999999909
 30
0.0
 40
3.0
 50
0.0
 51
90.0
1001
ACDBBLOCKREPETAG
1070
     1
1071
      126
1005
12AFC2
  0
LINE
  5
12AFC3
  8
OBJECT
 10
2080.0
 20
-261.99999999999909
 30
0.0
 11
2083.0
 21
-261.99999999999909
 31
0.0
1001
ACDBBLOCKREPETAG
1070
     1
1071
      127
1005
12AFC3
  0
ARC
  5
12AFC4
  8
OBJECT
 10
2083.0
 20
-258.99999999999909
 30
0.0
 40
3.0
 50
270.0
 51
0.0
1001
ACDBBLOCKREPETAG
1070
     1
1071
      128
1005
12AFC4
  0
LINE
  5
12AFC5
  8
OBJECT
 10
2086.0
 20
-258.99999999999909
 30
0.0
 11
2086.0
 21
-222.44994432063581
 31
0.0
1001
ACDBBLOCKREPETAG
1070
     1
1071
      129
1005
12AFC5
  0
LINE
  5
12AFC6
  8
OBJECT
 10
2086.0
 20
-177.55005567935859
 30
0.0
 11
2086.0
 21
-140.99999999999909
 31
0.0
1001
ACDBBLOCKREPETAG
1070
     1
1071
      130
1005
12AFC6
  0
LINE
  5
12AFC7
  8
HIDDEN
 10
2167.999999999985
 20
-155.49999999999909
 30
0.0
 11
2167.999999999985
 21
-244.49999999999909
 31
0.0
1001
ACDBBLOCKREPETAG
1070
     1
1071
      131
1005
12AFC7
  0
LINE
  5
12AFC8
  8
OBJECT
 10
2159.999974964187
 20
-254.4999509238105
 30
0.0
 11
2159.999974964187
 21
-145.4999509238105
 31
0.0
1001
ACDBBLOCKREPETAG
1070
     1
1071
      133
1005
12AFC8
  0
ARC
  5
12AFC9
  8
OBJECT
 10
2125.0000000000032
 20
-199.99999999999909
 30
0.0
 40
45.000000000000547
 50
90.0
 51
270.0
1001
ACDBBLOCKREPETAG
1070
     1
1071
      134
1005
12AFC9
  0
LINE
  5
12AFCA
  8
OBJECT
 10
1787.000000000015
 20
-553.0
 30
0.0
 11
1780.0000000000141
 21
-553.0
 31
0.0
1001
ACDBBLOCKREPETAG
1070
     1
1071
      106
1005
12AFCA
  0
LINE
  5
12AFCB
  8
OBJECT
 10
1780.0000000000141
 20
-553.0
 30
0.0
 11
1780.0000000000141
 21
-677.0
 31
0.0
1001
ACDBBLOCKREPETAG
1070
     1
1071
      107
1005
12AFCB
  0
LINE
  5
12AFCC
  8
OBJECT
 10
1914.0000000000141
 20
-653.3502637757274
 30
0.0
 11
1914.0000000000141
 21
-755.00000000000102
 31
0.0
1001
ACDBBLOCKREPETAG
1070
     1
1071
      108
1005
12AFCC
  0
LINE
  5
12AFCD
  8
OBJECT
 10
1780.0000000000141
 20
-677.0
 30
0.0
 11
1787.000000000015
 21
-677.0
 31
0.0
1001
ACDBBLOCKREPETAG
1070
     1
1071
      109
1005
12AFCD
  0
LINE
  5
12AFCE
  8
OBJECT
 10
1787.000000000015
 20
-677.0
 30
0.0
 11
1787.000000000015
 21
-553.0
 31
0.0
1001
ACDBBLOCKREPETAG
1070
     1
1071
      110
1005
12AFCE
  0
LINE
  5
12AFCF
  8
CENTER
 10
1855.0000000000141
 20
-615.0000000000008
 30
0.0
 11
1765.0000000000141
 21
-615.0
 31
0.0
1001
ACDBBLOCKREPETAG
1070
     1
1071
      111
1005
12AFCF
  0
LINE
  5
12AFD0
  8
OBJECT
 10
1920.000000000018
 20
-758.0
 30
0.0
 11
1917.000000000015
 21
-758.0000000000008
 31
0.0
1001
ACDBBLOCKREPETAG
1070
     1
1071
      112
1005
12AFD0
  0
ARC
  5
12AFD1
  8
OBJECT
 10
1917.000000000015
 20
-755.00000000000102
 30
0.0
 40
3.0
 50
180.0
 51
270.0
1001
ACDBBLOCKREPETAG
1070
     1
1071
      113
1005
12AFD1
  0
LINE
  5
12AFD2
  8
OBJECT
 10
1787.000000000015
 20
-556.0
 30
0.0
 11
1823.0000000000141
 21
-556.0000000000008
 31
0.0
1001
ACDBBLOCKREPETAG
1070
     1
1071
      114
1005
12AFD2
  0
LINE
  5
12AFD3
  8
OBJECT
 10
1823.0000000000141
 20
-556.0000000000008
 30
0.0
 11
1823.0000000000141
 21
-653.15756805667843
 31
0.0
1001
ACDBBLOCKREPETAG
1070
     1
1071
      115
1005
12AFD3
  0
LINE
  5
12AFD4
  8
OBJECT
 10
1827.0000000000141
 20
-560.5000000000008
 30
0.0
 11
1827.000000000018
 21
-645.74491827928705
 31
0.0
1001
ACDBBLOCKREPETAG
1070
     1
1071
      116
1005
12AFD4
  0
LINE
  5
12AFD5
  8
OBJECT
 10
1827.0000000000141
 20
-560.5000000000008
 30
0.0
 11
1840.0000000000141
 21
-560.5000000000008
 31
0.0
1001
ACDBBLOCKREPETAG
1070
     1
1071
      117
1005
12AFD5
  0
LINE
  5
12AFD6
  8
OBJECT
 10
1831.343683174531
 20
-674.0000000000008
 30
0.0
 11
1787.000000000015
 21
-674.0
 31
0.0
1001
ACDBBLOCKREPETAG
1070
     1
1071
      118
1005
12AFD6
  0
LINE
  5
12AFD7
  8
OBJECT
 10
1823.0000000000141
 20
-556.0000000000008
 30
0.0
 11
1827.0000000000141
 21
-560.5000000000008
 31
0.0
1001
ACDBBLOCKREPETAG
1070
     1
1071
      119
1005
12AFD7
  0
LINE
  5
12AFD8
  8
OBJECT
 10
1840.0000000000141
 20
-560.5000000000008
 30
0.0
 11
1840.0000000000141
 21
-645.74491827928784
 31
0.0
1001
ACDBBLOCKREPETAG
1070
     1
1071
      120
1005
12AFD8
  0
ARC
  5
12AFD9
  8
OBJECT
 10
1908.000000000015
 20
-637.27386365609345
 30
0.0
 40
85.0
 50
205.59913872188221
 51
231.40900676279119
1001
ACDBBLOCKREPETAG
1070
     1
1071
      121
1005
12AFD9
  0
ARC
  5
12AFDA
  8
OBJECT
 10
1837.2000000000151
 20
-655.00000000000068
 30
0.0
 40
85.0
 50
19.925932125426211
 51
88.112268108168848
1001
ACDBBLOCKREPETAG
1070
     1
1071
      122
1005
12AFDA
  0
LINE
  5
12AFDB
  8
OBJECT
 10
1914.0000000000141
 20
-750.81075719270905
 30
0.0
 11
1854.980677456399
 21
-703.71143914629454
 31
0.0
1001
ACDBBLOCKREPETAG
1070
     1
1071
      123
1005
12AFDB
  0
LINE
  5
12AFDC
  8
OBJECT
 10
1827.000000000018
 20
-645.74491827928705
 30
0.0
 11
1840.0000000000141
 21
-645.74491827928784
 31
0.0
1001
ACDBBLOCKREPETAG
1070
     1
1071
      124
1005
12AFDC
  0
LINE
  5
12AFDD
  8
OBJECT
 10
1823.0000000000141
 20
-653.15756805667843
 30
0.0
 11
1827.000000000018
 21
-645.74491827928705
 31
0.0
1001
ACDBBLOCKREPETAG
1070
     1
1071
      125
1005
12AFDD
  0
LINE
  5
12AFDE
  8
OBJECT
 10
1919.999999999982
 20
-634.0
 30
0.0
 11
1917.111387840378
 21
-626.03156729425325
 31
0.0
1001
ACDBBLOCKREPETAG
1070
     1
1071
      126
1005
12AFDE
  0
LINE
  5
12AFDF
  8
OBJECT
 10
1919.999999999982
 20
-634.0
 30
0.0
 11
1914.0000000000141
 21
-653.3502637757274
 31
0.0
1001
ACDBBLOCKREPETAG
1070
     1
1071
      127
1005
12AFDF
  0
LINE
  5
12AFE0
  8
HIDDEN
 10
1832.0000000000141
 20
-570.5000000000008
 30
0.0
 11
1832.0000000000141
 21
-659.50000000000068
 31
0.0
1001
ACDBBLOCKREPETAG
1070
     1
1071
      129
1005
12AFE0
  0
CIRCLE
  5
12AFE1
  8
OBJECT
 10
2000.0
 20
-696.0
 30
0.0
 40
62.0
1001
ACDBBLOCKREPETAG
1070
     1
1071
        0
1005
12AFE1
  0
LINE
  5
12AFE2
  8
OBJECT
 10
2212.999999999985
 20
-553.0000000000008
 30
0.0
 11
2219.999999999985
 21
-553.0000000000008
 31
0.0
1001
ACDBBLOCKREPETAG
1070
     1
1071
      106
1005
12AFE2
  0
LINE
  5
12AFE3
  8
OBJECT
 10
2219.999999999985
 20
-553.0000000000008
 30
0.0
 11
2219.999999999985
 21
-677.0000000000008
 31
0.0
1001
ACDBBLOCKREPETAG
1070
     1
1071
      107
1005
12AFE3
  0
LINE
  5
12AFE4
  8
OBJECT
 10
2085.9999999999859
 20
-653.3502637757274
 30
0.0
 11
2085.9999999999859
 21
-755.00000000000102
 31
0.0
1001
ACDBBLOCKREPETAG
1070
     1
1071
      108
1005
12AFE4
  0
LINE
  5
12AFE5
  8
OBJECT
 10
2219.999999999985
 20
-677.0000000000008
 30
0.0
 11
2212.999999999985
 21
-677.0000000000008
 31
0.0
1001
ACDBBLOCKREPETAG
1070
     1
1071
      109
1005
12AFE5
  0
LINE
  5
12AFE6
  8
OBJECT
 10
2212.999999999985
 20
-677.0000000000008
 30
0.0
 11
2212.999999999985
 21
-553.0000000000008
 31
0.0
1001
ACDBBLOCKREPETAG
1070
     1
1071
      110
1005
12AFE6
  0
LINE
  5
12AFE7
  8
CENTER
 10
2144.999999999985
 20
-615.0000000000008
 30
0.0
 11
2234.9999999999859
 21
-615.0000000000008
 31
0.0
1001
ACDBBLOCKREPETAG
1070
     1
1071
      111
1005
12AFE7
  0
LINE
  5
12AFE8
  8
OBJECT
 10
2079.9999999999809
 20
-758.0
 30
0.0
 11
2082.999999999985
 21
-758.0000000000008
 31
0.0
1001
ACDBBLOCKREPETAG
1070
     1
1071
      112
1005
12AFE8
  0
ARC
  5
12AFE9
  8
OBJECT
 10
2082.999999999985
 20
-755.00000000000102
 30
0.0
 40
3.0
 50
270.0
 51
0.0
1001
ACDBBLOCKREPETAG
1070
     1
1071
      113
1005
12AFE9
  0
LINE
  5
12AFEA
  8
OBJECT
 10
2212.999999999985
 20
-556.0000000000008
 30
0.0
 11
2176.999999999985
 21
-556.0000000000008
 31
0.0
1001
ACDBBLOCKREPETAG
1070
     1
1071
      114
1005
12AFEA
  0
LINE
  5
12AFEB
  8
OBJECT
 10
2176.999999999985
 20
-556.0000000000008
 30
0.0
 11
2176.999999999985
 21
-653.15756805667843
 31
0.0
1001
ACDBBLOCKREPETAG
1070
     1
1071
      115
1005
12AFEB
  0
LINE
  5
12AFEC
  8
OBJECT
 10
2172.999999999985
 20
-560.5000000000008
 30
0.0
 11
2172.9999999999818
 21
-645.74491827928705
 31
0.0
1001
ACDBBLOCKREPETAG
1070
     1
1071
      116
1005
12AFEC
  0
LINE
  5
12AFED
  8
OBJECT
 10
2172.999999999985
 20
-560.5000000000008
 30
0.0
 11
2159.999999999985
 21
-560.5000000000008
 31
0.0
1001
ACDBBLOCKREPETAG
1070
     1
1071
      117
1005
12AFED
  0
LINE
  5
12AFEE
  8
OBJECT
 10
2168.6563168254688
 20
-674.0000000000008
 30
0.0
 11
2212.999999999985
 21
-674.0000000000008
 31
0.0
1001
ACDBBLOCKREPETAG
1070
     1
1071
      118
1005
12AFEE
  0
LINE
  5
12AFEF
  8
OBJECT
 10
2176.999999999985
 20
-556.0000000000008
 30
0.0
 11
2172.999999999985
 21
-560.5000000000008
 31
0.0
1001
ACDBBLOCKREPETAG
1070
     1
1071
      119
1005
12AFEF
  0
LINE
  5
12AFF0
  8
OBJECT
 10
2159.999999999985
 20
-560.5000000000008
 30
0.0
 11
2159.999999999985
 21
-645.74491827928784
 31
0.0
1001
ACDBBLOCKREPETAG
1070
     1
1071
      120
1005
12AFF0
  0
ARC
  5
12AFF1
  8
OBJECT
 10
2091.9999999999859
 20
-637.27386365609345
 30
0.0
 40
85.0
 50
308.59099323720869
 51
334.40086127812339
1001
ACDBBLOCKREPETAG
1070
     1
1071
      121
1005
12AFF1
  0
ARC
  5
12AFF2
  8
OBJECT
 10
2162.7999999999852
 20
-655.00000000000068
 30
0.0
 40
85.0
 50
91.887731891831123
 51
160.07406787456929
1001
ACDBBLOCKREPETAG
1070
     1
1071
      122
1005
12AFF2
  0
LINE
  5
12AFF3
  8
OBJECT
 10
2085.9999999999859
 20
-750.81075719270905
 30
0.0
 11
2145.0193225436019
 21
-703.71143914629454
 31
0.0
1001
ACDBBLOCKREPETAG
1070
     1
1071
      123
1005
12AFF3
  0
LINE
  5
12AFF4
  8
OBJECT
 10
2172.9999999999818
 20
-645.74491827928705
 30
0.0
 11
2159.999999999985
 21
-645.74491827928784
 31
0.0
1001
ACDBBLOCKREPETAG
1070
     1
1071
      124
1005
12AFF4
  0
LINE
  5
12AFF5
  8
OBJECT
 10
2176.999999999985
 20
-653.15756805667843
 30
0.0
 11
2172.9999999999818
 21
-645.74491827928705
 31
0.0
1001
ACDBBLOCKREPETAG
1070
     1
1071
      125
1005
12AFF5
  0
LINE
  5
12AFF6
  8
OBJECT
 10
2080.0000000000191
 20
-634.0
 30
0.0
 11
2082.8886121596229
 21
-626.03156729425325
 31
0.0
1001
ACDBBLOCKREPETAG
1070
     1
1071
      126
1005
12AFF6
  0
LINE
  5
12AFF7
  8
OBJECT
 10
2080.0000000000191
 20
-634.0
 30
0.0
 11
2085.9999999999859
 21
-653.3502637757274
 31
0.0
1001
ACDBBLOCKREPETAG
1070
     1
1071
      127
1005
12AFF7
  0
LINE
  5
12AFF8
  8
HIDDEN
 10
2167.999999999985
 20
-570.5000000000008
 30
0.0
 11
2167.999999999985
 21
-659.50000000000068
 31
0.0
1001
ACDBBLOCKREPETAG
1070
     1
1071
      129
1005
12AFF8
  0
LINE
  5
12AFF9
  8
SLIM
 10
11914.999999999991
 20
-765.19743878931502
 30
0.0
 11
11925.197438789301
 21
-755.0
 31
0.0
1001
ACAD
1010
0.0
1020
0.0
1030
0.0
1001
ACDBBLOCKREPETAG
1070
     1
1071
       10
1005
12AFF9
  0
LINE
  5
12AFFA
  8
SLIM
 10
11914.999999999991
 20
-783.15795103145183
 30
0.0
 11
11943.15795103144
 21
-755.0
 31
0.0
1001
ACAD
1010
0.0
1020
0.0
1030
0.0
1001
ACDBBLOCKREPETAG
1070
     1
1071
       11
1005
12AFFA
  0
LINE
  5
12AFFB
  8
SLIM
 10
11915.0
 20
-801.11846327358853
 30
0.0
 11
11961.11846327358
 21
-755.0
 31
0.0
1001
ACAD
1010
0.0
1020
0.0
1030
0.0
1001
ACDBBLOCKREPETAG
1070
     1
1071
       12
1005
12AFFB
  0
LINE
  5
12AFFC
  8
SLIM
 10
11915.0
 20
-819.07897551572592
 30
0.0
 11
11979.07897551572
 21
-755.0
 31
0.0
1001
ACAD
1010
0.0
1020
0.0
1030
0.0
1001
ACDBBLOCKREPETAG
1070
     1
1071
       13
1005
12AFFC
  0
LINE
  5
12AFFD
  8
SLIM
 10
11915.0
 20
-837.03948775786273
 30
0.0
 11
11997.03948775786
 21
-755.0
 31
0.0
1001
ACAD
1010
0.0
1020
0.0
1030
0.0
1001
ACDBBLOCKREPETAG
1070
     1
1071
       14
1005
12AFFD
  0
LINE
  5
12AFFE
  8
SLIM
 10
11915.28360074955
 20
-854.71639925044224
 30
0.0
 11
12015.0
 21
-755.0
 31
0.0
1001
ACAD
1010
0.0
1020
0.0
1030
0.0
1001
ACDBBLOCKREPETAG
1070
     1
1071
       15
1005
12AFFE
  0
LINE
  5
12AFFF
  8
SLIM
 10
11917.49791047804
 20
-870.46260176409714
 30
0.0
 11
12032.96051224214
 21
-755.0
 31
0.0
1001
ACAD
1010
0.0
1020
0.0
1030
0.0
1001
ACDBBLOCKREPETAG
1070
     1
1071
       16
1005
12AFFF
  0
LINE
  5
12B000
  8
SLIM
 10
11919.71222020652
 20
-886.20880427775273
 30
0.0
 11
12050.921024484271
 21
-755.0
 31
0.0
1001
ACAD
1010
0.0
1020
0.0
1030
0.0
1001
ACDBBLOCKREPETAG
1070
     1
1071
       17
1005
12B000
  0
LINE
  5
12B001
  8
SLIM
 10
11921.926529935001
 20
-901.95500679140798
 30
0.0
 11
12068.881536726411
 21
-755.0
 31
0.0
1001
ACAD
1010
0.0
1020
0.0
1030
0.0
1001
ACDBBLOCKREPETAG
1070
     1
1071
       18
1005
12B001
  0
LINE
  5
12B002
  8
SLIM
 10
11924.140839663491
 20
-917.70120930506334
 30
0.0
 11
12085.000000000009
 21
-756.84204896854612
 31
0.0
1001
ACAD
1010
0.0
1020
0.0
1030
0.0
1001
ACDBBLOCKREPETAG
1070
     1
1071
       19
1005
12B002
  0
LINE
  5
12B003
  8
SLIM
 10
11926.35514939196
 20
-933.44741181871859
 30
0.0
 11
12085.0
 21
-774.80256121068555
 31
0.0
1001
ACAD
1010
0.0
1020
0.0
1030
0.0
1001
ACDBBLOCKREPETAG
1070
     1
1071
       20
1005
12B003
  0
LINE
  5
12B004
  8
SLIM
 10
11928.56945912045
 20
-949.19361433237441
 30
0.0
 11
12085.0
 21
-792.76307345282544
 31
0.0
1001
ACAD
1010
0.0
1020
0.0
1030
0.0
1001
ACDBBLOCKREPETAG
1070
     1
1071
       21
1005
12B004
  0
LINE
  5
12B005
  8
SLIM
 10
11930.78376884894
 20
-964.93981684602954
 30
0.0
 11
12085.0
 21
-810.7235856949651
 31
0.0
1001
ACAD
1010
0.0
1020
0.0
1030
0.0
1001
ACDBBLOCKREPETAG
1070
     1
1071
       22
1005
12B005
  0
LINE
  5
12B006
  8
SLIM
 10
11932.998078577421
 20
-980.68601935968502
 30
0.0
 11
12085.0
 21
-828.68409793710464
 31
0.0
1001
ACAD
1010
0.0
1020
0.0
1030
0.0
1001
ACDBBLOCKREPETAG
1070
     1
1071
       23
1005
12B006
  0
LINE
  5
12B007
  8
SLIM
 10
11932.999999999991
 20
-998.64461017925203
 30
0.0
 11
12085.0
 21
-846.64461017924395
 31
0.0
1001
ACAD
1010
0.0
1020
0.0
1030
0.0
1001
ACDBBLOCKREPETAG
1070
     1
1071
       24
1005
12B007
  0
LINE
  5
12B008
  8
SLIM
 10
11932.999999999991
 20
-1016.60512242139
 30
0.0
 11
12083.05183715436
 21
-866.55328526701692
 31
0.0
1001
ACAD
1010
0.0
1020
0.0
1030
0.0
1001
ACDBBLOCKREPETAG
1070
     1
1071
       25
1005
12B008
  0
LINE
  5
12B009
  8
SLIM
 10
11942.565634663521
 20
-1024.9999999999959
 30
0.0
 11
12080.112844242019
 21
-887.45279042150412
 31
0.0
1001
ACAD
1010
0.0
1020
0.0
1030
0.0
1001
ACDBBLOCKREPETAG
1070
     1
1071
       26
1005
12B009
  0
LINE
  5
12B00A
  8
SLIM
 10
11960.52614690566
 20
-1024.999999999997
 30
0.0
 11
12077.17385132967
 21
-908.35229557599155
 31
0.0
1001
ACAD
1010
0.0
1020
0.0
1030
0.0
1001
ACDBBLOCKREPETAG
1070
     1
1071
       27
1005
12B00A
  0
LINE
  5
12B00B
  8
SLIM
 10
11978.4866591478
 20
-1024.999999999997
 30
0.0
 11
12074.23485841732
 21
-929.25180073047886
 31
0.0
1001
ACAD
1010
0.0
1020
0.0
1030
0.0
1001
ACDBBLOCKREPETAG
1070
     1
1071
       28
1005
12B00B
  0
LINE
  5
12B00C
  8
SLIM
 10
11996.44717138994
 20
-1024.999999999998
 30
0.0
 11
12071.29586550497
 21
-950.15130588496618
 31
0.0
1001
ACAD
1010
0.0
1020
0.0
1030
0.0
1001
ACDBBLOCKREPETAG
1070
     1
1071
       29
1005
12B00C
  0
LINE
  5
12B00D
  8
SLIM
 10
12014.40768363208
 20
-1024.999999999998
 30
0.0
 11
12068.35687259262
 21
-971.05081103945361
 31
0.0
1001
ACAD
1010
0.0
1020
0.0
1030
0.0
1001
ACDBBLOCKREPETAG
1070
     1
1071
       30
1005
12B00D
  0
LINE
  5
12B00E
  8
SLIM
 10
12032.368195874211
 20
-1024.9999999999991
 30
0.0
 11
12067.0
 21
-990.36819587420166
 31
0.0
1001
ACAD
1010
0.0
1020
0.0
1030
0.0
1001
ACDBBLOCKREPETAG
1070
     1
1071
       31
1005
12B00E
  0
LINE
  5
12B00F
  8
SLIM
 10
12050.328708116351
 20
-1024.9999999999991
 30
0.0
 11
12067.0
 21
-1008.32870811634
 31
0.0
1001
ACAD
1010
0.0
1020
0.0
1030
0.0
1001
ACDBBLOCKREPETAG
1070
     1
1071
       32
1005
12B00F
  0
LINE
  5
12B010
  8
OBJECT
 10
11932.999999999991
 20
-1024.9999999999959
 30
0.0
 11
12067.0
 21
-1025.0
 31
0.0
1001
ACDBBLOCKREPETAG
1070
     1
1071
        1
1005
12B010
  0
LINE
  5
12B011
  8
OBJECT
 10
11914.999999999991
 20
-755.0
 30
0.0
 11
11915.0
 21
-852.69968280914156
 31
0.0
1001
ACDBBLOCKREPETAG
1070
     1
1071
        2
1005
12B011
  0
LINE
  5
12B012
  8
OBJECT
 10
12085.000000000009
 20
-755.0
 30
0.0
 11
12085.0
 21
-852.69968280917203
 31
0.0
1001
ACDBBLOCKREPETAG
1070
     1
1071
        3
1005
12B012
  0
LINE
  5
12B013
  8
OBJECT
 10
11915.0
 20
-852.69968280914156
 30
0.0
 11
11932.999999999991
 21
-980.69968280908154
 31
0.0
1001
ACDBBLOCKREPETAG
1070
     1
1071
        4
1005
12B013
  0
LINE
  5
12B014
  8
OBJECT
 10
12067.0
 20
-980.69968280912872
 30
0.0
 11
12085.0
 21
-852.69968280917203
 31
0.0
1001
ACDBBLOCKREPETAG
1070
     1
1071
        5
1005
12B014
  0
LINE
  5
12B015
  8
OBJECT
 10
12085.000000000009
 20
-755.0
 30
0.0
 11
11914.999999999991
 21
-755.0
 31
0.0
1001
ACDBBLOCKREPETAG
1070
     1
1071
        6
1005
12B015
  0
LINE
  5
12B016
  8
OBJECT
 10
11932.999999999991
 20
-980.69968280908154
 30
0.0
 11
11932.999999999991
 21
-1024.9999999999959
 31
0.0
1001
ACDBBLOCKREPETAG
1070
     1
1071
        8
1005
12B016
  0
LINE
  5
12B017
  8
OBJECT
 10
12067.0
 20
-980.69968280912872
 30
0.0
 11
12067.0
 21
-1025.0
 31
0.0
1001
ACDBBLOCKREPETAG
1070
     1
1071
        9
1005
12B017
  0
LINE
  5
12B018
  8
SLIM
 10
9914.9999999999927
 20
-765.19743878931502
 30
0.0
 11
9925.1974387893097
 21
-755.0
 31
0.0
1001
ACAD
1010
0.0
1020
0.0
1030
0.0
1001
ACDBBLOCKREPETAG
1070
     1
1071
       10
1005
12B018
  0
LINE
  5
12B019
  8
SLIM
 10
9914.9999999999945
 20
-783.15795103145183
 30
0.0
 11
9943.1579510314441
 21
-755.0
 31
0.0
1001
ACAD
1010
0.0
1020
0.0
1030
0.0
1001
ACDBBLOCKREPETAG
1070
     1
1071
       11
1005
12B019
  0
LINE
  5
12B01A
  8
SLIM
 10
9914.9999999999964
 20
-801.11846327358853
 30
0.0
 11
9961.1184632735858
 21
-755.0
 31
0.0
1001
ACAD
1010
0.0
1020
0.0
1030
0.0
1001
ACDBBLOCKREPETAG
1070
     1
1071
       12
1005
12B01A
  0
LINE
  5
12B01B
  8
SLIM
 10
9914.9999999999982
 20
-819.07897551572592
 30
0.0
 11
9979.0789755157257
 21
-755.0
 31
0.0
1001
ACAD
1010
0.0
1020
0.0
1030
0.0
1001
ACDBBLOCKREPETAG
1070
     1
1071
       13
1005
12B01B
  0
LINE
  5
12B01C
  8
SLIM
 10
9914.9999999999982
 20
-837.03948775786273
 30
0.0
 11
9997.0394877578656
 21
-755.0
 31
0.0
1001
ACAD
1010
0.0
1020
0.0
1030
0.0
1001
ACDBBLOCKREPETAG
1070
     1
1071
       14
1005
12B01C
  0
LINE
  5
12B01D
  8
SLIM
 10
9915.2836007495607
 20
-854.71639925044224
 30
0.0
 11
10015.0
 21
-755.0
 31
0.0
1001
ACAD
1010
0.0
1020
0.0
1030
0.0
1001
ACDBBLOCKREPETAG
1070
     1
1071
       15
1005
12B01D
  0
LINE
  5
12B01E
  8
SLIM
 10
9917.4979104780396
 20
-870.46260176409714
 30
0.0
 11
10032.96051224214
 21
-755.0
 31
0.0
1001
ACAD
1010
0.0
1020
0.0
1030
0.0
1001
ACDBBLOCKREPETAG
1070
     1
1071
       16
1005
12B01E
  0
LINE
  5
12B01F
  8
SLIM
 10
9919.7122202065257
 20
-886.20880427775273
 30
0.0
 11
10050.921024484271
 21
-755.0
 31
0.0
1001
ACAD
1010
0.0
1020
0.0
1030
0.0
1001
ACDBBLOCKREPETAG
1070
     1
1071
       17
1005
12B01F
  0
LINE
  5
12B020
  8
SLIM
 10
9921.9265299350063
 20
-901.95500679140798
 30
0.0
 11
10068.881536726411
 21
-755.0
 31
0.0
1001
ACAD
1010
0.0
1020
0.0
1030
0.0
1001
ACDBBLOCKREPETAG
1070
     1
1071
       18
1005
12B020
  0
LINE
  5
12B021
  8
SLIM
 10
9924.1408396634924
 20
-917.70120930506334
 30
0.0
 11
10085.000000000009
 21
-756.84204896854612
 31
0.0
1001
ACAD
1010
0.0
1020
0.0
1030
0.0
1001
ACDBBLOCKREPETAG
1070
     1
1071
       19
1005
12B021
  0
LINE
  5
12B022
  8
SLIM
 10
9926.3551493919731
 20
-933.44741181871859
 30
0.0
 11
10085.0
 21
-774.80256121068555
 31
0.0
1001
ACAD
1010
0.0
1020
0.0
1030
0.0
1001
ACDBBLOCKREPETAG
1070
     1
1071
       20
1005
12B022
  0
LINE
  5
12B023
  8
SLIM
 10
9928.5694591204574
 20
-949.19361433237441
 30
0.0
 11
10085.0
 21
-792.76307345282544
 31
0.0
1001
ACAD
1010
0.0
1020
0.0
1030
0.0
1001
ACDBBLOCKREPETAG
1070
     1
1071
       21
1005
12B023
  0
LINE
  5
12B024
  8
SLIM
 10
9930.7837688489417
 20
-964.93981684602954
 30
0.0
 11
10085.0
 21
-810.7235856949651
 31
0.0
1001
ACAD
1010
0.0
1020
0.0
1030
0.0
1001
ACDBBLOCKREPETAG
1070
     1
1071
       22
1005
12B024
  0
LINE
  5
12B025
  8
SLIM
 10
9932.9980785774187
 20
-980.68601935968502
 30
0.0
 11
10085.0
 21
-828.68409793710464
 31
0.0
1001
ACAD
1010
0.0
1020
0.0
1030
0.0
1001
ACDBBLOCKREPETAG
1070
     1
1071
       23
1005
12B025
  0
LINE
  5
12B026
  8
SLIM
 10
9932.9999999999927
 20
-998.64461017925203
 30
0.0
 11
10085.0
 21
-846.64461017924395
 31
0.0
1001
ACAD
1010
0.0
1020
0.0
1030
0.0
1001
ACDBBLOCKREPETAG
1070
     1
1071
       24
1005
12B026
  0
LINE
  5
12B027
  8
SLIM
 10
9932.9999999999927
 20
-1016.60512242139
 30
0.0
 11
10083.05183715436
 21
-866.55328526701692
 31
0.0
1001
ACAD
1010
0.0
1020
0.0
1030
0.0
1001
ACDBBLOCKREPETAG
1070
     1
1071
       25
1005
12B027
  0
LINE
  5
12B028
  8
SLIM
 10
9942.5656346635242
 20
-1024.9999999999959
 30
0.0
 11
10080.11284424201
 21
-887.45279042150412
 31
0.0
1001
ACAD
1010
0.0
1020
0.0
1030
0.0
1001
ACDBBLOCKREPETAG
1070
     1
1071
       26
1005
12B028
  0
LINE
  5
12B029
  8
SLIM
 10
9960.5261469056641
 20
-1024.999999999997
 30
0.0
 11
10077.17385132967
 21
-908.35229557599155
 31
0.0
1001
ACAD
1010
0.0
1020
0.0
1030
0.0
1001
ACDBBLOCKREPETAG
1070
     1
1071
       27
1005
12B029
  0
LINE
  5
12B02A
  8
SLIM
 10
9978.4866591478003
 20
-1024.999999999997
 30
0.0
 11
10074.23485841732
 21
-929.25180073047886
 31
0.0
1001
ACAD
1010
0.0
1020
0.0
1030
0.0
1001
ACDBBLOCKREPETAG
1070
     1
1071
       28
1005
12B02A
  0
LINE
  5
12B02B
  8
SLIM
 10
9996.4471713899384
 20
-1024.999999999998
 30
0.0
 11
10071.29586550497
 21
-950.15130588496618
 31
0.0
1001
ACAD
1010
0.0
1020
0.0
1030
0.0
1001
ACDBBLOCKREPETAG
1070
     1
1071
       29
1005
12B02B
  0
LINE
  5
12B02C
  8
SLIM
 10
10014.40768363206
 20
-1024.999999999998
 30
0.0
 11
10068.35687259262
 21
-971.05081103945361
 31
0.0
1001
ACAD
1010
0.0
1020
0.0
1030
0.0
1001
ACDBBLOCKREPETAG
1070
     1
1071
       30
1005
12B02C
  0
LINE
  5
12B02D
  8
SLIM
 10
10032.368195874211
 20
-1024.9999999999991
 30
0.0
 11
10067.000000000009
 21
-990.36819587420166
 31
0.0
1001
ACAD
1010
0.0
1020
0.0
1030
0.0
1001
ACDBBLOCKREPETAG
1070
     1
1071
       31
1005
12B02D
  0
LINE
  5
12B02E
  8
SLIM
 10
10050.328708116351
 20
-1024.9999999999991
 30
0.0
 11
10067.000000000009
 21
-1008.32870811634
 31
0.0
1001
ACAD
1010
0.0
1020
0.0
1030
0.0
1001
ACDBBLOCKREPETAG
1070
     1
1071
       32
1005
12B02E
  0
LINE
  5
12B02F
  8
OBJECT
 10
9932.9999999999927
 20
-1024.9999999999959
 30
0.0
 11
10067.000000000009
 21
-1025.0
 31
0.0
1001
ACDBBLOCKREPETAG
1070
     1
1071
        1
1005
12B02F
  0
LINE
  5
12B030
  8
OBJECT
 10
9914.9999999999927
 20
-755.0
 30
0.0
 11
9915.0
 21
-852.69968280914156
 31
0.0
1001
ACDBBLOCKREPETAG
1070
     1
1071
        2
1005
12B030
  0
LINE
  5
12B031
  8
OBJECT
 10
10085.000000000009
 20
-755.0
 30
0.0
 11
10085.0
 21
-852.69968280917203
 31
0.0
1001
ACDBBLOCKREPETAG
1070
     1
1071
        3
1005
12B031
  0
LINE
  5
12B032
  8
OBJECT
 10
9915.0
 20
-852.69968280914156
 30
0.0
 11
9932.9999999999927
 21
-980.69968280908154
 31
0.0
1001
ACDBBLOCKREPETAG
1070
     1
1071
        4
1005
12B032
  0
LINE
  5
12B033
  8
OBJECT
 10
10067.000000000009
 20
-980.69968280912872
 30
0.0
 11
10085.0
 21
-852.69968280917203
 31
0.0
1001
ACDBBLOCKREPETAG
1070
     1
1071
        5
1005
12B033
  0
LINE
  5
12B034
  8
OBJECT
 10
10085.000000000009
 20
-755.0
 30
0.0
 11
9914.9999999999927
 21
-755.0
 31
0.0
1001
ACDBBLOCKREPETAG
1070
     1
1071
        6
1005
12B034
  0
LINE
  5
12B035
  8
OBJECT
 10
9932.9999999999927
 20
-980.69968280908154
 30
0.0
 11
9932.9999999999927
 21
-1024.9999999999959
 31
0.0
1001
ACDBBLOCKREPETAG
1070
     1
1071
        8
1005
12B035
  0
LINE
  5
12B036
  8
OBJECT
 10
10067.000000000009
 20
-980.69968280912872
 30
0.0
 11
10067.000000000009
 21
-1025.0
 31
0.0
1001
ACDBBLOCKREPETAG
1070
     1
1071
        9
1005
12B036
  0
LINE
  5
12B037
  8
SLIM
 10
7914.9999999999918
 20
-765.19743878931502
 30
0.0
 11
7925.1974387893079
 21
-755.0
 31
0.0
1001
ACAD
1010
0.0
1020
0.0
1030
0.0
1001
ACDBBLOCKREPETAG
1070
     1
1071
       12
1005
12B037
  0
LINE
  5
12B038
  8
SLIM
 10
7914.9999999999964
 20
-783.15795103145183
 30
0.0
 11
7943.1579510314459
 21
-755.0
 31
0.0
1001
ACAD
1010
0.0
1020
0.0
1030
0.0
1001
ACDBBLOCKREPETAG
1070
     1
1071
       13
1005
12B038
  0
LINE
  5
12B039
  8
SLIM
 10
7914.9999999999982
 20
-801.11846327358853
 30
0.0
 11
7961.1184632735867
 21
-755.0
 31
0.0
1001
ACAD
1010
0.0
1020
0.0
1030
0.0
1001
ACDBBLOCKREPETAG
1070
     1
1071
       14
1005
12B039
  0
LINE
  5
12B03A
  8
SLIM
 10
7914.9999999999982
 20
-819.07897551572592
 30
0.0
 11
7979.078975515723
 21
-755.0
 31
0.0
1001
ACAD
1010
0.0
1020
0.0
1030
0.0
1001
ACDBBLOCKREPETAG
1070
     1
1071
       15
1005
12B03A
  0
LINE
  5
12B03B
  8
SLIM
 10
7914.9999999999982
 20
-837.03948775786273
 30
0.0
 11
7997.0394877578628
 21
-755.0
 31
0.0
1001
ACAD
1010
0.0
1020
0.0
1030
0.0
1001
ACDBBLOCKREPETAG
1070
     1
1071
       16
1005
12B03B
  0
LINE
  5
12B03C
  8
SLIM
 10
7915.283600749558
 20
-854.71639925044224
 30
0.0
 11
8015.0
 21
-755.0
 31
0.0
1001
ACAD
1010
0.0
1020
0.0
1030
0.0
1001
ACDBBLOCKREPETAG
1070
     1
1071
       17
1005
12B03C
  0
LINE
  5
12B03D
  8
SLIM
 10
7917.4979104780423
 20
-870.46260176409714
 30
0.0
 11
8032.960512242139
 21
-755.0
 31
0.0
1001
ACAD
1010
0.0
1020
0.0
1030
0.0
1001
ACDBBLOCKREPETAG
1070
     1
1071
       18
1005
12B03D
  0
LINE
  5
12B03E
  8
SLIM
 10
7919.7122202065239
 20
-886.20880427775273
 30
0.0
 11
8050.9210244842798
 21
-755.0
 31
0.0
1001
ACAD
1010
0.0
1020
0.0
1030
0.0
1001
ACDBBLOCKREPETAG
1070
     1
1071
       19
1005
12B03E
  0
LINE
  5
12B03F
  8
SLIM
 10
7921.9265299350072
 20
-901.95500679140764
 30
0.0
 11
8068.8815367264133
 21
-755.0
 31
0.0
1001
ACAD
1010
0.0
1020
0.0
1030
0.0
1001
ACDBBLOCKREPETAG
1070
     1
1071
       20
1005
12B03F
  0
LINE
  5
12B040
  8
SLIM
 10
7924.1408396634897
 20
-917.70120930506334
 30
0.0
 11
8085.0000000000064
 21
-756.84204896854612
 31
0.0
1001
ACAD
1010
0.0
1020
0.0
1030
0.0
1001
ACDBBLOCKREPETAG
1070
     1
1071
       21
1005
12B040
  0
LINE
  5
12B041
  8
SLIM
 10
7926.3551493919731
 20
-933.44741181871836
 30
0.0
 11
8085.0000000000064
 21
-774.80256121068555
 31
0.0
1001
ACAD
1010
0.0
1020
0.0
1030
0.0
1001
ACDBBLOCKREPETAG
1070
     1
1071
       22
1005
12B041
  0
LINE
  5
12B042
  8
SLIM
 10
7928.5694591204538
 20
-949.1936143323735
 30
0.0
 11
8085.0000000000064
 21
-792.76307345282532
 31
0.0
1001
ACAD
1010
0.0
1020
0.0
1030
0.0
1001
ACDBBLOCKREPETAG
1070
     1
1071
       23
1005
12B042
  0
LINE
  5
12B043
  8
SLIM
 10
7930.783768848939
 20
-964.93981684602875
 30
0.0
 11
8085.0000000000018
 21
-810.7235856949651
 31
0.0
1001
ACAD
1010
0.0
1020
0.0
1030
0.0
1001
ACDBBLOCKREPETAG
1070
     1
1071
       24
1005
12B043
  0
LINE
  5
12B044
  8
SLIM
 10
7932.9980785774214
 20
-980.68601935968422
 30
0.0
 11
8085.0000000000018
 21
-828.68409793710464
 31
0.0
1001
ACAD
1010
0.0
1020
0.0
1030
0.0
1001
ACDBBLOCKREPETAG
1070
     1
1071
       25
1005
12B044
  0
LINE
  5
12B045
  8
SLIM
 10
7943.0
 20
-988.64461017924452
 30
0.0
 11
7946.6446101792453
 21
-984.99999999999807
 31
0.0
1001
ACAD
1010
0.0
1020
0.0
1030
0.0
1001
ACDBBLOCKREPETAG
1070
     1
1071
       26
1005
12B045
  0
LINE
  5
12B046
  8
SLIM
 10
7946.6446101792453
 20
-984.99999999999807
 30
0.0
 11
8085.0
 21
-846.64461017924395
 31
0.0
1001
ACAD
1010
0.0
1020
0.0
1030
0.0
1001
ACDBBLOCKREPETAG
1070
     1
1071
       27
1005
12B046
  0
LINE
  5
12B047
  8
SLIM
 10
7944.6051224213861
 20
-1004.999999999998
 30
0.0
 11
7964.6051224213852
 21
-984.99999999999807
 31
0.0
1001
ACAD
1010
0.0
1020
0.0
1030
0.0
1001
ACDBBLOCKREPETAG
1070
     1
1071
       28
1005
12B047
  0
LINE
  5
12B048
  8
SLIM
 10
7964.6051224213852
 20
-984.99999999999807
 30
0.0
 11
8083.051837154364
 21
-866.5532852670176
 31
0.0
1001
ACAD
1010
0.0
1020
0.0
1030
0.0
1001
ACDBBLOCKREPETAG
1070
     1
1071
       29
1005
12B048
  0
LINE
  5
12B049
  8
SLIM
 10
7962.5656346635242
 20
-1004.999999999998
 30
0.0
 11
7982.5656346635215
 21
-984.99999999999807
 31
0.0
1001
ACAD
1010
0.0
1020
0.0
1030
0.0
1001
ACDBBLOCKREPETAG
1070
     1
1071
       30
1005
12B049
  0
LINE
  5
12B04A
  8
SLIM
 10
7982.5656346635215
 20
-984.99999999999807
 30
0.0
 11
8080.1128442420159
 21
-887.45279042150548
 31
0.0
1001
ACAD
1010
0.0
1020
0.0
1030
0.0
1001
ACDBBLOCKREPETAG
1070
     1
1071
       31
1005
12B04A
  0
LINE
  5
12B04B
  8
SLIM
 10
7980.5261469056622
 20
-1004.999999999998
 30
0.0
 11
8000.5261469056613
 21
-984.99999999999807
 31
0.0
1001
ACAD
1010
0.0
1020
0.0
1030
0.0
1001
ACDBBLOCKREPETAG
1070
     1
1071
       32
1005
12B04B
  0
LINE
  5
12B04C
  8
SLIM
 10
8000.5261469056613
 20
-984.99999999999807
 30
0.0
 11
8077.1738513296659
 21
-908.35229557599371
 31
0.0
1001
ACAD
1010
0.0
1020
0.0
1030
0.0
1001
ACDBBLOCKREPETAG
1070
     1
1071
       33
1005
12B04C
  0
LINE
  5
12B04D
  8
SLIM
 10
7998.4866591478003
 20
-1004.999999999998
 30
0.0
 11
8018.4866591478003
 21
-984.99999999999807
 31
0.0
1001
ACAD
1010
0.0
1020
0.0
1030
0.0
1001
ACDBBLOCKREPETAG
1070
     1
1071
       34
1005
12B04D
  0
LINE
  5
12B04E
  8
SLIM
 10
8018.4866591478003
 20
-984.99999999999807
 30
0.0
 11
8074.234858417316
 21
-929.25180073048148
 31
0.0
1001
ACAD
1010
0.0
1020
0.0
1030
0.0
1001
ACDBBLOCKREPETAG
1070
     1
1071
       35
1005
12B04E
  0
LINE
  5
12B04F
  8
SLIM
 10
8016.4471713899393
 20
-1004.999999999998
 30
0.0
 11
8036.4471713899393
 21
-984.99999999999807
 31
0.0
1001
ACAD
1010
0.0
1020
0.0
1030
0.0
1001
ACDBBLOCKREPETAG
1070
     1
1071
       36
1005
12B04F
  0
LINE
  5
12B050
  8
SLIM
 10
8036.4471713899393
 20
-984.99999999999807
 30
0.0
 11
8071.2958655049679
 21
-950.15130588496947
 31
0.0
1001
ACAD
1010
0.0
1020
0.0
1030
0.0
1001
ACDBBLOCKREPETAG
1070
     1
1071
       37
1005
12B050
  0
LINE
  5
12B051
  8
SLIM
 10
8034.4076836320774
 20
-1004.999999999998
 30
0.0
 11
8054.4076836320764
 21
-984.99999999999807
 31
0.0
1001
ACAD
1010
0.0
1020
0.0
1030
0.0
1001
ACDBBLOCKREPETAG
1070
     1
1071
       38
1005
12B051
  0
LINE
  5
12B052
  8
SLIM
 10
8054.4076836320764
 20
-984.99999999999807
 30
0.0
 11
8068.3568725926198
 21
-971.05081103945759
 31
0.0
1001
ACAD
1010
0.0
1020
0.0
1030
0.0
1001
ACDBBLOCKREPETAG
1070
     1
1071
       39
1005
12B052
  0
LINE
  5
12B053
  8
SLIM
 10
8052.3681958742136
 20
-1004.999999999998
 30
0.0
 11
8057.0
 21
-1000.368195874213
 31
0.0
1001
ACAD
1010
0.0
1020
0.0
1030
0.0
1001
ACDBBLOCKREPETAG
1070
     1
1071
       40
1005
12B053
  0
LINE
  5
12B054
  8
OBJECT
 10
7943.0
 20
-1004.999999999998
 30
0.0
 11
8057.0
 21
-1004.999999999998
 31
0.0
1001
ACDBBLOCKREPETAG
1070
     1
1071
        1
1005
12B054
  0
LINE
  5
12B055
  8
OBJECT
 10
7933.6047321049664
 20
-984.99999999999807
 30
0.0
 11
8066.3952678950427
 21
-984.99999999999807
 31
0.0
1001
ACDBBLOCKREPETAG
1070
     1
1071
        2
1005
12B055
  0
LINE
  5
12B056
  8
OBJECT
 10
7943.0
 20
-1004.999999999998
 30
0.0
 11
7943.0
 21
-984.99999999999807
 31
0.0
1001
ACDBBLOCKREPETAG
1070
     1
1071
        3
1005
12B056
  0
LINE
  5
12B057
  8
OBJECT
 10
8057.0
 20
-1004.999999999998
 30
0.0
 11
8057.0
 21
-984.99999999999807
 31
0.0
1001
ACDBBLOCKREPETAG
1070
     1
1071
        4
1005
12B057
  0
LINE
  5
12B058
  8
OBJECT
 10
7914.9999999999918
 20
-755.0
 30
0.0
 11
7915.0
 21
-852.69968280914156
 31
0.0
1001
ACDBBLOCKREPETAG
1070
     1
1071
        5
1005
12B058
  0
LINE
  5
12B059
  8
OBJECT
 10
8085.0000000000064
 20
-755.0
 30
0.0
 11
8085.0
 21
-852.69968280917203
 31
0.0
1001
ACDBBLOCKREPETAG
1070
     1
1071
        6
1005
12B059
  0
LINE
  5
12B05A
  8
OBJECT
 10
7915.0
 20
-852.69968280914156
 30
0.0
 11
7933.6047321049664
 21
-984.99999999999807
 31
0.0
1001
ACDBBLOCKREPETAG
1070
     1
1071
        7
1005
12B05A
  0
LINE
  5
12B05B
  8
OBJECT
 10
8066.3952678950427
 20
-984.99999999999807
 30
0.0
 11
8085.0
 21
-852.69968280917203
 31
0.0
1001
ACDBBLOCKREPETAG
1070
     1
1071
        8
1005
12B05B
  0
LINE
  5
12B05C
  8
OBJECT
 10
8085.0000000000064
 20
-755.0
 30
0.0
 11
7914.9999999999918
 21
-755.0
 31
0.0
1001
ACDBBLOCKREPETAG
1070
     1
1071
        9
1005
12B05C
  0
TEXT
  5
12B05D
  8
SLIM
 10
0.0
 20
670.0
 30
0.0
 40
100.0
  1
4SL-Z606-P140-S
 41
0.75
  0
TEXT
  5
12B05E
  8
SLIM
 10
0.0
 20
520.0
 30
0.0
 40
100.0
  1
4SL-Z606-P140-W
 41
0.75
  0
LINE
  5
12B05F
  8
OBJECT
 10
12085.999999999991
 20
-1103.9999999999991
 30
0.0
 11
12085.999999999991
 21
-1113.9999999999991
 31
0.0
1001
ACDBBLOCKREPETAG
1070
     1
1071
      121
1005
12B05F
  0
LINE
  5
12B060
  8
OBJECT
 10
12069.999999999991
 20
-1103.9999999999991
 30
0.0
 11
12069.999999999991
 21
-1113.9999999999991
 31
0.0
1001
ACDBBLOCKREPETAG
1070
     1
1071
      122
1005
12B060
  0
LINE
  5
12B061
  8
OBJECT
 10
12085.999999999991
 20
-1113.9999999999991
 30
0.0
 11
12069.999999999991
 21
-1113.9999999999991
 31
0.0
1001
ACDBBLOCKREPETAG
1070
     1
1071
      123
1005
12B061
  0
LINE
  5
12B062
  8
OBJECT
 10
12090.0
 20
-1064.9999999999959
 30
0.0
 11
11924.0
 21
-1064.9999999999959
 31
0.0
1001
ACDBBLOCKREPETAG
1070
     1
1071
      124
1005
12B062
  0
LINE
  5
12B063
  8
OBJECT
 10
12090.0
 20
-1079.9999999999991
 30
0.0
 11
12090.0
 21
-1064.9999999999959
 31
0.0
1001
ACDBBLOCKREPETAG
1070
     1
1071
      125
1005
12B063
  0
LINE
  5
12B064
  8
OBJECT
 10
11924.0
 20
-1079.9999999999991
 30
0.0
 11
12090.0
 21
-1079.9999999999991
 31
0.0
1001
ACDBBLOCKREPETAG
1070
     1
1071
      126
1005
12B064
  0
LINE
  5
12B065
  8
OBJECT
 10
12067.49999999998
 20
-1079.9999999999991
 30
0.0
 11
12067.49999999998
 21
-1089.9999999999991
 31
0.0
1001
ACDBBLOCKREPETAG
1070
     1
1071
      127
1005
12B065
  0
LINE
  5
12B066
  8
OBJECT
 10
12072.999999999991
 20
-1089.9999999999991
 30
0.0
 11
12072.999999999991
 21
-1079.9999999999991
 31
0.0
1001
ACDBBLOCKREPETAG
1070
     1
1071
      128
1005
12B066
  0
LINE
  5
12B067
  8
OBJECT
 10
12082.999999999991
 20
-1089.9999999999991
 30
0.0
 11
12082.999999999991
 21
-1079.9999999999991
 31
0.0
1001
ACDBBLOCKREPETAG
1070
     1
1071
      129
1005
12B067
  0
LINE
  5
12B068
  8
OBJECT
 10
11924.0
 20
-1089.9999999999991
 30
0.0
 11
11924.0
 21
-1103.9999999999959
 31
0.0
1001
ACDBBLOCKREPETAG
1070
     1
1071
      130
1005
12B068
  0
LINE
  5
12B069
  8
OBJECT
 10
12090.0
 20
-1089.9999999999991
 30
0.0
 11
12090.0
 21
-1103.9999999999959
 31
0.0
1001
ACDBBLOCKREPETAG
1070
     1
1071
      131
1005
12B069
  0
LINE
  5
12B06A
  8
OBJECT
 10
11924.0
 20
-1103.9999999999959
 30
0.0
 11
12090.0
 21
-1103.9999999999959
 31
0.0
1001
ACDBBLOCKREPETAG
1070
     1
1071
      132
1005
12B06A
  0
LINE
  5
12B06B
  8
OBJECT
 10
11924.0
 20
-1089.9999999999991
 30
0.0
 11
12090.0
 21
-1089.9999999999991
 31
0.0
1001
ACDBBLOCKREPETAG
1070
     1
1071
      133
1005
12B06B
  0
LINE
  5
12B06C
  8
OBJECT
 10
11932.49999999998
 20
-1079.9999999999991
 30
0.0
 11
11932.49999999998
 21
-1089.9999999999991
 31
0.0
1001
ACDBBLOCKREPETAG
1070
     1
1071
      134
1005
12B06C
  0
LINE
  5
12B06D
  8
OBJECT
 10
11934.0
 20
-1028.9999999999959
 30
0.0
 11
12065.999999999991
 21
-1028.9999999999959
 31
0.0
1001
ACDBBLOCKREPETAG
1070
     1
1071
      135
1005
12B06D
  0
LINE
  5
12B06E
  8
OBJECT
 10
11924.0
 20
-1079.9999999999991
 30
0.0
 11
11924.0
 21
-1064.9999999999959
 31
0.0
1001
ACDBBLOCKREPETAG
1070
     1
1071
      136
1005
12B06E
  0
LINE
  5
12B06F
  8
HIDDEN
 10
11943.0
 20
-1039.9999999999991
 30
0.0
 11
12057.0
 21
-1039.9999999999991
 31
0.0
1001
ACDBBLOCKREPETAG
1070
     1
1071
      137
1005
12B06F
  0
LINE
  5
12B070
  8
OBJECT
 10
12086.999999999991
 20
-1063.2
 30
0.0
 11
12086.999999999991
 21
-1064.9999999999991
 31
0.0
1001
ACDBBLOCKREPETAG
1070
     1
1071
      138
1005
12B070
  0
LINE
  5
12B071
  8
OBJECT
 10
12068.999999999991
 20
-1063.2
 30
0.0
 11
12068.999999999991
 21
-1064.9999999999991
 31
0.0
1001
ACDBBLOCKREPETAG
1070
     1
1071
      139
1005
12B071
  0
LINE
  5
12B072
  8
OBJECT
 10
12072.249999999991
 20
-1053.4999999999991
 30
0.0
 11
12083.749999999991
 21
-1053.4999999999991
 31
0.0
1001
ACDBBLOCKREPETAG
1070
     1
1071
      140
1005
12B072
  0
LINE
  5
12B073
  8
OBJECT
 10
12072.249999999991
 20
-1053.4999999999991
 30
0.0
 11
12072.249999999991
 21
-1063.2
 31
0.0
1001
ACDBBLOCKREPETAG
1070
     1
1071
      141
1005
12B073
  0
LINE
  5
12B074
  8
OBJECT
 10
12083.749999999991
 20
-1053.4999999999991
 30
0.0
 11
12083.749999999991
 21
-1063.2
 31
0.0
1001
ACDBBLOCKREPETAG
1070
     1
1071
      142
1005
12B074
  0
LINE
  5
12B075
  8
OBJECT
 10
11931.99999999998
 20
-1144.9999999999991
 30
0.0
 11
12067.99999999998
 21
-1144.9999999999991
 31
0.0
1001
ACDBBLOCKREPETAG
1070
     1
1071
      143
1005
12B075
  0
LINE
  5
12B076
  8
OBJECT
 10
11931.99999999998
 20
-1144.9999999999991
 30
0.0
 11
11931.99999999998
 21
-1103.9999999999991
 31
0.0
1001
ACDBBLOCKREPETAG
1070
     1
1071
      144
1005
12B076
  0
LINE
  5
12B077
  8
OBJECT
 10
12067.99999999998
 20
-1144.9999999999991
 30
0.0
 11
12067.99999999998
 21
-1103.9999999999991
 31
0.0
1001
ACDBBLOCKREPETAG
1070
     1
1071
      145
1005
12B077
  0
LINE
  5
12B078
  8
OBJECT
 10
12086.999999999991
 20
-1063.2
 30
0.0
 11
12068.999999999991
 21
-1063.2
 31
0.0
1001
ACDBBLOCKREPETAG
1070
     1
1071
      146
1005
12B078
  0
LINE
  5
12B079
  8
CENTER
 10
12000.0
 20
-769.99999999999955
 30
0.0
 11
12000.0
 21
-1159.9999999999991
 31
0.0
1001
ACDBBLOCKREPETAG
1070
     1
1071
      147
1005
12B079
  0
LINE
  5
12B07A
  8
OBJECT
 10
11925.0
 20
-769.99999999999955
 30
0.0
 11
11925.0
 21
-851.99999999999579
 31
0.0
1001
ACDBBLOCKREPETAG
1070
     1
1071
      148
1005
12B07A
  0
LINE
  5
12B07B
  8
OBJECT
 10
12075.0
 20
-769.99999999999955
 30
0.0
 11
12075.0
 21
-851.99999999999216
 31
0.0
1001
ACDBBLOCKREPETAG
1070
     1
1071
      149
1005
12B07B
  0
LINE
  5
12B07C
  8
OBJECT
 10
11925.0
 20
-851.99999999999579
 30
0.0
 11
12075.0
 21
-851.99999999999216
 31
0.0
1001
ACDBBLOCKREPETAG
1070
     1
1071
      150
1005
12B07C
  0
LINE
  5
12B07D
  8
OBJECT
 10
11943.0
 20
-1028.9999999999959
 30
0.0
 11
11943.0
 21
-979.99999999999204
 31
0.0
1001
ACDBBLOCKREPETAG
1070
     1
1071
      151
1005
12B07D
  0
LINE
  5
12B07E
  8
OBJECT
 10
12057.0
 20
-979.99999999999204
 30
0.0
 11
11943.0
 21
-979.99999999999204
 31
0.0
1001
ACDBBLOCKREPETAG
1070
     1
1071
      152
1005
12B07E
  0
LINE
  5
12B07F
  8
OBJECT
 10
12057.0
 20
-979.99999999999204
 30
0.0
 11
12057.0
 21
-1028.9999999999959
 31
0.0
1001
ACDBBLOCKREPETAG
1070
     1
1071
      153
1005
12B07F
  0
LINE
  5
12B080
  8
OBJECT
 10
11925.0
 20
-851.99999999999579
 30
0.0
 11
11943.0
 21
-979.99999999999204
 31
0.0
1001
ACDBBLOCKREPETAG
1070
     1
1071
      154
1005
12B080
  0
LINE
  5
12B081
  8
OBJECT
 10
12057.0
 20
-979.99999999999204
 30
0.0
 11
12075.0
 21
-851.99999999999216
 31
0.0
1001
ACDBBLOCKREPETAG
1070
     1
1071
      155
1005
12B081
  0
LINE
  5
12B082
  8
OBJECT
 10
11934.0
 20
-1064.9999999999959
 30
0.0
 11
11934.0
 21
-1028.9999999999959
 31
0.0
1001
ACDBBLOCKREPETAG
1070
     1
1071
      156
1005
12B082
  0
LINE
  5
12B083
  8
OBJECT
 10
12066.0
 20
-1064.9999999999959
 30
0.0
 11
12065.999999999991
 21
-1028.9999999999959
 31
0.0
1001
ACDBBLOCKREPETAG
1070
     1
1071
      157
1005
12B083
  0
LINE
  5
12B084
  8
OBJECT
 10
11954.75
 20
-1054.699999999993
 30
0.0
 11
11967.25
 21
-1054.699999999993
 31
0.0
1001
ACDBBLOCKREPETAG
1070
     1
1071
      158
1005
12B084
  0
LINE
  5
12B085
  8
OBJECT
 10
11946.0
 20
-1064.9999999999959
 30
0.0
 11
11946.0
 21
-1062.699999999996
 31
0.0
1001
ACDBBLOCKREPETAG
1070
     1
1071
      159
1005
12B085
  0
LINE
  5
12B086
  8
OBJECT
 10
11976.0
 20
-1064.9999999999959
 30
0.0
 11
11976.0
 21
-1062.699999999996
 31
0.0
1001
ACDBBLOCKREPETAG
1070
     1
1071
      160
1005
12B086
  0
LINE
  5
12B087
  8
OBJECT
 10
11954.75
 20
-1054.699999999993
 30
0.0
 11
11954.75
 21
-1062.699999999996
 31
0.0
1001
ACDBBLOCKREPETAG
1070
     1
1071
      161
1005
12B087
  0
LINE
  5
12B088
  8
OBJECT
 10
11967.25
 20
-1054.699999999993
 30
0.0
 11
11967.25
 21
-1062.699999999996
 31
0.0
1001
ACDBBLOCKREPETAG
1070
     1
1071
      162
1005
12B088
  0
LINE
  5
12B089
  8
OBJECT
 10
11946.0
 20
-1062.699999999996
 30
0.0
 11
11976.0
 21
-1062.699999999996
 31
0.0
1001
ACDBBLOCKREPETAG
1070
     1
1071
      163
1005
12B089
  0
LINE
  5
12B08A
  8
OBJECT
 10
11953.0
 20
-1103.9999999999959
 30
0.0
 11
11953.0
 21
-1113.9999999999959
 31
0.0
1001
ACDBBLOCKREPETAG
1070
     1
1071
      164
1005
12B08A
  0
LINE
  5
12B08B
  8
OBJECT
 10
11969.0
 20
-1103.9999999999959
 30
0.0
 11
11969.0
 21
-1113.9999999999959
 31
0.0
1001
ACDBBLOCKREPETAG
1070
     1
1071
      165
1005
12B08B
  0
LINE
  5
12B08C
  8
OBJECT
 10
11953.0
 20
-1113.9999999999959
 30
0.0
 11
11969.0
 21
-1113.9999999999959
 31
0.0
1001
ACDBBLOCKREPETAG
1070
     1
1071
      166
1005
12B08C
  0
LINE
  5
12B08D
  8
OBJECT
 10
11966.0
 20
-1089.9999999999959
 30
0.0
 11
11966.0
 21
-1079.9999999999959
 31
0.0
1001
ACDBBLOCKREPETAG
1070
     1
1071
      167
1005
12B08D
  0
LINE
  5
12B08E
  8
OBJECT
 10
11956.0
 20
-1089.9999999999959
 30
0.0
 11
11956.0
 21
-1079.9999999999959
 31
0.0
1001
ACDBBLOCKREPETAG
1070
     1
1071
      168
1005
12B08E
  0
LINE
  5
12B08F
  8
OBJECT
 10
10090.0
 20
-1064.9999999999959
 30
0.0
 11
9924.0
 21
-1064.9999999999959
 31
0.0
1001
ACDBBLOCKREPETAG
1070
     1
1071
       12
1005
12B08F
  0
LINE
  5
12B090
  8
OBJECT
 10
10066.0
 20
-1028.9999999999959
 30
0.0
 11
9934.0
 21
-1028.9999999999959
 31
0.0
1001
ACDBBLOCKREPETAG
1070
     1
1071
       13
1005
12B090
  0
LINE
  5
12B091
  8
OBJECT
 10
10090.0
 20
-1080.0
 30
0.0
 11
10090.0
 21
-1064.9999999999959
 31
0.0
1001
ACDBBLOCKREPETAG
1070
     1
1071
       14
1005
12B091
  0
LINE
  5
12B092
  8
OBJECT
 10
9924.0
 20
-1080.0
 30
0.0
 11
10090.0
 21
-1080.0
 31
0.0
1001
ACDBBLOCKREPETAG
1070
     1
1071
       15
1005
12B092
  0
LINE
  5
12B093
  8
OBJECT
 10
10067.49999999998
 20
-1080.0
 30
0.0
 11
10067.49999999998
 21
-1090.0
 31
0.0
1001
ACDBBLOCKREPETAG
1070
     1
1071
       16
1005
12B093
  0
LINE
  5
12B094
  8
OBJECT
 10
9924.0
 20
-1090.0
 30
0.0
 11
9924.0
 21
-1103.9999999999959
 31
0.0
1001
ACDBBLOCKREPETAG
1070
     1
1071
       17
1005
12B094
  0
LINE
  5
12B095
  8
OBJECT
 10
10090.0
 20
-1090.0
 30
0.0
 11
10090.0
 21
-1103.9999999999959
 31
0.0
1001
ACDBBLOCKREPETAG
1070
     1
1071
       18
1005
12B095
  0
LINE
  5
12B096
  8
OBJECT
 10
9924.0
 20
-1103.9999999999959
 30
0.0
 11
10090.0
 21
-1103.9999999999959
 31
0.0
1001
ACDBBLOCKREPETAG
1070
     1
1071
       19
1005
12B096
  0
LINE
  5
12B097
  8
OBJECT
 10
9924.0
 20
-1090.0
 30
0.0
 11
10090.0
 21
-1090.0
 31
0.0
1001
ACDBBLOCKREPETAG
1070
     1
1071
       20
1005
12B097
  0
LINE
  5
12B098
  8
OBJECT
 10
9932.4999999999836
 20
-1080.0
 30
0.0
 11
9932.4999999999836
 21
-1090.0
 31
0.0
1001
ACDBBLOCKREPETAG
1070
     1
1071
       21
1005
12B098
  0
LINE
  5
12B099
  8
OBJECT
 10
9924.0
 20
-1080.0
 30
0.0
 11
9924.0
 21
-1064.9999999999959
 31
0.0
1001
ACDBBLOCKREPETAG
1070
     1
1071
       22
1005
12B099
  0
LINE
  5
12B09A
  8
HIDDEN
 10
9943.0
 20
-1040.0
 30
0.0
 11
10057.0
 21
-1040.0
 31
0.0
1001
ACDBBLOCKREPETAG
1070
     1
1071
       23
1005
12B09A
  0
LINE
  5
12B09B
  8
CENTER
 10
10000.0
 20
-770.0
 30
0.0
 11
10000.0
 21
-1118.9999999999959
 31
0.0
1001
ACDBBLOCKREPETAG
1070
     1
1071
       24
1005
12B09B
  0
LINE
  5
12B09C
  8
OBJECT
 10
9925.0
 20
-770.0
 30
0.0
 11
9925.0
 21
-851.99999999999636
 31
0.0
1001
ACDBBLOCKREPETAG
1070
     1
1071
       25
1005
12B09C
  0
LINE
  5
12B09D
  8
OBJECT
 10
10075.0
 20
-770.0
 30
0.0
 11
10075.0
 21
-851.99999999999261
 31
0.0
1001
ACDBBLOCKREPETAG
1070
     1
1071
       26
1005
12B09D
  0
LINE
  5
12B09E
  8
OBJECT
 10
9925.0
 20
-851.99999999999636
 30
0.0
 11
10075.0
 21
-851.99999999999261
 31
0.0
1001
ACDBBLOCKREPETAG
1070
     1
1071
       27
1005
12B09E
  0
LINE
  5
12B09F
  8
OBJECT
 10
10057.0
 20
-1028.9999999999959
 30
0.0
 11
10057.0
 21
-979.99999999999272
 31
0.0
1001
ACDBBLOCKREPETAG
1070
     1
1071
       28
1005
12B09F
  0
LINE
  5
12B0A0
  8
OBJECT
 10
9943.0
 20
-1028.9999999999959
 30
0.0
 11
9943.0
 21
-979.99999999999272
 31
0.0
1001
ACDBBLOCKREPETAG
1070
     1
1071
       29
1005
12B0A0
  0
LINE
  5
12B0A1
  8
OBJECT
 10
10057.0
 20
-979.99999999999272
 30
0.0
 11
9943.0
 21
-979.99999999999272
 31
0.0
1001
ACDBBLOCKREPETAG
1070
     1
1071
       30
1005
12B0A1
  0
LINE
  5
12B0A2
  8
OBJECT
 10
9925.0
 20
-851.99999999999636
 30
0.0
 11
9943.0
 21
-979.99999999999272
 31
0.0
1001
ACDBBLOCKREPETAG
1070
     1
1071
       31
1005
12B0A2
  0
LINE
  5
12B0A3
  8
OBJECT
 10
10057.0
 20
-979.99999999999272
 30
0.0
 11
10075.0
 21
-851.99999999999261
 31
0.0
1001
ACDBBLOCKREPETAG
1070
     1
1071
       32
1005
12B0A3
  0
LINE
  5
12B0A4
  8
OBJECT
 10
9934.0
 20
-1028.9999999999959
 30
0.0
 11
9934.0
 21
-1064.9999999999959
 31
0.0
1001
ACDBBLOCKREPETAG
1070
     1
1071
       33
1005
12B0A4
  0
LINE
  5
12B0A5
  8
OBJECT
 10
10066.0
 20
-1028.9999999999959
 30
0.0
 11
10066.0
 21
-1064.9999999999959
 31
0.0
1001
ACDBBLOCKREPETAG
1070
     1
1071
       34
1005
12B0A5
  0
LINE
  5
12B0A6
  8
OBJECT
 10
10082.999999999991
 20
-1089.9999999999959
 30
0.0
 11
10082.999999999991
 21
-1079.9999999999959
 31
0.0
1001
ACDBBLOCKREPETAG
1070
     1
1071
       35
1005
12B0A6
  0
LINE
  5
12B0A7
  8
OBJECT
 10
10072.999999999991
 20
-1089.9999999999959
 30
0.0
 11
10072.999999999991
 21
-1079.9999999999959
 31
0.0
1001
ACDBBLOCKREPETAG
1070
     1
1071
       36
1005
12B0A7
  0
LINE
  5
12B0A8
  8
OBJECT
 10
10068.99999999998
 20
-1059.9999999999959
 30
0.0
 11
10068.99999999998
 21
-1064.9999999999959
 31
0.0
1001
ACDBBLOCKREPETAG
1070
     1
1071
       37
1005
12B0A8
  0
LINE
  5
12B0A9
  8
OBJECT
 10
10087.0
 20
-1059.9999999999959
 30
0.0
 11
10087.0
 21
-1064.9999999999959
 31
0.0
1001
ACDBBLOCKREPETAG
1070
     1
1071
       38
1005
12B0A9
  0
LINE
  5
12B0AA
  8
OBJECT
 10
10087.0
 20
-1059.9999999999959
 30
0.0
 11
10068.99999999998
 21
-1059.9999999999959
 31
0.0
1001
ACDBBLOCKREPETAG
1070
     1
1071
       39
1005
12B0AA
  0
LINE
  5
12B0AB
  8
OBJECT
 10
10073.0
 20
-1111.9999999999959
 30
0.0
 11
10073.0
 21
-1114.9999999999959
 31
0.0
1001
ACDBBLOCKREPETAG
1070
     1
1071
       40
1005
12B0AB
  0
LINE
  5
12B0AC
  8
OBJECT
 10
10073.0
 20
-1114.9999999999959
 30
0.0
 11
10083.0
 21
-1114.9999999999959
 31
0.0
1001
ACDBBLOCKREPETAG
1070
     1
1071
       41
1005
12B0AC
  0
LINE
  5
12B0AD
  8
OBJECT
 10
10068.18504542377
 20
-1111.9999999999959
 30
0.0
 11
10087.814954576221
 21
-1111.9999999999959
 31
0.0
1001
ACDBBLOCKREPETAG
1070
     1
1071
       42
1005
12B0AD
  0
LINE
  5
12B0AE
  8
OBJECT
 10
10083.0
 20
-1114.9999999999959
 30
0.0
 11
10083.0
 21
-1111.9999999999959
 31
0.0
1001
ACDBBLOCKREPETAG
1070
     1
1071
       43
1005
12B0AE
  0
LINE
  5
12B0AF
  8
OBJECT
 10
10068.18503599129
 20
-1103.9999868402549
 30
0.0
 11
10068.18503599129
 21
-1111.9999868402549
 31
0.0
1001
ACDBBLOCKREPETAG
1070
     1
1071
       44
1005
12B0AF
  0
LINE
  5
12B0B0
  8
OBJECT
 10
10073.0925013592
 20
-1103.9999868402549
 30
0.0
 11
10073.0925013592
 21
-1111.9999868402549
 31
0.0
1001
ACDBBLOCKREPETAG
1070
     1
1071
       45
1005
12B0B0
  0
LINE
  5
12B0B1
  8
OBJECT
 10
10082.90743209502
 20
-1103.9999868402549
 30
0.0
 11
10082.90743209502
 21
-1111.9999868402549
 31
0.0
1001
ACDBBLOCKREPETAG
1070
     1
1071
       46
1005
12B0B1
  0
LINE
  5
12B0B2
  8
OBJECT
 10
10087.81499155279
 20
-1103.9999868402549
 30
0.0
 11
10087.81499155279
 21
-1111.9999868402549
 31
0.0
1001
ACDBBLOCKREPETAG
1070
     1
1071
       47
1005
12B0B2
  0
LINE
  5
12B0B3
  8
OBJECT
 10
9968.5
 20
-1059.9999999999959
 30
0.0
 11
9951.9999999999909
 21
-1059.9999999999959
 31
0.0
1001
ACDBBLOCKREPETAG
1070
     1
1071
       48
1005
12B0B3
  0
LINE
  5
12B0B4
  8
OBJECT
 10
9976.0
 20
-1064.9999999999959
 30
0.0
 11
9976.0
 21
-1062.9999999999959
 31
0.0
1001
ACDBBLOCKREPETAG
1070
     1
1071
       49
1005
12B0B4
  0
LINE
  5
12B0B5
  8
OBJECT
 10
9966.0
 20
-1089.9999999999959
 30
0.0
 11
9966.0
 21
-1079.9999999999959
 31
0.0
1001
ACDBBLOCKREPETAG
1070
     1
1071
       50
1005
12B0B5
  0
LINE
  5
12B0B6
  8
OBJECT
 10
9956.0
 20
-1089.9999999999959
 30
0.0
 11
9956.0
 21
-1079.9999999999959
 31
0.0
1001
ACDBBLOCKREPETAG
1070
     1
1071
       51
1005
12B0B6
  0
LINE
  5
12B0B7
  8
OBJECT
 10
9951.9999999999909
 20
-1059.9999999999959
 30
0.0
 11
9951.9999999999909
 21
-1064.9999999999959
 31
0.0
1001
ACDBBLOCKREPETAG
1070
     1
1071
       52
1005
12B0B7
  0
LINE
  5
12B0B8
  8
OBJECT
 10
9956.0
 20
-1111.9999999999959
 30
0.0
 11
9956.0
 21
-1114.9999999999959
 31
0.0
1001
ACDBBLOCKREPETAG
1070
     1
1071
       53
1005
12B0B8
  0
LINE
  5
12B0B9
  8
OBJECT
 10
9956.0
 20
-1114.9999999999959
 30
0.0
 11
9966.0
 21
-1114.9999999999959
 31
0.0
1001
ACDBBLOCKREPETAG
1070
     1
1071
       54
1005
12B0B9
  0
LINE
  5
12B0BA
  8
OBJECT
 10
9951.185045423772
 20
-1111.9999999999959
 30
0.0
 11
9970.814954576219
 21
-1111.9999999999959
 31
0.0
1001
ACDBBLOCKREPETAG
1070
     1
1071
       55
1005
12B0BA
  0
LINE
  5
12B0BB
  8
OBJECT
 10
9966.0
 20
-1114.9999999999959
 30
0.0
 11
9966.0
 21
-1111.9999999999959
 31
0.0
1001
ACDBBLOCKREPETAG
1070
     1
1071
       56
1005
12B0BB
  0
LINE
  5
12B0BC
  8
OBJECT
 10
9976.0
 20
-1062.9999999999959
 30
0.0
 11
9968.5
 21
-1059.9999999999959
 31
0.0
1001
ACDBBLOCKREPETAG
1070
     1
1071
       57
1005
12B0BC
  0
LINE
  5
12B0BD
  8
OBJECT
 10
9951.1850359912914
 20
-1103.9999868402549
 30
0.0
 11
9951.1850359912914
 21
-1111.9999868402549
 31
0.0
1001
ACDBBLOCKREPETAG
1070
     1
1071
       58
1005
12B0BD
  0
LINE
  5
12B0BE
  8
OBJECT
 10
9956.0925013591986
 20
-1103.9999868402549
 30
0.0
 11
9956.0925013591986
 21
-1111.9999868402549
 31
0.0
1001
ACDBBLOCKREPETAG
1070
     1
1071
       59
1005
12B0BE
  0
LINE
  5
12B0BF
  8
OBJECT
 10
9965.907432095024
 20
-1103.9999868402549
 30
0.0
 11
9965.907432095024
 21
-1111.9999868402549
 31
0.0
1001
ACDBBLOCKREPETAG
1070
     1
1071
       60
1005
12B0BF
  0
LINE
  5
12B0C0
  8
OBJECT
 10
9970.8149915528011
 20
-1103.9999868402549
 30
0.0
 11
9970.8149915528011
 21
-1111.9999868402549
 31
0.0
1001
ACDBBLOCKREPETAG
1070
     1
1071
       61
1005
12B0C0
  0
LINE
  5
12B0C1
  8
OBJECT
 10
7943.0
 20
-1079.9999999999959
 30
0.0
 11
8057.0
 21
-1079.9999999999959
 31
0.0
1001
ACDBBLOCKREPETAG
1070
     1
1071
        0
1005
12B0C1
  0
LINE
  5
12B0C2
  8
OBJECT
 10
7943.0
 20
-1079.9999999999959
 30
0.0
 11
7943.0
 21
-979.99999999999613
 31
0.0
1001
ACDBBLOCKREPETAG
1070
     1
1071
        1
1005
12B0C2
  0
LINE
  5
12B0C3
  8
OBJECT
 10
8057.0
 20
-1079.9999999999959
 30
0.0
 11
8057.0
 21
-979.99999999999613
 31
0.0
1001
ACDBBLOCKREPETAG
1070
     1
1071
        2
1005
12B0C3
  0
LINE
  5
12B0C4
  8
OBJECT
 10
7943.0
 20
-979.99999999999613
 30
0.0
 11
8057.0
 21
-979.99999999999613
 31
0.0
1001
ACDBBLOCKREPETAG
1070
     1
1071
        3
1005
12B0C4
  0
LINE
  5
12B0C5
  8
HIDDEN
 10
7950.0
 20
-979.99999999999613
 30
0.0
 11
7950.0
 21
-1079.9999999999959
 31
0.0
1001
ACDBBLOCKREPETAG
1070
     1
1071
        4
1005
12B0C5
  0
LINE
  5
12B0C6
  8
HIDDEN
 10
8050.0
 20
-979.99999999999613
 30
0.0
 11
8050.0
 21
-1079.9999999999959
 31
0.0
1001
ACDBBLOCKREPETAG
1070
     1
1071
        5
1005
12B0C6
  0
LINE
  5
12B0C7
  8
CENTER
 10
8000.0
 20
-770.0
 30
0.0
 11
8000.0
 21
-1094.9999999999959
 31
0.0
1001
ACDBBLOCKREPETAG
1070
     1
1071
        6
1005
12B0C7
  0
LINE
  5
12B0C8
  8
OBJECT
 10
7925.0
 20
-770.0
 30
0.0
 11
7925.0
 21
-851.99999999999636
 31
0.0
1001
ACDBBLOCKREPETAG
1070
     1
1071
        7
1005
12B0C8
  0
LINE
  5
12B0C9
  8
OBJECT
 10
8075.0
 20
-770.0
 30
0.0
 11
8075.0
 21
-851.99999999999636
 31
0.0
1001
ACDBBLOCKREPETAG
1070
     1
1071
        8
1005
12B0C9
  0
LINE
  5
12B0CA
  8
OBJECT
 10
7925.0
 20
-851.99999999999636
 30
0.0
 11
8075.0
 21
-851.99999999999636
 31
0.0
1001
ACDBBLOCKREPETAG
1070
     1
1071
        9
1005
12B0CA
  0
LINE
  5
12B0CB
  8
OBJECT
 10
7925.0
 20
-851.99999999999636
 30
0.0
 11
7943.0
 21
-979.99999999999613
 31
0.0
1001
ACDBBLOCKREPETAG
1070
     1
1071
       10
1005
12B0CB
  0
LINE
  5
12B0CC
  8
OBJECT
 10
8057.0
 20
-979.99999999999613
 30
0.0
 11
8075.0
 21
-851.99999999999636
 31
0.0
1001
ACDBBLOCKREPETAG
1070
     1
1071
       11
1005
12B0CC
  0
LINE
  5
12B0CD
  8
OBJECT
 10
6085.9999999999927
 20
-1103.9999999999991
 30
0.0
 11
6085.9999999999927
 21
-1113.9999999999991
 31
0.0
1001
ACDBBLOCKREPETAG
1070
     1
1071
      121
1005
12B0CD
  0
LINE
  5
12B0CE
  8
OBJECT
 10
6069.9999999999927
 20
-1103.9999999999991
 30
0.0
 11
6069.9999999999927
 21
-1113.9999999999991
 31
0.0
1001
ACDBBLOCKREPETAG
1070
     1
1071
      122
1005
12B0CE
  0
LINE
  5
12B0CF
  8
OBJECT
 10
6085.9999999999927
 20
-1113.9999999999991
 30
0.0
 11
6069.9999999999927
 21
-1113.9999999999991
 31
0.0
1001
ACDBBLOCKREPETAG
1070
     1
1071
      123
1005
12B0CF
  0
LINE
  5
12B0D0
  8
OBJECT
 10
6090.0
 20
-1064.9999999999959
 30
0.0
 11
5924.0
 21
-1064.9999999999959
 31
0.0
1001
ACDBBLOCKREPETAG
1070
     1
1071
      124
1005
12B0D0
  0
LINE
  5
12B0D1
  8
OBJECT
 10
6090.0
 20
-1079.9999999999991
 30
0.0
 11
6090.0
 21
-1064.9999999999959
 31
0.0
1001
ACDBBLOCKREPETAG
1070
     1
1071
      125
1005
12B0D1
  0
LINE
  5
12B0D2
  8
OBJECT
 10
5924.0
 20
-1079.9999999999991
 30
0.0
 11
6090.0
 21
-1079.9999999999991
 31
0.0
1001
ACDBBLOCKREPETAG
1070
     1
1071
      126
1005
12B0D2
  0
LINE
  5
12B0D3
  8
OBJECT
 10
6067.4999999999864
 20
-1079.9999999999991
 30
0.0
 11
6067.4999999999864
 21
-1089.9999999999991
 31
0.0
1001
ACDBBLOCKREPETAG
1070
     1
1071
      127
1005
12B0D3
  0
LINE
  5
12B0D4
  8
OBJECT
 10
6072.9999999999927
 20
-1089.9999999999991
 30
0.0
 11
6072.9999999999927
 21
-1079.9999999999991
 31
0.0
1001
ACDBBLOCKREPETAG
1070
     1
1071
      128
1005
12B0D4
  0
LINE
  5
12B0D5
  8
OBJECT
 10
6082.9999999999927
 20
-1089.9999999999991
 30
0.0
 11
6082.9999999999927
 21
-1079.9999999999991
 31
0.0
1001
ACDBBLOCKREPETAG
1070
     1
1071
      129
1005
12B0D5
  0
LINE
  5
12B0D6
  8
OBJECT
 10
5924.0
 20
-1089.9999999999991
 30
0.0
 11
5924.0
 21
-1103.9999999999959
 31
0.0
1001
ACDBBLOCKREPETAG
1070
     1
1071
      130
1005
12B0D6
  0
LINE
  5
12B0D7
  8
OBJECT
 10
6090.0
 20
-1089.9999999999991
 30
0.0
 11
6090.0
 21
-1103.9999999999959
 31
0.0
1001
ACDBBLOCKREPETAG
1070
     1
1071
      131
1005
12B0D7
  0
LINE
  5
12B0D8
  8
OBJECT
 10
5924.0
 20
-1103.9999999999959
 30
0.0
 11
6090.0
 21
-1103.9999999999959
 31
0.0
1001
ACDBBLOCKREPETAG
1070
     1
1071
      132
1005
12B0D8
  0
LINE
  5
12B0D9
  8
OBJECT
 10
5924.0
 20
-1089.9999999999991
 30
0.0
 11
6090.0
 21
-1089.9999999999991
 31
0.0
1001
ACDBBLOCKREPETAG
1070
     1
1071
      133
1005
12B0D9
  0
LINE
  5
12B0DA
  8
OBJECT
 10
5932.4999999999864
 20
-1079.9999999999991
 30
0.0
 11
5932.4999999999864
 21
-1089.9999999999991
 31
0.0
1001
ACDBBLOCKREPETAG
1070
     1
1071
      134
1005
12B0DA
  0
LINE
  5
12B0DB
  8
OBJECT
 10
5934.0
 20
-1028.9999999999959
 30
0.0
 11
6065.9999999999909
 21
-1028.9999999999959
 31
0.0
1001
ACDBBLOCKREPETAG
1070
     1
1071
      135
1005
12B0DB
  0
LINE
  5
12B0DC
  8
OBJECT
 10
5924.0
 20
-1079.9999999999991
 30
0.0
 11
5924.0
 21
-1064.9999999999959
 31
0.0
1001
ACDBBLOCKREPETAG
1070
     1
1071
      136
1005
12B0DC
  0
LINE
  5
12B0DD
  8
HIDDEN
 10
5943.0
 20
-1039.9999999999991
 30
0.0
 11
6057.0
 21
-1039.9999999999991
 31
0.0
1001
ACDBBLOCKREPETAG
1070
     1
1071
      137
1005
12B0DD
  0
LINE
  5
12B0DE
  8
OBJECT
 10
6086.9999999999918
 20
-1063.2
 30
0.0
 11
6086.9999999999918
 21
-1064.9999999999991
 31
0.0
1001
ACDBBLOCKREPETAG
1070
     1
1071
      138
1005
12B0DE
  0
LINE
  5
12B0DF
  8
OBJECT
 10
6068.9999999999909
 20
-1063.2
 30
0.0
 11
6068.9999999999909
 21
-1064.9999999999991
 31
0.0
1001
ACDBBLOCKREPETAG
1070
     1
1071
      139
1005
12B0DF
  0
LINE
  5
12B0E0
  8
OBJECT
 10
6072.2499999999927
 20
-1053.4999999999991
 30
0.0
 11
6083.7499999999927
 21
-1053.4999999999991
 31
0.0
1001
ACDBBLOCKREPETAG
1070
     1
1071
      140
1005
12B0E0
  0
LINE
  5
12B0E1
  8
OBJECT
 10
6072.2499999999927
 20
-1053.4999999999991
 30
0.0
 11
6072.2499999999927
 21
-1063.2
 31
0.0
1001
ACDBBLOCKREPETAG
1070
     1
1071
      141
1005
12B0E1
  0
LINE
  5
12B0E2
  8
OBJECT
 10
6083.7499999999927
 20
-1053.4999999999991
 30
0.0
 11
6083.7499999999927
 21
-1063.2
 31
0.0
1001
ACDBBLOCKREPETAG
1070
     1
1071
      142
1005
12B0E2
  0
LINE
  5
12B0E3
  8
OBJECT
 10
5931.9999999999873
 20
-1144.9999999999991
 30
0.0
 11
6067.9999999999873
 21
-1144.9999999999991
 31
0.0
1001
ACDBBLOCKREPETAG
1070
     1
1071
      143
1005
12B0E3
  0
LINE
  5
12B0E4
  8
OBJECT
 10
5931.9999999999873
 20
-1144.9999999999991
 30
0.0
 11
5931.9999999999873
 21
-1103.9999999999991
 31
0.0
1001
ACDBBLOCKREPETAG
1070
     1
1071
      144
1005
12B0E4
  0
LINE
  5
12B0E5
  8
OBJECT
 10
6067.9999999999873
 20
-1144.9999999999991
 30
0.0
 11
6067.9999999999873
 21
-1103.9999999999991
 31
0.0
1001
ACDBBLOCKREPETAG
1070
     1
1071
      145
1005
12B0E5
  0
LINE
  5
12B0E6
  8
OBJECT
 10
6086.9999999999918
 20
-1063.2
 30
0.0
 11
6068.9999999999909
 21
-1063.2
 31
0.0
1001
ACDBBLOCKREPETAG
1070
     1
1071
      146
1005
12B0E6
  0
LINE
  5
12B0E7
  8
CENTER
 10
6000.0
 20
-769.99999999999955
 30
0.0
 11
6000.0
 21
-1159.9999999999991
 31
0.0
1001
ACDBBLOCKREPETAG
1070
     1
1071
      147
1005
12B0E7
  0
LINE
  5
12B0E8
  8
OBJECT
 10
5925.0
 20
-769.99999999999955
 30
0.0
 11
5925.0
 21
-851.99999999999579
 31
0.0
1001
ACDBBLOCKREPETAG
1070
     1
1071
      148
1005
12B0E8
  0
LINE
  5
12B0E9
  8
OBJECT
 10
6075.0
 20
-769.99999999999955
 30
0.0
 11
6075.0
 21
-851.99999999999216
 31
0.0
1001
ACDBBLOCKREPETAG
1070
     1
1071
      149
1005
12B0E9
  0
LINE
  5
12B0EA
  8
OBJECT
 10
5925.0
 20
-851.99999999999579
 30
0.0
 11
6075.0
 21
-851.99999999999216
 31
0.0
1001
ACDBBLOCKREPETAG
1070
     1
1071
      150
1005
12B0EA
  0
LINE
  5
12B0EB
  8
OBJECT
 10
5943.0
 20
-1028.9999999999959
 30
0.0
 11
5943.0
 21
-979.99999999999204
 31
0.0
1001
ACDBBLOCKREPETAG
1070
     1
1071
      151
1005
12B0EB
  0
LINE
  5
12B0EC
  8
OBJECT
 10
6057.0
 20
-979.99999999999204
 30
0.0
 11
5943.0
 21
-979.99999999999204
 31
0.0
1001
ACDBBLOCKREPETAG
1070
     1
1071
      152
1005
12B0EC
  0
LINE
  5
12B0ED
  8
OBJECT
 10
6057.0
 20
-979.99999999999204
 30
0.0
 11
6057.0
 21
-1028.9999999999959
 31
0.0
1001
ACDBBLOCKREPETAG
1070
     1
1071
      153
1005
12B0ED
  0
LINE
  5
12B0EE
  8
OBJECT
 10
5925.0
 20
-851.99999999999579
 30
0.0
 11
5943.0
 21
-979.99999999999204
 31
0.0
1001
ACDBBLOCKREPETAG
1070
     1
1071
      154
1005
12B0EE
  0
LINE
  5
12B0EF
  8
OBJECT
 10
6057.0
 20
-979.99999999999204
 30
0.0
 11
6075.0
 21
-851.99999999999216
 31
0.0
1001
ACDBBLOCKREPETAG
1070
     1
1071
      155
1005
12B0EF
  0
LINE
  5
12B0F0
  8
OBJECT
 10
5934.0
 20
-1064.9999999999959
 30
0.0
 11
5934.0
 21
-1028.9999999999959
 31
0.0
1001
ACDBBLOCKREPETAG
1070
     1
1071
      156
1005
12B0F0
  0
LINE
  5
12B0F1
  8
OBJECT
 10
6066.0
 20
-1064.9999999999959
 30
0.0
 11
6065.9999999999909
 21
-1028.9999999999959
 31
0.0
1001
ACDBBLOCKREPETAG
1070
     1
1071
      157
1005
12B0F1
  0
LINE
  5
12B0F2
  8
OBJECT
 10
5954.75
 20
-1054.699999999993
 30
0.0
 11
5967.2499999999991
 21
-1054.699999999993
 31
0.0
1001
ACDBBLOCKREPETAG
1070
     1
1071
      158
1005
12B0F2
  0
LINE
  5
12B0F3
  8
OBJECT
 10
5946.0
 20
-1064.9999999999959
 30
0.0
 11
5946.0
 21
-1062.699999999996
 31
0.0
1001
ACDBBLOCKREPETAG
1070
     1
1071
      159
1005
12B0F3
  0
LINE
  5
12B0F4
  8
OBJECT
 10
5976.0
 20
-1064.9999999999959
 30
0.0
 11
5976.0
 21
-1062.699999999996
 31
0.0
1001
ACDBBLOCKREPETAG
1070
     1
1071
      160
1005
12B0F4
  0
LINE
  5
12B0F5
  8
OBJECT
 10
5954.75
 20
-1054.699999999993
 30
0.0
 11
5954.75
 21
-1062.699999999996
 31
0.0
1001
ACDBBLOCKREPETAG
1070
     1
1071
      161
1005
12B0F5
  0
LINE
  5
12B0F6
  8
OBJECT
 10
5967.2499999999991
 20
-1054.699999999993
 30
0.0
 11
5967.2499999999991
 21
-1062.699999999996
 31
0.0
1001
ACDBBLOCKREPETAG
1070
     1
1071
      162
1005
12B0F6
  0
LINE
  5
12B0F7
  8
OBJECT
 10
5946.0
 20
-1062.699999999996
 30
0.0
 11
5976.0
 21
-1062.699999999996
 31
0.0
1001
ACDBBLOCKREPETAG
1070
     1
1071
      163
1005
12B0F7
  0
LINE
  5
12B0F8
  8
OBJECT
 10
5953.0
 20
-1103.9999999999959
 30
0.0
 11
5953.0
 21
-1113.9999999999959
 31
0.0
1001
ACDBBLOCKREPETAG
1070
     1
1071
      164
1005
12B0F8
  0
LINE
  5
12B0F9
  8
OBJECT
 10
5969.0
 20
-1103.9999999999959
 30
0.0
 11
5969.0
 21
-1113.9999999999959
 31
0.0
1001
ACDBBLOCKREPETAG
1070
     1
1071
      165
1005
12B0F9
  0
LINE
  5
12B0FA
  8
OBJECT
 10
5953.0
 20
-1113.9999999999959
 30
0.0
 11
5969.0
 21
-1113.9999999999959
 31
0.0
1001
ACDBBLOCKREPETAG
1070
     1
1071
      166
1005
12B0FA
  0
LINE
  5
12B0FB
  8
OBJECT
 10
5966.0
 20
-1089.9999999999959
 30
0.0
 11
5966.0
 21
-1079.9999999999959
 31
0.0
1001
ACDBBLOCKREPETAG
1070
     1
1071
      167
1005
12B0FB
  0
LINE
  5
12B0FC
  8
OBJECT
 10
5956.0
 20
-1089.9999999999959
 30
0.0
 11
5956.0
 21
-1079.9999999999959
 31
0.0
1001
ACDBBLOCKREPETAG
1070
     1
1071
      168
1005
12B0FC
  0
LINE
  5
12B0FD
  8
OBJECT
 10
4090.0
 20
-1064.9999999999959
 30
0.0
 11
3924.0
 21
-1064.9999999999959
 31
0.0
1001
ACDBBLOCKREPETAG
1070
     1
1071
       12
1005
12B0FD
  0
LINE
  5
12B0FE
  8
OBJECT
 10
4066.0
 20
-1028.9999999999959
 30
0.0
 11
3934.0
 21
-1028.9999999999959
 31
0.0
1001
ACDBBLOCKREPETAG
1070
     1
1071
       13
1005
12B0FE
  0
LINE
  5
12B0FF
  8
OBJECT
 10
4090.0
 20
-1080.0
 30
0.0
 11
4090.0
 21
-1064.9999999999959
 31
0.0
1001
ACDBBLOCKREPETAG
1070
     1
1071
       14
1005
12B0FF
  0
LINE
  5
12B100
  8
OBJECT
 10
3924.0
 20
-1080.0
 30
0.0
 11
4090.0
 21
-1080.0
 31
0.0
1001
ACDBBLOCKREPETAG
1070
     1
1071
       15
1005
12B100
  0
LINE
  5
12B101
  8
OBJECT
 10
4067.4999999999841
 20
-1080.0
 30
0.0
 11
4067.4999999999841
 21
-1090.0
 31
0.0
1001
ACDBBLOCKREPETAG
1070
     1
1071
       16
1005
12B101
  0
LINE
  5
12B102
  8
OBJECT
 10
3924.0
 20
-1090.0
 30
0.0
 11
3924.0
 21
-1103.9999999999959
 31
0.0
1001
ACDBBLOCKREPETAG
1070
     1
1071
       17
1005
12B102
  0
LINE
  5
12B103
  8
OBJECT
 10
4090.0
 20
-1090.0
 30
0.0
 11
4090.0
 21
-1103.9999999999959
 31
0.0
1001
ACDBBLOCKREPETAG
1070
     1
1071
       18
1005
12B103
  0
LINE
  5
12B104
  8
OBJECT
 10
3924.0
 20
-1103.9999999999959
 30
0.0
 11
4090.0
 21
-1103.9999999999959
 31
0.0
1001
ACDBBLOCKREPETAG
1070
     1
1071
       19
1005
12B104
  0
LINE
  5
12B105
  8
OBJECT
 10
3924.0
 20
-1090.0
 30
0.0
 11
4090.0
 21
-1090.0
 31
0.0
1001
ACDBBLOCKREPETAG
1070
     1
1071
       20
1005
12B105
  0
LINE
  5
12B106
  8
OBJECT
 10
3932.499999999985
 20
-1080.0
 30
0.0
 11
3932.499999999985
 21
-1090.0
 31
0.0
1001
ACDBBLOCKREPETAG
1070
     1
1071
       21
1005
12B106
  0
LINE
  5
12B107
  8
OBJECT
 10
3924.0
 20
-1080.0
 30
0.0
 11
3924.0
 21
-1064.9999999999959
 31
0.0
1001
ACDBBLOCKREPETAG
1070
     1
1071
       22
1005
12B107
  0
LINE
  5
12B108
  8
HIDDEN
 10
3943.0
 20
-1040.0
 30
0.0
 11
4057.0
 21
-1040.0
 31
0.0
1001
ACDBBLOCKREPETAG
1070
     1
1071
       23
1005
12B108
  0
LINE
  5
12B109
  8
CENTER
 10
4000.0
 20
-770.0
 30
0.0
 11
4000.0
 21
-1118.9999999999959
 31
0.0
1001
ACDBBLOCKREPETAG
1070
     1
1071
       24
1005
12B109
  0
LINE
  5
12B10A
  8
OBJECT
 10
3925.0
 20
-770.0
 30
0.0
 11
3925.0
 21
-851.99999999999636
 31
0.0
1001
ACDBBLOCKREPETAG
1070
     1
1071
       25
1005
12B10A
  0
LINE
  5
12B10B
  8
OBJECT
 10
4075.0
 20
-770.0
 30
0.0
 11
4075.0
 21
-851.99999999999261
 31
0.0
1001
ACDBBLOCKREPETAG
1070
     1
1071
       26
1005
12B10B
  0
LINE
  5
12B10C
  8
OBJECT
 10
3925.0
 20
-851.99999999999636
 30
0.0
 11
4075.0
 21
-851.99999999999261
 31
0.0
1001
ACDBBLOCKREPETAG
1070
     1
1071
       27
1005
12B10C
  0
LINE
  5
12B10D
  8
OBJECT
 10
4057.0
 20
-1028.9999999999959
 30
0.0
 11
4057.0
 21
-979.99999999999272
 31
0.0
1001
ACDBBLOCKREPETAG
1070
     1
1071
       28
1005
12B10D
  0
LINE
  5
12B10E
  8
OBJECT
 10
3943.0
 20
-1028.9999999999959
 30
0.0
 11
3943.0
 21
-979.99999999999272
 31
0.0
1001
ACDBBLOCKREPETAG
1070
     1
1071
       29
1005
12B10E
  0
LINE
  5
12B10F
  8
OBJECT
 10
4057.0
 20
-979.99999999999272
 30
0.0
 11
3943.0
 21
-979.99999999999272
 31
0.0
1001
ACDBBLOCKREPETAG
1070
     1
1071
       30
1005
12B10F
  0
LINE
  5
12B110
  8
OBJECT
 10
3925.0
 20
-851.99999999999636
 30
0.0
 11
3943.0
 21
-979.99999999999272
 31
0.0
1001
ACDBBLOCKREPETAG
1070
     1
1071
       31
1005
12B110
  0
LINE
  5
12B111
  8
OBJECT
 10
4057.0
 20
-979.99999999999272
 30
0.0
 11
4075.0
 21
-851.99999999999261
 31
0.0
1001
ACDBBLOCKREPETAG
1070
     1
1071
       32
1005
12B111
  0
LINE
  5
12B112
  8
OBJECT
 10
3934.0
 20
-1028.9999999999959
 30
0.0
 11
3934.0
 21
-1064.9999999999959
 31
0.0
1001
ACDBBLOCKREPETAG
1070
     1
1071
       33
1005
12B112
  0
LINE
  5
12B113
  8
OBJECT
 10
4066.0
 20
-1028.9999999999959
 30
0.0
 11
4066.0
 21
-1064.9999999999959
 31
0.0
1001
ACDBBLOCKREPETAG
1070
     1
1071
       34
1005
12B113
  0
LINE
  5
12B114
  8
OBJECT
 10
4082.9999999999932
 20
-1089.9999999999959
 30
0.0
 11
4082.9999999999932
 21
-1079.9999999999959
 31
0.0
1001
ACDBBLOCKREPETAG
1070
     1
1071
       35
1005
12B114
  0
LINE
  5
12B115
  8
OBJECT
 10
4072.9999999999918
 20
-1089.9999999999959
 30
0.0
 11
4072.9999999999918
 21
-1079.9999999999959
 31
0.0
1001
ACDBBLOCKREPETAG
1070
     1
1071
       36
1005
12B115
  0
LINE
  5
12B116
  8
OBJECT
 10
4068.9999999999841
 20
-1059.9999999999959
 30
0.0
 11
4068.9999999999841
 21
-1064.9999999999959
 31
0.0
1001
ACDBBLOCKREPETAG
1070
     1
1071
       37
1005
12B116
  0
LINE
  5
12B117
  8
OBJECT
 10
4087.0
 20
-1059.9999999999959
 30
0.0
 11
4087.0
 21
-1064.9999999999959
 31
0.0
1001
ACDBBLOCKREPETAG
1070
     1
1071
       38
1005
12B117
  0
LINE
  5
12B118
  8
OBJECT
 10
4087.0
 20
-1059.9999999999959
 30
0.0
 11
4068.9999999999841
 21
-1059.9999999999959
 31
0.0
1001
ACDBBLOCKREPETAG
1070
     1
1071
       39
1005
12B118
  0
LINE
  5
12B119
  8
OBJECT
 10
4073.0
 20
-1111.9999999999959
 30
0.0
 11
4073.0
 21
-1114.9999999999959
 31
0.0
1001
ACDBBLOCKREPETAG
1070
     1
1071
       40
1005
12B119
  0
LINE
  5
12B11A
  8
OBJECT
 10
4073.0
 20
-1114.9999999999959
 30
0.0
 11
4083.0
 21
-1114.9999999999959
 31
0.0
1001
ACDBBLOCKREPETAG
1070
     1
1071
       41
1005
12B11A
  0
LINE
  5
12B11B
  8
OBJECT
 10
4068.185045423772
 20
-1111.9999999999959
 30
0.0
 11
4087.8149545762199
 21
-1111.9999999999959
 31
0.0
1001
ACDBBLOCKREPETAG
1070
     1
1071
       42
1005
12B11B
  0
LINE
  5
12B11C
  8
OBJECT
 10
4083.0
 20
-1114.9999999999959
 30
0.0
 11
4083.0
 21
-1111.9999999999959
 31
0.0
1001
ACDBBLOCKREPETAG
1070
     1
1071
       43
1005
12B11C
  0
LINE
  5
12B11D
  8
OBJECT
 10
4068.1850359912942
 20
-1103.9999868402549
 30
0.0
 11
4068.1850359912942
 21
-1111.9999868402549
 31
0.0
1001
ACDBBLOCKREPETAG
1070
     1
1071
       44
1005
12B11D
  0
LINE
  5
12B11E
  8
OBJECT
 10
4073.0925013591982
 20
-1103.9999868402549
 30
0.0
 11
4073.0925013591982
 21
-1111.9999868402549
 31
0.0
1001
ACDBBLOCKREPETAG
1070
     1
1071
       45
1005
12B11E
  0
LINE
  5
12B11F
  8
OBJECT
 10
4082.907432095024
 20
-1103.9999868402549
 30
0.0
 11
4082.907432095024
 21
-1111.9999868402549
 31
0.0
1001
ACDBBLOCKREPETAG
1070
     1
1071
       46
1005
12B11F
  0
LINE
  5
12B120
  8
OBJECT
 10
4087.814991552797
 20
-1103.9999868402549
 30
0.0
 11
4087.814991552797
 21
-1111.9999868402549
 31
0.0
1001
ACDBBLOCKREPETAG
1070
     1
1071
       47
1005
12B120
  0
LINE
  5
12B121
  8
OBJECT
 10
3968.5
 20
-1059.9999999999959
 30
0.0
 11
3951.9999999999932
 21
-1059.9999999999959
 31
0.0
1001
ACDBBLOCKREPETAG
1070
     1
1071
       48
1005
12B121
  0
LINE
  5
12B122
  8
OBJECT
 10
3976.0
 20
-1064.9999999999959
 30
0.0
 11
3976.0
 21
-1062.9999999999959
 31
0.0
1001
ACDBBLOCKREPETAG
1070
     1
1071
       49
1005
12B122
  0
LINE
  5
12B123
  8
OBJECT
 10
3966.0
 20
-1089.9999999999959
 30
0.0
 11
3966.0
 21
-1079.9999999999959
 31
0.0
1001
ACDBBLOCKREPETAG
1070
     1
1071
       50
1005
12B123
  0
LINE
  5
12B124
  8
OBJECT
 10
3956.0
 20
-1089.9999999999959
 30
0.0
 11
3956.0
 21
-1079.9999999999959
 31
0.0
1001
ACDBBLOCKREPETAG
1070
     1
1071
       51
1005
12B124
  0
LINE
  5
12B125
  8
OBJECT
 10
3951.9999999999932
 20
-1059.9999999999959
 30
0.0
 11
3951.9999999999932
 21
-1064.9999999999959
 31
0.0
1001
ACDBBLOCKREPETAG
1070
     1
1071
       52
1005
12B125
  0
LINE
  5
12B126
  8
OBJECT
 10
3956.0
 20
-1111.9999999999959
 30
0.0
 11
3956.0
 21
-1114.9999999999959
 31
0.0
1001
ACDBBLOCKREPETAG
1070
     1
1071
       53
1005
12B126
  0
LINE
  5
12B127
  8
OBJECT
 10
3956.0
 20
-1114.9999999999959
 30
0.0
 11
3966.0
 21
-1114.9999999999959
 31
0.0
1001
ACDBBLOCKREPETAG
1070
     1
1071
       54
1005
12B127
  0
LINE
  5
12B128
  8
OBJECT
 10
3951.185045423772
 20
-1111.9999999999959
 30
0.0
 11
3970.8149545762212
 21
-1111.9999999999959
 31
0.0
1001
ACDBBLOCKREPETAG
1070
     1
1071
       55
1005
12B128
  0
LINE
  5
12B129
  8
OBJECT
 10
3966.0
 20
-1114.9999999999959
 30
0.0
 11
3966.0
 21
-1111.9999999999959
 31
0.0
1001
ACDBBLOCKREPETAG
1070
     1
1071
       56
1005
12B129
  0
LINE
  5
12B12A
  8
OBJECT
 10
3976.0
 20
-1062.9999999999959
 30
0.0
 11
3968.5
 21
-1059.9999999999959
 31
0.0
1001
ACDBBLOCKREPETAG
1070
     1
1071
       57
1005
12B12A
  0
LINE
  5
12B12B
  8
OBJECT
 10
3951.1850359912951
 20
-1103.9999868402549
 30
0.0
 11
3951.1850359912951
 21
-1111.9999868402549
 31
0.0
1001
ACDBBLOCKREPETAG
1070
     1
1071
       58
1005
12B12B
  0
LINE
  5
12B12C
  8
OBJECT
 10
3956.0925013591991
 20
-1103.9999868402549
 30
0.0
 11
3956.0925013591991
 21
-1111.9999868402549
 31
0.0
1001
ACDBBLOCKREPETAG
1070
     1
1071
       59
1005
12B12C
  0
LINE
  5
12B12D
  8
OBJECT
 10
3965.907432095024
 20
-1103.9999868402549
 30
0.0
 11
3965.907432095024
 21
-1111.9999868402549
 31
0.0
1001
ACDBBLOCKREPETAG
1070
     1
1071
       60
1005
12B12D
  0
LINE
  5
12B12E
  8
OBJECT
 10
3970.8149915527979
 20
-1103.9999868402549
 30
0.0
 11
3970.8149915527979
 21
-1111.9999868402549
 31
0.0
1001
ACDBBLOCKREPETAG
1070
     1
1071
       61
1005
12B12E
  0
LINE
  5
12B12F
  8
CENTER
 10
11909.0
 20
-1353.9999999999959
 30
0.0
 11
12105.0
 21
-1353.9999999999959
 31
0.0
1001
ACDBBLOCKREPETAG
1070
     1
1071
       10
1005
12B12F
  0
LINE
  5
12B130
  8
CENTER
 10
12000.0
 20
-1262.7253355707801
 30
0.0
 11
12000.0
 21
-1445.2746644292131
 31
0.0
1001
ACDBBLOCKREPETAG
1070
     1
1071
       11
1005
12B130
  0
CIRCLE
  5
12B131
  8
OBJECT
 10
12000.0
 20
-1353.9999999999959
 30
0.0
 40
50.0
1001
ACDBBLOCKREPETAG
1070
     1
1071
       12
1005
12B131
  0
CIRCLE
  5
12B132
  8
OBJECT
 10
12000.0
 20
-1353.9999999999959
 30
0.0
 40
60.0
1001
ACDBBLOCKREPETAG
1070
     1
1071
       13
1005
12B132
  0
CIRCLE
  5
12B133
  8
OBJECT
 10
12000.0
 20
-1353.9999999999959
 30
0.0
 40
68.0
1001
ACDBBLOCKREPETAG
1070
     1
1071
       14
1005
12B133
  0
ARC
  5
12B134
  8
OBJECT
 10
12077.5
 20
-1353.9999999999959
 30
0.0
 40
12.0
 50
272.10542627221611
 51
87.894573727783893
1001
ACDBBLOCKREPETAG
1070
     1
1071
       15
1005
12B134
  0
ARC
  5
12B135
  8
OBJECT
 10
12078.49193548386
 20
-1327.0182271895251
 30
0.0
 40
15.0
 50
198.97051877965251
 51
267.89457372778372
1001
ACDBBLOCKREPETAG
1070
     1
1071
       16
1005
12B135
  0
ARC
  5
12B136
  8
OBJECT
 10
12078.49193548386
 20
-1380.981772810464
 30
0.0
 40
15.0
 50
92.105426272216135
 51
161.02948122034729
1001
ACDBBLOCKREPETAG
1070
     1
1071
       17
1005
12B136
  0
CIRCLE
  5
12B137
  8
SLIM
 10
12078.0
 20
-1353.9999999999959
 30
0.0
 40
8.0
1001
ACDBBLOCKREPETAG
1070
     1
1071
       18
1005
12B137
  0
POLYLINE
  5
12B138
  8
SLIM
 66
     1
 10
0.0
 20
0.0
 30
0.0
 70
     1
1001
ACDBBLOCKREPETAG
1070
     1
1071
       19
1005
12B138
  0
VERTEX
  5
12B8D2
  8
SLIM
 10
12075.69059892322
 20
-1349.9999999999959
 30
0.0
  0
VERTEX
  5
12B8D3
  8
SLIM
 10
12073.38119784648
 20
-1353.9999999999959
 30
0.0
  0
VERTEX
  5
12B8D4
  8
SLIM
 10
12075.69059892322
 20
-1357.9999999999959
 30
0.0
  0
VERTEX
  5
12B8D5
  8
SLIM
 10
12080.309401076751
 20
-1357.9999999999959
 30
0.0
  0
VERTEX
  5
12B8D6
  8
SLIM
 10
12082.618802153511
 20
-1353.9999999999959
 30
0.0
  0
VERTEX
  5
12B8D7
  8
SLIM
 10
12080.309401076751
 20
-1349.9999999999959
 30
0.0
  0
SEQEND
  5
12B8D8
  8
SLIM
  0
ARC
  5
12B139
  8
OBJECT
 10
11961.25
 20
-1286.8830312067
 30
0.0
 40
12.0
 50
32.105426272130188
 51
207.89457372768319
1001
ACDBBLOCKREPETAG
1070
     1
1071
       20
1005
12B139
  0
ARC
  5
12B13A
  8
OBJECT
 10
11937.38713156505
 20
-1299.514876283989
 30
0.0
 40
15.0
 50
318.97051877944762
 51
27.89457372768311
1001
ACDBBLOCKREPETAG
1070
     1
1071
       21
1005
12B13A
  0
ARC
  5
12B13B
  8
OBJECT
 10
11984.120932951069
 20
-1272.533103473517
 30
0.0
 40
15.0
 50
212.10542627213019
 51
281.02948122044069
1001
ACDBBLOCKREPETAG
1070
     1
1071
       22
1005
12B13B
  0
CIRCLE
  5
12B13C
  8
SLIM
 10
11961.0
 20
-1286.4500185048089
 30
0.0
 40
7.9999999999999982
1001
ACDBBLOCKREPETAG
1070
     1
1071
       23
1005
12B13C
  0
POLYLINE
  5
12B13D
  8
SLIM
 66
     1
 10
0.0
 20
0.0
 30
0.0
 70
     1
1001
ACDBBLOCKREPETAG
1070
     1
1071
       24
1005
12B13D
  0
VERTEX
  5
12B8D9
  8
SLIM
 10
11958.69059892324
 20
-1290.4500185048089
 30
0.0
  0
VERTEX
  5
12B8DA
  8
SLIM
 10
11963.309401076751
 20
-1290.4500185048089
 30
0.0
  0
VERTEX
  5
12B8DB
  8
SLIM
 10
11965.618802153511
 20
-1286.4500185048089
 30
0.0
  0
VERTEX
  5
12B8DC
  8
SLIM
 10
11963.309401076751
 20
-1282.4500185048089
 30
0.0
  0
VERTEX
  5
12B8DD
  8
SLIM
 10
11958.69059892324
 20
-1282.4500185048089
 30
0.0
  0
VERTEX
  5
12B8DE
  8
SLIM
 10
11956.38119784648
 20
-1286.4500185048089
 30
0.0
  0
SEQEND
  5
12B8DF
  8
SLIM
  0
ARC
  5
12B13E
  8
OBJECT
 10
11961.25
 20
-1421.1169687932891
 30
0.0
 40
12.0
 50
152.10542627231681
 51
327.89457372786978
1001
ACDBBLOCKREPETAG
1070
     1
1071
       25
1005
12B13E
  0
ARC
  5
12B13F
  8
OBJECT
 10
11984.120932951069
 20
-1435.4668965264721
 30
0.0
 40
15.0
 50
78.970518779559228
 51
147.89457372786981
1001
ACDBBLOCKREPETAG
1070
     1
1071
       26
1005
12B13F
  0
ARC
  5
12B140
  8
OBJECT
 10
11937.38713156505
 20
-1408.485123716004
 30
0.0
 40
15.0
 50
332.10542627231678
 51
41.029481220552412
1001
ACDBBLOCKREPETAG
1070
     1
1071
       27
1005
12B140
  0
CIRCLE
  5
12B141
  8
SLIM
 10
11961.0
 20
-1421.549981495182
 30
0.0
 40
8.0
1001
ACDBBLOCKREPETAG
1070
     1
1071
       28
1005
12B141
  0
POLYLINE
  5
12B142
  8
SLIM
 66
     1
 10
0.0
 20
0.0
 30
0.0
 70
     1
1001
ACDBBLOCKREPETAG
1070
     1
1071
       29
1005
12B142
  0
VERTEX
  5
12B8E0
  8
SLIM
 10
11965.618802153511
 20
-1421.54998149518
 30
0.0
  0
VERTEX
  5
12B8E1
  8
SLIM
 10
11963.309401076751
 20
-1417.5499814951829
 30
0.0
  0
VERTEX
  5
12B8E2
  8
SLIM
 10
11958.69059892324
 20
-1417.54998149518
 30
0.0
  0
VERTEX
  5
12B8E3
  8
SLIM
 10
11956.38119784648
 20
-1421.549981495182
 30
0.0
  0
VERTEX
  5
12B8E4
  8
SLIM
 10
11958.69059892322
 20
-1425.54998149518
 30
0.0
  0
VERTEX
  5
12B8E5
  8
SLIM
 10
11963.309401076751
 20
-1425.5499814951829
 30
0.0
  0
SEQEND
  5
12B8E6
  8
SLIM
  0
ARC
  5
12B143
  8
OBJECT
 10
12000.0
 20
-1353.9999999999959
 30
0.0
 40
76.0
 50
34.863837954171863
 51
85.136162045732945
1001
ACDBBLOCKREPETAG
1070
     1
1071
       42
1005
12B143
  0
ARC
  5
12B144
  8
OBJECT
 10
12000.0
 20
-1353.9999999999959
 30
0.0
 40
76.0
 50
154.86383795430939
 51
205.1361620456905
1001
ACDBBLOCKREPETAG
1070
     1
1071
       43
1005
12B144
  0
ARC
  5
12B145
  8
OBJECT
 10
12000.0
 20
-1353.9999999999959
 30
0.0
 40
76.0
 50
274.86383795426718
 51
325.13616204582797
1001
ACDBBLOCKREPETAG
1070
     1
1071
       44
1005
12B145
  0
ARC
  5
12B146
  8
OBJECT
 10
12078.0
 20
-1353.9999999999959
 30
0.0
 40
12.0
 50
325.13616204582797
 51
34.863837954171863
1001
ACDBBLOCKREPETAG
1070
     1
1071
       45
1005
12B146
  0
LINE
  5
12B147
  8
OBJECT
 10
12087.84615384616
 20
-1347.140462520134
 30
0.0
 11
12062.358974359049
 21
-1310.556262627535
 31
0.0
1001
ACDBBLOCKREPETAG
1070
     1
1071
       46
1005
12B147
  0
LINE
  5
12B148
  8
OBJECT
 10
12087.846153846171
 20
-1360.859537479857
 30
0.0
 11
12062.358974359049
 21
-1397.4437373724591
 31
0.0
1001
ACDBBLOCKREPETAG
1070
     1
1071
       47
1005
12B148
  0
ARC
  5
12B149
  8
OBJECT
 10
11961.0
 20
-1286.4500185048109
 30
0.0
 40
12.0
 50
85.136162045942811
 51
154.86383795410001
1001
ACDBBLOCKREPETAG
1070
     1
1071
       48
1005
12B149
  0
LINE
  5
12B14A
  8
OBJECT
 10
11950.13638936114
 20
-1281.35276788439
 30
0.0
 11
11931.19713262058
 21
-1321.7174127373471
 31
0.0
1001
ACDBBLOCKREPETAG
1070
     1
1071
       49
1005
12B14A
  0
LINE
  5
12B14B
  8
OBJECT
 10
11962.017456792681
 20
-1274.4932304045269
 30
0.0
 11
12006.443893020371
 21
-1278.273675364886
 31
0.0
1001
ACDBBLOCKREPETAG
1070
     1
1071
       50
1005
12B14B
  0
ARC
  5
12B14C
  8
OBJECT
 10
11961.0
 20
-1421.5499814951811
 30
0.0
 40
12.0
 50
205.13616204589991
 51
274.8638379540572
1001
ACDBBLOCKREPETAG
1070
     1
1071
       51
1005
12B14C
  0
LINE
  5
12B14D
  8
OBJECT
 10
11962.01745679269
 20
-1433.506769595464
 30
0.0
 11
12006.44389302036
 21
-1429.7263246351069
 31
0.0
1001
ACDBBLOCKREPETAG
1070
     1
1071
       52
1005
12B14D
  0
LINE
  5
12B14E
  8
OBJECT
 10
11950.13638936114
 20
-1426.647232115605
 30
0.0
 11
11931.19713262058
 21
-1386.2825872626429
 31
0.0
1001
ACDBBLOCKREPETAG
1070
     1
1071
       53
1005
12B14E
  0
LINE
  5
12B14F
  8
CENTER
 10
9909.0
 20
-1353.9999999999959
 30
0.0
 11
10105.0
 21
-1353.9999999999959
 31
0.0
1001
ACDBBLOCKREPETAG
1070
     1
1071
        0
1005
12B14F
  0
LINE
  5
12B150
  8
CENTER
 10
10000.0
 20
-1262.7253355707801
 30
0.0
 11
10000.0
 21
-1445.2746644292131
 31
0.0
1001
ACDBBLOCKREPETAG
1070
     1
1071
        1
1005
12B150
  0
CIRCLE
  5
12B151
  8
OBJECT
 10
10000.0
 20
-1353.9999999999959
 30
0.0
 40
50.0
1001
ACDBBLOCKREPETAG
1070
     1
1071
        2
1005
12B151
  0
CIRCLE
  5
12B152
  8
OBJECT
 10
10000.0
 20
-1353.9999999999959
 30
0.0
 40
62.0
1001
ACDBBLOCKREPETAG
1070
     1
1071
        3
1005
12B152
  0
CIRCLE
  5
12B153
  8
SLIM
 10
10078.0
 20
-1353.9999999999959
 30
0.0
 40
5.0
1001
ACDBBLOCKREPETAG
1070
     1
1071
        4
1005
12B153
  0
POLYLINE
  5
12B154
  8
SLIM
 66
     1
 10
0.0
 20
0.0
 30
0.0
 70
     1
1001
ACDBBLOCKREPETAG
1070
     1
1071
        5
1005
12B154
  0
VERTEX
  5
12B8E7
  8
SLIM
 10
10073.092522711881
 20
-1345.4999999999959
 30
0.0
  0
VERTEX
  5
12B8E8
  8
SLIM
 10
10068.18504542377
 20
-1353.9999999999959
 30
0.0
  0
VERTEX
  5
12B8E9
  8
SLIM
 10
10073.092522711881
 20
-1362.4999999999959
 30
0.0
  0
VERTEX
  5
12B8EA
  8
SLIM
 10
10082.907477288099
 20
-1362.4999999999959
 30
0.0
  0
VERTEX
  5
12B8EB
  8
SLIM
 10
10087.814954576221
 20
-1353.9999999999959
 30
0.0
  0
VERTEX
  5
12B8EC
  8
SLIM
 10
10082.907477288099
 20
-1345.4999999999959
 30
0.0
  0
SEQEND
  5
12B8ED
  8
SLIM
  0
CIRCLE
  5
12B155
  8
SLIM
 10
9961.0
 20
-1286.4500185048089
 30
0.0
 40
4.9999999999999991
1001
ACDBBLOCKREPETAG
1070
     1
1071
        6
1005
12B155
  0
POLYLINE
  5
12B156
  8
SLIM
 66
     1
 10
0.0
 20
0.0
 30
0.0
 70
     1
1001
ACDBBLOCKREPETAG
1070
     1
1071
        7
1005
12B156
  0
VERTEX
  5
12B8EE
  8
SLIM
 10
9956.092522711886
 20
-1294.9500185048089
 30
0.0
  0
VERTEX
  5
12B8EF
  8
SLIM
 10
9965.907477288114
 20
-1294.9500185048089
 30
0.0
  0
VERTEX
  5
12B8F0
  8
SLIM
 10
9970.814954576219
 20
-1286.4500185048089
 30
0.0
  0
VERTEX
  5
12B8F1
  8
SLIM
 10
9965.907477288114
 20
-1277.9500185048089
 30
0.0
  0
VERTEX
  5
12B8F2
  8
SLIM
 10
9956.092522711886
 20
-1277.9500185048089
 30
0.0
  0
VERTEX
  5
12B8F3
  8
SLIM
 10
9951.185045423772
 20
-1286.4500185048089
 30
0.0
  0
SEQEND
  5
12B8F4
  8
SLIM
  0
CIRCLE
  5
12B157
  8
SLIM
 10
9961.0
 20
-1421.549981495182
 30
0.0
 40
5.0
1001
ACDBBLOCKREPETAG
1070
     1
1071
        8
1005
12B157
  0
POLYLINE
  5
12B158
  8
SLIM
 66
     1
 10
0.0
 20
0.0
 30
0.0
 70
     1
1001
ACDBBLOCKREPETAG
1070
     1
1071
        9
1005
12B158
  0
VERTEX
  5
12B8F5
  8
SLIM
 10
9970.814954576219
 20
-1421.549981495182
 30
0.0
  0
VERTEX
  5
12B8F6
  8
SLIM
 10
9965.9074772881049
 20
-1413.04998149518
 30
0.0
  0
VERTEX
  5
12B8F7
  8
SLIM
 10
9956.092522711886
 20
-1413.0499814951829
 30
0.0
  0
VERTEX
  5
12B8F8
  8
SLIM
 10
9951.185045423772
 20
-1421.54998149518
 30
0.0
  0
VERTEX
  5
12B8F9
  8
SLIM
 10
9956.092522711886
 20
-1430.0499814951829
 30
0.0
  0
VERTEX
  5
12B8FA
  8
SLIM
 10
9965.907477288114
 20
-1430.04998149518
 30
0.0
  0
SEQEND
  5
12B8FB
  8
SLIM
  0
ARC
  5
12B159
  8
OBJECT
 10
10000.0
 20
-1353.9999999999959
 30
0.0
 40
76.0
 50
34.863837954171863
 51
85.136162045732945
1001
ACDBBLOCKREPETAG
1070
     1
1071
       30
1005
12B159
  0
ARC
  5
12B15A
  8
OBJECT
 10
10000.0
 20
-1353.9999999999959
 30
0.0
 40
76.0
 50
154.86383795430939
 51
205.1361620456905
1001
ACDBBLOCKREPETAG
1070
     1
1071
       31
1005
12B15A
  0
ARC
  5
12B15B
  8
OBJECT
 10
10000.0
 20
-1353.9999999999959
 30
0.0
 40
76.0
 50
274.86383795426718
 51
325.13616204582797
1001
ACDBBLOCKREPETAG
1070
     1
1071
       32
1005
12B15B
  0
ARC
  5
12B15C
  8
OBJECT
 10
10078.0
 20
-1353.9999999999959
 30
0.0
 40
12.0
 50
325.13616204582797
 51
34.863837954171863
1001
ACDBBLOCKREPETAG
1070
     1
1071
       33
1005
12B15C
  0
LINE
  5
12B15D
  8
OBJECT
 10
10087.84615384616
 20
-1347.140462520134
 30
0.0
 11
10062.35897435904
 21
-1310.556262627535
 31
0.0
1001
ACDBBLOCKREPETAG
1070
     1
1071
       34
1005
12B15D
  0
LINE
  5
12B15E
  8
OBJECT
 10
10087.846153846171
 20
-1360.859537479857
 30
0.0
 11
10062.35897435904
 21
-1397.4437373724591
 31
0.0
1001
ACDBBLOCKREPETAG
1070
     1
1071
       35
1005
12B15E
  0
ARC
  5
12B15F
  8
OBJECT
 10
9961.0
 20
-1286.4500185048109
 30
0.0
 40
12.0
 50
85.136162045942811
 51
154.86383795410001
1001
ACDBBLOCKREPETAG
1070
     1
1071
       36
1005
12B15F
  0
LINE
  5
12B160
  8
OBJECT
 10
9950.1363893611433
 20
-1281.35276788439
 30
0.0
 11
9931.1971326205894
 21
-1321.7174127373471
 31
0.0
1001
ACDBBLOCKREPETAG
1070
     1
1071
       37
1005
12B160
  0
LINE
  5
12B161
  8
OBJECT
 10
9962.0174567926842
 20
-1274.4932304045269
 30
0.0
 11
10006.443893020371
 21
-1278.273675364886
 31
0.0
1001
ACDBBLOCKREPETAG
1070
     1
1071
       38
1005
12B161
  0
ARC
  5
12B162
  8
OBJECT
 10
9961.0
 20
-1421.5499814951811
 30
0.0
 40
12.0
 50
205.13616204589991
 51
274.8638379540572
1001
ACDBBLOCKREPETAG
1070
     1
1071
       39
1005
12B162
  0
LINE
  5
12B163
  8
OBJECT
 10
9962.0174567926897
 20
-1433.506769595464
 30
0.0
 11
10006.44389302036
 21
-1429.7263246351069
 31
0.0
1001
ACDBBLOCKREPETAG
1070
     1
1071
       40
1005
12B163
  0
LINE
  5
12B164
  8
OBJECT
 10
9950.1363893611433
 20
-1426.647232115605
 30
0.0
 11
9931.1971326205821
 21
-1386.2825872626429
 31
0.0
1001
ACDBBLOCKREPETAG
1070
     1
1071
       41
1005
12B164
  0
LINE
  5
12B165
  8
CENTER
 10
5909.0
 20
-1394.9999999999991
 30
0.0
 11
6105.0
 21
-1394.9999999999991
 31
0.0
1001
ACDBBLOCKREPETAG
1070
     1
1071
       10
1005
12B165
  0
LINE
  5
12B166
  8
CENTER
 10
6000.0
 20
-1303.725335570783
 30
0.0
 11
6000.0
 21
-1486.274664429216
 31
0.0
1001
ACDBBLOCKREPETAG
1070
     1
1071
       11
1005
12B166
  0
CIRCLE
  5
12B167
  8
OBJECT
 10
6000.0
 20
-1394.9999999999991
 30
0.0
 40
50.0
1001
ACDBBLOCKREPETAG
1070
     1
1071
       12
1005
12B167
  0
CIRCLE
  5
12B168
  8
OBJECT
 10
6000.0
 20
-1394.9999999999991
 30
0.0
 40
60.0
1001
ACDBBLOCKREPETAG
1070
     1
1071
       13
1005
12B168
  0
CIRCLE
  5
12B169
  8
OBJECT
 10
6000.0
 20
-1394.9999999999991
 30
0.0
 40
68.0
1001
ACDBBLOCKREPETAG
1070
     1
1071
       14
1005
12B169
  0
ARC
  5
12B16A
  8
OBJECT
 10
6077.5
 20
-1394.9999999999991
 30
0.0
 40
12.0
 50
272.10542627221611
 51
87.894573727783893
1001
ACDBBLOCKREPETAG
1070
     1
1071
       15
1005
12B16A
  0
ARC
  5
12B16B
  8
OBJECT
 10
6078.4919354838639
 20
-1368.018227189528
 30
0.0
 40
15.0
 50
198.9705187796356
 51
267.89457372778372
1001
ACDBBLOCKREPETAG
1070
     1
1071
       16
1005
12B16B
  0
ARC
  5
12B16C
  8
OBJECT
 10
6078.4919354838639
 20
-1421.981772810467
 30
0.0
 40
15.0
 50
92.105426272216135
 51
161.02948122036429
1001
ACDBBLOCKREPETAG
1070
     1
1071
       17
1005
12B16C
  0
CIRCLE
  5
12B16D
  8
SLIM
 10
6078.0
 20
-1394.9999999999991
 30
0.0
 40
8.0
1001
ACDBBLOCKREPETAG
1070
     1
1071
       18
1005
12B16D
  0
POLYLINE
  5
12B16E
  8
SLIM
 66
     1
 10
0.0
 20
0.0
 30
0.0
 70
     1
1001
ACDBBLOCKREPETAG
1070
     1
1071
       19
1005
12B16E
  0
VERTEX
  5
12B8FC
  8
SLIM
 10
6075.6905989232328
 20
-1391.0
 30
0.0
  0
VERTEX
  5
12B8FD
  8
SLIM
 10
6073.3811978464801
 20
-1394.9999999999991
 30
0.0
  0
VERTEX
  5
12B8FE
  8
SLIM
 10
6075.6905989232328
 20
-1398.9999999999991
 30
0.0
  0
VERTEX
  5
12B8FF
  8
SLIM
 10
6080.3094010767527
 20
-1398.9999999999991
 30
0.0
  0
VERTEX
  5
12B900
  8
SLIM
 10
6082.6188021535136
 20
-1394.9999999999991
 30
0.0
  0
VERTEX
  5
12B901
  8
SLIM
 10
6080.3094010767527
 20
-1391.0
 30
0.0
  0
SEQEND
  5
12B902
  8
SLIM
  0
ARC
  5
12B16F
  8
OBJECT
 10
5961.25
 20
-1327.883031206703
 30
0.0
 40
12.0
 50
32.105426272157878
 51
207.89457372770741
1001
ACDBBLOCKREPETAG
1070
     1
1071
       20
1005
12B16F
  0
ARC
  5
12B170
  8
OBJECT
 10
5937.387131565054
 20
-1340.514876283992
 30
0.0
 40
15.0
 50
318.97051877944762
 51
27.894573727707481
1001
ACDBBLOCKREPETAG
1070
     1
1071
       21
1005
12B170
  0
ARC
  5
12B171
  8
OBJECT
 10
5984.1209329510702
 20
-1313.53310347352
 30
0.0
 40
15.0
 50
212.1054262721579
 51
281.02948122044069
1001
ACDBBLOCKREPETAG
1070
     1
1071
       22
1005
12B171
  0
CIRCLE
  5
12B172
  8
SLIM
 10
5961.0
 20
-1327.4500185048121
 30
0.0
 40
7.9999999999999982
1001
ACDBBLOCKREPETAG
1070
     1
1071
       23
1005
12B172
  0
POLYLINE
  5
12B173
  8
SLIM
 66
     1
 10
0.0
 20
0.0
 30
0.0
 70
     1
1001
ACDBBLOCKREPETAG
1070
     1
1071
       24
1005
12B173
  0
VERTEX
  5
12B903
  8
SLIM
 10
5958.69059892324
 20
-1331.4500185048121
 30
0.0
  0
VERTEX
  5
12B904
  8
SLIM
 10
5963.3094010767518
 20
-1331.4500185048121
 30
0.0
  0
VERTEX
  5
12B905
  8
SLIM
 10
5965.6188021535136
 20
-1327.4500185048121
 30
0.0
  0
VERTEX
  5
12B906
  8
SLIM
 10
5963.3094010767518
 20
-1323.4500185048121
 30
0.0
  0
VERTEX
  5
12B907
  8
SLIM
 10
5958.69059892324
 20
-1323.4500185048121
 30
0.0
  0
VERTEX
  5
12B908
  8
SLIM
 10
5956.3811978464792
 20
-1327.4500185048121
 30
0.0
  0
SEQEND
  5
12B909
  8
SLIM
  0
ARC
  5
12B174
  8
OBJECT
 10
5961.25
 20
-1462.116968793292
 30
0.0
 40
12.0
 50
152.1054262722925
 51
327.89457372784221
1001
ACDBBLOCKREPETAG
1070
     1
1071
       25
1005
12B174
  0
ARC
  5
12B175
  8
OBJECT
 10
5984.1209329510702
 20
-1476.466896526475
 30
0.0
 40
15.0
 50
78.970518779559228
 51
147.8945737278421
1001
ACDBBLOCKREPETAG
1070
     1
1071
       26
1005
12B175
  0
ARC
  5
12B176
  8
OBJECT
 10
5937.387131565054
 20
-1449.485123716006
 30
0.0
 40
15.0
 50
332.1054262722925
 51
41.029481220552412
1001
ACDBBLOCKREPETAG
1070
     1
1071
       27
1005
12B176
  0
CIRCLE
  5
12B177
  8
SLIM
 10
5961.0
 20
-1462.549981495187
 30
0.0
 40
8.0
1001
ACDBBLOCKREPETAG
1070
     1
1071
       28
1005
12B177
  0
POLYLINE
  5
12B178
  8
SLIM
 66
     1
 10
0.0
 20
0.0
 30
0.0
 70
     1
1001
ACDBBLOCKREPETAG
1070
     1
1071
       29
1005
12B178
  0
VERTEX
  5
12B90A
  8
SLIM
 10
5965.6188021535136
 20
-1462.5499814951829
 30
0.0
  0
VERTEX
  5
12B90B
  8
SLIM
 10
5963.3094010767518
 20
-1458.549981495187
 30
0.0
  0
VERTEX
  5
12B90C
  8
SLIM
 10
5958.69059892324
 20
-1458.5499814951829
 30
0.0
  0
VERTEX
  5
12B90D
  8
SLIM
 10
5956.3811978464792
 20
-1462.549981495187
 30
0.0
  0
VERTEX
  5
12B90E
  8
SLIM
 10
5958.6905989232328
 20
-1466.5499814951829
 30
0.0
  0
VERTEX
  5
12B90F
  8
SLIM
 10
5963.3094010767518
 20
-1466.549981495187
 30
0.0
  0
SEQEND
  5
12B910
  8
SLIM
  0
ARC
  5
12B179
  8
OBJECT
 10
6000.0
 20
-1394.9999999999991
 30
0.0
 40
76.0
 50
34.863837954142063
 51
85.136162045732945
1001
ACDBBLOCKREPETAG
1070
     1
1071
       42
1005
12B179
  0
ARC
  5
12B17A
  8
OBJECT
 10
6000.0
 20
-1394.9999999999991
 30
0.0
 40
76.0
 50
154.86383795430939
 51
205.1361620456905
1001
ACDBBLOCKREPETAG
1070
     1
1071
       43
1005
12B17A
  0
ARC
  5
12B17B
  8
OBJECT
 10
6000.0
 20
-1394.9999999999991
 30
0.0
 40
76.0
 50
274.86383795426718
 51
325.13616204585799
1001
ACDBBLOCKREPETAG
1070
     1
1071
       44
1005
12B17B
  0
ARC
  5
12B17C
  8
OBJECT
 10
6078.0
 20
-1394.9999999999991
 30
0.0
 40
12.0
 50
325.13616204585799
 51
34.863837954142063
1001
ACDBBLOCKREPETAG
1070
     1
1071
       45
1005
12B17C
  0
LINE
  5
12B17D
  8
OBJECT
 10
6087.846153846167
 20
-1388.140462520136
 30
0.0
 11
6062.3589743590501
 21
-1351.556262627538
 31
0.0
1001
ACDBBLOCKREPETAG
1070
     1
1071
       46
1005
12B17D
  0
LINE
  5
12B17E
  8
OBJECT
 10
6087.8461538461697
 20
-1401.8595374798599
 30
0.0
 11
6062.3589743590501
 21
-1438.4437373724629
 31
0.0
1001
ACDBBLOCKREPETAG
1070
     1
1071
       47
1005
12B17E
  0
ARC
  5
12B17F
  8
OBJECT
 10
5961.0
 20
-1327.4500185048139
 30
0.0
 40
12.0
 50
85.136162045942811
 51
154.86383795410001
1001
ACDBBLOCKREPETAG
1070
     1
1071
       48
1005
12B17F
  0
LINE
  5
12B180
  8
OBJECT
 10
5950.1363893611451
 20
-1322.3527678843941
 30
0.0
 11
5931.1971326205849
 21
-1362.7174127373501
 31
0.0
1001
ACDBBLOCKREPETAG
1070
     1
1071
       49
1005
12B180
  0
LINE
  5
12B181
  8
OBJECT
 10
5962.0174567926842
 20
-1315.4932304045301
 30
0.0
 11
6006.4438930203669
 21
-1319.273675364889
 31
0.0
1001
ACDBBLOCKREPETAG
1070
     1
1071
       50
1005
12B181
  0
ARC
  5
12B182
  8
OBJECT
 10
5961.0
 20
-1462.549981495185
 30
0.0
 40
12.0
 50
205.13616204589991
 51
274.8638379540572
1001
ACDBBLOCKREPETAG
1070
     1
1071
       51
1005
12B182
  0
LINE
  5
12B183
  8
OBJECT
 10
5962.0174567926879
 20
-1474.5067695954669
 30
0.0
 11
6006.4438930203651
 21
-1470.7263246351099
 31
0.0
1001
ACDBBLOCKREPETAG
1070
     1
1071
       52
1005
12B183
  0
LINE
  5
12B184
  8
OBJECT
 10
5950.1363893611451
 20
-1467.6472321156079
 30
0.0
 11
5931.1971326205821
 21
-1427.282587262647
 31
0.0
1001
ACDBBLOCKREPETAG
1070
     1
1071
       53
1005
12B184
  0
LINE
  5
12B185
  8
CENTER
 10
3909.0
 20
-1353.9999999999959
 30
0.0
 11
4105.0
 21
-1353.9999999999959
 31
0.0
1001
ACDBBLOCKREPETAG
1070
     1
1071
        0
1005
12B185
  0
LINE
  5
12B186
  8
CENTER
 10
4000.0
 20
-1262.7253355707801
 30
0.0
 11
4000.0
 21
-1445.2746644292131
 31
0.0
1001
ACDBBLOCKREPETAG
1070
     1
1071
        1
1005
12B186
  0
CIRCLE
  5
12B187
  8
OBJECT
 10
4000.0
 20
-1353.9999999999959
 30
0.0
 40
50.0
1001
ACDBBLOCKREPETAG
1070
     1
1071
        2
1005
12B187
  0
CIRCLE
  5
12B188
  8
OBJECT
 10
4000.0
 20
-1353.9999999999959
 30
0.0
 40
62.0
1001
ACDBBLOCKREPETAG
1070
     1
1071
        3
1005
12B188
  0
CIRCLE
  5
12B189
  8
SLIM
 10
4078.0
 20
-1353.9999999999959
 30
0.0
 40
5.0
1001
ACDBBLOCKREPETAG
1070
     1
1071
        4
1005
12B189
  0
POLYLINE
  5
12B18A
  8
SLIM
 66
     1
 10
0.0
 20
0.0
 30
0.0
 70
     1
1001
ACDBBLOCKREPETAG
1070
     1
1071
        5
1005
12B18A
  0
VERTEX
  5
12B911
  8
SLIM
 10
4073.092522711886
 20
-1345.4999999999959
 30
0.0
  0
VERTEX
  5
12B912
  8
SLIM
 10
4068.185045423772
 20
-1353.9999999999959
 30
0.0
  0
VERTEX
  5
12B913
  8
SLIM
 10
4073.092522711886
 20
-1362.4999999999959
 30
0.0
  0
VERTEX
  5
12B914
  8
SLIM
 10
4082.9074772881072
 20
-1362.4999999999959
 30
0.0
  0
VERTEX
  5
12B915
  8
SLIM
 10
4087.8149545762199
 20
-1353.9999999999959
 30
0.0
  0
VERTEX
  5
12B916
  8
SLIM
 10
4082.9074772881072
 20
-1345.4999999999959
 30
0.0
  0
SEQEND
  5
12B917
  8
SLIM
  0
CIRCLE
  5
12B18B
  8
SLIM
 10
3961.0
 20
-1286.4500185048089
 30
0.0
 40
4.9999999999999991
1001
ACDBBLOCKREPETAG
1070
     1
1071
        6
1005
12B18B
  0
POLYLINE
  5
12B18C
  8
SLIM
 66
     1
 10
0.0
 20
0.0
 30
0.0
 70
     1
1001
ACDBBLOCKREPETAG
1070
     1
1071
        7
1005
12B18C
  0
VERTEX
  5
12B918
  8
SLIM
 10
3956.092522711886
 20
-1294.9500185048089
 30
0.0
  0
VERTEX
  5
12B919
  8
SLIM
 10
3965.907477288114
 20
-1294.9500185048089
 30
0.0
  0
VERTEX
  5
12B91A
  8
SLIM
 10
3970.8149545762212
 20
-1286.4500185048089
 30
0.0
  0
VERTEX
  5
12B91B
  8
SLIM
 10
3965.907477288114
 20
-1277.9500185048089
 30
0.0
  0
VERTEX
  5
12B91C
  8
SLIM
 10
3956.092522711886
 20
-1277.9500185048089
 30
0.0
  0
VERTEX
  5
12B91D
  8
SLIM
 10
3951.185045423772
 20
-1286.4500185048089
 30
0.0
  0
SEQEND
  5
12B91E
  8
SLIM
  0
CIRCLE
  5
12B18D
  8
SLIM
 10
3961.0
 20
-1421.549981495182
 30
0.0
 40
5.0
1001
ACDBBLOCKREPETAG
1070
     1
1071
        8
1005
12B18D
  0
POLYLINE
  5
12B18E
  8
SLIM
 66
     1
 10
0.0
 20
0.0
 30
0.0
 70
     1
1001
ACDBBLOCKREPETAG
1070
     1
1071
        9
1005
12B18E
  0
VERTEX
  5
12B91F
  8
SLIM
 10
3970.8149545762212
 20
-1421.549981495182
 30
0.0
  0
VERTEX
  5
12B920
  8
SLIM
 10
3965.9074772881072
 20
-1413.04998149518
 30
0.0
  0
VERTEX
  5
12B921
  8
SLIM
 10
3956.092522711886
 20
-1413.0499814951829
 30
0.0
  0
VERTEX
  5
12B922
  8
SLIM
 10
3951.185045423772
 20
-1421.54998149518
 30
0.0
  0
VERTEX
  5
12B923
  8
SLIM
 10
3956.092522711886
 20
-1430.0499814951829
 30
0.0
  0
VERTEX
  5
12B924
  8
SLIM
 10
3965.907477288114
 20
-1430.04998149518
 30
0.0
  0
SEQEND
  5
12B925
  8
SLIM
  0
ARC
  5
12B18F
  8
OBJECT
 10
4000.0
 20
-1353.9999999999959
 30
0.0
 40
76.0
 50
34.863837954142063
 51
85.136162045732945
1001
ACDBBLOCKREPETAG
1070
     1
1071
       30
1005
12B18F
  0
ARC
  5
12B190
  8
OBJECT
 10
4000.0
 20
-1353.9999999999959
 30
0.0
 40
76.0
 50
154.86383795430939
 51
205.1361620456905
1001
ACDBBLOCKREPETAG
1070
     1
1071
       31
1005
12B190
  0
ARC
  5
12B191
  8
OBJECT
 10
4000.0
 20
-1353.9999999999959
 30
0.0
 40
76.0
 50
274.86383795426718
 51
325.13616204585799
1001
ACDBBLOCKREPETAG
1070
     1
1071
       32
1005
12B191
  0
ARC
  5
12B192
  8
OBJECT
 10
4078.0
 20
-1353.9999999999959
 30
0.0
 40
12.0
 50
325.13616204585799
 51
34.863837954142063
1001
ACDBBLOCKREPETAG
1070
     1
1071
       33
1005
12B192
  0
LINE
  5
12B193
  8
OBJECT
 10
4087.846153846167
 20
-1347.140462520134
 30
0.0
 11
4062.3589743590492
 21
-1310.556262627535
 31
0.0
1001
ACDBBLOCKREPETAG
1070
     1
1071
       34
1005
12B193
  0
LINE
  5
12B194
  8
OBJECT
 10
4087.8461538461711
 20
-1360.859537479857
 30
0.0
 11
4062.3589743590492
 21
-1397.4437373724591
 31
0.0
1001
ACDBBLOCKREPETAG
1070
     1
1071
       35
1005
12B194
  0
ARC
  5
12B195
  8
OBJECT
 10
3961.0
 20
-1286.4500185048109
 30
0.0
 40
12.0
 50
85.136162045942811
 51
154.86383795411109
1001
ACDBBLOCKREPETAG
1070
     1
1071
       36
1005
12B195
  0
LINE
  5
12B196
  8
OBJECT
 10
3950.136389361146
 20
-1281.35276788439
 30
0.0
 11
3931.1971326205862
 21
-1321.7174127373471
 31
0.0
1001
ACDBBLOCKREPETAG
1070
     1
1071
       37
1005
12B196
  0
LINE
  5
12B197
  8
OBJECT
 10
3962.0174567926852
 20
-1274.4932304045269
 30
0.0
 11
4006.4438930203678
 21
-1278.273675364886
 31
0.0
1001
ACDBBLOCKREPETAG
1070
     1
1071
       38
1005
12B197
  0
ARC
  5
12B198
  8
OBJECT
 10
3961.0
 20
-1421.5499814951811
 30
0.0
 40
12.0
 50
205.13616204588891
 51
274.8638379540572
1001
ACDBBLOCKREPETAG
1070
     1
1071
       39
1005
12B198
  0
LINE
  5
12B199
  8
OBJECT
 10
3962.0174567926879
 20
-1433.506769595464
 30
0.0
 11
4006.4438930203651
 21
-1429.7263246351069
 31
0.0
1001
ACDBBLOCKREPETAG
1070
     1
1071
       40
1005
12B199
  0
LINE
  5
12B19A
  8
OBJECT
 10
3950.136389361146
 20
-1426.647232115605
 30
0.0
 11
3931.1971326205821
 21
-1386.2825872626429
 31
0.0
1001
ACDBBLOCKREPETAG
1070
     1
1071
       41
1005
12B19A
  0
LINE
  5
12B19B
  8
OBJECT
 10
1943.0
 20
-1079.9999999999959
 30
0.0
 11
2057.0
 21
-1079.9999999999959
 31
0.0
1001
ACDBBLOCKREPETAG
1070
     1
1071
        0
1005
12B19B
  0
LINE
  5
12B19C
  8
OBJECT
 10
1943.0
 20
-1079.9999999999959
 30
0.0
 11
1943.0
 21
-979.99999999999613
 31
0.0
1001
ACDBBLOCKREPETAG
1070
     1
1071
        1
1005
12B19C
  0
LINE
  5
12B19D
  8
OBJECT
 10
2057.0
 20
-1079.9999999999959
 30
0.0
 11
2057.0
 21
-979.99999999999613
 31
0.0
1001
ACDBBLOCKREPETAG
1070
     1
1071
        2
1005
12B19D
  0
LINE
  5
12B19E
  8
OBJECT
 10
1943.0
 20
-979.99999999999613
 30
0.0
 11
2057.0
 21
-979.99999999999613
 31
0.0
1001
ACDBBLOCKREPETAG
1070
     1
1071
        3
1005
12B19E
  0
LINE
  5
12B19F
  8
HIDDEN
 10
1950.0
 20
-979.99999999999613
 30
0.0
 11
1950.0
 21
-1079.9999999999959
 31
0.0
1001
ACDBBLOCKREPETAG
1070
     1
1071
        4
1005
12B19F
  0
LINE
  5
12B1A0
  8
HIDDEN
 10
2050.0
 20
-979.99999999999613
 30
0.0
 11
2050.0
 21
-1079.9999999999959
 31
0.0
1001
ACDBBLOCKREPETAG
1070
     1
1071
        5
1005
12B1A0
  0
LINE
  5
12B1A1
  8
CENTER
 10
2000.0
 20
-770.0
 30
0.0
 11
2000.0
 21
-1094.9999999999959
 31
0.0
1001
ACDBBLOCKREPETAG
1070
     1
1071
        6
1005
12B1A1
  0
LINE
  5
12B1A2
  8
OBJECT
 10
1925.0
 20
-770.0
 30
0.0
 11
1925.0
 21
-851.99999999999636
 31
0.0
1001
ACDBBLOCKREPETAG
1070
     1
1071
        7
1005
12B1A2
  0
LINE
  5
12B1A3
  8
OBJECT
 10
2075.0
 20
-770.0
 30
0.0
 11
2075.0
 21
-851.99999999999636
 31
0.0
1001
ACDBBLOCKREPETAG
1070
     1
1071
        8
1005
12B1A3
  0
LINE
  5
12B1A4
  8
OBJECT
 10
1925.0
 20
-851.99999999999636
 30
0.0
 11
2075.0
 21
-851.99999999999636
 31
0.0
1001
ACDBBLOCKREPETAG
1070
     1
1071
        9
1005
12B1A4
  0
LINE
  5
12B1A5
  8
OBJECT
 10
1925.0
 20
-851.99999999999636
 30
0.0
 11
1943.0
 21
-979.99999999999613
 31
0.0
1001
ACDBBLOCKREPETAG
1070
     1
1071
       10
1005
12B1A5
  0
LINE
  5
12B1A6
  8
OBJECT
 10
2057.0
 20
-979.99999999999613
 30
0.0
 11
2075.0
 21
-851.99999999999636
 31
0.0
1001
ACDBBLOCKREPETAG
1070
     1
1071
       11
1005
12B1A6
  0
TEXT
  5
12B1A7
  8
SLIM
 10
3853.75
 20
-1621.4999999999959
 30
0.0
 40
35.0
  1
両受けスタイル（W）
 41
0.75
  0
TEXT
  5
12B1A8
  8
SLIM
 10
5811.8000000000002
 20
-1718.9999999999991
 30
0.0
 40
28.0
  1
※ 対応スラブ厚　150mm以上
 41
0.75
  0
TEXT
  5
12B1A9
  8
SLIM
 10
5611.5
 20
-1812.333333333333
 30
0.0
 40
28.0
  1
国土交通大臣認定・（財）日本消防設備安全センター性能評定取得品
 41
0.75
  0
TEXT
  5
12B1AA
  8
SLIM
 10
5631.1000000000004
 20
-1859.0
 30
0.0
 40
28.0
  1
注）ご採用にあたり、認定書及び評定書の内容をご確認ください。
 41
0.75
  0
TEXT
  5
12B1AB
  8
SLIM
 10
11824.6
 20
-1677.9999999999959
 30
0.0
 40
28.0
  1
※ 対応スラブ厚　150～260
 41
0.75
  0
TEXT
  5
12B1AC
  8
SLIM
 10
11611.5
 20
-1771.3333333333301
 30
0.0
 40
28.0
  1
国土交通大臣認定・（財）日本消防設備安全センター性能評定取得品
 41
0.75
  0
TEXT
  5
12B1AD
  8
SLIM
 10
11631.1
 20
-1817.999999999997
 30
0.0
 40
28.0
  1
注）ご採用にあたり、認定書及び評定書の内容をご確認ください。
 41
0.75
  0
TEXT
  5
12B1AE
  8
SLIM
 10
9824.6000000000004
 20
-1677.9999999999959
 30
0.0
 40
28.0
  1
※ 対応スラブ厚　180～260
 41
0.75
  0
TEXT
  5
12B1AF
  8
SLIM
 10
9611.5000000000018
 20
-1771.3333333333301
 30
0.0
 40
28.0
  1
国土交通大臣認定・（財）日本消防設備安全センター性能評定取得品
 41
0.75
  0
TEXT
  5
12B1B0
  8
SLIM
 10
9631.1000000000004
 20
-1817.999999999997
 30
0.0
 40
28.0
  1
注）ご採用にあたり、認定書及び評定書の内容をご確認ください。
 41
0.75
  0
TEXT
  5
12B1B1
  8
SLIM
 10
7771.3999999999987
 20
-1410.6666666666649
 30
0.0
 40
28.0
  1
※ 対応スラブ厚　180｛150｝～220
 41
0.75
  0
TEXT
  5
12B1B2
  8
SLIM
 10
7733.2999999999975
 20
-1457.333333333331
 30
0.0
 40
28.0
  1
｛｝内はカンペイ立て管との組み合わせの場合
 41
0.75
  0
TEXT
  5
12B1B3
  8
SLIM
 10
7611.4999999999982
 20
-1550.6666666666649
 30
0.0
 40
28.0
  1
国土交通大臣認定・（財）日本消防設備安全センター性能評定取得品
 41
0.75
  0
TEXT
  5
12B1B4
  8
SLIM
 10
7631.1000000000004
 20
-1597.3333333333319
 30
0.0
 40
28.0
  1
注）ご採用にあたり、認定書及び評定書の内容をご確認ください。
 41
0.75
  0
TEXT
  5
12B1B5
  8
SLIM
 10
9739.1250000000018
 20
-1621.4999999999959
 30
0.0
 40
35.0
  1
両受けスタイル（W）＋シンドカット
 41
0.75
  0
TEXT
  5
12B1B6
  8
SLIM
 10
11743.5
 20
-1621.4999999999959
 30
0.0
 40
35.0
  1
カンペイ君（WKP）＋シンドカット
 41
0.75
  0
TEXT
  5
12B1B7
  8
SLIM
 10
7741.625
 20
-1347.499999999998
 30
0.0
 40
35.0
  1
片受けスタイル（S）＋シンドカット
 41
0.75
  0
TEXT
  5
12B1B8
  8
SLIM
 10
5858.1250000000009
 20
-1662.4999999999991
 30
0.0
 40
35.0
  1
カンペイ君（WKP）
 41
0.75
  0
TEXT
  5
12B1B9
  8
SLIM
 10
1856.25
 20
-1347.499999999998
 30
0.0
 40
35.0
  1
片受けスタイル（S）
 41
0.75
  0
TEXT
  5
12B1BA
  8
SLIM
 10
0.0
 20
370.0
 30
0.0
 40
100.0
  1
4SL-Z606-P140-WKP
 41
0.75
  0
VIEWPORT
  5
F6BA7
 67
     1
  8
0
 10
173.9657252236004
 20
101.8328354358673
 30
0.0
 40
391.2732773398352
 41
222.19657968139651
 68
     1
 69
     1
1001
ACAD
1000
MVIEW
1002
{
1070
    16
1010
0.0
1020
0.0
1030
0.0
1010
0.0
1020
0.0
1030
1.0
1040
0.0
1040
222.19657968139651
1040
173.9657252236004
1040
101.8328354358673
1040
50.0
1040
0.0
1040
0.0
1070
     0
1070
     0
1070
     1
1070
     1
1070
     0
1070
     0
1070
     0
1070
     0
1040
0.0
1040
0.0
1040
0.0
1040
10.0
1040
10.0
1040
10.0
1040
10.0
1070
     0
1002
{
1002
}
1002
}
  0
VIEWPORT
  5
F6BA9
 67
     1
  8
OBJECT
 10
145.3303314447403
 20
101.8328338861465
 30
0.0
 40
232.5285303115844
 41
162.93253421783439
 68
     2
 69
     2
1001
ACAD
1000
MVIEW
1002
{
1070
    16
1010
0.0
1020
0.0
1030
0.0
1010
0.0
1020
0.0
1030
1.0
1040
0.0
1040
25942.55904403147
1040
2377.604457077377
1040
-7591.5176687056619
1040
50.0
1040
0.0
1040
0.0
1070
     0
1070
   600
1070
     1
1070
     1
1070
     0
1070
     0
1070
     0
1070
     0
1040
0.0
1040
0.0
1040
0.0
1040
1.0
1040
1.0
1040
0.0
1040
0.0
1070
     0
1002
{
1002
}
1002
}
  0
ENDSEC
  0
EOF
