  0
SECTION
  2
HEADER
  9
$ACADVER
  1
AC1009
  9
$INSBASE
 10
0.0
 20
0.0
 30
0.0
  9
$EXTMIN
 10
0.0
 20
-2144.0
 30
0.0
  9
$EXTMAX
 10
12387.100000000009
 20
770.0
 30
0.0
  9
$LIMMIN
 10
0.0
 20
0.0
  9
$LIMMAX
 10
210.0
 20
297.0
  9
$ORTHOMODE
 70
     0
  9
$REGENMODE
 70
     1
  9
$FILLMODE
 70
     1
  9
$QTEXTMODE
 70
     0
  9
$MIRRTEXT
 70
     0
  9
$DRAGMODE
 70
     2
  9
$LTSCALE
 40
1.0
  9
$OSMODE
 70
   109
  9
$ATTMODE
 70
     1
  9
$TEXTSIZE
 40
4.0
  9
$TRACEWID
 40
0.05
  9
$TEXTSTYLE
  7
STANDARD
  9
$CLAYER
  8
OBJECT
  9
$CELTYPE
  6
BYLAYER
  9
$CECOLOR
 62
   256
  9
$DIMSCALE
 40
10.0
  9
$DIMASZ
 40
2.0
  9
$DIMEXO
 40
1.0
  9
$DIMDLI
 40
10.0
  9
$DIMRND
 40
0.0
  9
$DIMDLE
 40
0.0
  9
$DIMEXE
 40
1.0
  9
$DIMTP
 40
0.0
  9
$DIMTM
 40
0.0
  9
$DIMTXT
 40
3.2000000000000002
  9
$DIMCEN
 40
0.0
  9
$DIMTSZ
 40
0.0
  9
$DIMTOL
 70
     0
  9
$DIMLIM
 70
     0
  9
$DIMTIH
 70
     0
  9
$DIMTOH
 70
     0
  9
$DIMSE1
 70
     0
  9
$DIMSE2
 70
     0
  9
$DIMTAD
 70
     1
  9
$DIMZIN
 70
     8
  9
$DIMBLK
  1
OPEN30
  9
$DIMASO
 70
     1
  9
$DIMSHO
 70
     1
  9
$DIMPOST
  1

  9
$DIMAPOST
  1

  9
$DIMALT
 70
     0
  9
$DIMALTD
 70
     2
  9
$DIMALTF
 40
25.399999999999999
  9
$DIMLFAC
 40
1.0
  9
$DIMTOFL
 70
     1
  9
$DIMTVP
 40
0.0
  9
$DIMTIX
 70
     0
  9
$DIMSOXD
 70
     0
  9
$DIMSAH
 70
     0
  9
$DIMBLK1
  1

  9
$DIMBLK2
  1

  9
$DIMSTYLE
  2
S10
  9
$DIMCLRD
 70
   256
  9
$DIMCLRE
 70
   256
  9
$DIMCLRT
 70
   256
  9
$DIMTFAC
 40
1.0
  9
$DIMGAP
 40
0.9
  9
$LUNITS
 70
     2
  9
$LUPREC
 70
     2
  9
$SKETCHINC
 40
0.1
  9
$FILLETRAD
 40
0.0
  9
$AUNITS
 70
     0
  9
$AUPREC
 70
     2
  9
$MENU
  1
ACAD
  9
$ELEVATION
 40
0.0
  9
$PELEVATION
 40
0.0
  9
$THICKNESS
 40
0.0
  9
$LIMCHECK
 70
     0
  9
$BLIPMODE
 70
     0
  9
$CHAMFERA
 40
2.0
  9
$CHAMFERB
 40
2.0
  9
$SKPOLY
 70
     0
  9
$TDCREATE
 40
2453095.4929404748
  9
$TDUPDATE
 40
2456734.561435069
  9
$TDINDWG
 40
18.4829942824
  9
$TDUSRTIMER
 40
18.482993738400001
  9
$USRTIMER
 70
     1
  9
$ANGBASE
 50
0.0
  9
$ANGDIR
 70
     0
  9
$PDMODE
 70
    35
  9
$PDSIZE
 40
2.0
  9
$PLINEWID
 40
0.0
  9
$COORDS
 70
     1
  9
$SPLFRAME
 70
     0
  9
$SPLINETYPE
 70
     6
  9
$SPLINESEGS
 70
     8
  9
$ATTDIA
 70
     0
  9
$ATTREQ
 70
     1
  9
$HANDLING
 70
     1
  9
$HANDSEED
  5
122E92
  9
$SURFTAB1
 70
     6
  9
$SURFTAB2
 70
     6
  9
$SURFTYPE
 70
     6
  9
$SURFU
 70
     6
  9
$SURFV
 70
     6
  9
$UCSNAME
  2

  9
$UCSORG
 10
0.0
 20
0.0
 30
0.0
  9
$UCSXDIR
 10
1.0
 20
0.0
 30
0.0
  9
$UCSYDIR
 10
0.0
 20
1.0
 30
0.0
  9
$PUCSNAME
  2

  9
$PUCSORG
 10
0.0
 20
0.0
 30
0.0
  9
$PUCSXDIR
 10
1.0
 20
0.0
 30
0.0
  9
$PUCSYDIR
 10
0.0
 20
1.0
 30
0.0
  9
$USERI1
 70
     0
  9
$USERI2
 70
     0
  9
$USERI3
 70
     0
  9
$USERI4
 70
     0
  9
$USERI5
 70
     0
  9
$USERR1
 40
0.0
  9
$USERR2
 40
0.0
  9
$USERR3
 40
0.0
  9
$USERR4
 40
0.0
  9
$USERR5
 40
0.0
  9
$WORLDVIEW
 70
     1
  9
$SHADEDGE
 70
     3
  9
$SHADEDIF
 70
    70
  9
$TILEMODE
 70
     1
  9
$MAXACTVP
 70
    64
  9
$PLIMCHECK
 70
     0
  9
$PEXTMIN
 10
29.066066288948051
 20
20.366566777229309
 30
0.0
  9
$PEXTMAX
 10
261.5945966005325
 20
183.29910099506381
 30
0.0
  9
$PLIMMIN
 10
-3.17498779296875
 20
-3.1749999523162842
  9
$PLIMMAX
 10
293.83566284179687
 20
206.8406708240509
  9
$UNITMODE
 70
     0
  9
$VISRETAIN
 70
     1
  9
$PLINEGEN
 70
     0
  9
$PSLTSCALE
 70
     1
  0
ENDSEC
  0
SECTION
  2
TABLES
  0
TABLE
  2
VPORT
 70
     1
  0
VPORT
  2
*ACTIVE
 70
     0
 10
0.0
 20
0.0
 11
1.0
 21
1.0
 12
6171.3730915625956
 22
1581.488776314759
 13
0.0
 23
0.0
 14
1.0
 24
1.0
 15
0.0
 25
0.0
 16
0.0
 26
0.0
 36
1.0
 17
0.0
 27
0.0
 37
0.0
 40
12030.383979837259
 41
1.6494178525226391
 42
50.0
 43
0.0
 44
0.0
 50
0.0
 51
0.0
 71
     0
 72
   600
 73
     1
 74
     1
 75
     0
 76
     0
 77
     0
 78
     0
  0
ENDTAB
  0
TABLE
  2
LTYPE
 70
     4
  0
LTYPE
  2
CONTINUOUS
 70
     0
  3
Solid line
 72
    65
 73
     0
 40
0.0
  0
LTYPE
  2
PHANTOM2
 70
     0
  3
___ _ _ ___ _ _ ___ _ _ ___ _ _
 72
    65
 73
     6
 40
1.25
 49
0.625
 49
-0.125
 49
0.125
 49
-0.125
 49
0.125
 49
-0.125
  0
LTYPE
  2
ACAD_ISO08W100
 70
     0
  3
ISO long-dash short-dash ____ __ ____ __ ____ _
 72
    65
 73
     4
 40
36.0
 49
24.0
 49
-3.0
 49
6.0
 49
-3.0
  0
LTYPE
  2
ACAD_ISO02W100
 70
     0
  3
ISO dash __ __ __ __ __ __ __ __ __ __ __ __ __
 72
    65
 73
     2
 40
15.0
 49
12.0
 49
-3.0
  0
ENDTAB
  0
TABLE
  2
LAYER
 70
     7
  0
LAYER
  2
0
 70
     0
 62
     7
  6
CONTINUOUS
  0
LAYER
  2
OBJECT
 70
     0
 62
     4
  6
CONTINUOUS
  0
LAYER
  2
DEFPOINTS
 70
     0
 62
     7
  6
CONTINUOUS
  0
LAYER
  2
HIDDEN
 70
     0
 62
     2
  6
ACAD_ISO02W100
  0
LAYER
  2
CENTER
 70
     0
 62
     2
  6
ACAD_ISO08W100
  0
LAYER
  2
DOTS
 70
     0
 62
     1
  6
CONTINUOUS
  0
LAYER
  2
SLIM
 70
     0
 62
     2
  6
CONTINUOUS
  0
ENDTAB
  0
TABLE
  2
STYLE
 70
     2
  0
STYLE
  2
STANDARD
 70
     0
 40
0.0
 41
0.75
 50
0.0
 71
     0
 42
4.0
  3
simplex.shx
  4
bigfont.shx
  0
ENDTAB
  0
TABLE
  2
VIEW
 70
     0
  0
ENDTAB
  0
TABLE
  2
UCS
 70
     0
  0
ENDTAB
  0
TABLE
  2
APPID
 70
    18
  0
APPID
  2
ACAD
 70
     0
  0
APPID
  2
ACADANNOTATIVE
 70
     0
  0
APPID
  2
ACAD_PSEXT
 70
     0
  0
APPID
  2
ACAD_EXEMPT_FROM_CAD_STANDARDS
 70
     0
  0
APPID
  2
ACAECLAYERSTANDARD
 70
     0
  0
APPID
  2
ACAUTHENVIRON
 70
     0
  0
APPID
  2
ACDBDYNAMICBLOCKTRUENAME
 70
     0
  0
APPID
  2
ACDBDYNAMICBLOCKGUID
 70
     0
  0
APPID
  2
ACDBBLOCKREPETAG
 70
     0
  0
APPID
  2
ACDBBLOCKREPBTAG
 70
     0
  0
APPID
  2
ACAD_NAV_VCDISPLAY
 70
     0
  0
APPID
  2
ACAD_DSTYLE_DIMRADIAL_EXTENSION
 70
     0
  0
APPID
  2
ACAD_DSTYLE_DIMJAG
 70
     0
  0
APPID
  2
ACAD_DSTYLE_DIMTALN
 70
     0
  0
APPID
  2
ACADANNOPO
 70
     0
  0
APPID
  2
GRADIENTCOLOR1ACI
 70
     0
  0
APPID
  2
GRADIENTCOLOR2ACI
 70
     0
  0
APPID
  2
ACAD_MLEADERVER
 70
     0
  0
ENDTAB
  0
TABLE
  2
DIMSTYLE
 70
     3
  0
DIMSTYLE
  2
STANDARD
 70
     0
  3

  4

  5

  6

  7

 40
1.0
 41
0.18
 42
0.0625
 43
0.38
 44
0.18
 45
0.0
 46
0.0
 47
0.0
 48
0.0
140
0.18
141
0.09
142
0.0
143
25.399999999999999
144
1.0
145
0.0
146
1.0
147
0.09
 71
     0
 72
     0
 73
     1
 74
     1
 75
     0
 76
     0
 77
     0
 78
     0
170
     0
171
     2
172
     0
173
     0
174
     0
175
     0
176
     0
177
     0
178
     0
  0
DIMSTYLE
  2
S10
 70
     0
  3

  4

  5

  6

  7

 40
10.0
 41
2.0
 42
1.0
 43
10.0
 44
1.0
 45
0.0
 46
0.0
 47
0.0
 48
0.0
140
3.2000000000000002
141
0.0
142
0.0
143
25.399999999999999
144
1.0
145
0.0
146
1.0
147
0.9
 71
     0
 72
     0
 73
     0
 74
     0
 75
     0
 76
     0
 77
     1
 78
     8
170
     0
171
     2
172
     1
173
     0
174
     0
175
     0
176
   256
177
   256
178
   256
  0
ENDTAB
  0
ENDSEC
  0
SECTION
  2
BLOCKS
  0
BLOCK
  8
0
  2
$MODEL_SPACE
 70
     0
 10
0.0
 20
0.0
 30
0.0
  3
$MODEL_SPACE
  1

  0
ENDBLK
  5
122DB5
  8
0
  0
BLOCK
 67
     1
  8
0
  2
$PAPER_SPACE
 70
     0
 10
0.0
 20
0.0
 30
0.0
  3
$PAPER_SPACE
  1

  0
ENDBLK
  5
122DB1
 67
     1
  8
0
  0
BLOCK
  8
0
  2
_OPEN30
 70
     0
 10
0.0
 20
0.0
 30
0.0
  3
_OPEN30
  1

  0
LINE
  5
202
  8
0
  6
BYBLOCK
 62
     0
 10
-1.0
 20
0.26794919
 30
0.0
 11
0.0
 21
0.0
 31
0.0
  0
LINE
  5
203
  8
0
  6
BYBLOCK
 62
     0
 10
0.0
 20
0.0
 30
0.0
 11
-1.0
 21
-0.26794919
 31
0.0
  0
LINE
  5
204
  8
0
  6
BYBLOCK
 62
     0
 10
0.0
 20
0.0
 30
0.0
 11
-1.0
 21
0.0
 31
0.0
  0
ENDBLK
  5
206
  8
0
  0
ENDSEC
  0
SECTION
  2
ENTITIES
  0
LINE
  5
1226BE
  8
OBJECT
 10
11923.0
 20
-570.99999999999432
 30
0.0
 11
11923.0
 21
-549.99999999999432
 31
0.0
1001
ACDBBLOCKREPETAG
1070
     1
1071
       36
1005
1226BE
  0
LINE
  5
1226BF
  8
OBJECT
 10
11923.0
 20
-549.99999999999432
 30
0.0
 11
12077.0
 21
-549.99999999999432
 31
0.0
1001
ACDBBLOCKREPETAG
1070
     1
1071
       37
1005
1226BF
  0
LINE
  5
1226C0
  8
HIDDEN
 10
11943.0
 20
-619.99999999999432
 30
0.0
 11
12057.0
 21
-619.99999999999432
 31
0.0
1001
ACDBBLOCKREPETAG
1070
     1
1071
       38
1005
1226C0
  0
LINE
  5
1226C1
  8
OBJECT
 10
12077.0
 20
-549.99999999999432
 30
0.0
 11
12077.0
 21
-570.99999999999432
 31
0.0
1001
ACDBBLOCKREPETAG
1070
     1
1071
       39
1005
1226C1
  0
LINE
  5
1226C2
  8
OBJECT
 10
12077.0
 20
-570.99999999999432
 30
0.0
 11
11923.0
 21
-570.99999999999432
 31
0.0
1001
ACDBBLOCKREPETAG
1070
     1
1071
       40
1005
1226C2
  0
LINE
  5
1226C3
  8
CENTER
 10
12000.0
 20
-534.99999999999432
 30
0.0
 11
12000.0
 21
-769.9999999999942
 31
0.0
1001
ACDBBLOCKREPETAG
1070
     1
1071
       41
1005
1226C3
  0
LINE
  5
1226C4
  8
OBJECT
 10
11928.0
 20
-570.99999999999432
 30
0.0
 11
11928.0
 21
-633.99999999999432
 31
0.0
1001
ACDBBLOCKREPETAG
1070
     1
1071
       42
1005
1226C4
  0
LINE
  5
1226C5
  8
OBJECT
 10
12072.0
 20
-633.99999999999432
 30
0.0
 11
12072.0
 21
-570.99999999999432
 31
0.0
1001
ACDBBLOCKREPETAG
1070
     1
1071
       43
1005
1226C5
  0
LINE
  5
1226C6
  8
OBJECT
 10
11920.0
 20
-757.9999999999942
 30
0.0
 11
12080.0
 21
-757.9999999999942
 31
0.0
1001
ACDBBLOCKREPETAG
1070
     1
1071
       44
1005
1226C6
  0
LINE
  5
1226C7
  8
OBJECT
 10
12080.0
 20
-633.99999999999432
 30
0.0
 11
11920.0
 21
-633.99999999999432
 31
0.0
1001
ACDBBLOCKREPETAG
1070
     1
1071
       45
1005
1226C7
  0
LINE
  5
1226C8
  8
OBJECT
 10
11920.0
 20
-757.9999999999942
 30
0.0
 11
11920.0
 21
-769.9999999999942
 31
0.0
1001
ACDBBLOCKREPETAG
1070
     1
1071
       46
1005
1226C8
  0
LINE
  5
1226C9
  8
OBJECT
 10
11920.0
 20
-769.9999999999942
 30
0.0
 11
12080.0
 21
-769.9999999999942
 31
0.0
1001
ACDBBLOCKREPETAG
1070
     1
1071
       47
1005
1226C9
  0
LINE
  5
1226CA
  8
OBJECT
 10
12080.0
 20
-769.9999999999942
 30
0.0
 11
12080.0
 21
-757.9999999999942
 31
0.0
1001
ACDBBLOCKREPETAG
1070
     1
1071
       48
1005
1226CA
  0
ARC
  5
1226CB
  8
OBJECT
 10
12200.687274671671
 20
-749.40809941010195
 30
0.0
 40
170.6350503965856
 50
137.44134459184301
 51
149.91949581337221
1001
ACDBBLOCKREPETAG
1070
     1
1071
       52
1005
1226CB
  0
ARC
  5
1226CC
  8
OBJECT
 10
12200.687274671671
 20
-642.59190058988645
 30
0.0
 40
170.6350503965856
 50
210.08050418662771
 51
222.55865540815699
1001
ACDBBLOCKREPETAG
1070
     1
1071
       53
1005
1226CC
  0
ARC
  5
1226CD
  8
OBJECT
 10
11799.312725328329
 20
-749.40809941010195
 30
0.0
 40
170.6350503965856
 50
30.080504186787142
 51
42.558655408456282
1001
ACDBBLOCKREPETAG
1070
     1
1071
       54
1005
1226CD
  0
ARC
  5
1226CE
  8
OBJECT
 10
11799.312725328329
 20
-642.59190058988645
 30
0.0
 40
170.6350503965856
 50
317.44134459154373
 51
329.9194958132129
1001
ACDBBLOCKREPETAG
1070
     1
1071
       55
1005
1226CE
  0
POINT
  5
1226CF
  8
DOTS
 10
12000.0
 20
-754.9999999999942
 30
0.0
1001
ACDBBLOCKREPETAG
1070
     1
1071
      184
1005
1226CF
  0
LINE
  5
1226D0
  8
SLIM
 10
11945.256670426101
 20
-137.99999999999909
 30
0.0
 11
11955.954840369581
 21
-127.30183005652231
 31
0.0
1001
GRADIENTCOLOR1ACI
1070
     5
1001
GRADIENTCOLOR2ACI
1070
     2
1001
ACAD
1010
0.0
1020
0.0
1030
0.0
1001
ACDBBLOCKREPETAG
1070
     1
1071
      428
1005
1226D0
  0
LINE
  5
1226D1
  8
SLIM
 10
11954.23692654717
 20
-137.99999999999909
 30
0.0
 11
11972.75077447633
 21
-119.4861520708364
 31
0.0
1001
GRADIENTCOLOR1ACI
1070
     5
1001
GRADIENTCOLOR2ACI
1070
     2
1001
ACAD
1010
0.0
1020
0.0
1030
0.0
1001
ACDBBLOCKREPETAG
1070
     1
1071
      429
1005
1226D1
  0
LINE
  5
1226D2
  8
SLIM
 10
11973.521224312461
 20
-127.6959583557812
 30
0.0
 11
11984.857514674861
 21
-116.359667993377
 31
0.0
1001
GRADIENTCOLOR1ACI
1070
     5
1001
GRADIENTCOLOR2ACI
1070
     2
1001
ACAD
1010
0.0
1020
0.0
1030
0.0
1001
ACDBBLOCKREPETAG
1070
     1
1071
      430
1005
1226D2
  0
LINE
  5
1226D3
  8
SLIM
 10
11985.894417146121
 20
-124.30302164318159
 30
0.0
 11
11995.05338120025
 21
-115.1440575890517
 31
0.0
1001
GRADIENTCOLOR1ACI
1070
     5
1001
GRADIENTCOLOR2ACI
1070
     2
1001
ACAD
1010
0.0
1020
0.0
1030
0.0
1001
ACDBBLOCKREPETAG
1070
     1
1071
      431
1005
1226D3
  0
LINE
  5
1226D4
  8
SLIM
 10
11996.077732749211
 20
-123.0999621611699
 30
0.0
 11
12000.0
 21
-119.1776949103767
 31
0.0
1001
GRADIENTCOLOR1ACI
1070
     5
1001
GRADIENTCOLOR2ACI
1070
     2
1001
ACAD
1010
0.0
1020
0.0
1030
0.0
1001
ACDBBLOCKREPETAG
1070
     1
1071
      432
1005
1226D4
  0
LINE
  5
1226D5
  8
SLIM
 10
12000.0
 20
-119.1776949103767
 30
0.0
 11
12004.0797313529
 21
-115.0979635574724
 31
0.0
1001
GRADIENTCOLOR1ACI
1070
     5
1001
GRADIENTCOLOR2ACI
1070
     2
1001
ACAD
1010
0.0
1020
0.0
1030
0.0
1001
ACDBBLOCKREPETAG
1070
     1
1071
      433
1005
1226D5
  0
LINE
  5
1226D6
  8
SLIM
 10
12004.995720254279
 20
-123.1622307771683
 30
0.0
 11
12012.267978410569
 21
-115.88997262087101
 31
0.0
1001
GRADIENTCOLOR1ACI
1070
     5
1001
GRADIENTCOLOR2ACI
1070
     2
1001
ACAD
1010
0.0
1020
0.0
1030
0.0
1001
ACDBBLOCKREPETAG
1070
     1
1071
      434
1005
1226D6
  0
LINE
  5
1226D7
  8
SLIM
 10
12013.028059366959
 20
-124.1101477855505
 30
0.0
 11
12019.799941457361
 21
-117.3382656951526
 31
0.0
1001
GRADIENTCOLOR1ACI
1070
     5
1001
GRADIENTCOLOR2ACI
1070
     2
1001
ACAD
1010
0.0
1020
0.0
1030
0.0
1001
ACDBBLOCKREPETAG
1070
     1
1071
      435
1005
1226D7
  0
LINE
  5
1226D8
  8
SLIM
 10
12020.374081314239
 20
-125.7443819593383
 30
0.0
 11
12026.787203867279
 21
-119.3312594063044
 31
0.0
1001
GRADIENTCOLOR1ACI
1070
     5
1001
GRADIENTCOLOR2ACI
1070
     2
1001
ACAD
1010
0.0
1020
0.0
1030
0.0
1001
ACDBBLOCKREPETAG
1070
     1
1071
      436
1005
1226D8
  0
LINE
  5
1226D9
  8
SLIM
 10
12027.15247199887
 20
-127.946247395778
 30
0.0
 11
12033.303003076029
 21
-121.7957163186195
 31
0.0
1001
GRADIENTCOLOR1ACI
1070
     5
1001
GRADIENTCOLOR2ACI
1070
     2
1001
ACAD
1010
0.0
1020
0.0
1030
0.0
1001
ACDBBLOCKREPETAG
1070
     1
1071
      437
1005
1226D9
  0
LINE
  5
1226DA
  8
SLIM
 10
12033.43909865133
 20
-130.63987686439191
 30
0.0
 11
12039.397311984379
 21
-124.6816635313439
 31
0.0
1001
GRADIENTCOLOR1ACI
1070
     5
1001
GRADIENTCOLOR2ACI
1070
     2
1001
ACAD
1010
0.0
1020
0.0
1030
0.0
1001
ACDBBLOCKREPETAG
1070
     1
1071
      438
1005
1226DA
  0
LINE
  5
1226DB
  8
SLIM
 10
12039.284224621801
 20
-133.77500701499321
 30
0.0
 11
12045.10477053437
 21
-127.95446110242381
 31
0.0
1001
GRADIENTCOLOR1ACI
1070
     5
1001
GRADIENTCOLOR2ACI
1070
     2
1001
ACAD
1010
0.0
1020
0.0
1030
0.0
1001
ACDBBLOCKREPETAG
1070
     1
1071
      439
1005
1226DB
  0
LINE
  5
1226DC
  8
SLIM
 10
12044.721280169801
 20
-137.31820758805651
 30
0.0
 11
12050.449155789191
 21
-131.59033196866449
 31
0.0
1001
GRADIENTCOLOR1ACI
1070
     5
1001
GRADIENTCOLOR2ACI
1070
     2
1001
ACAD
1010
0.0
1020
0.0
1030
0.0
1001
ACDBBLOCKREPETAG
1070
     1
1071
      440
1005
1226DC
  0
LINE
  5
1226DD
  8
SLIM
 10
12053.01974387892
 20
-137.99999999999909
 30
0.0
 11
12055.445994186401
 21
-135.57374969252561
 31
0.0
1001
GRADIENTCOLOR1ACI
1070
     5
1001
GRADIENTCOLOR2ACI
1070
     2
1001
ACAD
1010
0.0
1020
0.0
1030
0.0
1001
ACDBBLOCKREPETAG
1070
     1
1071
      441
1005
1226DD
  0
LINE
  5
1226DE
  8
CENTER
 10
12000.0
 20
-279.99999999999909
 30
0.0
 11
12000.0
 21
-99.999999999999091
 31
0.0
1001
ACDBBLOCKREPETAG
1070
     1
1071
      160
1005
1226DE
  0
CIRCLE
  5
1226DF
  8
OBJECT
 10
12000.0
 20
-199.99999999999909
 30
0.0
 40
70.0
1001
ACDBBLOCKREPETAG
1070
     1
1071
      161
1005
1226DF
  0
CIRCLE
  5
1226E0
  8
OBJECT
 10
12000.0
 20
-199.99999999999909
 30
0.0
 40
77.0
1001
ACDBBLOCKREPETAG
1070
     1
1071
      162
1005
1226E0
  0
LINE
  5
1226E1
  8
OBJECT
 10
12045.661800227321
 20
-137.99999999999909
 30
0.0
 11
12080.0
 21
-137.99999999999909
 31
0.0
1001
ACDBBLOCKREPETAG
1070
     1
1071
      164
1005
1226E1
  0
LINE
  5
1226E2
  8
OBJECT
 10
12062.0
 20
-261.99999999999909
 30
0.0
 11
12080.0
 21
-261.99999999999909
 31
0.0
1001
ACDBBLOCKREPETAG
1070
     1
1071
      165
1005
1226E2
  0
LINE
  5
1226E3
  8
OBJECT
 10
12062.0
 20
-261.99999999999909
 30
0.0
 11
12062.0
 21
-279.99999999999909
 31
0.0
1001
ACDBBLOCKREPETAG
1070
     1
1071
      167
1005
1226E3
  0
LINE
  5
1226E4
  8
OBJECT
 10
11938.0
 20
-261.99999999999909
 30
0.0
 11
11938.0
 21
-279.99999999999909
 31
0.0
1001
ACDBBLOCKREPETAG
1070
     1
1071
      168
1005
1226E4
  0
LINE
  5
1226E5
  8
OBJECT
 10
11938.0
 20
-261.99999999999909
 30
0.0
 11
11920.0
 21
-261.99999999999909
 31
0.0
1001
ACDBBLOCKREPETAG
1070
     1
1071
      170
1005
1226E5
  0
LINE
  5
1226E6
  8
OBJECT
 10
11954.33819977267
 20
-137.99999999999909
 30
0.0
 11
11920.0
 21
-137.99999999999909
 31
0.0
1001
ACDBBLOCKREPETAG
1070
     1
1071
      171
1005
1226E6
  0
LINE
  5
1226E7
  8
OBJECT
 10
11945.55277784863
 20
-254.44722215136329
 30
0.0
 11
11938.0
 21
-261.99999999999909
 31
0.0
1001
ACDBBLOCKREPETAG
1070
     1
1071
      180
1005
1226E7
  0
LINE
  5
1226E8
  8
OBJECT
 10
12054.447222151361
 20
-254.44722215136329
 30
0.0
 11
12062.0
 21
-261.99999999999909
 31
0.0
1001
ACDBBLOCKREPETAG
1070
     1
1071
      181
1005
1226E8
  0
ARC
  5
1226E9
  8
OBJECT
 10
12000.0
 20
-199.99999999999909
 30
0.0
 40
85.0
 50
46.837102859844251
 51
133.16289714015571
1001
ACDBBLOCKREPETAG
1070
     1
1071
      183
1005
1226E9
  0
LINE
  5
1226EA
  8
OBJECT
 10
12024.1029330933
 20
-243.80694712371681
 30
0.0
 11
12020.659656999989
 21
-232.55462199999889
 31
0.0
1001
ACDBBLOCKREPETAG
1070
     1
1071
      314
1005
1226EA
  0
LINE
  5
1226EB
  8
OBJECT
 10
11986.79274990136
 20
-218.22553374208019
 30
0.0
 11
12020.659656999989
 21
-232.5546219999969
 31
0.0
1001
ACDBBLOCKREPETAG
1070
     1
1071
      316
1005
1226EB
  0
ARC
  5
1226EC
  8
OBJECT
 10
11982.8961697619
 20
-227.4351299990567
 30
0.0
 40
10.0
 50
67.066778292911366
 51
154.01473437031629
1001
ACDBBLOCKREPETAG
1070
     1
1071
      317
1005
1226EC
  0
ARC
  5
1226ED
  8
OBJECT
 10
11986.148839038129
 20
-225.55386256729159
 30
0.0
 40
7.0
 50
67.066778292911366
 51
154.0147337749826
1001
ACDBBLOCKREPETAG
1070
     1
1071
      318
1005
1226ED
  0
LINE
  5
1226EE
  8
OBJECT
 10
11969.4199755553
 20
-243.89888500818171
 30
0.0
 11
11979.85649182323
 21
-222.48688253356801
 31
0.0
1001
ACDBBLOCKREPETAG
1070
     1
1071
      349
1005
1226EE
  0
LINE
  5
1226EF
  8
OBJECT
 10
11965.29721690061
 20
-240.71813901882729
 30
0.0
 11
11973.90710226651
 21
-223.05373004430751
 31
0.0
1001
ACDBBLOCKREPETAG
1070
     1
1071
      350
1005
1226EF
  0
ARC
  5
1226F0
  8
OBJECT
 10
11976.57969530731
 20
-207.1289369828437
 30
0.0
 40
60.031113246032611
 50
314.07020130422319
 51
322.33936106089681
1001
ACDBBLOCKREPETAG
1070
     1
1071
      351
1005
1226F0
  0
CIRCLE
  5
1226F1
  8
OBJECT
 10
12000.0
 20
-199.99999999999909
 30
0.0
 40
53.5
1001
ACDBBLOCKREPETAG
1070
     1
1071
      352
1005
1226F1
  0
POINT
  5
1226F2
  8
DOTS
 10
12000.0
 20
-199.99999999999909
 30
0.0
 50
270.0
1001
ACDBBLOCKREPETAG
1070
     1
1071
      364
1005
1226F2
  0
ARC
  5
1226F3
  8
OBJECT
 10
12000.0
 20
-199.99999999999909
 30
0.0
 40
50.0
 50
298.81994300000417
 51
228.5237695596397
1001
ACDBBLOCKREPETAG
1070
     1
1071
      157
1005
1226F3
  0
LINE
  5
1226F4
  8
CENTER
 10
12080.0
 20
-199.99999999999909
 30
0.0
 11
11920.0
 21
-199.99999999999909
 31
0.0
1001
ACDBBLOCKREPETAG
1070
     1
1071
      158
1005
1226F4
  0
LINE
  5
1226F5
  8
OBJECT
 10
11797.000000000009
 20
-261.99999999999909
 30
0.0
 11
11790.0
 21
-261.99999999999909
 31
0.0
1001
ACDBBLOCKREPETAG
1070
     1
1071
       85
1005
1226F5
  0
LINE
  5
1226F6
  8
OBJECT
 10
11790.0
 20
-261.99999999999909
 30
0.0
 11
11790.0
 21
-137.99999999999909
 31
0.0
1001
ACDBBLOCKREPETAG
1070
     1
1071
       86
1005
1226F6
  0
LINE
  5
1226F7
  8
OBJECT
 10
11790.0
 20
-137.99999999999909
 30
0.0
 11
11797.000000000009
 21
-137.99999999999909
 31
0.0
1001
ACDBBLOCKREPETAG
1070
     1
1071
       87
1005
1226F7
  0
LINE
  5
1226F8
  8
OBJECT
 10
11797.000000000009
 20
-137.99999999999909
 30
0.0
 11
11797.000000000009
 21
-261.99999999999909
 31
0.0
1001
ACDBBLOCKREPETAG
1070
     1
1071
       88
1005
1226F8
  0
LINE
  5
1226F9
  8
CENTER
 10
11775.000000000009
 20
-199.99999999999909
 30
0.0
 11
11920.0
 21
-199.99999999999909
 31
0.0
1001
ACDBBLOCKREPETAG
1070
     1
1071
       89
1005
1226F9
  0
LINE
  5
1226FA
  8
OBJECT
 10
11850.00002503581
 20
-154.9999999999954
 30
0.0
 11
11914.0
 21
-154.99999999999909
 31
0.0
1001
ACDBBLOCKREPETAG
1070
     1
1071
       90
1005
1226FA
  0
LINE
  5
1226FB
  8
OBJECT
 10
11850.00002503581
 20
-244.99999999999909
 30
0.0
 11
11914.0
 21
-244.99999999999909
 31
0.0
1001
ACDBBLOCKREPETAG
1070
     1
1071
       91
1005
1226FB
  0
LINE
  5
1226FC
  8
OBJECT
 10
11797.000000000009
 20
-258.99999999999909
 30
0.0
 11
11833.0
 21
-258.99999999999909
 31
0.0
1001
ACDBBLOCKREPETAG
1070
     1
1071
       92
1005
1226FC
  0
LINE
  5
1226FD
  8
OBJECT
 10
11833.0
 20
-258.99999999999909
 30
0.0
 11
11833.0
 21
-140.99999999999909
 31
0.0
1001
ACDBBLOCKREPETAG
1070
     1
1071
       93
1005
1226FD
  0
LINE
  5
1226FE
  8
OBJECT
 10
11833.0
 20
-140.99999999999909
 30
0.0
 11
11797.000000000009
 21
-140.99999999999909
 31
0.0
1001
ACDBBLOCKREPETAG
1070
     1
1071
       94
1005
1226FE
  0
LINE
  5
1226FF
  8
OBJECT
 10
11837.000000000009
 20
-254.49999999999909
 30
0.0
 11
11850.0
 21
-254.49999999999909
 31
0.0
1001
ACDBBLOCKREPETAG
1070
     1
1071
       95
1005
1226FF
  0
LINE
  5
122700
  8
OBJECT
 10
11850.0
 20
-145.49999999999909
 30
0.0
 11
11837.000000000009
 21
-145.49999999999909
 31
0.0
1001
ACDBBLOCKREPETAG
1070
     1
1071
       96
1005
122700
  0
LINE
  5
122701
  8
OBJECT
 10
11837.000000000009
 20
-145.49999999999909
 30
0.0
 11
11837.000000000009
 21
-254.49999999999909
 31
0.0
1001
ACDBBLOCKREPETAG
1070
     1
1071
       97
1005
122701
  0
LINE
  5
122702
  8
OBJECT
 10
11833.0
 20
-258.99999999999909
 30
0.0
 11
11837.000000000009
 21
-254.49999999999909
 31
0.0
1001
ACDBBLOCKREPETAG
1070
     1
1071
       98
1005
122702
  0
LINE
  5
122703
  8
OBJECT
 10
11833.0
 20
-140.99999999999909
 30
0.0
 11
11837.000000000009
 21
-145.49999999999909
 31
0.0
1001
ACDBBLOCKREPETAG
1070
     1
1071
       99
1005
122703
  0
LINE
  5
122704
  8
OBJECT
 10
11917.0
 20
-261.99999999999909
 30
0.0
 11
11920.0
 21
-261.99999999999909
 31
0.0
1001
ACDBBLOCKREPETAG
1070
     1
1071
      100
1005
122704
  0
ARC
  5
122705
  8
OBJECT
 10
11917.0
 20
-258.99999999999909
 30
0.0
 40
3.0
 50
180.0
 51
270.0
1001
ACDBBLOCKREPETAG
1070
     1
1071
      101
1005
122705
  0
LINE
  5
122706
  8
OBJECT
 10
11920.0
 20
-137.99999999999909
 30
0.0
 11
11917.0
 21
-137.99999999999909
 31
0.0
1001
ACDBBLOCKREPETAG
1070
     1
1071
      102
1005
122706
  0
ARC
  5
122707
  8
OBJECT
 10
11917.0
 20
-140.99999999999909
 30
0.0
 40
3.0
 50
90.0
 51
180.0
1001
ACDBBLOCKREPETAG
1070
     1
1071
      103
1005
122707
  0
LINE
  5
122708
  8
OBJECT
 10
11914.0
 20
-140.99999999999909
 30
0.0
 11
11914.0
 21
-189.6772096796403
 31
0.0
1001
ACDBBLOCKREPETAG
1070
     1
1071
      104
1005
122708
  0
LINE
  5
122709
  8
OBJECT
 10
11914.0
 20
-210.3227903203578
 30
0.0
 11
11914.0
 21
-258.99999999999909
 31
0.0
1001
ACDBBLOCKREPETAG
1070
     1
1071
      105
1005
122709
  0
LINE
  5
12270A
  8
HIDDEN
 10
11842.000000000009
 20
-244.49999999999909
 30
0.0
 11
11842.000000000009
 21
-155.49999999999909
 31
0.0
1001
ACDBBLOCKREPETAG
1070
     1
1071
      106
1005
12270A
  0
LINE
  5
12270B
  8
OBJECT
 10
11850.00002503581
 20
-145.50004907618759
 30
0.0
 11
11850.00002503581
 21
-254.50004907618771
 31
0.0
1001
ACDBBLOCKREPETAG
1070
     1
1071
      108
1005
12270B
  0
ARC
  5
12270C
  8
OBJECT
 10
11870.19999999997
 20
-199.99999999999909
 30
0.0
 40
45.000000000000547
 50
270.0
 51
90.0
1001
ACDBBLOCKREPETAG
1070
     1
1071
      109
1005
12270C
  0
LINE
  5
12270D
  8
CENTER
 10
12000.0
 20
-300.99999999999898
 30
0.0
 11
12000.0
 21
-279.99999999999909
 31
0.0
1001
ACDBBLOCKREPETAG
1070
     1
1071
        0
1005
12270D
  0
LINE
  5
12270E
  8
OBJECT
 10
12062.0
 20
-283.0
 30
0.0
 11
12062.0
 21
-279.99999999999909
 31
0.0
1001
ACDBBLOCKREPETAG
1070
     1
1071
        1
1005
12270E
  0
ARC
  5
12270F
  8
OBJECT
 10
12059.0
 20
-283.0
 30
0.0
 40
3.0
 50
270.0
 51
0.0
1001
ACDBBLOCKREPETAG
1070
     1
1071
        2
1005
12270F
  0
LINE
  5
122710
  8
OBJECT
 10
11938.0
 20
-279.99999999999909
 30
0.0
 11
11938.0
 21
-282.99999999999818
 31
0.0
1001
ACDBBLOCKREPETAG
1070
     1
1071
        3
1005
122710
  0
ARC
  5
122711
  8
OBJECT
 10
11941.0
 20
-282.99999999999818
 30
0.0
 40
3.0
 50
180.0
 51
270.0
1001
ACDBBLOCKREPETAG
1070
     1
1071
        4
1005
122711
  0
LINE
  5
122712
  8
OBJECT
 10
11941.0
 20
-285.99999999999818
 30
0.0
 11
12059.0
 21
-286.0
 31
0.0
1001
ACDBBLOCKREPETAG
1070
     1
1071
        5
1005
122712
  0
LINE
  5
122713
  8
OBJECT
 10
12202.99999999998
 20
-137.99999999999909
 30
0.0
 11
12209.99999999998
 21
-137.99999999999909
 31
0.0
1001
ACDBBLOCKREPETAG
1070
     1
1071
       85
1005
122713
  0
LINE
  5
122714
  8
OBJECT
 10
12209.99999999998
 20
-137.99999999999909
 30
0.0
 11
12209.99999999998
 21
-261.99999999999909
 31
0.0
1001
ACDBBLOCKREPETAG
1070
     1
1071
       86
1005
122714
  0
LINE
  5
122715
  8
OBJECT
 10
12209.99999999998
 20
-261.99999999999909
 30
0.0
 11
12202.99999999998
 21
-261.99999999999909
 31
0.0
1001
ACDBBLOCKREPETAG
1070
     1
1071
       87
1005
122715
  0
LINE
  5
122716
  8
OBJECT
 10
12202.99999999998
 20
-261.99999999999909
 30
0.0
 11
12202.99999999998
 21
-137.99999999999909
 31
0.0
1001
ACDBBLOCKREPETAG
1070
     1
1071
       88
1005
122716
  0
LINE
  5
122717
  8
CENTER
 10
12224.99999999998
 20
-199.99999999999909
 30
0.0
 11
12080.0
 21
-199.99999999999909
 31
0.0
1001
ACDBBLOCKREPETAG
1070
     1
1071
       89
1005
122717
  0
LINE
  5
122718
  8
OBJECT
 10
12149.999974964179
 20
-245.0000000000027
 30
0.0
 11
12086.0
 21
-244.99999999999909
 31
0.0
1001
ACDBBLOCKREPETAG
1070
     1
1071
       90
1005
122718
  0
LINE
  5
122719
  8
OBJECT
 10
12149.999974964179
 20
-154.99999999999909
 30
0.0
 11
12086.0
 21
-154.99999999999909
 31
0.0
1001
ACDBBLOCKREPETAG
1070
     1
1071
       91
1005
122719
  0
LINE
  5
12271A
  8
OBJECT
 10
12202.99999999998
 20
-140.99999999999909
 30
0.0
 11
12166.99999999998
 21
-140.99999999999909
 31
0.0
1001
ACDBBLOCKREPETAG
1070
     1
1071
       92
1005
12271A
  0
LINE
  5
12271B
  8
OBJECT
 10
12166.99999999998
 20
-140.99999999999909
 30
0.0
 11
12166.99999999998
 21
-258.99999999999909
 31
0.0
1001
ACDBBLOCKREPETAG
1070
     1
1071
       93
1005
12271B
  0
LINE
  5
12271C
  8
OBJECT
 10
12166.99999999998
 20
-258.99999999999909
 30
0.0
 11
12202.99999999998
 21
-258.99999999999909
 31
0.0
1001
ACDBBLOCKREPETAG
1070
     1
1071
       94
1005
12271C
  0
LINE
  5
12271D
  8
OBJECT
 10
12162.99999999998
 20
-145.49999999999909
 30
0.0
 11
12149.99999999998
 21
-145.49999999999909
 31
0.0
1001
ACDBBLOCKREPETAG
1070
     1
1071
       95
1005
12271D
  0
LINE
  5
12271E
  8
OBJECT
 10
12149.99999999998
 20
-254.49999999999909
 30
0.0
 11
12162.99999999998
 21
-254.49999999999909
 31
0.0
1001
ACDBBLOCKREPETAG
1070
     1
1071
       96
1005
12271E
  0
LINE
  5
12271F
  8
OBJECT
 10
12162.99999999998
 20
-254.49999999999909
 30
0.0
 11
12162.99999999998
 21
-145.49999999999909
 31
0.0
1001
ACDBBLOCKREPETAG
1070
     1
1071
       97
1005
12271F
  0
LINE
  5
122720
  8
OBJECT
 10
12166.99999999998
 20
-140.99999999999909
 30
0.0
 11
12162.99999999998
 21
-145.49999999999909
 31
0.0
1001
ACDBBLOCKREPETAG
1070
     1
1071
       98
1005
122720
  0
LINE
  5
122721
  8
OBJECT
 10
12166.99999999998
 20
-258.99999999999909
 30
0.0
 11
12162.99999999998
 21
-254.49999999999909
 31
0.0
1001
ACDBBLOCKREPETAG
1070
     1
1071
       99
1005
122721
  0
LINE
  5
122722
  8
OBJECT
 10
12083.0
 20
-137.99999999999909
 30
0.0
 11
12080.0
 21
-137.99999999999909
 31
0.0
1001
ACDBBLOCKREPETAG
1070
     1
1071
      100
1005
122722
  0
ARC
  5
122723
  8
OBJECT
 10
12083.0
 20
-140.99999999999909
 30
0.0
 40
3.0
 50
0.0
 51
90.0
1001
ACDBBLOCKREPETAG
1070
     1
1071
      101
1005
122723
  0
LINE
  5
122724
  8
OBJECT
 10
12080.0
 20
-261.99999999999909
 30
0.0
 11
12083.0
 21
-261.99999999999909
 31
0.0
1001
ACDBBLOCKREPETAG
1070
     1
1071
      102
1005
122724
  0
ARC
  5
122725
  8
OBJECT
 10
12083.0
 20
-258.99999999999909
 30
0.0
 40
3.0
 50
270.0
 51
0.0
1001
ACDBBLOCKREPETAG
1070
     1
1071
      103
1005
122725
  0
LINE
  5
122726
  8
OBJECT
 10
12086.0
 20
-258.99999999999909
 30
0.0
 11
12086.0
 21
-210.3227903203578
 31
0.0
1001
ACDBBLOCKREPETAG
1070
     1
1071
      104
1005
122726
  0
LINE
  5
122727
  8
OBJECT
 10
12086.0
 20
-189.6772096796403
 30
0.0
 11
12086.0
 21
-140.99999999999909
 31
0.0
1001
ACDBBLOCKREPETAG
1070
     1
1071
      105
1005
122727
  0
LINE
  5
122728
  8
HIDDEN
 10
12157.99999999998
 20
-155.49999999999909
 30
0.0
 11
12157.99999999998
 21
-244.49999999999909
 31
0.0
1001
ACDBBLOCKREPETAG
1070
     1
1071
      106
1005
122728
  0
LINE
  5
122729
  8
OBJECT
 10
12149.999974964179
 20
-254.4999509238105
 30
0.0
 11
12149.999974964179
 21
-145.4999509238105
 31
0.0
1001
ACDBBLOCKREPETAG
1070
     1
1071
      108
1005
122729
  0
ARC
  5
12272A
  8
OBJECT
 10
12129.800000000019
 20
-199.99999999999909
 30
0.0
 40
45.000000000000547
 50
90.0
 51
270.0
1001
ACDBBLOCKREPETAG
1070
     1
1071
      109
1005
12272A
  0
LINE
  5
12272B
  8
OBJECT
 10
11797.000000000009
 20
-583.0
 30
0.0
 11
11790.0
 21
-583.0
 31
0.0
1001
ACDBBLOCKREPETAG
1070
     1
1071
       83
1005
12272B
  0
LINE
  5
12272C
  8
OBJECT
 10
11790.0
 20
-583.0
 30
0.0
 11
11790.0
 21
-707.0
 31
0.0
1001
ACDBBLOCKREPETAG
1070
     1
1071
       84
1005
12272C
  0
LINE
  5
12272D
  8
OBJECT
 10
11914.0
 20
-653.3502637757274
 30
0.0
 11
11914.0
 21
-755.00000000000102
 31
0.0
1001
ACDBBLOCKREPETAG
1070
     1
1071
       85
1005
12272D
  0
LINE
  5
12272E
  8
OBJECT
 10
11790.0
 20
-707.0
 30
0.0
 11
11797.000000000009
 21
-707.0
 31
0.0
1001
ACDBBLOCKREPETAG
1070
     1
1071
       86
1005
12272E
  0
LINE
  5
12272F
  8
OBJECT
 10
11797.000000000009
 20
-707.0
 30
0.0
 11
11797.000000000009
 21
-583.0
 31
0.0
1001
ACDBBLOCKREPETAG
1070
     1
1071
       87
1005
12272F
  0
LINE
  5
122730
  8
CENTER
 10
11865.0
 20
-645.0000000000008
 30
0.0
 11
11775.000000000009
 21
-645.0
 31
0.0
1001
ACDBBLOCKREPETAG
1070
     1
1071
       88
1005
122730
  0
LINE
  5
122731
  8
OBJECT
 10
11920.00000000002
 20
-758.0
 30
0.0
 11
11917.000000000009
 21
-758.0000000000008
 31
0.0
1001
ACDBBLOCKREPETAG
1070
     1
1071
       89
1005
122731
  0
ARC
  5
122732
  8
OBJECT
 10
11917.000000000009
 20
-755.00000000000102
 30
0.0
 40
3.0
 50
180.0
 51
270.0
1001
ACDBBLOCKREPETAG
1070
     1
1071
       90
1005
122732
  0
LINE
  5
122733
  8
OBJECT
 10
11797.000000000009
 20
-586.0
 30
0.0
 11
11833.0
 21
-586.0000000000008
 31
0.0
1001
ACDBBLOCKREPETAG
1070
     1
1071
       91
1005
122733
  0
LINE
  5
122734
  8
OBJECT
 10
11833.0
 20
-586.0000000000008
 30
0.0
 11
11833.0
 21
-704.0000000000008
 31
0.0
1001
ACDBBLOCKREPETAG
1070
     1
1071
       92
1005
122734
  0
LINE
  5
122735
  8
OBJECT
 10
11837.000000000009
 20
-590.5000000000008
 30
0.0
 11
11837.000000000009
 21
-699.5000000000008
 31
0.0
1001
ACDBBLOCKREPETAG
1070
     1
1071
       93
1005
122735
  0
LINE
  5
122736
  8
OBJECT
 10
11837.000000000009
 20
-590.5000000000008
 30
0.0
 11
11850.0
 21
-590.5000000000008
 31
0.0
1001
ACDBBLOCKREPETAG
1070
     1
1071
       94
1005
122736
  0
LINE
  5
122737
  8
OBJECT
 10
11833.0
 20
-704.0000000000008
 30
0.0
 11
11797.000000000009
 21
-704.0
 31
0.0
1001
ACDBBLOCKREPETAG
1070
     1
1071
       95
1005
122737
  0
LINE
  5
122738
  8
OBJECT
 10
11833.0
 20
-586.0000000000008
 30
0.0
 11
11837.000000000009
 21
-590.5000000000008
 31
0.0
1001
ACDBBLOCKREPETAG
1070
     1
1071
       96
1005
122738
  0
LINE
  5
122739
  8
OBJECT
 10
11850.0
 20
-590.5000000000008
 30
0.0
 11
11850.0
 21
-675.74491827928784
 31
0.0
1001
ACDBBLOCKREPETAG
1070
     1
1071
       97
1005
122739
  0
ARC
  5
12273A
  8
OBJECT
 10
11847.20000000001
 20
-685.0000000000008
 30
0.0
 40
85.0
 50
36.869897645906562
 51
88.112268108168848
1001
ACDBBLOCKREPETAG
1070
     1
1071
       98
1005
12273A
  0
LINE
  5
12273B
  8
HIDDEN
 10
11842.000000000009
 20
-600.50000000000068
 30
0.0
 11
11842.000000000009
 21
-689.50000000000091
 31
0.0
1001
ACDBBLOCKREPETAG
1070
     1
1071
      100
1005
12273B
  0
LINE
  5
12273C
  8
OBJECT
 10
11914.0
 20
-751.07945073181781
 30
0.0
 11
11843.36868007896
 21
-699.5000000000008
 31
0.0
1001
ACDBBLOCKREPETAG
1070
     1
1071
      101
1005
12273C
  0
LINE
  5
12273D
  8
OBJECT
 10
11920.00000000002
 20
-634.0
 30
0.0
 11
11915.20000000001
 21
-634.0
 31
0.0
1001
ACDBBLOCKREPETAG
1070
     1
1071
      102
1005
12273D
  0
LINE
  5
12273E
  8
OBJECT
 10
11914.0
 20
-653.35026377573013
 30
0.0
 11
11915.20000000001
 21
-634.0
 31
0.0
1001
ACDBBLOCKREPETAG
1070
     1
1071
      103
1005
12273E
  0
LINE
  5
12273F
  8
OBJECT
 10
11837.000000000009
 20
-699.5000000000008
 30
0.0
 11
11843.36868007896
 21
-699.5000000000008
 31
0.0
1001
ACDBBLOCKREPETAG
1070
     1
1071
      104
1005
12273F
  0
LINE
  5
122740
  8
OBJECT
 10
11833.0
 20
-704.0000000000008
 30
0.0
 11
11837.000000000009
 21
-699.5000000000008
 31
0.0
1001
ACDBBLOCKREPETAG
1070
     1
1071
      105
1005
122740
  0
CIRCLE
  5
122741
  8
OBJECT
 10
12000.0
 20
-696.0
 30
0.0
 40
62.0
1001
ACDBBLOCKREPETAG
1070
     1
1071
        0
1005
122741
  0
LINE
  5
122742
  8
OBJECT
 10
12202.99999999998
 20
-583.0000000000008
 30
0.0
 11
12209.99999999998
 21
-583.0000000000008
 31
0.0
1001
ACDBBLOCKREPETAG
1070
     1
1071
       83
1005
122742
  0
LINE
  5
122743
  8
OBJECT
 10
12209.99999999998
 20
-583.0000000000008
 30
0.0
 11
12209.99999999998
 21
-707.00000000000091
 31
0.0
1001
ACDBBLOCKREPETAG
1070
     1
1071
       84
1005
122743
  0
LINE
  5
122744
  8
OBJECT
 10
12085.99999999998
 20
-653.3502637757274
 30
0.0
 11
12085.99999999998
 21
-755.00000000000102
 31
0.0
1001
ACDBBLOCKREPETAG
1070
     1
1071
       85
1005
122744
  0
LINE
  5
122745
  8
OBJECT
 10
12209.99999999998
 20
-707.00000000000091
 30
0.0
 11
12202.99999999998
 21
-707.00000000000091
 31
0.0
1001
ACDBBLOCKREPETAG
1070
     1
1071
       86
1005
122745
  0
LINE
  5
122746
  8
OBJECT
 10
12202.99999999998
 20
-707.00000000000091
 30
0.0
 11
12202.99999999998
 21
-583.0000000000008
 31
0.0
1001
ACDBBLOCKREPETAG
1070
     1
1071
       87
1005
122746
  0
LINE
  5
122747
  8
CENTER
 10
12134.99999999998
 20
-645.0000000000008
 30
0.0
 11
12224.99999999998
 21
-645.0000000000008
 31
0.0
1001
ACDBBLOCKREPETAG
1070
     1
1071
       88
1005
122747
  0
LINE
  5
122748
  8
OBJECT
 10
12079.99999999998
 20
-758.0
 30
0.0
 11
12082.99999999998
 21
-758.0000000000008
 31
0.0
1001
ACDBBLOCKREPETAG
1070
     1
1071
       89
1005
122748
  0
ARC
  5
122749
  8
OBJECT
 10
12082.99999999998
 20
-755.00000000000102
 30
0.0
 40
3.0
 50
270.0
 51
0.0
1001
ACDBBLOCKREPETAG
1070
     1
1071
       90
1005
122749
  0
LINE
  5
12274A
  8
OBJECT
 10
12202.99999999998
 20
-586.0000000000008
 30
0.0
 11
12166.99999999998
 21
-586.0000000000008
 31
0.0
1001
ACDBBLOCKREPETAG
1070
     1
1071
       91
1005
12274A
  0
LINE
  5
12274B
  8
OBJECT
 10
12166.99999999998
 20
-586.0000000000008
 30
0.0
 11
12166.99999999998
 21
-704.0000000000008
 31
0.0
1001
ACDBBLOCKREPETAG
1070
     1
1071
       92
1005
12274B
  0
LINE
  5
12274C
  8
OBJECT
 10
12162.99999999998
 20
-590.5000000000008
 30
0.0
 11
12162.99999999998
 21
-699.5000000000008
 31
0.0
1001
ACDBBLOCKREPETAG
1070
     1
1071
       93
1005
12274C
  0
LINE
  5
12274D
  8
OBJECT
 10
12162.99999999998
 20
-590.5000000000008
 30
0.0
 11
12149.99999999998
 21
-590.5000000000008
 31
0.0
1001
ACDBBLOCKREPETAG
1070
     1
1071
       94
1005
12274D
  0
LINE
  5
12274E
  8
OBJECT
 10
12166.99999999998
 20
-704.0000000000008
 30
0.0
 11
12202.99999999998
 21
-704.0000000000008
 31
0.0
1001
ACDBBLOCKREPETAG
1070
     1
1071
       95
1005
12274E
  0
LINE
  5
12274F
  8
OBJECT
 10
12166.99999999998
 20
-586.0000000000008
 30
0.0
 11
12162.99999999998
 21
-590.5000000000008
 31
0.0
1001
ACDBBLOCKREPETAG
1070
     1
1071
       96
1005
12274F
  0
LINE
  5
122750
  8
OBJECT
 10
12149.99999999998
 20
-590.5000000000008
 30
0.0
 11
12149.99999999998
 21
-675.74491827928784
 31
0.0
1001
ACDBBLOCKREPETAG
1070
     1
1071
       97
1005
122750
  0
ARC
  5
122751
  8
OBJECT
 10
12152.799999999979
 20
-685.0000000000008
 30
0.0
 40
85.0
 50
91.887731891831123
 51
143.1301023540934
1001
ACDBBLOCKREPETAG
1070
     1
1071
       98
1005
122751
  0
LINE
  5
122752
  8
HIDDEN
 10
12157.99999999998
 20
-600.50000000000068
 30
0.0
 11
12157.99999999998
 21
-689.50000000000091
 31
0.0
1001
ACDBBLOCKREPETAG
1070
     1
1071
      100
1005
122752
  0
LINE
  5
122753
  8
OBJECT
 10
12085.99999999998
 20
-751.07945073181781
 30
0.0
 11
12156.631319921031
 21
-699.5000000000008
 31
0.0
1001
ACDBBLOCKREPETAG
1070
     1
1071
      101
1005
122753
  0
LINE
  5
122754
  8
OBJECT
 10
12079.99999999998
 20
-634.0
 30
0.0
 11
12084.799999999979
 21
-634.0
 31
0.0
1001
ACDBBLOCKREPETAG
1070
     1
1071
      102
1005
122754
  0
LINE
  5
122755
  8
OBJECT
 10
12085.99999999998
 20
-653.35026377573013
 30
0.0
 11
12084.799999999979
 21
-634.0
 31
0.0
1001
ACDBBLOCKREPETAG
1070
     1
1071
      103
1005
122755
  0
LINE
  5
122756
  8
OBJECT
 10
12162.99999999998
 20
-699.5000000000008
 30
0.0
 11
12156.631319921031
 21
-699.5000000000008
 31
0.0
1001
ACDBBLOCKREPETAG
1070
     1
1071
      104
1005
122756
  0
LINE
  5
122757
  8
OBJECT
 10
12166.99999999998
 20
-704.0000000000008
 30
0.0
 11
12162.99999999998
 21
-699.5000000000008
 31
0.0
1001
ACDBBLOCKREPETAG
1070
     1
1071
      105
1005
122757
  0
LINE
  5
122758
  8
OBJECT
 10
9923.0
 20
-570.99999999999432
 30
0.0
 11
9923.0
 21
-549.99999999999432
 31
0.0
1001
ACDBBLOCKREPETAG
1070
     1
1071
       36
1005
122758
  0
LINE
  5
122759
  8
OBJECT
 10
9923.0
 20
-549.99999999999432
 30
0.0
 11
10077.0
 21
-549.99999999999432
 31
0.0
1001
ACDBBLOCKREPETAG
1070
     1
1071
       37
1005
122759
  0
LINE
  5
12275A
  8
HIDDEN
 10
9943.0
 20
-619.99999999999432
 30
0.0
 11
10057.0
 21
-619.99999999999432
 31
0.0
1001
ACDBBLOCKREPETAG
1070
     1
1071
       38
1005
12275A
  0
LINE
  5
12275B
  8
OBJECT
 10
10077.0
 20
-549.99999999999432
 30
0.0
 11
10077.0
 21
-570.99999999999432
 31
0.0
1001
ACDBBLOCKREPETAG
1070
     1
1071
       39
1005
12275B
  0
LINE
  5
12275C
  8
OBJECT
 10
10077.0
 20
-570.99999999999432
 30
0.0
 11
9923.0
 21
-570.99999999999432
 31
0.0
1001
ACDBBLOCKREPETAG
1070
     1
1071
       40
1005
12275C
  0
LINE
  5
12275D
  8
CENTER
 10
10000.0
 20
-534.99999999999432
 30
0.0
 11
10000.0
 21
-769.9999999999942
 31
0.0
1001
ACDBBLOCKREPETAG
1070
     1
1071
       41
1005
12275D
  0
LINE
  5
12275E
  8
OBJECT
 10
9928.0
 20
-570.99999999999432
 30
0.0
 11
9928.0
 21
-633.99999999999432
 31
0.0
1001
ACDBBLOCKREPETAG
1070
     1
1071
       42
1005
12275E
  0
LINE
  5
12275F
  8
OBJECT
 10
10072.0
 20
-633.99999999999432
 30
0.0
 11
10072.0
 21
-570.99999999999432
 31
0.0
1001
ACDBBLOCKREPETAG
1070
     1
1071
       43
1005
12275F
  0
LINE
  5
122760
  8
OBJECT
 10
9920.0
 20
-757.9999999999942
 30
0.0
 11
10080.0
 21
-757.9999999999942
 31
0.0
1001
ACDBBLOCKREPETAG
1070
     1
1071
       44
1005
122760
  0
LINE
  5
122761
  8
OBJECT
 10
10080.0
 20
-633.99999999999432
 30
0.0
 11
9920.0
 21
-633.99999999999432
 31
0.0
1001
ACDBBLOCKREPETAG
1070
     1
1071
       45
1005
122761
  0
LINE
  5
122762
  8
OBJECT
 10
9920.0
 20
-757.9999999999942
 30
0.0
 11
9920.0
 21
-769.9999999999942
 31
0.0
1001
ACDBBLOCKREPETAG
1070
     1
1071
       46
1005
122762
  0
LINE
  5
122763
  8
OBJECT
 10
9920.0
 20
-769.9999999999942
 30
0.0
 11
10080.0
 21
-769.9999999999942
 31
0.0
1001
ACDBBLOCKREPETAG
1070
     1
1071
       47
1005
122763
  0
LINE
  5
122764
  8
OBJECT
 10
10080.0
 20
-769.9999999999942
 30
0.0
 11
10080.0
 21
-757.9999999999942
 31
0.0
1001
ACDBBLOCKREPETAG
1070
     1
1071
       48
1005
122764
  0
ARC
  5
122765
  8
OBJECT
 10
10200.687274671671
 20
-749.40809941010195
 30
0.0
 40
170.6350503965856
 50
137.44134459184301
 51
149.91949581337221
1001
ACDBBLOCKREPETAG
1070
     1
1071
       52
1005
122765
  0
ARC
  5
122766
  8
OBJECT
 10
10200.687274671671
 20
-642.59190058988645
 30
0.0
 40
170.6350503965856
 50
210.08050418662771
 51
222.55865540815699
1001
ACDBBLOCKREPETAG
1070
     1
1071
       53
1005
122766
  0
ARC
  5
122767
  8
OBJECT
 10
9799.3127253283274
 20
-749.40809941010195
 30
0.0
 40
170.6350503965856
 50
30.080504186787142
 51
42.558655408456282
1001
ACDBBLOCKREPETAG
1070
     1
1071
       54
1005
122767
  0
ARC
  5
122768
  8
OBJECT
 10
9799.3127253283274
 20
-642.59190058988645
 30
0.0
 40
170.6350503965856
 50
317.44134459154373
 51
329.9194958132129
1001
ACDBBLOCKREPETAG
1070
     1
1071
       55
1005
122768
  0
POINT
  5
122769
  8
DOTS
 10
10000.0
 20
-754.9999999999942
 30
0.0
1001
ACDBBLOCKREPETAG
1070
     1
1071
      184
1005
122769
  0
LINE
  5
12276A
  8
SLIM
 10
9945.2566704261044
 20
-137.99999999999909
 30
0.0
 11
9955.9548403695771
 21
-127.30183005652231
 31
0.0
1001
GRADIENTCOLOR1ACI
1070
     5
1001
GRADIENTCOLOR2ACI
1070
     2
1001
ACAD
1010
0.0
1020
0.0
1030
0.0
1001
ACDBBLOCKREPETAG
1070
     1
1071
      428
1005
12276A
  0
LINE
  5
12276B
  8
SLIM
 10
9954.2369265471734
 20
-137.99999999999909
 30
0.0
 11
9972.7507744763316
 21
-119.4861520708364
 31
0.0
1001
GRADIENTCOLOR1ACI
1070
     5
1001
GRADIENTCOLOR2ACI
1070
     2
1001
ACAD
1010
0.0
1020
0.0
1030
0.0
1001
ACDBBLOCKREPETAG
1070
     1
1071
      429
1005
12276B
  0
LINE
  5
12276C
  8
SLIM
 10
9973.5212243124606
 20
-127.6959583557812
 30
0.0
 11
9984.8575146748644
 21
-116.359667993377
 31
0.0
1001
GRADIENTCOLOR1ACI
1070
     5
1001
GRADIENTCOLOR2ACI
1070
     2
1001
ACAD
1010
0.0
1020
0.0
1030
0.0
1001
ACDBBLOCKREPETAG
1070
     1
1071
      430
1005
12276C
  0
LINE
  5
12276D
  8
SLIM
 10
9985.8944171461262
 20
-124.30302164318159
 30
0.0
 11
9995.0533812002577
 21
-115.1440575890517
 31
0.0
1001
GRADIENTCOLOR1ACI
1070
     5
1001
GRADIENTCOLOR2ACI
1070
     2
1001
ACAD
1010
0.0
1020
0.0
1030
0.0
1001
ACDBBLOCKREPETAG
1070
     1
1071
      431
1005
12276D
  0
LINE
  5
12276E
  8
SLIM
 10
9996.0777327492033
 20
-123.0999621611699
 30
0.0
 11
10000.0
 21
-119.1776949103767
 31
0.0
1001
GRADIENTCOLOR1ACI
1070
     5
1001
GRADIENTCOLOR2ACI
1070
     2
1001
ACAD
1010
0.0
1020
0.0
1030
0.0
1001
ACDBBLOCKREPETAG
1070
     1
1071
      432
1005
12276E
  0
LINE
  5
12276F
  8
SLIM
 10
10000.0
 20
-119.1776949103767
 30
0.0
 11
10004.0797313529
 21
-115.0979635574724
 31
0.0
1001
GRADIENTCOLOR1ACI
1070
     5
1001
GRADIENTCOLOR2ACI
1070
     2
1001
ACAD
1010
0.0
1020
0.0
1030
0.0
1001
ACDBBLOCKREPETAG
1070
     1
1071
      433
1005
12276F
  0
LINE
  5
122770
  8
SLIM
 10
10004.99572025427
 20
-123.1622307771683
 30
0.0
 11
10012.26797841056
 21
-115.88997262087101
 31
0.0
1001
GRADIENTCOLOR1ACI
1070
     5
1001
GRADIENTCOLOR2ACI
1070
     2
1001
ACAD
1010
0.0
1020
0.0
1030
0.0
1001
ACDBBLOCKREPETAG
1070
     1
1071
      434
1005
122770
  0
LINE
  5
122771
  8
SLIM
 10
10013.028059366959
 20
-124.1101477855505
 30
0.0
 11
10019.799941457361
 21
-117.3382656951526
 31
0.0
1001
GRADIENTCOLOR1ACI
1070
     5
1001
GRADIENTCOLOR2ACI
1070
     2
1001
ACAD
1010
0.0
1020
0.0
1030
0.0
1001
ACDBBLOCKREPETAG
1070
     1
1071
      435
1005
122771
  0
LINE
  5
122772
  8
SLIM
 10
10020.374081314239
 20
-125.7443819593383
 30
0.0
 11
10026.787203867279
 21
-119.3312594063044
 31
0.0
1001
GRADIENTCOLOR1ACI
1070
     5
1001
GRADIENTCOLOR2ACI
1070
     2
1001
ACAD
1010
0.0
1020
0.0
1030
0.0
1001
ACDBBLOCKREPETAG
1070
     1
1071
      436
1005
122772
  0
LINE
  5
122773
  8
SLIM
 10
10027.15247199887
 20
-127.946247395778
 30
0.0
 11
10033.303003076029
 21
-121.7957163186195
 31
0.0
1001
GRADIENTCOLOR1ACI
1070
     5
1001
GRADIENTCOLOR2ACI
1070
     2
1001
ACAD
1010
0.0
1020
0.0
1030
0.0
1001
ACDBBLOCKREPETAG
1070
     1
1071
      437
1005
122773
  0
LINE
  5
122774
  8
SLIM
 10
10033.43909865133
 20
-130.63987686439191
 30
0.0
 11
10039.39731198437
 21
-124.6816635313439
 31
0.0
1001
GRADIENTCOLOR1ACI
1070
     5
1001
GRADIENTCOLOR2ACI
1070
     2
1001
ACAD
1010
0.0
1020
0.0
1030
0.0
1001
ACDBBLOCKREPETAG
1070
     1
1071
      438
1005
122774
  0
LINE
  5
122775
  8
SLIM
 10
10039.284224621801
 20
-133.77500701499321
 30
0.0
 11
10045.104770534361
 21
-127.95446110242381
 31
0.0
1001
GRADIENTCOLOR1ACI
1070
     5
1001
GRADIENTCOLOR2ACI
1070
     2
1001
ACAD
1010
0.0
1020
0.0
1030
0.0
1001
ACDBBLOCKREPETAG
1070
     1
1071
      439
1005
122775
  0
LINE
  5
122776
  8
SLIM
 10
10044.721280169801
 20
-137.31820758805651
 30
0.0
 11
10050.449155789191
 21
-131.59033196866449
 31
0.0
1001
GRADIENTCOLOR1ACI
1070
     5
1001
GRADIENTCOLOR2ACI
1070
     2
1001
ACAD
1010
0.0
1020
0.0
1030
0.0
1001
ACDBBLOCKREPETAG
1070
     1
1071
      440
1005
122776
  0
LINE
  5
122777
  8
SLIM
 10
10053.019743878929
 20
-137.99999999999909
 30
0.0
 11
10055.445994186401
 21
-135.57374969252561
 31
0.0
1001
GRADIENTCOLOR1ACI
1070
     5
1001
GRADIENTCOLOR2ACI
1070
     2
1001
ACAD
1010
0.0
1020
0.0
1030
0.0
1001
ACDBBLOCKREPETAG
1070
     1
1071
      441
1005
122777
  0
LINE
  5
122778
  8
CENTER
 10
10000.0
 20
-279.99999999999909
 30
0.0
 11
10000.0
 21
-99.999999999999091
 31
0.0
1001
ACDBBLOCKREPETAG
1070
     1
1071
      160
1005
122778
  0
CIRCLE
  5
122779
  8
OBJECT
 10
10000.0
 20
-199.99999999999909
 30
0.0
 40
70.0
1001
ACDBBLOCKREPETAG
1070
     1
1071
      161
1005
122779
  0
CIRCLE
  5
12277A
  8
OBJECT
 10
10000.0
 20
-199.99999999999909
 30
0.0
 40
77.0
1001
ACDBBLOCKREPETAG
1070
     1
1071
      162
1005
12277A
  0
LINE
  5
12277B
  8
OBJECT
 10
10045.661800227321
 20
-137.99999999999909
 30
0.0
 11
10080.0
 21
-137.99999999999909
 31
0.0
1001
ACDBBLOCKREPETAG
1070
     1
1071
      164
1005
12277B
  0
LINE
  5
12277C
  8
OBJECT
 10
10062.0
 20
-261.99999999999909
 30
0.0
 11
10080.0
 21
-261.99999999999909
 31
0.0
1001
ACDBBLOCKREPETAG
1070
     1
1071
      165
1005
12277C
  0
LINE
  5
12277D
  8
OBJECT
 10
10062.0
 20
-261.99999999999909
 30
0.0
 11
10062.0
 21
-279.99999999999909
 31
0.0
1001
ACDBBLOCKREPETAG
1070
     1
1071
      167
1005
12277D
  0
LINE
  5
12277E
  8
OBJECT
 10
9938.0
 20
-261.99999999999909
 30
0.0
 11
9938.0
 21
-279.99999999999909
 31
0.0
1001
ACDBBLOCKREPETAG
1070
     1
1071
      168
1005
12277E
  0
LINE
  5
12277F
  8
OBJECT
 10
9938.0
 20
-261.99999999999909
 30
0.0
 11
9920.0
 21
-261.99999999999909
 31
0.0
1001
ACDBBLOCKREPETAG
1070
     1
1071
      170
1005
12277F
  0
LINE
  5
122780
  8
OBJECT
 10
9954.3381997726756
 20
-137.99999999999909
 30
0.0
 11
9920.0
 21
-137.99999999999909
 31
0.0
1001
ACDBBLOCKREPETAG
1070
     1
1071
      171
1005
122780
  0
LINE
  5
122781
  8
OBJECT
 10
9945.5527778486357
 20
-254.44722215136329
 30
0.0
 11
9938.0
 21
-261.99999999999909
 31
0.0
1001
ACDBBLOCKREPETAG
1070
     1
1071
      180
1005
122781
  0
LINE
  5
122782
  8
OBJECT
 10
10054.447222151361
 20
-254.44722215136329
 30
0.0
 11
10062.0
 21
-261.99999999999909
 31
0.0
1001
ACDBBLOCKREPETAG
1070
     1
1071
      181
1005
122782
  0
ARC
  5
122783
  8
OBJECT
 10
10000.0
 20
-199.99999999999909
 30
0.0
 40
85.0
 50
46.837102859844251
 51
133.16289714015571
1001
ACDBBLOCKREPETAG
1070
     1
1071
      183
1005
122783
  0
LINE
  5
122784
  8
OBJECT
 10
10024.1029330933
 20
-243.80694712371681
 30
0.0
 11
10020.659656999989
 21
-232.55462199999889
 31
0.0
1001
ACDBBLOCKREPETAG
1070
     1
1071
      314
1005
122784
  0
LINE
  5
122785
  8
OBJECT
 10
9986.7927499013749
 20
-218.22553374208019
 30
0.0
 11
10020.659656999989
 21
-232.5546219999969
 31
0.0
1001
ACDBBLOCKREPETAG
1070
     1
1071
      316
1005
122785
  0
ARC
  5
122786
  8
OBJECT
 10
9982.8961697618997
 20
-227.4351299990567
 30
0.0
 40
10.0
 50
67.066778292911366
 51
154.01473437031629
1001
ACDBBLOCKREPETAG
1070
     1
1071
      317
1005
122786
  0
ARC
  5
122787
  8
OBJECT
 10
9986.1488390381292
 20
-225.55386256729159
 30
0.0
 40
7.0
 50
67.066778292911366
 51
154.0147337749826
1001
ACDBBLOCKREPETAG
1070
     1
1071
      318
1005
122787
  0
LINE
  5
122788
  8
OBJECT
 10
9969.4199755553
 20
-243.89888500818171
 30
0.0
 11
9979.8564918232369
 21
-222.48688253356801
 31
0.0
1001
ACDBBLOCKREPETAG
1070
     1
1071
      349
1005
122788
  0
LINE
  5
122789
  8
OBJECT
 10
9965.2972169006098
 20
-240.71813901882729
 30
0.0
 11
9973.9071022665084
 21
-223.05373004430751
 31
0.0
1001
ACDBBLOCKREPETAG
1070
     1
1071
      350
1005
122789
  0
ARC
  5
12278A
  8
OBJECT
 10
9976.5796953073132
 20
-207.1289369828437
 30
0.0
 40
60.031113246032611
 50
314.07020130422319
 51
322.33936106089681
1001
ACDBBLOCKREPETAG
1070
     1
1071
      351
1005
12278A
  0
CIRCLE
  5
12278B
  8
OBJECT
 10
10000.0
 20
-199.99999999999909
 30
0.0
 40
53.5
1001
ACDBBLOCKREPETAG
1070
     1
1071
      352
1005
12278B
  0
POINT
  5
12278C
  8
DOTS
 10
10000.0
 20
-199.99999999999909
 30
0.0
 50
270.0
1001
ACDBBLOCKREPETAG
1070
     1
1071
      364
1005
12278C
  0
ARC
  5
12278D
  8
OBJECT
 10
10000.0
 20
-199.99999999999909
 30
0.0
 40
50.0
 50
298.81994300000417
 51
228.5237695596397
1001
ACDBBLOCKREPETAG
1070
     1
1071
      157
1005
12278D
  0
LINE
  5
12278E
  8
CENTER
 10
10080.0
 20
-199.99999999999909
 30
0.0
 11
9920.0
 21
-199.99999999999909
 31
0.0
1001
ACDBBLOCKREPETAG
1070
     1
1071
      158
1005
12278E
  0
LINE
  5
12278F
  8
OBJECT
 10
9797.0000000000127
 20
-261.99999999999909
 30
0.0
 11
9790.0000000000127
 21
-261.99999999999909
 31
0.0
1001
ACDBBLOCKREPETAG
1070
     1
1071
       85
1005
12278F
  0
LINE
  5
122790
  8
OBJECT
 10
9790.0000000000127
 20
-261.99999999999909
 30
0.0
 11
9790.0000000000127
 21
-137.99999999999909
 31
0.0
1001
ACDBBLOCKREPETAG
1070
     1
1071
       86
1005
122790
  0
LINE
  5
122791
  8
OBJECT
 10
9790.0000000000127
 20
-137.99999999999909
 30
0.0
 11
9797.0000000000127
 21
-137.99999999999909
 31
0.0
1001
ACDBBLOCKREPETAG
1070
     1
1071
       87
1005
122791
  0
LINE
  5
122792
  8
OBJECT
 10
9797.0000000000127
 20
-137.99999999999909
 30
0.0
 11
9797.0000000000127
 21
-261.99999999999909
 31
0.0
1001
ACDBBLOCKREPETAG
1070
     1
1071
       88
1005
122792
  0
LINE
  5
122793
  8
CENTER
 10
9775.0000000000127
 20
-199.99999999999909
 30
0.0
 11
9920.0
 21
-199.99999999999909
 31
0.0
1001
ACDBBLOCKREPETAG
1070
     1
1071
       89
1005
122793
  0
LINE
  5
122794
  8
OBJECT
 10
9850.0000250358116
 20
-154.9999999999954
 30
0.0
 11
9914.0
 21
-154.99999999999909
 31
0.0
1001
ACDBBLOCKREPETAG
1070
     1
1071
       90
1005
122794
  0
LINE
  5
122795
  8
OBJECT
 10
9850.0000250358116
 20
-244.99999999999909
 30
0.0
 11
9914.0
 21
-244.99999999999909
 31
0.0
1001
ACDBBLOCKREPETAG
1070
     1
1071
       91
1005
122795
  0
LINE
  5
122796
  8
OBJECT
 10
9797.0000000000127
 20
-258.99999999999909
 30
0.0
 11
9833.0000000000164
 21
-258.99999999999909
 31
0.0
1001
ACDBBLOCKREPETAG
1070
     1
1071
       92
1005
122796
  0
LINE
  5
122797
  8
OBJECT
 10
9833.0000000000164
 20
-258.99999999999909
 30
0.0
 11
9833.0000000000164
 21
-140.99999999999909
 31
0.0
1001
ACDBBLOCKREPETAG
1070
     1
1071
       93
1005
122797
  0
LINE
  5
122798
  8
OBJECT
 10
9833.0000000000164
 20
-140.99999999999909
 30
0.0
 11
9797.0000000000127
 21
-140.99999999999909
 31
0.0
1001
ACDBBLOCKREPETAG
1070
     1
1071
       94
1005
122798
  0
LINE
  5
122799
  8
OBJECT
 10
9837.0000000000127
 20
-254.49999999999909
 30
0.0
 11
9850.0000000000127
 21
-254.49999999999909
 31
0.0
1001
ACDBBLOCKREPETAG
1070
     1
1071
       95
1005
122799
  0
LINE
  5
12279A
  8
OBJECT
 10
9850.0000000000127
 20
-145.49999999999909
 30
0.0
 11
9837.0000000000127
 21
-145.49999999999909
 31
0.0
1001
ACDBBLOCKREPETAG
1070
     1
1071
       96
1005
12279A
  0
LINE
  5
12279B
  8
OBJECT
 10
9837.0000000000127
 20
-145.49999999999909
 30
0.0
 11
9837.0000000000127
 21
-254.49999999999909
 31
0.0
1001
ACDBBLOCKREPETAG
1070
     1
1071
       97
1005
12279B
  0
LINE
  5
12279C
  8
OBJECT
 10
9833.0000000000164
 20
-258.99999999999909
 30
0.0
 11
9837.0000000000127
 21
-254.49999999999909
 31
0.0
1001
ACDBBLOCKREPETAG
1070
     1
1071
       98
1005
12279C
  0
LINE
  5
12279D
  8
OBJECT
 10
9833.0000000000164
 20
-140.99999999999909
 30
0.0
 11
9837.0000000000127
 21
-145.49999999999909
 31
0.0
1001
ACDBBLOCKREPETAG
1070
     1
1071
       99
1005
12279D
  0
LINE
  5
12279E
  8
OBJECT
 10
9917.0
 20
-261.99999999999909
 30
0.0
 11
9920.0
 21
-261.99999999999909
 31
0.0
1001
ACDBBLOCKREPETAG
1070
     1
1071
      100
1005
12279E
  0
ARC
  5
12279F
  8
OBJECT
 10
9917.0
 20
-258.99999999999909
 30
0.0
 40
3.0
 50
180.0
 51
270.0
1001
ACDBBLOCKREPETAG
1070
     1
1071
      101
1005
12279F
  0
LINE
  5
1227A0
  8
OBJECT
 10
9920.0
 20
-137.99999999999909
 30
0.0
 11
9917.0
 21
-137.99999999999909
 31
0.0
1001
ACDBBLOCKREPETAG
1070
     1
1071
      102
1005
1227A0
  0
ARC
  5
1227A1
  8
OBJECT
 10
9917.0
 20
-140.99999999999909
 30
0.0
 40
3.0
 50
90.0
 51
180.0
1001
ACDBBLOCKREPETAG
1070
     1
1071
      103
1005
1227A1
  0
LINE
  5
1227A2
  8
OBJECT
 10
9914.0
 20
-140.99999999999909
 30
0.0
 11
9914.0
 21
-189.6772096796403
 31
0.0
1001
ACDBBLOCKREPETAG
1070
     1
1071
      104
1005
1227A2
  0
LINE
  5
1227A3
  8
OBJECT
 10
9914.0
 20
-210.3227903203578
 30
0.0
 11
9914.0
 21
-258.99999999999909
 31
0.0
1001
ACDBBLOCKREPETAG
1070
     1
1071
      105
1005
1227A3
  0
LINE
  5
1227A4
  8
HIDDEN
 10
9842.0000000000127
 20
-244.49999999999909
 30
0.0
 11
9842.0000000000127
 21
-155.49999999999909
 31
0.0
1001
ACDBBLOCKREPETAG
1070
     1
1071
      106
1005
1227A4
  0
LINE
  5
1227A5
  8
OBJECT
 10
9850.0000250358116
 20
-145.50004907618759
 30
0.0
 11
9850.0000250358116
 21
-254.50004907618771
 31
0.0
1001
ACDBBLOCKREPETAG
1070
     1
1071
      108
1005
1227A5
  0
ARC
  5
1227A6
  8
OBJECT
 10
9870.1999999999753
 20
-199.99999999999909
 30
0.0
 40
45.000000000000547
 50
270.0
 51
90.0
1001
ACDBBLOCKREPETAG
1070
     1
1071
      109
1005
1227A6
  0
LINE
  5
1227A7
  8
CENTER
 10
10000.0
 20
-300.99999999999898
 30
0.0
 11
10000.0
 21
-279.99999999999909
 31
0.0
1001
ACDBBLOCKREPETAG
1070
     1
1071
        0
1005
1227A7
  0
LINE
  5
1227A8
  8
OBJECT
 10
10062.0
 20
-283.0
 30
0.0
 11
10062.0
 21
-279.99999999999909
 31
0.0
1001
ACDBBLOCKREPETAG
1070
     1
1071
        1
1005
1227A8
  0
ARC
  5
1227A9
  8
OBJECT
 10
10059.0
 20
-283.0
 30
0.0
 40
3.0
 50
270.0
 51
0.0
1001
ACDBBLOCKREPETAG
1070
     1
1071
        2
1005
1227A9
  0
LINE
  5
1227AA
  8
OBJECT
 10
9938.0
 20
-279.99999999999909
 30
0.0
 11
9938.0
 21
-282.99999999999818
 31
0.0
1001
ACDBBLOCKREPETAG
1070
     1
1071
        3
1005
1227AA
  0
ARC
  5
1227AB
  8
OBJECT
 10
9941.0
 20
-282.99999999999818
 30
0.0
 40
3.0
 50
180.0
 51
270.0
1001
ACDBBLOCKREPETAG
1070
     1
1071
        4
1005
1227AB
  0
LINE
  5
1227AC
  8
OBJECT
 10
9941.0
 20
-285.99999999999818
 30
0.0
 11
10059.0
 21
-286.0
 31
0.0
1001
ACDBBLOCKREPETAG
1070
     1
1071
        5
1005
1227AC
  0
LINE
  5
1227AD
  8
OBJECT
 10
10202.99999999998
 20
-137.99999999999909
 30
0.0
 11
10209.99999999998
 21
-137.99999999999909
 31
0.0
1001
ACDBBLOCKREPETAG
1070
     1
1071
       85
1005
1227AD
  0
LINE
  5
1227AE
  8
OBJECT
 10
10209.99999999998
 20
-137.99999999999909
 30
0.0
 11
10209.99999999998
 21
-261.99999999999909
 31
0.0
1001
ACDBBLOCKREPETAG
1070
     1
1071
       86
1005
1227AE
  0
LINE
  5
1227AF
  8
OBJECT
 10
10209.99999999998
 20
-261.99999999999909
 30
0.0
 11
10202.99999999998
 21
-261.99999999999909
 31
0.0
1001
ACDBBLOCKREPETAG
1070
     1
1071
       87
1005
1227AF
  0
LINE
  5
1227B0
  8
OBJECT
 10
10202.99999999998
 20
-261.99999999999909
 30
0.0
 11
10202.99999999998
 21
-137.99999999999909
 31
0.0
1001
ACDBBLOCKREPETAG
1070
     1
1071
       88
1005
1227B0
  0
LINE
  5
1227B1
  8
CENTER
 10
10224.99999999998
 20
-199.99999999999909
 30
0.0
 11
10080.0
 21
-199.99999999999909
 31
0.0
1001
ACDBBLOCKREPETAG
1070
     1
1071
       89
1005
1227B1
  0
LINE
  5
1227B2
  8
OBJECT
 10
10149.99997496419
 20
-245.0000000000027
 30
0.0
 11
10086.0
 21
-244.99999999999909
 31
0.0
1001
ACDBBLOCKREPETAG
1070
     1
1071
       90
1005
1227B2
  0
LINE
  5
1227B3
  8
OBJECT
 10
10149.99997496419
 20
-154.99999999999909
 30
0.0
 11
10086.0
 21
-154.99999999999909
 31
0.0
1001
ACDBBLOCKREPETAG
1070
     1
1071
       91
1005
1227B3
  0
LINE
  5
1227B4
  8
OBJECT
 10
10202.99999999998
 20
-140.99999999999909
 30
0.0
 11
10166.99999999998
 21
-140.99999999999909
 31
0.0
1001
ACDBBLOCKREPETAG
1070
     1
1071
       92
1005
1227B4
  0
LINE
  5
1227B5
  8
OBJECT
 10
10166.99999999998
 20
-140.99999999999909
 30
0.0
 11
10166.99999999998
 21
-258.99999999999909
 31
0.0
1001
ACDBBLOCKREPETAG
1070
     1
1071
       93
1005
1227B5
  0
LINE
  5
1227B6
  8
OBJECT
 10
10166.99999999998
 20
-258.99999999999909
 30
0.0
 11
10202.99999999998
 21
-258.99999999999909
 31
0.0
1001
ACDBBLOCKREPETAG
1070
     1
1071
       94
1005
1227B6
  0
LINE
  5
1227B7
  8
OBJECT
 10
10162.99999999998
 20
-145.49999999999909
 30
0.0
 11
10149.99999999998
 21
-145.49999999999909
 31
0.0
1001
ACDBBLOCKREPETAG
1070
     1
1071
       95
1005
1227B7
  0
LINE
  5
1227B8
  8
OBJECT
 10
10149.99999999998
 20
-254.49999999999909
 30
0.0
 11
10162.99999999998
 21
-254.49999999999909
 31
0.0
1001
ACDBBLOCKREPETAG
1070
     1
1071
       96
1005
1227B8
  0
LINE
  5
1227B9
  8
OBJECT
 10
10162.99999999998
 20
-254.49999999999909
 30
0.0
 11
10162.99999999998
 21
-145.49999999999909
 31
0.0
1001
ACDBBLOCKREPETAG
1070
     1
1071
       97
1005
1227B9
  0
LINE
  5
1227BA
  8
OBJECT
 10
10166.99999999998
 20
-140.99999999999909
 30
0.0
 11
10162.99999999998
 21
-145.49999999999909
 31
0.0
1001
ACDBBLOCKREPETAG
1070
     1
1071
       98
1005
1227BA
  0
LINE
  5
1227BB
  8
OBJECT
 10
10166.99999999998
 20
-258.99999999999909
 30
0.0
 11
10162.99999999998
 21
-254.49999999999909
 31
0.0
1001
ACDBBLOCKREPETAG
1070
     1
1071
       99
1005
1227BB
  0
LINE
  5
1227BC
  8
OBJECT
 10
10083.0
 20
-137.99999999999909
 30
0.0
 11
10080.0
 21
-137.99999999999909
 31
0.0
1001
ACDBBLOCKREPETAG
1070
     1
1071
      100
1005
1227BC
  0
ARC
  5
1227BD
  8
OBJECT
 10
10083.0
 20
-140.99999999999909
 30
0.0
 40
3.0
 50
0.0
 51
90.0
1001
ACDBBLOCKREPETAG
1070
     1
1071
      101
1005
1227BD
  0
LINE
  5
1227BE
  8
OBJECT
 10
10080.0
 20
-261.99999999999909
 30
0.0
 11
10083.0
 21
-261.99999999999909
 31
0.0
1001
ACDBBLOCKREPETAG
1070
     1
1071
      102
1005
1227BE
  0
ARC
  5
1227BF
  8
OBJECT
 10
10083.0
 20
-258.99999999999909
 30
0.0
 40
3.0
 50
270.0
 51
0.0
1001
ACDBBLOCKREPETAG
1070
     1
1071
      103
1005
1227BF
  0
LINE
  5
1227C0
  8
OBJECT
 10
10086.0
 20
-258.99999999999909
 30
0.0
 11
10086.0
 21
-210.3227903203578
 31
0.0
1001
ACDBBLOCKREPETAG
1070
     1
1071
      104
1005
1227C0
  0
LINE
  5
1227C1
  8
OBJECT
 10
10086.0
 20
-189.6772096796403
 30
0.0
 11
10086.0
 21
-140.99999999999909
 31
0.0
1001
ACDBBLOCKREPETAG
1070
     1
1071
      105
1005
1227C1
  0
LINE
  5
1227C2
  8
HIDDEN
 10
10157.99999999998
 20
-155.49999999999909
 30
0.0
 11
10157.99999999998
 21
-244.49999999999909
 31
0.0
1001
ACDBBLOCKREPETAG
1070
     1
1071
      106
1005
1227C2
  0
LINE
  5
1227C3
  8
OBJECT
 10
10149.99997496419
 20
-254.4999509238105
 30
0.0
 11
10149.99997496419
 21
-145.4999509238105
 31
0.0
1001
ACDBBLOCKREPETAG
1070
     1
1071
      108
1005
1227C3
  0
ARC
  5
1227C4
  8
OBJECT
 10
10129.800000000019
 20
-199.99999999999909
 30
0.0
 40
45.000000000000547
 50
90.0
 51
270.0
1001
ACDBBLOCKREPETAG
1070
     1
1071
      109
1005
1227C4
  0
LINE
  5
1227C5
  8
OBJECT
 10
9797.0000000000127
 20
-583.0
 30
0.0
 11
9790.0000000000127
 21
-583.0
 31
0.0
1001
ACDBBLOCKREPETAG
1070
     1
1071
       83
1005
1227C5
  0
LINE
  5
1227C6
  8
OBJECT
 10
9790.0000000000127
 20
-583.0
 30
0.0
 11
9790.0000000000127
 21
-707.0
 31
0.0
1001
ACDBBLOCKREPETAG
1070
     1
1071
       84
1005
1227C6
  0
LINE
  5
1227C7
  8
OBJECT
 10
9914.0000000000127
 20
-653.3502637757274
 30
0.0
 11
9914.0000000000127
 21
-755.00000000000102
 31
0.0
1001
ACDBBLOCKREPETAG
1070
     1
1071
       85
1005
1227C7
  0
LINE
  5
1227C8
  8
OBJECT
 10
9790.0000000000127
 20
-707.0
 30
0.0
 11
9797.0000000000127
 21
-707.0
 31
0.0
1001
ACDBBLOCKREPETAG
1070
     1
1071
       86
1005
1227C8
  0
LINE
  5
1227C9
  8
OBJECT
 10
9797.0000000000127
 20
-707.0
 30
0.0
 11
9797.0000000000127
 21
-583.0
 31
0.0
1001
ACDBBLOCKREPETAG
1070
     1
1071
       87
1005
1227C9
  0
LINE
  5
1227CA
  8
CENTER
 10
9865.0000000000164
 20
-645.0000000000008
 30
0.0
 11
9775.0000000000127
 21
-645.0
 31
0.0
1001
ACDBBLOCKREPETAG
1070
     1
1071
       88
1005
1227CA
  0
LINE
  5
1227CB
  8
OBJECT
 10
9920.0000000000182
 20
-758.0
 30
0.0
 11
9917.0000000000146
 21
-758.0000000000008
 31
0.0
1001
ACDBBLOCKREPETAG
1070
     1
1071
       89
1005
1227CB
  0
ARC
  5
1227CC
  8
OBJECT
 10
9917.0000000000146
 20
-755.00000000000102
 30
0.0
 40
3.0
 50
180.0
 51
270.0
1001
ACDBBLOCKREPETAG
1070
     1
1071
       90
1005
1227CC
  0
LINE
  5
1227CD
  8
OBJECT
 10
9797.0000000000127
 20
-586.0
 30
0.0
 11
9833.0000000000164
 21
-586.0000000000008
 31
0.0
1001
ACDBBLOCKREPETAG
1070
     1
1071
       91
1005
1227CD
  0
LINE
  5
1227CE
  8
OBJECT
 10
9833.0000000000164
 20
-586.0000000000008
 30
0.0
 11
9833.0000000000164
 21
-704.0000000000008
 31
0.0
1001
ACDBBLOCKREPETAG
1070
     1
1071
       92
1005
1227CE
  0
LINE
  5
1227CF
  8
OBJECT
 10
9837.0000000000127
 20
-590.5000000000008
 30
0.0
 11
9837.0000000000127
 21
-699.5000000000008
 31
0.0
1001
ACDBBLOCKREPETAG
1070
     1
1071
       93
1005
1227CF
  0
LINE
  5
1227D0
  8
OBJECT
 10
9837.0000000000127
 20
-590.5000000000008
 30
0.0
 11
9850.0000000000127
 21
-590.5000000000008
 31
0.0
1001
ACDBBLOCKREPETAG
1070
     1
1071
       94
1005
1227D0
  0
LINE
  5
1227D1
  8
OBJECT
 10
9833.0000000000164
 20
-704.0000000000008
 30
0.0
 11
9797.0000000000127
 21
-704.0
 31
0.0
1001
ACDBBLOCKREPETAG
1070
     1
1071
       95
1005
1227D1
  0
LINE
  5
1227D2
  8
OBJECT
 10
9833.0000000000164
 20
-586.0000000000008
 30
0.0
 11
9837.0000000000127
 21
-590.5000000000008
 31
0.0
1001
ACDBBLOCKREPETAG
1070
     1
1071
       96
1005
1227D2
  0
LINE
  5
1227D3
  8
OBJECT
 10
9850.0000000000127
 20
-590.5000000000008
 30
0.0
 11
9850.0000000000127
 21
-675.74491827928784
 31
0.0
1001
ACDBBLOCKREPETAG
1070
     1
1071
       97
1005
1227D3
  0
ARC
  5
1227D4
  8
OBJECT
 10
9847.2000000000153
 20
-685.0000000000008
 30
0.0
 40
85.0
 50
36.869897645906562
 51
88.112268108168848
1001
ACDBBLOCKREPETAG
1070
     1
1071
       98
1005
1227D4
  0
LINE
  5
1227D5
  8
HIDDEN
 10
9842.0000000000127
 20
-600.50000000000068
 30
0.0
 11
9842.0000000000127
 21
-689.50000000000091
 31
0.0
1001
ACDBBLOCKREPETAG
1070
     1
1071
      100
1005
1227D5
  0
LINE
  5
1227D6
  8
OBJECT
 10
9914.0000000000127
 20
-751.07945073181781
 30
0.0
 11
9843.3686800789692
 21
-699.5000000000008
 31
0.0
1001
ACDBBLOCKREPETAG
1070
     1
1071
      101
1005
1227D6
  0
LINE
  5
1227D7
  8
OBJECT
 10
9920.0000000000182
 20
-634.0
 30
0.0
 11
9915.2000000000153
 21
-634.0
 31
0.0
1001
ACDBBLOCKREPETAG
1070
     1
1071
      102
1005
1227D7
  0
LINE
  5
1227D8
  8
OBJECT
 10
9914.0000000000127
 20
-653.35026377573013
 30
0.0
 11
9915.2000000000153
 21
-634.0
 31
0.0
1001
ACDBBLOCKREPETAG
1070
     1
1071
      103
1005
1227D8
  0
LINE
  5
1227D9
  8
OBJECT
 10
9837.0000000000127
 20
-699.5000000000008
 30
0.0
 11
9843.3686800789692
 21
-699.5000000000008
 31
0.0
1001
ACDBBLOCKREPETAG
1070
     1
1071
      104
1005
1227D9
  0
LINE
  5
1227DA
  8
OBJECT
 10
9833.0000000000164
 20
-704.0000000000008
 30
0.0
 11
9837.0000000000127
 21
-699.5000000000008
 31
0.0
1001
ACDBBLOCKREPETAG
1070
     1
1071
      105
1005
1227DA
  0
CIRCLE
  5
1227DB
  8
OBJECT
 10
10000.0
 20
-696.0
 30
0.0
 40
62.0
1001
ACDBBLOCKREPETAG
1070
     1
1071
        0
1005
1227DB
  0
LINE
  5
1227DC
  8
OBJECT
 10
10202.99999999998
 20
-583.0000000000008
 30
0.0
 11
10209.99999999998
 21
-583.0000000000008
 31
0.0
1001
ACDBBLOCKREPETAG
1070
     1
1071
       83
1005
1227DC
  0
LINE
  5
1227DD
  8
OBJECT
 10
10209.99999999998
 20
-583.0000000000008
 30
0.0
 11
10209.99999999998
 21
-707.00000000000091
 31
0.0
1001
ACDBBLOCKREPETAG
1070
     1
1071
       84
1005
1227DD
  0
LINE
  5
1227DE
  8
OBJECT
 10
10085.99999999998
 20
-653.3502637757274
 30
0.0
 11
10085.99999999998
 21
-755.00000000000102
 31
0.0
1001
ACDBBLOCKREPETAG
1070
     1
1071
       85
1005
1227DE
  0
LINE
  5
1227DF
  8
OBJECT
 10
10209.99999999998
 20
-707.00000000000091
 30
0.0
 11
10202.99999999998
 21
-707.00000000000091
 31
0.0
1001
ACDBBLOCKREPETAG
1070
     1
1071
       86
1005
1227DF
  0
LINE
  5
1227E0
  8
OBJECT
 10
10202.99999999998
 20
-707.00000000000091
 30
0.0
 11
10202.99999999998
 21
-583.0000000000008
 31
0.0
1001
ACDBBLOCKREPETAG
1070
     1
1071
       87
1005
1227E0
  0
LINE
  5
1227E1
  8
CENTER
 10
10134.99999999998
 20
-645.0000000000008
 30
0.0
 11
10224.99999999998
 21
-645.0000000000008
 31
0.0
1001
ACDBBLOCKREPETAG
1070
     1
1071
       88
1005
1227E1
  0
LINE
  5
1227E2
  8
OBJECT
 10
10079.99999999998
 20
-758.0
 30
0.0
 11
10082.99999999998
 21
-758.0000000000008
 31
0.0
1001
ACDBBLOCKREPETAG
1070
     1
1071
       89
1005
1227E2
  0
ARC
  5
1227E3
  8
OBJECT
 10
10082.99999999998
 20
-755.00000000000102
 30
0.0
 40
3.0
 50
270.0
 51
0.0
1001
ACDBBLOCKREPETAG
1070
     1
1071
       90
1005
1227E3
  0
LINE
  5
1227E4
  8
OBJECT
 10
10202.99999999998
 20
-586.0000000000008
 30
0.0
 11
10166.99999999998
 21
-586.0000000000008
 31
0.0
1001
ACDBBLOCKREPETAG
1070
     1
1071
       91
1005
1227E4
  0
LINE
  5
1227E5
  8
OBJECT
 10
10166.99999999998
 20
-586.0000000000008
 30
0.0
 11
10166.99999999998
 21
-704.0000000000008
 31
0.0
1001
ACDBBLOCKREPETAG
1070
     1
1071
       92
1005
1227E5
  0
LINE
  5
1227E6
  8
OBJECT
 10
10162.99999999998
 20
-590.5000000000008
 30
0.0
 11
10162.99999999998
 21
-699.5000000000008
 31
0.0
1001
ACDBBLOCKREPETAG
1070
     1
1071
       93
1005
1227E6
  0
LINE
  5
1227E7
  8
OBJECT
 10
10162.99999999998
 20
-590.5000000000008
 30
0.0
 11
10149.99999999998
 21
-590.5000000000008
 31
0.0
1001
ACDBBLOCKREPETAG
1070
     1
1071
       94
1005
1227E7
  0
LINE
  5
1227E8
  8
OBJECT
 10
10166.99999999998
 20
-704.0000000000008
 30
0.0
 11
10202.99999999998
 21
-704.0000000000008
 31
0.0
1001
ACDBBLOCKREPETAG
1070
     1
1071
       95
1005
1227E8
  0
LINE
  5
1227E9
  8
OBJECT
 10
10166.99999999998
 20
-586.0000000000008
 30
0.0
 11
10162.99999999998
 21
-590.5000000000008
 31
0.0
1001
ACDBBLOCKREPETAG
1070
     1
1071
       96
1005
1227E9
  0
LINE
  5
1227EA
  8
OBJECT
 10
10149.99999999998
 20
-590.5000000000008
 30
0.0
 11
10149.99999999998
 21
-675.74491827928784
 31
0.0
1001
ACDBBLOCKREPETAG
1070
     1
1071
       97
1005
1227EA
  0
ARC
  5
1227EB
  8
OBJECT
 10
10152.799999999979
 20
-685.0000000000008
 30
0.0
 40
85.0
 50
91.887731891831123
 51
143.1301023540934
1001
ACDBBLOCKREPETAG
1070
     1
1071
       98
1005
1227EB
  0
LINE
  5
1227EC
  8
HIDDEN
 10
10157.99999999998
 20
-600.50000000000068
 30
0.0
 11
10157.99999999998
 21
-689.50000000000091
 31
0.0
1001
ACDBBLOCKREPETAG
1070
     1
1071
      100
1005
1227EC
  0
LINE
  5
1227ED
  8
OBJECT
 10
10085.99999999998
 20
-751.07945073181781
 30
0.0
 11
10156.631319921031
 21
-699.5000000000008
 31
0.0
1001
ACDBBLOCKREPETAG
1070
     1
1071
      101
1005
1227ED
  0
LINE
  5
1227EE
  8
OBJECT
 10
10079.99999999998
 20
-634.0
 30
0.0
 11
10084.799999999979
 21
-634.0
 31
0.0
1001
ACDBBLOCKREPETAG
1070
     1
1071
      102
1005
1227EE
  0
LINE
  5
1227EF
  8
OBJECT
 10
10085.99999999998
 20
-653.35026377573013
 30
0.0
 11
10084.799999999979
 21
-634.0
 31
0.0
1001
ACDBBLOCKREPETAG
1070
     1
1071
      103
1005
1227EF
  0
LINE
  5
1227F0
  8
OBJECT
 10
10162.99999999998
 20
-699.5000000000008
 30
0.0
 11
10156.631319921031
 21
-699.5000000000008
 31
0.0
1001
ACDBBLOCKREPETAG
1070
     1
1071
      104
1005
1227F0
  0
LINE
  5
1227F1
  8
OBJECT
 10
10166.99999999998
 20
-704.0000000000008
 30
0.0
 11
10162.99999999998
 21
-699.5000000000008
 31
0.0
1001
ACDBBLOCKREPETAG
1070
     1
1071
      105
1005
1227F1
  0
LINE
  5
1227F2
  8
OBJECT
 10
7923.0
 20
-570.99999999999432
 30
0.0
 11
7923.0
 21
-549.99999999999432
 31
0.0
1001
ACDBBLOCKREPETAG
1070
     1
1071
       36
1005
1227F2
  0
LINE
  5
1227F3
  8
OBJECT
 10
7923.0
 20
-549.99999999999432
 30
0.0
 11
8077.0
 21
-549.99999999999432
 31
0.0
1001
ACDBBLOCKREPETAG
1070
     1
1071
       37
1005
1227F3
  0
LINE
  5
1227F4
  8
HIDDEN
 10
7943.0
 20
-619.99999999999432
 30
0.0
 11
8057.0
 21
-619.99999999999432
 31
0.0
1001
ACDBBLOCKREPETAG
1070
     1
1071
       38
1005
1227F4
  0
LINE
  5
1227F5
  8
OBJECT
 10
8077.0
 20
-549.99999999999432
 30
0.0
 11
8077.0
 21
-570.99999999999432
 31
0.0
1001
ACDBBLOCKREPETAG
1070
     1
1071
       39
1005
1227F5
  0
LINE
  5
1227F6
  8
OBJECT
 10
8077.0
 20
-570.99999999999432
 30
0.0
 11
7923.0
 21
-570.99999999999432
 31
0.0
1001
ACDBBLOCKREPETAG
1070
     1
1071
       40
1005
1227F6
  0
LINE
  5
1227F7
  8
CENTER
 10
8000.0
 20
-534.99999999999432
 30
0.0
 11
8000.0
 21
-769.9999999999942
 31
0.0
1001
ACDBBLOCKREPETAG
1070
     1
1071
       41
1005
1227F7
  0
LINE
  5
1227F8
  8
OBJECT
 10
7928.0
 20
-570.99999999999432
 30
0.0
 11
7928.0
 21
-633.99999999999432
 31
0.0
1001
ACDBBLOCKREPETAG
1070
     1
1071
       42
1005
1227F8
  0
LINE
  5
1227F9
  8
OBJECT
 10
8072.0
 20
-633.99999999999432
 30
0.0
 11
8072.0
 21
-570.99999999999432
 31
0.0
1001
ACDBBLOCKREPETAG
1070
     1
1071
       43
1005
1227F9
  0
LINE
  5
1227FA
  8
OBJECT
 10
7920.0
 20
-757.9999999999942
 30
0.0
 11
8080.0
 21
-757.9999999999942
 31
0.0
1001
ACDBBLOCKREPETAG
1070
     1
1071
       44
1005
1227FA
  0
LINE
  5
1227FB
  8
OBJECT
 10
8080.0
 20
-633.99999999999432
 30
0.0
 11
7920.0
 21
-633.99999999999432
 31
0.0
1001
ACDBBLOCKREPETAG
1070
     1
1071
       45
1005
1227FB
  0
LINE
  5
1227FC
  8
OBJECT
 10
7920.0
 20
-757.9999999999942
 30
0.0
 11
7920.0
 21
-769.9999999999942
 31
0.0
1001
ACDBBLOCKREPETAG
1070
     1
1071
       46
1005
1227FC
  0
LINE
  5
1227FD
  8
OBJECT
 10
7920.0
 20
-769.9999999999942
 30
0.0
 11
8080.0
 21
-769.9999999999942
 31
0.0
1001
ACDBBLOCKREPETAG
1070
     1
1071
       47
1005
1227FD
  0
LINE
  5
1227FE
  8
OBJECT
 10
8080.0
 20
-769.9999999999942
 30
0.0
 11
8080.0
 21
-757.9999999999942
 31
0.0
1001
ACDBBLOCKREPETAG
1070
     1
1071
       48
1005
1227FE
  0
ARC
  5
1227FF
  8
OBJECT
 10
8200.6872746716726
 20
-749.40809941010195
 30
0.0
 40
170.6350503965856
 50
137.44134459184301
 51
149.91949581337221
1001
ACDBBLOCKREPETAG
1070
     1
1071
       52
1005
1227FF
  0
ARC
  5
122800
  8
OBJECT
 10
8200.6872746716726
 20
-642.59190058988645
 30
0.0
 40
170.6350503965856
 50
210.08050418662771
 51
222.55865540815699
1001
ACDBBLOCKREPETAG
1070
     1
1071
       53
1005
122800
  0
ARC
  5
122801
  8
OBJECT
 10
7799.3127253283265
 20
-749.40809941010195
 30
0.0
 40
170.6350503965856
 50
30.080504186787142
 51
42.558655408456282
1001
ACDBBLOCKREPETAG
1070
     1
1071
       54
1005
122801
  0
ARC
  5
122802
  8
OBJECT
 10
7799.3127253283265
 20
-642.59190058988645
 30
0.0
 40
170.6350503965856
 50
317.44134459154373
 51
329.9194958132129
1001
ACDBBLOCKREPETAG
1070
     1
1071
       55
1005
122802
  0
POINT
  5
122803
  8
DOTS
 10
8000.0
 20
-754.9999999999942
 30
0.0
1001
ACDBBLOCKREPETAG
1070
     1
1071
      184
1005
122803
  0
LINE
  5
122804
  8
SLIM
 10
7945.2566704260989
 20
-137.99999999999909
 30
0.0
 11
7955.9548403695781
 21
-127.30183005652231
 31
0.0
1001
GRADIENTCOLOR1ACI
1070
     5
1001
GRADIENTCOLOR2ACI
1070
     2
1001
ACAD
1010
0.0
1020
0.0
1030
0.0
1001
ACDBBLOCKREPETAG
1070
     1
1071
      428
1005
122804
  0
LINE
  5
122805
  8
SLIM
 10
7954.2369265471707
 20
-137.99999999999909
 30
0.0
 11
7972.7507744763334
 21
-119.4861520708364
 31
0.0
1001
GRADIENTCOLOR1ACI
1070
     5
1001
GRADIENTCOLOR2ACI
1070
     2
1001
ACAD
1010
0.0
1020
0.0
1030
0.0
1001
ACDBBLOCKREPETAG
1070
     1
1071
      429
1005
122805
  0
LINE
  5
122806
  8
SLIM
 10
7973.5212243124561
 20
-127.6959583557812
 30
0.0
 11
7984.8575146748608
 21
-116.359667993377
 31
0.0
1001
GRADIENTCOLOR1ACI
1070
     5
1001
GRADIENTCOLOR2ACI
1070
     2
1001
ACAD
1010
0.0
1020
0.0
1030
0.0
1001
ACDBBLOCKREPETAG
1070
     1
1071
      430
1005
122806
  0
LINE
  5
122807
  8
SLIM
 10
7985.8944171461262
 20
-124.30302164318159
 30
0.0
 11
7995.0533812002559
 21
-115.1440575890517
 31
0.0
1001
GRADIENTCOLOR1ACI
1070
     5
1001
GRADIENTCOLOR2ACI
1070
     2
1001
ACAD
1010
0.0
1020
0.0
1030
0.0
1001
ACDBBLOCKREPETAG
1070
     1
1071
      431
1005
122807
  0
LINE
  5
122808
  8
SLIM
 10
7996.077732749206
 20
-123.0999621611699
 30
0.0
 11
8000.0
 21
-119.1776949103767
 31
0.0
1001
GRADIENTCOLOR1ACI
1070
     5
1001
GRADIENTCOLOR2ACI
1070
     2
1001
ACAD
1010
0.0
1020
0.0
1030
0.0
1001
ACDBBLOCKREPETAG
1070
     1
1071
      432
1005
122808
  0
LINE
  5
122809
  8
SLIM
 10
8000.0
 20
-119.1776949103767
 30
0.0
 11
8004.0797313529074
 21
-115.0979635574724
 31
0.0
1001
GRADIENTCOLOR1ACI
1070
     5
1001
GRADIENTCOLOR2ACI
1070
     2
1001
ACAD
1010
0.0
1020
0.0
1030
0.0
1001
ACDBBLOCKREPETAG
1070
     1
1071
      433
1005
122809
  0
LINE
  5
12280A
  8
SLIM
 10
8004.9957202542737
 20
-123.1622307771683
 30
0.0
 11
8012.2679784105749
 21
-115.88997262087101
 31
0.0
1001
GRADIENTCOLOR1ACI
1070
     5
1001
GRADIENTCOLOR2ACI
1070
     2
1001
ACAD
1010
0.0
1020
0.0
1030
0.0
1001
ACDBBLOCKREPETAG
1070
     1
1071
      434
1005
12280A
  0
LINE
  5
12280B
  8
SLIM
 10
8013.028059366964
 20
-124.1101477855505
 30
0.0
 11
8019.7999414573624
 21
-117.3382656951526
 31
0.0
1001
GRADIENTCOLOR1ACI
1070
     5
1001
GRADIENTCOLOR2ACI
1070
     2
1001
ACAD
1010
0.0
1020
0.0
1030
0.0
1001
ACDBBLOCKREPETAG
1070
     1
1071
      435
1005
12280B
  0
LINE
  5
12280C
  8
SLIM
 10
8020.3740813142458
 20
-125.7443819593383
 30
0.0
 11
8026.7872038672767
 21
-119.3312594063044
 31
0.0
1001
GRADIENTCOLOR1ACI
1070
     5
1001
GRADIENTCOLOR2ACI
1070
     2
1001
ACAD
1010
0.0
1020
0.0
1030
0.0
1001
ACDBBLOCKREPETAG
1070
     1
1071
      436
1005
12280C
  0
LINE
  5
12280D
  8
SLIM
 10
8027.1524719988738
 20
-127.946247395778
 30
0.0
 11
8033.3030030760328
 21
-121.7957163186195
 31
0.0
1001
GRADIENTCOLOR1ACI
1070
     5
1001
GRADIENTCOLOR2ACI
1070
     2
1001
ACAD
1010
0.0
1020
0.0
1030
0.0
1001
ACDBBLOCKREPETAG
1070
     1
1071
      437
1005
12280D
  0
LINE
  5
12280E
  8
SLIM
 10
8033.4390986513308
 20
-130.63987686439191
 30
0.0
 11
8039.3973119843777
 21
-124.6816635313439
 31
0.0
1001
GRADIENTCOLOR1ACI
1070
     5
1001
GRADIENTCOLOR2ACI
1070
     2
1001
ACAD
1010
0.0
1020
0.0
1030
0.0
1001
ACDBBLOCKREPETAG
1070
     1
1071
      438
1005
12280E
  0
LINE
  5
12280F
  8
SLIM
 10
8039.2842246217979
 20
-133.77500701499321
 30
0.0
 11
8045.1047705343699
 21
-127.95446110242381
 31
0.0
1001
GRADIENTCOLOR1ACI
1070
     5
1001
GRADIENTCOLOR2ACI
1070
     2
1001
ACAD
1010
0.0
1020
0.0
1030
0.0
1001
ACDBBLOCKREPETAG
1070
     1
1071
      439
1005
12280F
  0
LINE
  5
122810
  8
SLIM
 10
8044.7212801698061
 20
-137.31820758805651
 30
0.0
 11
8050.449155789197
 21
-131.59033196866449
 31
0.0
1001
GRADIENTCOLOR1ACI
1070
     5
1001
GRADIENTCOLOR2ACI
1070
     2
1001
ACAD
1010
0.0
1020
0.0
1030
0.0
1001
ACDBBLOCKREPETAG
1070
     1
1071
      440
1005
122810
  0
LINE
  5
122811
  8
SLIM
 10
8053.0197438789319
 20
-137.99999999999909
 30
0.0
 11
8055.4459941864034
 21
-135.57374969252561
 31
0.0
1001
GRADIENTCOLOR1ACI
1070
     5
1001
GRADIENTCOLOR2ACI
1070
     2
1001
ACAD
1010
0.0
1020
0.0
1030
0.0
1001
ACDBBLOCKREPETAG
1070
     1
1071
      441
1005
122811
  0
LINE
  5
122812
  8
CENTER
 10
8000.0
 20
-279.99999999999909
 30
0.0
 11
8000.0
 21
-99.999999999999091
 31
0.0
1001
ACDBBLOCKREPETAG
1070
     1
1071
      160
1005
122812
  0
CIRCLE
  5
122813
  8
OBJECT
 10
8000.0
 20
-199.99999999999909
 30
0.0
 40
70.0
1001
ACDBBLOCKREPETAG
1070
     1
1071
      161
1005
122813
  0
CIRCLE
  5
122814
  8
OBJECT
 10
8000.0
 20
-199.99999999999909
 30
0.0
 40
77.0
1001
ACDBBLOCKREPETAG
1070
     1
1071
      162
1005
122814
  0
LINE
  5
122815
  8
OBJECT
 10
8045.6618002273271
 20
-137.99999999999909
 30
0.0
 11
8080.0
 21
-137.99999999999909
 31
0.0
1001
ACDBBLOCKREPETAG
1070
     1
1071
      164
1005
122815
  0
LINE
  5
122816
  8
OBJECT
 10
8062.0
 20
-261.99999999999909
 30
0.0
 11
8080.0
 21
-261.99999999999909
 31
0.0
1001
ACDBBLOCKREPETAG
1070
     1
1071
      165
1005
122816
  0
LINE
  5
122817
  8
OBJECT
 10
8062.0
 20
-261.99999999999909
 30
0.0
 11
8062.0
 21
-279.99999999999909
 31
0.0
1001
ACDBBLOCKREPETAG
1070
     1
1071
      167
1005
122817
  0
LINE
  5
122818
  8
OBJECT
 10
7938.0
 20
-261.99999999999909
 30
0.0
 11
7938.0
 21
-279.99999999999909
 31
0.0
1001
ACDBBLOCKREPETAG
1070
     1
1071
      168
1005
122818
  0
LINE
  5
122819
  8
OBJECT
 10
7938.0
 20
-261.99999999999909
 30
0.0
 11
7920.0
 21
-261.99999999999909
 31
0.0
1001
ACDBBLOCKREPETAG
1070
     1
1071
      170
1005
122819
  0
LINE
  5
12281A
  8
OBJECT
 10
7954.3381997726747
 20
-137.99999999999909
 30
0.0
 11
7920.0
 21
-137.99999999999909
 31
0.0
1001
ACDBBLOCKREPETAG
1070
     1
1071
      171
1005
12281A
  0
LINE
  5
12281B
  8
OBJECT
 10
7945.5527778486357
 20
-254.44722215136329
 30
0.0
 11
7938.0
 21
-261.99999999999909
 31
0.0
1001
ACDBBLOCKREPETAG
1070
     1
1071
      180
1005
12281B
  0
LINE
  5
12281C
  8
OBJECT
 10
8054.4472221513652
 20
-254.44722215136329
 30
0.0
 11
8062.0
 21
-261.99999999999909
 31
0.0
1001
ACDBBLOCKREPETAG
1070
     1
1071
      181
1005
12281C
  0
ARC
  5
12281D
  8
OBJECT
 10
8000.0
 20
-199.99999999999909
 30
0.0
 40
85.0
 50
46.837102859806208
 51
133.16289714019371
1001
ACDBBLOCKREPETAG
1070
     1
1071
      183
1005
12281D
  0
LINE
  5
12281E
  8
OBJECT
 10
8024.1029330933006
 20
-243.80694712371681
 30
0.0
 11
8020.6596569999974
 21
-232.55462199999889
 31
0.0
1001
ACDBBLOCKREPETAG
1070
     1
1071
      314
1005
12281E
  0
LINE
  5
12281F
  8
OBJECT
 10
7986.7927499013749
 20
-218.22553374208019
 30
0.0
 11
8020.6596569999974
 21
-232.5546219999969
 31
0.0
1001
ACDBBLOCKREPETAG
1070
     1
1071
      316
1005
12281F
  0
ARC
  5
122820
  8
OBJECT
 10
7982.8961697618997
 20
-227.4351299990567
 30
0.0
 40
10.0
 50
67.066778292911366
 51
154.0147343702935
1001
ACDBBLOCKREPETAG
1070
     1
1071
      317
1005
122820
  0
ARC
  5
122821
  8
OBJECT
 10
7986.1488390381273
 20
-225.55386256729159
 30
0.0
 40
7.0
 50
67.066778292911366
 51
154.0147337749826
1001
ACDBBLOCKREPETAG
1070
     1
1071
      318
1005
122821
  0
LINE
  5
122822
  8
OBJECT
 10
7969.4199755553009
 20
-243.89888500818171
 30
0.0
 11
7979.8564918232369
 21
-222.48688253356801
 31
0.0
1001
ACDBBLOCKREPETAG
1070
     1
1071
      349
1005
122822
  0
LINE
  5
122823
  8
OBJECT
 10
7965.2972169006098
 20
-240.71813901882729
 30
0.0
 11
7973.9071022665084
 21
-223.05373004430751
 31
0.0
1001
ACDBBLOCKREPETAG
1070
     1
1071
      350
1005
122823
  0
ARC
  5
122824
  8
OBJECT
 10
7976.5796953073141
 20
-207.1289369828437
 30
0.0
 40
60.031113246032611
 50
314.07020130418567
 51
322.33936106089681
1001
ACDBBLOCKREPETAG
1070
     1
1071
      351
1005
122824
  0
CIRCLE
  5
122825
  8
OBJECT
 10
8000.0
 20
-199.99999999999909
 30
0.0
 40
53.5
1001
ACDBBLOCKREPETAG
1070
     1
1071
      352
1005
122825
  0
POINT
  5
122826
  8
DOTS
 10
8000.0
 20
-199.99999999999909
 30
0.0
 50
270.0
1001
ACDBBLOCKREPETAG
1070
     1
1071
      364
1005
122826
  0
ARC
  5
122827
  8
OBJECT
 10
8000.0
 20
-199.99999999999909
 30
0.0
 40
50.0
 50
298.81994300000417
 51
228.5237695596397
1001
ACDBBLOCKREPETAG
1070
     1
1071
      157
1005
122827
  0
LINE
  5
122828
  8
CENTER
 10
8080.0
 20
-199.99999999999909
 30
0.0
 11
7920.0
 21
-199.99999999999909
 31
0.0
1001
ACDBBLOCKREPETAG
1070
     1
1071
      158
1005
122828
  0
LINE
  5
122829
  8
OBJECT
 10
7797.0000000000136
 20
-261.99999999999909
 30
0.0
 11
7790.0000000000127
 21
-261.99999999999909
 31
0.0
1001
ACDBBLOCKREPETAG
1070
     1
1071
       85
1005
122829
  0
LINE
  5
12282A
  8
OBJECT
 10
7790.0000000000127
 20
-261.99999999999909
 30
0.0
 11
7790.0000000000127
 21
-137.99999999999909
 31
0.0
1001
ACDBBLOCKREPETAG
1070
     1
1071
       86
1005
12282A
  0
LINE
  5
12282B
  8
OBJECT
 10
7790.0000000000127
 20
-137.99999999999909
 30
0.0
 11
7797.0000000000136
 21
-137.99999999999909
 31
0.0
1001
ACDBBLOCKREPETAG
1070
     1
1071
       87
1005
12282B
  0
LINE
  5
12282C
  8
OBJECT
 10
7797.0000000000136
 20
-137.99999999999909
 30
0.0
 11
7797.0000000000136
 21
-261.99999999999909
 31
0.0
1001
ACDBBLOCKREPETAG
1070
     1
1071
       88
1005
12282C
  0
LINE
  5
12282D
  8
CENTER
 10
7775.0000000000136
 20
-199.99999999999909
 30
0.0
 11
7920.0
 21
-199.99999999999909
 31
0.0
1001
ACDBBLOCKREPETAG
1070
     1
1071
       89
1005
12282D
  0
LINE
  5
12282E
  8
OBJECT
 10
7850.0000250358144
 20
-154.9999999999954
 30
0.0
 11
7914.0
 21
-154.99999999999909
 31
0.0
1001
ACDBBLOCKREPETAG
1070
     1
1071
       90
1005
12282E
  0
LINE
  5
12282F
  8
OBJECT
 10
7850.0000250358144
 20
-244.99999999999909
 30
0.0
 11
7914.0
 21
-244.99999999999909
 31
0.0
1001
ACDBBLOCKREPETAG
1070
     1
1071
       91
1005
12282F
  0
LINE
  5
122830
  8
OBJECT
 10
7797.0000000000136
 20
-258.99999999999909
 30
0.0
 11
7833.0000000000136
 21
-258.99999999999909
 31
0.0
1001
ACDBBLOCKREPETAG
1070
     1
1071
       92
1005
122830
  0
LINE
  5
122831
  8
OBJECT
 10
7833.0000000000136
 20
-258.99999999999909
 30
0.0
 11
7833.0000000000136
 21
-140.99999999999909
 31
0.0
1001
ACDBBLOCKREPETAG
1070
     1
1071
       93
1005
122831
  0
LINE
  5
122832
  8
OBJECT
 10
7833.0000000000136
 20
-140.99999999999909
 30
0.0
 11
7797.0000000000136
 21
-140.99999999999909
 31
0.0
1001
ACDBBLOCKREPETAG
1070
     1
1071
       94
1005
122832
  0
LINE
  5
122833
  8
OBJECT
 10
7837.0000000000127
 20
-254.49999999999909
 30
0.0
 11
7850.0000000000136
 21
-254.49999999999909
 31
0.0
1001
ACDBBLOCKREPETAG
1070
     1
1071
       95
1005
122833
  0
LINE
  5
122834
  8
OBJECT
 10
7850.0000000000136
 20
-145.49999999999909
 30
0.0
 11
7837.0000000000127
 21
-145.49999999999909
 31
0.0
1001
ACDBBLOCKREPETAG
1070
     1
1071
       96
1005
122834
  0
LINE
  5
122835
  8
OBJECT
 10
7837.0000000000127
 20
-145.49999999999909
 30
0.0
 11
7837.0000000000127
 21
-254.49999999999909
 31
0.0
1001
ACDBBLOCKREPETAG
1070
     1
1071
       97
1005
122835
  0
LINE
  5
122836
  8
OBJECT
 10
7833.0000000000136
 20
-258.99999999999909
 30
0.0
 11
7837.0000000000127
 21
-254.49999999999909
 31
0.0
1001
ACDBBLOCKREPETAG
1070
     1
1071
       98
1005
122836
  0
LINE
  5
122837
  8
OBJECT
 10
7833.0000000000136
 20
-140.99999999999909
 30
0.0
 11
7837.0000000000127
 21
-145.49999999999909
 31
0.0
1001
ACDBBLOCKREPETAG
1070
     1
1071
       99
1005
122837
  0
LINE
  5
122838
  8
OBJECT
 10
7917.0
 20
-261.99999999999909
 30
0.0
 11
7920.0
 21
-261.99999999999909
 31
0.0
1001
ACDBBLOCKREPETAG
1070
     1
1071
      100
1005
122838
  0
ARC
  5
122839
  8
OBJECT
 10
7917.0
 20
-258.99999999999909
 30
0.0
 40
3.0
 50
180.0
 51
270.0
1001
ACDBBLOCKREPETAG
1070
     1
1071
      101
1005
122839
  0
LINE
  5
12283A
  8
OBJECT
 10
7920.0
 20
-137.99999999999909
 30
0.0
 11
7917.0
 21
-137.99999999999909
 31
0.0
1001
ACDBBLOCKREPETAG
1070
     1
1071
      102
1005
12283A
  0
ARC
  5
12283B
  8
OBJECT
 10
7917.0
 20
-140.99999999999909
 30
0.0
 40
3.0
 50
90.0
 51
180.0
1001
ACDBBLOCKREPETAG
1070
     1
1071
      103
1005
12283B
  0
LINE
  5
12283C
  8
OBJECT
 10
7914.0
 20
-140.99999999999909
 30
0.0
 11
7914.0
 21
-189.6772096796403
 31
0.0
1001
ACDBBLOCKREPETAG
1070
     1
1071
      104
1005
12283C
  0
LINE
  5
12283D
  8
OBJECT
 10
7914.0
 20
-210.3227903203578
 30
0.0
 11
7914.0
 21
-258.99999999999909
 31
0.0
1001
ACDBBLOCKREPETAG
1070
     1
1071
      105
1005
12283D
  0
LINE
  5
12283E
  8
HIDDEN
 10
7842.0000000000136
 20
-244.49999999999909
 30
0.0
 11
7842.0000000000136
 21
-155.49999999999909
 31
0.0
1001
ACDBBLOCKREPETAG
1070
     1
1071
      106
1005
12283E
  0
LINE
  5
12283F
  8
OBJECT
 10
7850.0000250358144
 20
-145.50004907618759
 30
0.0
 11
7850.0000250358144
 21
-254.50004907618771
 31
0.0
1001
ACDBBLOCKREPETAG
1070
     1
1071
      108
1005
12283F
  0
ARC
  5
122840
  8
OBJECT
 10
7870.1999999999744
 20
-199.99999999999909
 30
0.0
 40
45.000000000000547
 50
270.0
 51
90.0
1001
ACDBBLOCKREPETAG
1070
     1
1071
      109
1005
122840
  0
LINE
  5
122841
  8
CENTER
 10
8000.0
 20
-300.99999999999898
 30
0.0
 11
8000.0
 21
-279.99999999999909
 31
0.0
1001
ACDBBLOCKREPETAG
1070
     1
1071
        0
1005
122841
  0
LINE
  5
122842
  8
OBJECT
 10
8062.0
 20
-283.0
 30
0.0
 11
8062.0
 21
-279.99999999999909
 31
0.0
1001
ACDBBLOCKREPETAG
1070
     1
1071
        1
1005
122842
  0
ARC
  5
122843
  8
OBJECT
 10
8059.0
 20
-283.0
 30
0.0
 40
3.0
 50
270.0
 51
0.0
1001
ACDBBLOCKREPETAG
1070
     1
1071
        2
1005
122843
  0
LINE
  5
122844
  8
OBJECT
 10
7938.0
 20
-279.99999999999909
 30
0.0
 11
7938.0
 21
-282.99999999999818
 31
0.0
1001
ACDBBLOCKREPETAG
1070
     1
1071
        3
1005
122844
  0
ARC
  5
122845
  8
OBJECT
 10
7941.0
 20
-282.99999999999818
 30
0.0
 40
3.0
 50
180.0
 51
270.0
1001
ACDBBLOCKREPETAG
1070
     1
1071
        4
1005
122845
  0
LINE
  5
122846
  8
OBJECT
 10
7941.0
 20
-285.99999999999818
 30
0.0
 11
8059.0
 21
-286.0
 31
0.0
1001
ACDBBLOCKREPETAG
1070
     1
1071
        5
1005
122846
  0
LINE
  5
122847
  8
OBJECT
 10
8202.9999999999854
 20
-137.99999999999909
 30
0.0
 11
8209.9999999999836
 21
-137.99999999999909
 31
0.0
1001
ACDBBLOCKREPETAG
1070
     1
1071
       85
1005
122847
  0
LINE
  5
122848
  8
OBJECT
 10
8209.9999999999836
 20
-137.99999999999909
 30
0.0
 11
8209.9999999999836
 21
-261.99999999999909
 31
0.0
1001
ACDBBLOCKREPETAG
1070
     1
1071
       86
1005
122848
  0
LINE
  5
122849
  8
OBJECT
 10
8209.9999999999836
 20
-261.99999999999909
 30
0.0
 11
8202.9999999999854
 21
-261.99999999999909
 31
0.0
1001
ACDBBLOCKREPETAG
1070
     1
1071
       87
1005
122849
  0
LINE
  5
12284A
  8
OBJECT
 10
8202.9999999999854
 20
-261.99999999999909
 30
0.0
 11
8202.9999999999854
 21
-137.99999999999909
 31
0.0
1001
ACDBBLOCKREPETAG
1070
     1
1071
       88
1005
12284A
  0
LINE
  5
12284B
  8
CENTER
 10
8224.9999999999873
 20
-199.99999999999909
 30
0.0
 11
8080.0
 21
-199.99999999999909
 31
0.0
1001
ACDBBLOCKREPETAG
1070
     1
1071
       89
1005
12284B
  0
LINE
  5
12284C
  8
OBJECT
 10
8149.9999749641856
 20
-245.0000000000027
 30
0.0
 11
8086.0
 21
-244.99999999999909
 31
0.0
1001
ACDBBLOCKREPETAG
1070
     1
1071
       90
1005
12284C
  0
LINE
  5
12284D
  8
OBJECT
 10
8149.9999749641856
 20
-154.99999999999909
 30
0.0
 11
8086.0
 21
-154.99999999999909
 31
0.0
1001
ACDBBLOCKREPETAG
1070
     1
1071
       91
1005
12284D
  0
LINE
  5
12284E
  8
OBJECT
 10
8202.9999999999854
 20
-140.99999999999909
 30
0.0
 11
8166.9999999999854
 21
-140.99999999999909
 31
0.0
1001
ACDBBLOCKREPETAG
1070
     1
1071
       92
1005
12284E
  0
LINE
  5
12284F
  8
OBJECT
 10
8166.9999999999854
 20
-140.99999999999909
 30
0.0
 11
8166.9999999999854
 21
-258.99999999999909
 31
0.0
1001
ACDBBLOCKREPETAG
1070
     1
1071
       93
1005
12284F
  0
LINE
  5
122850
  8
OBJECT
 10
8166.9999999999854
 20
-258.99999999999909
 30
0.0
 11
8202.9999999999854
 21
-258.99999999999909
 31
0.0
1001
ACDBBLOCKREPETAG
1070
     1
1071
       94
1005
122850
  0
LINE
  5
122851
  8
OBJECT
 10
8162.9999999999873
 20
-145.49999999999909
 30
0.0
 11
8149.9999999999873
 21
-145.49999999999909
 31
0.0
1001
ACDBBLOCKREPETAG
1070
     1
1071
       95
1005
122851
  0
LINE
  5
122852
  8
OBJECT
 10
8149.9999999999873
 20
-254.49999999999909
 30
0.0
 11
8162.9999999999873
 21
-254.49999999999909
 31
0.0
1001
ACDBBLOCKREPETAG
1070
     1
1071
       96
1005
122852
  0
LINE
  5
122853
  8
OBJECT
 10
8162.9999999999873
 20
-254.49999999999909
 30
0.0
 11
8162.9999999999873
 21
-145.49999999999909
 31
0.0
1001
ACDBBLOCKREPETAG
1070
     1
1071
       97
1005
122853
  0
LINE
  5
122854
  8
OBJECT
 10
8166.9999999999854
 20
-140.99999999999909
 30
0.0
 11
8162.9999999999873
 21
-145.49999999999909
 31
0.0
1001
ACDBBLOCKREPETAG
1070
     1
1071
       98
1005
122854
  0
LINE
  5
122855
  8
OBJECT
 10
8166.9999999999854
 20
-258.99999999999909
 30
0.0
 11
8162.9999999999873
 21
-254.49999999999909
 31
0.0
1001
ACDBBLOCKREPETAG
1070
     1
1071
       99
1005
122855
  0
LINE
  5
122856
  8
OBJECT
 10
8083.0
 20
-137.99999999999909
 30
0.0
 11
8080.0
 21
-137.99999999999909
 31
0.0
1001
ACDBBLOCKREPETAG
1070
     1
1071
      100
1005
122856
  0
ARC
  5
122857
  8
OBJECT
 10
8083.0
 20
-140.99999999999909
 30
0.0
 40
3.0
 50
0.0
 51
90.0
1001
ACDBBLOCKREPETAG
1070
     1
1071
      101
1005
122857
  0
LINE
  5
122858
  8
OBJECT
 10
8080.0
 20
-261.99999999999909
 30
0.0
 11
8083.0
 21
-261.99999999999909
 31
0.0
1001
ACDBBLOCKREPETAG
1070
     1
1071
      102
1005
122858
  0
ARC
  5
122859
  8
OBJECT
 10
8083.0
 20
-258.99999999999909
 30
0.0
 40
3.0
 50
270.0
 51
0.0
1001
ACDBBLOCKREPETAG
1070
     1
1071
      103
1005
122859
  0
LINE
  5
12285A
  8
OBJECT
 10
8086.0
 20
-258.99999999999909
 30
0.0
 11
8086.0
 21
-210.3227903203578
 31
0.0
1001
ACDBBLOCKREPETAG
1070
     1
1071
      104
1005
12285A
  0
LINE
  5
12285B
  8
OBJECT
 10
8086.0
 20
-189.6772096796403
 30
0.0
 11
8086.0
 21
-140.99999999999909
 31
0.0
1001
ACDBBLOCKREPETAG
1070
     1
1071
      105
1005
12285B
  0
LINE
  5
12285C
  8
HIDDEN
 10
8157.9999999999873
 20
-155.49999999999909
 30
0.0
 11
8157.9999999999873
 21
-244.49999999999909
 31
0.0
1001
ACDBBLOCKREPETAG
1070
     1
1071
      106
1005
12285C
  0
LINE
  5
12285D
  8
OBJECT
 10
8149.9999749641856
 20
-254.4999509238105
 30
0.0
 11
8149.9999749641856
 21
-145.4999509238105
 31
0.0
1001
ACDBBLOCKREPETAG
1070
     1
1071
      108
1005
12285D
  0
ARC
  5
12285E
  8
OBJECT
 10
8129.800000000022
 20
-199.99999999999909
 30
0.0
 40
45.000000000000547
 50
90.0
 51
270.0
1001
ACDBBLOCKREPETAG
1070
     1
1071
      109
1005
12285E
  0
LINE
  5
12285F
  8
OBJECT
 10
7797.0000000000136
 20
-583.0
 30
0.0
 11
7790.0000000000127
 21
-583.0
 31
0.0
1001
ACDBBLOCKREPETAG
1070
     1
1071
       83
1005
12285F
  0
LINE
  5
122860
  8
OBJECT
 10
7790.0000000000127
 20
-583.0
 30
0.0
 11
7790.0000000000127
 21
-707.0
 31
0.0
1001
ACDBBLOCKREPETAG
1070
     1
1071
       84
1005
122860
  0
LINE
  5
122861
  8
OBJECT
 10
7914.0000000000136
 20
-653.3502637757274
 30
0.0
 11
7914.0000000000136
 21
-755.00000000000102
 31
0.0
1001
ACDBBLOCKREPETAG
1070
     1
1071
       85
1005
122861
  0
LINE
  5
122862
  8
OBJECT
 10
7790.0000000000127
 20
-707.0
 30
0.0
 11
7797.0000000000136
 21
-707.0
 31
0.0
1001
ACDBBLOCKREPETAG
1070
     1
1071
       86
1005
122862
  0
LINE
  5
122863
  8
OBJECT
 10
7797.0000000000136
 20
-707.0
 30
0.0
 11
7797.0000000000136
 21
-583.0
 31
0.0
1001
ACDBBLOCKREPETAG
1070
     1
1071
       87
1005
122863
  0
LINE
  5
122864
  8
CENTER
 10
7865.0000000000127
 20
-645.0000000000008
 30
0.0
 11
7775.0000000000136
 21
-645.0
 31
0.0
1001
ACDBBLOCKREPETAG
1070
     1
1071
       88
1005
122864
  0
LINE
  5
122865
  8
OBJECT
 10
7920.0000000000191
 20
-758.0
 30
0.0
 11
7917.0000000000136
 21
-758.0000000000008
 31
0.0
1001
ACDBBLOCKREPETAG
1070
     1
1071
       89
1005
122865
  0
ARC
  5
122866
  8
OBJECT
 10
7917.0000000000136
 20
-755.00000000000102
 30
0.0
 40
3.0
 50
180.0
 51
270.0
1001
ACDBBLOCKREPETAG
1070
     1
1071
       90
1005
122866
  0
LINE
  5
122867
  8
OBJECT
 10
7797.0000000000136
 20
-586.0
 30
0.0
 11
7833.0000000000136
 21
-586.0000000000008
 31
0.0
1001
ACDBBLOCKREPETAG
1070
     1
1071
       91
1005
122867
  0
LINE
  5
122868
  8
OBJECT
 10
7833.0000000000136
 20
-586.0000000000008
 30
0.0
 11
7833.0000000000136
 21
-704.0000000000008
 31
0.0
1001
ACDBBLOCKREPETAG
1070
     1
1071
       92
1005
122868
  0
LINE
  5
122869
  8
OBJECT
 10
7837.0000000000127
 20
-590.5000000000008
 30
0.0
 11
7837.0000000000127
 21
-699.5000000000008
 31
0.0
1001
ACDBBLOCKREPETAG
1070
     1
1071
       93
1005
122869
  0
LINE
  5
12286A
  8
OBJECT
 10
7837.0000000000127
 20
-590.5000000000008
 30
0.0
 11
7850.0000000000136
 21
-590.5000000000008
 31
0.0
1001
ACDBBLOCKREPETAG
1070
     1
1071
       94
1005
12286A
  0
LINE
  5
12286B
  8
OBJECT
 10
7833.0000000000136
 20
-704.0000000000008
 30
0.0
 11
7797.0000000000136
 21
-704.0
 31
0.0
1001
ACDBBLOCKREPETAG
1070
     1
1071
       95
1005
12286B
  0
LINE
  5
12286C
  8
OBJECT
 10
7833.0000000000136
 20
-586.0000000000008
 30
0.0
 11
7837.0000000000127
 21
-590.5000000000008
 31
0.0
1001
ACDBBLOCKREPETAG
1070
     1
1071
       96
1005
12286C
  0
LINE
  5
12286D
  8
OBJECT
 10
7850.0000000000136
 20
-590.5000000000008
 30
0.0
 11
7850.0000000000136
 21
-675.74491827928784
 31
0.0
1001
ACDBBLOCKREPETAG
1070
     1
1071
       97
1005
12286D
  0
ARC
  5
12286E
  8
OBJECT
 10
7847.2000000000144
 20
-685.0000000000008
 30
0.0
 40
85.0
 50
36.869897645906562
 51
88.112268108168848
1001
ACDBBLOCKREPETAG
1070
     1
1071
       98
1005
12286E
  0
LINE
  5
12286F
  8
HIDDEN
 10
7842.0000000000136
 20
-600.50000000000068
 30
0.0
 11
7842.0000000000136
 21
-689.50000000000091
 31
0.0
1001
ACDBBLOCKREPETAG
1070
     1
1071
      100
1005
12286F
  0
LINE
  5
122870
  8
OBJECT
 10
7914.0000000000136
 20
-751.07945073181781
 30
0.0
 11
7843.3686800789701
 21
-699.5000000000008
 31
0.0
1001
ACDBBLOCKREPETAG
1070
     1
1071
      101
1005
122870
  0
LINE
  5
122871
  8
OBJECT
 10
7920.0000000000191
 20
-634.0
 30
0.0
 11
7915.2000000000162
 21
-634.0
 31
0.0
1001
ACDBBLOCKREPETAG
1070
     1
1071
      102
1005
122871
  0
LINE
  5
122872
  8
OBJECT
 10
7914.0000000000136
 20
-653.35026377573013
 30
0.0
 11
7915.2000000000162
 21
-634.0
 31
0.0
1001
ACDBBLOCKREPETAG
1070
     1
1071
      103
1005
122872
  0
LINE
  5
122873
  8
OBJECT
 10
7837.0000000000127
 20
-699.5000000000008
 30
0.0
 11
7843.3686800789701
 21
-699.5000000000008
 31
0.0
1001
ACDBBLOCKREPETAG
1070
     1
1071
      104
1005
122873
  0
LINE
  5
122874
  8
OBJECT
 10
7833.0000000000136
 20
-704.0000000000008
 30
0.0
 11
7837.0000000000127
 21
-699.5000000000008
 31
0.0
1001
ACDBBLOCKREPETAG
1070
     1
1071
      105
1005
122874
  0
CIRCLE
  5
122875
  8
OBJECT
 10
8000.0
 20
-696.0
 30
0.0
 40
62.0
1001
ACDBBLOCKREPETAG
1070
     1
1071
        0
1005
122875
  0
LINE
  5
122876
  8
OBJECT
 10
8202.9999999999854
 20
-583.0000000000008
 30
0.0
 11
8209.9999999999836
 21
-583.0000000000008
 31
0.0
1001
ACDBBLOCKREPETAG
1070
     1
1071
       83
1005
122876
  0
LINE
  5
122877
  8
OBJECT
 10
8209.9999999999836
 20
-583.0000000000008
 30
0.0
 11
8209.9999999999836
 21
-707.00000000000091
 31
0.0
1001
ACDBBLOCKREPETAG
1070
     1
1071
       84
1005
122877
  0
LINE
  5
122878
  8
OBJECT
 10
8085.9999999999873
 20
-653.3502637757274
 30
0.0
 11
8085.9999999999873
 21
-755.00000000000102
 31
0.0
1001
ACDBBLOCKREPETAG
1070
     1
1071
       85
1005
122878
  0
LINE
  5
122879
  8
OBJECT
 10
8209.9999999999836
 20
-707.00000000000091
 30
0.0
 11
8202.9999999999854
 21
-707.00000000000091
 31
0.0
1001
ACDBBLOCKREPETAG
1070
     1
1071
       86
1005
122879
  0
LINE
  5
12287A
  8
OBJECT
 10
8202.9999999999854
 20
-707.00000000000091
 30
0.0
 11
8202.9999999999854
 21
-583.0000000000008
 31
0.0
1001
ACDBBLOCKREPETAG
1070
     1
1071
       87
1005
12287A
  0
LINE
  5
12287B
  8
CENTER
 10
8134.9999999999873
 20
-645.0000000000008
 30
0.0
 11
8224.9999999999873
 21
-645.0000000000008
 31
0.0
1001
ACDBBLOCKREPETAG
1070
     1
1071
       88
1005
12287B
  0
LINE
  5
12287C
  8
OBJECT
 10
8079.9999999999818
 20
-758.0
 30
0.0
 11
8082.9999999999873
 21
-758.0000000000008
 31
0.0
1001
ACDBBLOCKREPETAG
1070
     1
1071
       89
1005
12287C
  0
ARC
  5
12287D
  8
OBJECT
 10
8082.9999999999873
 20
-755.00000000000102
 30
0.0
 40
3.0
 50
270.0
 51
0.0
1001
ACDBBLOCKREPETAG
1070
     1
1071
       90
1005
12287D
  0
LINE
  5
12287E
  8
OBJECT
 10
8202.9999999999854
 20
-586.0000000000008
 30
0.0
 11
8166.9999999999854
 21
-586.0000000000008
 31
0.0
1001
ACDBBLOCKREPETAG
1070
     1
1071
       91
1005
12287E
  0
LINE
  5
12287F
  8
OBJECT
 10
8166.9999999999854
 20
-586.0000000000008
 30
0.0
 11
8166.9999999999854
 21
-704.0000000000008
 31
0.0
1001
ACDBBLOCKREPETAG
1070
     1
1071
       92
1005
12287F
  0
LINE
  5
122880
  8
OBJECT
 10
8162.9999999999873
 20
-590.5000000000008
 30
0.0
 11
8162.9999999999873
 21
-699.5000000000008
 31
0.0
1001
ACDBBLOCKREPETAG
1070
     1
1071
       93
1005
122880
  0
LINE
  5
122881
  8
OBJECT
 10
8162.9999999999873
 20
-590.5000000000008
 30
0.0
 11
8149.9999999999873
 21
-590.5000000000008
 31
0.0
1001
ACDBBLOCKREPETAG
1070
     1
1071
       94
1005
122881
  0
LINE
  5
122882
  8
OBJECT
 10
8166.9999999999854
 20
-704.0000000000008
 30
0.0
 11
8202.9999999999854
 21
-704.0000000000008
 31
0.0
1001
ACDBBLOCKREPETAG
1070
     1
1071
       95
1005
122882
  0
LINE
  5
122883
  8
OBJECT
 10
8166.9999999999854
 20
-586.0000000000008
 30
0.0
 11
8162.9999999999873
 21
-590.5000000000008
 31
0.0
1001
ACDBBLOCKREPETAG
1070
     1
1071
       96
1005
122883
  0
LINE
  5
122884
  8
OBJECT
 10
8149.9999999999873
 20
-590.5000000000008
 30
0.0
 11
8149.9999999999873
 21
-675.74491827928784
 31
0.0
1001
ACDBBLOCKREPETAG
1070
     1
1071
       97
1005
122884
  0
ARC
  5
122885
  8
OBJECT
 10
8152.7999999999829
 20
-685.0000000000008
 30
0.0
 40
85.0
 50
91.887731891831123
 51
143.1301023540934
1001
ACDBBLOCKREPETAG
1070
     1
1071
       98
1005
122885
  0
LINE
  5
122886
  8
HIDDEN
 10
8157.9999999999873
 20
-600.50000000000068
 30
0.0
 11
8157.9999999999873
 21
-689.50000000000091
 31
0.0
1001
ACDBBLOCKREPETAG
1070
     1
1071
      100
1005
122886
  0
LINE
  5
122887
  8
OBJECT
 10
8085.9999999999873
 20
-751.07945073181781
 30
0.0
 11
8156.6313199210299
 21
-699.5000000000008
 31
0.0
1001
ACDBBLOCKREPETAG
1070
     1
1071
      101
1005
122887
  0
LINE
  5
122888
  8
OBJECT
 10
8079.9999999999818
 20
-634.0
 30
0.0
 11
8084.7999999999847
 21
-634.0
 31
0.0
1001
ACDBBLOCKREPETAG
1070
     1
1071
      102
1005
122888
  0
LINE
  5
122889
  8
OBJECT
 10
8085.9999999999873
 20
-653.35026377573013
 30
0.0
 11
8084.7999999999847
 21
-634.0
 31
0.0
1001
ACDBBLOCKREPETAG
1070
     1
1071
      103
1005
122889
  0
LINE
  5
12288A
  8
OBJECT
 10
8162.9999999999873
 20
-699.5000000000008
 30
0.0
 11
8156.6313199210299
 21
-699.5000000000008
 31
0.0
1001
ACDBBLOCKREPETAG
1070
     1
1071
      104
1005
12288A
  0
LINE
  5
12288B
  8
OBJECT
 10
8166.9999999999854
 20
-704.0000000000008
 30
0.0
 11
8162.9999999999873
 21
-699.5000000000008
 31
0.0
1001
ACDBBLOCKREPETAG
1070
     1
1071
      105
1005
12288B
  0
LINE
  5
12288C
  8
OBJECT
 10
5923.0
 20
-570.99999999999432
 30
0.0
 11
5923.0
 21
-549.99999999999432
 31
0.0
1001
ACDBBLOCKREPETAG
1070
     1
1071
       36
1005
12288C
  0
LINE
  5
12288D
  8
OBJECT
 10
5923.0
 20
-549.99999999999432
 30
0.0
 11
6077.0
 21
-549.99999999999432
 31
0.0
1001
ACDBBLOCKREPETAG
1070
     1
1071
       37
1005
12288D
  0
LINE
  5
12288E
  8
HIDDEN
 10
5943.0
 20
-619.99999999999432
 30
0.0
 11
6057.0
 21
-619.99999999999432
 31
0.0
1001
ACDBBLOCKREPETAG
1070
     1
1071
       38
1005
12288E
  0
LINE
  5
12288F
  8
OBJECT
 10
6077.0
 20
-549.99999999999432
 30
0.0
 11
6077.0
 21
-570.99999999999432
 31
0.0
1001
ACDBBLOCKREPETAG
1070
     1
1071
       39
1005
12288F
  0
LINE
  5
122890
  8
OBJECT
 10
6077.0
 20
-570.99999999999432
 30
0.0
 11
5923.0
 21
-570.99999999999432
 31
0.0
1001
ACDBBLOCKREPETAG
1070
     1
1071
       40
1005
122890
  0
LINE
  5
122891
  8
CENTER
 10
6000.0
 20
-534.99999999999432
 30
0.0
 11
6000.0
 21
-769.9999999999942
 31
0.0
1001
ACDBBLOCKREPETAG
1070
     1
1071
       41
1005
122891
  0
LINE
  5
122892
  8
OBJECT
 10
5928.0
 20
-570.99999999999432
 30
0.0
 11
5928.0
 21
-633.99999999999432
 31
0.0
1001
ACDBBLOCKREPETAG
1070
     1
1071
       42
1005
122892
  0
LINE
  5
122893
  8
OBJECT
 10
6072.0
 20
-633.99999999999432
 30
0.0
 11
6072.0
 21
-570.99999999999432
 31
0.0
1001
ACDBBLOCKREPETAG
1070
     1
1071
       43
1005
122893
  0
LINE
  5
122894
  8
OBJECT
 10
5920.0
 20
-757.9999999999942
 30
0.0
 11
6080.0
 21
-757.9999999999942
 31
0.0
1001
ACDBBLOCKREPETAG
1070
     1
1071
       44
1005
122894
  0
LINE
  5
122895
  8
OBJECT
 10
6080.0
 20
-633.99999999999432
 30
0.0
 11
5920.0
 21
-633.99999999999432
 31
0.0
1001
ACDBBLOCKREPETAG
1070
     1
1071
       45
1005
122895
  0
LINE
  5
122896
  8
OBJECT
 10
5920.0
 20
-757.9999999999942
 30
0.0
 11
5920.0
 21
-769.9999999999942
 31
0.0
1001
ACDBBLOCKREPETAG
1070
     1
1071
       46
1005
122896
  0
LINE
  5
122897
  8
OBJECT
 10
5920.0
 20
-769.9999999999942
 30
0.0
 11
6080.0
 21
-769.9999999999942
 31
0.0
1001
ACDBBLOCKREPETAG
1070
     1
1071
       47
1005
122897
  0
LINE
  5
122898
  8
OBJECT
 10
6080.0
 20
-769.9999999999942
 30
0.0
 11
6080.0
 21
-757.9999999999942
 31
0.0
1001
ACDBBLOCKREPETAG
1070
     1
1071
       48
1005
122898
  0
ARC
  5
122899
  8
OBJECT
 10
6200.6872746716735
 20
-749.40809941010195
 30
0.0
 40
170.6350503965856
 50
137.44134459184301
 51
149.91949581337221
1001
ACDBBLOCKREPETAG
1070
     1
1071
       52
1005
122899
  0
ARC
  5
12289A
  8
OBJECT
 10
6200.6872746716735
 20
-642.59190058988645
 30
0.0
 40
170.6350503965856
 50
210.08050418662771
 51
222.55865540815699
1001
ACDBBLOCKREPETAG
1070
     1
1071
       53
1005
12289A
  0
ARC
  5
12289B
  8
OBJECT
 10
5799.3127253283274
 20
-749.40809941010195
 30
0.0
 40
170.6350503965856
 50
30.080504186787142
 51
42.558655408456282
1001
ACDBBLOCKREPETAG
1070
     1
1071
       54
1005
12289B
  0
ARC
  5
12289C
  8
OBJECT
 10
5799.3127253283274
 20
-642.59190058988645
 30
0.0
 40
170.6350503965856
 50
317.44134459154373
 51
329.9194958132129
1001
ACDBBLOCKREPETAG
1070
     1
1071
       55
1005
12289C
  0
POINT
  5
12289D
  8
DOTS
 10
6000.0
 20
-754.9999999999942
 30
0.0
1001
ACDBBLOCKREPETAG
1070
     1
1071
      184
1005
12289D
  0
LINE
  5
12289E
  8
OBJECT
 10
5969.4199755553018
 20
-243.89888500818171
 30
0.0
 11
5979.8564918232369
 21
-222.48688253356801
 31
0.0
1001
ACDBBLOCKREPETAG
1070
     1
1071
      305
1005
12289E
  0
LINE
  5
12289F
  8
OBJECT
 10
5965.2972169006089
 20
-240.71813901882729
 30
0.0
 11
5973.9071022665084
 21
-223.05373004430751
 31
0.0
1001
ACDBBLOCKREPETAG
1070
     1
1071
      306
1005
12289F
  0
LINE
  5
1228A0
  8
OBJECT
 10
6024.1029330933034
 20
-243.80694712371681
 30
0.0
 11
6020.6596569999956
 21
-232.55462199999889
 31
0.0
1001
ACDBBLOCKREPETAG
1070
     1
1071
      307
1005
1228A0
  0
ARC
  5
1228A1
  8
OBJECT
 10
5976.5796953073141
 20
-207.1289369828437
 30
0.0
 40
60.031113246032611
 50
314.07020130418567
 51
322.33936106089681
1001
ACDBBLOCKREPETAG
1070
     1
1071
      308
1005
1228A1
  0
LINE
  5
1228A2
  8
OBJECT
 10
5986.7927499013749
 20
-218.22553374208019
 30
0.0
 11
6020.6596569999956
 21
-232.5546219999969
 31
0.0
1001
ACDBBLOCKREPETAG
1070
     1
1071
      309
1005
1228A2
  0
ARC
  5
1228A3
  8
OBJECT
 10
5982.8961697618997
 20
-227.4351299990567
 30
0.0
 40
10.0
 50
67.066778292911366
 51
154.0147343702935
1001
ACDBBLOCKREPETAG
1070
     1
1071
      310
1005
1228A3
  0
ARC
  5
1228A4
  8
OBJECT
 10
5986.1488390381273
 20
-225.55386256729159
 30
0.0
 40
7.0
 50
67.066778292911366
 51
154.0147337749826
1001
ACDBBLOCKREPETAG
1070
     1
1071
      311
1005
1228A4
  0
CIRCLE
  5
1228A5
  8
OBJECT
 10
6000.0
 20
-199.99999999999909
 30
0.0
 40
53.5
1001
ACDBBLOCKREPETAG
1070
     1
1071
      340
1005
1228A5
  0
POINT
  5
1228A6
  8
DOTS
 10
6000.0
 20
-199.99999999999909
 30
0.0
 50
270.0
1001
ACDBBLOCKREPETAG
1070
     1
1071
      153
1005
1228A6
  0
ARC
  5
1228A7
  8
OBJECT
 10
6000.0
 20
-199.99999999999909
 30
0.0
 40
50.0
 50
298.81994300000417
 51
228.52376955965491
1001
ACDBBLOCKREPETAG
1070
     1
1071
       48
1005
1228A7
  0
LINE
  5
1228A8
  8
CENTER
 10
6080.0
 20
-199.99999999999909
 30
0.0
 11
5920.0
 21
-199.99999999999909
 31
0.0
1001
ACDBBLOCKREPETAG
1070
     1
1071
       49
1005
1228A8
  0
LINE
  5
1228A9
  8
CENTER
 10
6000.0
 20
-279.99999999999909
 30
0.0
 11
6000.0
 21
-104.9999999999991
 31
0.0
1001
ACDBBLOCKREPETAG
1070
     1
1071
       50
1005
1228A9
  0
CIRCLE
  5
1228AA
  8
OBJECT
 10
6000.0
 20
-199.99999999999909
 30
0.0
 40
70.0
1001
ACDBBLOCKREPETAG
1070
     1
1071
       51
1005
1228AA
  0
CIRCLE
  5
1228AB
  8
OBJECT
 10
6000.0
 20
-199.99999999999909
 30
0.0
 40
77.0
1001
ACDBBLOCKREPETAG
1070
     1
1071
       52
1005
1228AB
  0
ARC
  5
1228AC
  8
OBJECT
 10
6000.0
 20
-199.99999999999909
 30
0.0
 40
80.0
 50
50.80503257388439
 51
129.1949674261156
1001
ACDBBLOCKREPETAG
1070
     1
1071
       53
1005
1228AC
  0
LINE
  5
1228AD
  8
OBJECT
 10
6045.6618002273253
 20
-137.99999999999909
 30
0.0
 11
6080.0
 21
-137.99999999999909
 31
0.0
1001
ACDBBLOCKREPETAG
1070
     1
1071
       54
1005
1228AD
  0
LINE
  5
1228AE
  8
OBJECT
 10
6062.0
 20
-261.99999999999909
 30
0.0
 11
6080.0
 21
-261.99999999999909
 31
0.0
1001
ACDBBLOCKREPETAG
1070
     1
1071
       55
1005
1228AE
  0
LINE
  5
1228AF
  8
OBJECT
 10
6062.0
 20
-261.99999999999909
 30
0.0
 11
6062.0
 21
-279.99999999999909
 31
0.0
1001
ACDBBLOCKREPETAG
1070
     1
1071
       57
1005
1228AF
  0
LINE
  5
1228B0
  8
OBJECT
 10
5938.0
 20
-261.99999999999909
 30
0.0
 11
5938.0
 21
-279.99999999999909
 31
0.0
1001
ACDBBLOCKREPETAG
1070
     1
1071
       58
1005
1228B0
  0
LINE
  5
1228B1
  8
OBJECT
 10
5938.0
 20
-261.99999999999909
 30
0.0
 11
5920.0
 21
-261.99999999999909
 31
0.0
1001
ACDBBLOCKREPETAG
1070
     1
1071
       60
1005
1228B1
  0
LINE
  5
1228B2
  8
OBJECT
 10
5954.3381997726738
 20
-137.99999999999909
 30
0.0
 11
5920.0
 21
-137.99999999999909
 31
0.0
1001
ACDBBLOCKREPETAG
1070
     1
1071
       61
1005
1228B2
  0
LINE
  5
1228B3
  8
OBJECT
 10
5945.5527778486367
 20
-254.44722215136329
 30
0.0
 11
5938.0
 21
-261.99999999999909
 31
0.0
1001
ACDBBLOCKREPETAG
1070
     1
1071
       42
1005
1228B3
  0
LINE
  5
1228B4
  8
OBJECT
 10
6054.4472221513633
 20
-254.44722215136329
 30
0.0
 11
6062.0
 21
-261.99999999999909
 31
0.0
1001
ACDBBLOCKREPETAG
1070
     1
1071
       43
1005
1228B4
  0
LINE
  5
1228B5
  8
OBJECT
 10
5797.0000000000136
 20
-261.99999999999909
 30
0.0
 11
5790.0000000000146
 21
-261.99999999999909
 31
0.0
1001
ACDBBLOCKREPETAG
1070
     1
1071
       85
1005
1228B5
  0
LINE
  5
1228B6
  8
OBJECT
 10
5790.0000000000146
 20
-261.99999999999909
 30
0.0
 11
5790.0000000000146
 21
-137.99999999999909
 31
0.0
1001
ACDBBLOCKREPETAG
1070
     1
1071
       86
1005
1228B6
  0
LINE
  5
1228B7
  8
OBJECT
 10
5790.0000000000146
 20
-137.99999999999909
 30
0.0
 11
5797.0000000000136
 21
-137.99999999999909
 31
0.0
1001
ACDBBLOCKREPETAG
1070
     1
1071
       87
1005
1228B7
  0
LINE
  5
1228B8
  8
OBJECT
 10
5797.0000000000136
 20
-137.99999999999909
 30
0.0
 11
5797.0000000000136
 21
-261.99999999999909
 31
0.0
1001
ACDBBLOCKREPETAG
1070
     1
1071
       88
1005
1228B8
  0
LINE
  5
1228B9
  8
CENTER
 10
5775.0000000000146
 20
-199.99999999999909
 30
0.0
 11
5920.0
 21
-199.99999999999909
 31
0.0
1001
ACDBBLOCKREPETAG
1070
     1
1071
       89
1005
1228B9
  0
LINE
  5
1228BA
  8
OBJECT
 10
5850.0000250358144
 20
-154.9999999999954
 30
0.0
 11
5914.0
 21
-154.99999999999909
 31
0.0
1001
ACDBBLOCKREPETAG
1070
     1
1071
       90
1005
1228BA
  0
LINE
  5
1228BB
  8
OBJECT
 10
5850.0000250358144
 20
-244.99999999999909
 30
0.0
 11
5914.0
 21
-244.99999999999909
 31
0.0
1001
ACDBBLOCKREPETAG
1070
     1
1071
       91
1005
1228BB
  0
LINE
  5
1228BC
  8
OBJECT
 10
5797.0000000000136
 20
-258.99999999999909
 30
0.0
 11
5833.0000000000146
 21
-258.99999999999909
 31
0.0
1001
ACDBBLOCKREPETAG
1070
     1
1071
       92
1005
1228BC
  0
LINE
  5
1228BD
  8
OBJECT
 10
5833.0000000000146
 20
-258.99999999999909
 30
0.0
 11
5833.0000000000146
 21
-140.99999999999909
 31
0.0
1001
ACDBBLOCKREPETAG
1070
     1
1071
       93
1005
1228BD
  0
LINE
  5
1228BE
  8
OBJECT
 10
5833.0000000000146
 20
-140.99999999999909
 30
0.0
 11
5797.0000000000136
 21
-140.99999999999909
 31
0.0
1001
ACDBBLOCKREPETAG
1070
     1
1071
       94
1005
1228BE
  0
LINE
  5
1228BF
  8
OBJECT
 10
5837.0000000000127
 20
-254.49999999999909
 30
0.0
 11
5850.0000000000146
 21
-254.49999999999909
 31
0.0
1001
ACDBBLOCKREPETAG
1070
     1
1071
       95
1005
1228BF
  0
LINE
  5
1228C0
  8
OBJECT
 10
5850.0000000000146
 20
-145.49999999999909
 30
0.0
 11
5837.0000000000127
 21
-145.49999999999909
 31
0.0
1001
ACDBBLOCKREPETAG
1070
     1
1071
       96
1005
1228C0
  0
LINE
  5
1228C1
  8
OBJECT
 10
5837.0000000000127
 20
-145.49999999999909
 30
0.0
 11
5837.0000000000127
 21
-254.49999999999909
 31
0.0
1001
ACDBBLOCKREPETAG
1070
     1
1071
       97
1005
1228C1
  0
LINE
  5
1228C2
  8
OBJECT
 10
5833.0000000000146
 20
-258.99999999999909
 30
0.0
 11
5837.0000000000127
 21
-254.49999999999909
 31
0.0
1001
ACDBBLOCKREPETAG
1070
     1
1071
       98
1005
1228C2
  0
LINE
  5
1228C3
  8
OBJECT
 10
5833.0000000000146
 20
-140.99999999999909
 30
0.0
 11
5837.0000000000127
 21
-145.49999999999909
 31
0.0
1001
ACDBBLOCKREPETAG
1070
     1
1071
       99
1005
1228C3
  0
LINE
  5
1228C4
  8
OBJECT
 10
5917.0
 20
-261.99999999999909
 30
0.0
 11
5920.0
 21
-261.99999999999909
 31
0.0
1001
ACDBBLOCKREPETAG
1070
     1
1071
      100
1005
1228C4
  0
ARC
  5
1228C5
  8
OBJECT
 10
5917.0
 20
-258.99999999999909
 30
0.0
 40
3.0
 50
180.0
 51
270.0
1001
ACDBBLOCKREPETAG
1070
     1
1071
      101
1005
1228C5
  0
LINE
  5
1228C6
  8
OBJECT
 10
5920.0
 20
-137.99999999999909
 30
0.0
 11
5917.0
 21
-137.99999999999909
 31
0.0
1001
ACDBBLOCKREPETAG
1070
     1
1071
      102
1005
1228C6
  0
ARC
  5
1228C7
  8
OBJECT
 10
5917.0
 20
-140.99999999999909
 30
0.0
 40
3.0
 50
90.0
 51
180.0
1001
ACDBBLOCKREPETAG
1070
     1
1071
      103
1005
1228C7
  0
LINE
  5
1228C8
  8
OBJECT
 10
5914.0
 20
-140.99999999999909
 30
0.0
 11
5914.0
 21
-189.6772096796403
 31
0.0
1001
ACDBBLOCKREPETAG
1070
     1
1071
      104
1005
1228C8
  0
LINE
  5
1228C9
  8
OBJECT
 10
5914.0
 20
-210.3227903203578
 30
0.0
 11
5914.0
 21
-258.99999999999909
 31
0.0
1001
ACDBBLOCKREPETAG
1070
     1
1071
      105
1005
1228C9
  0
LINE
  5
1228CA
  8
HIDDEN
 10
5842.0000000000127
 20
-244.49999999999909
 30
0.0
 11
5842.0000000000127
 21
-155.49999999999909
 31
0.0
1001
ACDBBLOCKREPETAG
1070
     1
1071
      106
1005
1228CA
  0
LINE
  5
1228CB
  8
OBJECT
 10
5850.0000250358144
 20
-145.50004907618759
 30
0.0
 11
5850.0000250358144
 21
-254.50004907618771
 31
0.0
1001
ACDBBLOCKREPETAG
1070
     1
1071
      108
1005
1228CB
  0
ARC
  5
1228CC
  8
OBJECT
 10
5870.1999999999753
 20
-199.99999999999909
 30
0.0
 40
45.000000000000547
 50
270.0
 51
90.0
1001
ACDBBLOCKREPETAG
1070
     1
1071
      109
1005
1228CC
  0
LINE
  5
1228CD
  8
CENTER
 10
6000.0
 20
-300.99999999999898
 30
0.0
 11
6000.0
 21
-279.99999999999909
 31
0.0
1001
ACDBBLOCKREPETAG
1070
     1
1071
        0
1005
1228CD
  0
LINE
  5
1228CE
  8
OBJECT
 10
6062.0
 20
-283.0
 30
0.0
 11
6062.0
 21
-279.99999999999909
 31
0.0
1001
ACDBBLOCKREPETAG
1070
     1
1071
        1
1005
1228CE
  0
ARC
  5
1228CF
  8
OBJECT
 10
6059.0
 20
-283.0
 30
0.0
 40
3.0
 50
270.0
 51
0.0
1001
ACDBBLOCKREPETAG
1070
     1
1071
        2
1005
1228CF
  0
LINE
  5
1228D0
  8
OBJECT
 10
5938.0
 20
-279.99999999999909
 30
0.0
 11
5938.0
 21
-282.99999999999818
 31
0.0
1001
ACDBBLOCKREPETAG
1070
     1
1071
        3
1005
1228D0
  0
ARC
  5
1228D1
  8
OBJECT
 10
5941.0
 20
-282.99999999999818
 30
0.0
 40
3.0
 50
180.0
 51
270.0
1001
ACDBBLOCKREPETAG
1070
     1
1071
        4
1005
1228D1
  0
LINE
  5
1228D2
  8
OBJECT
 10
5941.0
 20
-285.99999999999818
 30
0.0
 11
6059.0
 21
-286.0
 31
0.0
1001
ACDBBLOCKREPETAG
1070
     1
1071
        5
1005
1228D2
  0
LINE
  5
1228D3
  8
OBJECT
 10
6202.9999999999864
 20
-137.99999999999909
 30
0.0
 11
6209.9999999999864
 21
-137.99999999999909
 31
0.0
1001
ACDBBLOCKREPETAG
1070
     1
1071
       85
1005
1228D3
  0
LINE
  5
1228D4
  8
OBJECT
 10
6209.9999999999864
 20
-137.99999999999909
 30
0.0
 11
6209.9999999999864
 21
-261.99999999999909
 31
0.0
1001
ACDBBLOCKREPETAG
1070
     1
1071
       86
1005
1228D4
  0
LINE
  5
1228D5
  8
OBJECT
 10
6209.9999999999864
 20
-261.99999999999909
 30
0.0
 11
6202.9999999999864
 21
-261.99999999999909
 31
0.0
1001
ACDBBLOCKREPETAG
1070
     1
1071
       87
1005
1228D5
  0
LINE
  5
1228D6
  8
OBJECT
 10
6202.9999999999864
 20
-261.99999999999909
 30
0.0
 11
6202.9999999999864
 21
-137.99999999999909
 31
0.0
1001
ACDBBLOCKREPETAG
1070
     1
1071
       88
1005
1228D6
  0
LINE
  5
1228D7
  8
CENTER
 10
6224.9999999999873
 20
-199.99999999999909
 30
0.0
 11
6080.0
 21
-199.99999999999909
 31
0.0
1001
ACDBBLOCKREPETAG
1070
     1
1071
       89
1005
1228D7
  0
LINE
  5
1228D8
  8
OBJECT
 10
6149.9999749641856
 20
-245.0000000000027
 30
0.0
 11
6086.0
 21
-244.99999999999909
 31
0.0
1001
ACDBBLOCKREPETAG
1070
     1
1071
       90
1005
1228D8
  0
LINE
  5
1228D9
  8
OBJECT
 10
6149.9999749641856
 20
-154.99999999999909
 30
0.0
 11
6086.0
 21
-154.99999999999909
 31
0.0
1001
ACDBBLOCKREPETAG
1070
     1
1071
       91
1005
1228D9
  0
LINE
  5
1228DA
  8
OBJECT
 10
6202.9999999999864
 20
-140.99999999999909
 30
0.0
 11
6166.9999999999873
 21
-140.99999999999909
 31
0.0
1001
ACDBBLOCKREPETAG
1070
     1
1071
       92
1005
1228DA
  0
LINE
  5
1228DB
  8
OBJECT
 10
6166.9999999999873
 20
-140.99999999999909
 30
0.0
 11
6166.9999999999873
 21
-258.99999999999909
 31
0.0
1001
ACDBBLOCKREPETAG
1070
     1
1071
       93
1005
1228DB
  0
LINE
  5
1228DC
  8
OBJECT
 10
6166.9999999999873
 20
-258.99999999999909
 30
0.0
 11
6202.9999999999864
 21
-258.99999999999909
 31
0.0
1001
ACDBBLOCKREPETAG
1070
     1
1071
       94
1005
1228DC
  0
LINE
  5
1228DD
  8
OBJECT
 10
6162.9999999999864
 20
-145.49999999999909
 30
0.0
 11
6149.9999999999873
 21
-145.49999999999909
 31
0.0
1001
ACDBBLOCKREPETAG
1070
     1
1071
       95
1005
1228DD
  0
LINE
  5
1228DE
  8
OBJECT
 10
6149.9999999999873
 20
-254.49999999999909
 30
0.0
 11
6162.9999999999864
 21
-254.49999999999909
 31
0.0
1001
ACDBBLOCKREPETAG
1070
     1
1071
       96
1005
1228DE
  0
LINE
  5
1228DF
  8
OBJECT
 10
6162.9999999999864
 20
-254.49999999999909
 30
0.0
 11
6162.9999999999864
 21
-145.49999999999909
 31
0.0
1001
ACDBBLOCKREPETAG
1070
     1
1071
       97
1005
1228DF
  0
LINE
  5
1228E0
  8
OBJECT
 10
6166.9999999999873
 20
-140.99999999999909
 30
0.0
 11
6162.9999999999864
 21
-145.49999999999909
 31
0.0
1001
ACDBBLOCKREPETAG
1070
     1
1071
       98
1005
1228E0
  0
LINE
  5
1228E1
  8
OBJECT
 10
6166.9999999999873
 20
-258.99999999999909
 30
0.0
 11
6162.9999999999864
 21
-254.49999999999909
 31
0.0
1001
ACDBBLOCKREPETAG
1070
     1
1071
       99
1005
1228E1
  0
LINE
  5
1228E2
  8
OBJECT
 10
6083.0
 20
-137.99999999999909
 30
0.0
 11
6080.0
 21
-137.99999999999909
 31
0.0
1001
ACDBBLOCKREPETAG
1070
     1
1071
      100
1005
1228E2
  0
ARC
  5
1228E3
  8
OBJECT
 10
6083.0
 20
-140.99999999999909
 30
0.0
 40
3.0
 50
0.0
 51
90.0
1001
ACDBBLOCKREPETAG
1070
     1
1071
      101
1005
1228E3
  0
LINE
  5
1228E4
  8
OBJECT
 10
6080.0
 20
-261.99999999999909
 30
0.0
 11
6083.0
 21
-261.99999999999909
 31
0.0
1001
ACDBBLOCKREPETAG
1070
     1
1071
      102
1005
1228E4
  0
ARC
  5
1228E5
  8
OBJECT
 10
6083.0
 20
-258.99999999999909
 30
0.0
 40
3.0
 50
270.0
 51
0.0
1001
ACDBBLOCKREPETAG
1070
     1
1071
      103
1005
1228E5
  0
LINE
  5
1228E6
  8
OBJECT
 10
6086.0
 20
-258.99999999999909
 30
0.0
 11
6086.0
 21
-210.3227903203578
 31
0.0
1001
ACDBBLOCKREPETAG
1070
     1
1071
      104
1005
1228E6
  0
LINE
  5
1228E7
  8
OBJECT
 10
6086.0
 20
-189.6772096796403
 30
0.0
 11
6086.0
 21
-140.99999999999909
 31
0.0
1001
ACDBBLOCKREPETAG
1070
     1
1071
      105
1005
1228E7
  0
LINE
  5
1228E8
  8
HIDDEN
 10
6157.9999999999873
 20
-155.49999999999909
 30
0.0
 11
6157.9999999999873
 21
-244.49999999999909
 31
0.0
1001
ACDBBLOCKREPETAG
1070
     1
1071
      106
1005
1228E8
  0
LINE
  5
1228E9
  8
OBJECT
 10
6149.9999749641856
 20
-254.4999509238105
 30
0.0
 11
6149.9999749641856
 21
-145.4999509238105
 31
0.0
1001
ACDBBLOCKREPETAG
1070
     1
1071
      108
1005
1228E9
  0
ARC
  5
1228EA
  8
OBJECT
 10
6129.8000000000247
 20
-199.99999999999909
 30
0.0
 40
45.000000000000547
 50
90.0
 51
270.0
1001
ACDBBLOCKREPETAG
1070
     1
1071
      109
1005
1228EA
  0
LINE
  5
1228EB
  8
OBJECT
 10
5797.0000000000136
 20
-583.0
 30
0.0
 11
5790.0000000000146
 21
-583.0
 31
0.0
1001
ACDBBLOCKREPETAG
1070
     1
1071
       83
1005
1228EB
  0
LINE
  5
1228EC
  8
OBJECT
 10
5790.0000000000146
 20
-583.0
 30
0.0
 11
5790.0000000000146
 21
-707.0
 31
0.0
1001
ACDBBLOCKREPETAG
1070
     1
1071
       84
1005
1228EC
  0
LINE
  5
1228ED
  8
OBJECT
 10
5914.0000000000146
 20
-653.3502637757274
 30
0.0
 11
5914.0000000000146
 21
-755.00000000000102
 31
0.0
1001
ACDBBLOCKREPETAG
1070
     1
1071
       85
1005
1228ED
  0
LINE
  5
1228EE
  8
OBJECT
 10
5790.0000000000146
 20
-707.0
 30
0.0
 11
5797.0000000000136
 21
-707.0
 31
0.0
1001
ACDBBLOCKREPETAG
1070
     1
1071
       86
1005
1228EE
  0
LINE
  5
1228EF
  8
OBJECT
 10
5797.0000000000136
 20
-707.0
 30
0.0
 11
5797.0000000000136
 21
-583.0
 31
0.0
1001
ACDBBLOCKREPETAG
1070
     1
1071
       87
1005
1228EF
  0
LINE
  5
1228F0
  8
CENTER
 10
5865.0000000000146
 20
-645.0000000000008
 30
0.0
 11
5775.0000000000146
 21
-645.0
 31
0.0
1001
ACDBBLOCKREPETAG
1070
     1
1071
       88
1005
1228F0
  0
LINE
  5
1228F1
  8
OBJECT
 10
5920.0000000000182
 20
-758.0
 30
0.0
 11
5917.0000000000136
 21
-758.0000000000008
 31
0.0
1001
ACDBBLOCKREPETAG
1070
     1
1071
       89
1005
1228F1
  0
ARC
  5
1228F2
  8
OBJECT
 10
5917.0000000000136
 20
-755.00000000000102
 30
0.0
 40
3.0
 50
180.0
 51
270.0
1001
ACDBBLOCKREPETAG
1070
     1
1071
       90
1005
1228F2
  0
LINE
  5
1228F3
  8
OBJECT
 10
5797.0000000000136
 20
-586.0
 30
0.0
 11
5833.0000000000146
 21
-586.0000000000008
 31
0.0
1001
ACDBBLOCKREPETAG
1070
     1
1071
       91
1005
1228F3
  0
LINE
  5
1228F4
  8
OBJECT
 10
5833.0000000000146
 20
-586.0000000000008
 30
0.0
 11
5833.0000000000146
 21
-704.0000000000008
 31
0.0
1001
ACDBBLOCKREPETAG
1070
     1
1071
       92
1005
1228F4
  0
LINE
  5
1228F5
  8
OBJECT
 10
5837.0000000000127
 20
-590.5000000000008
 30
0.0
 11
5837.0000000000127
 21
-699.5000000000008
 31
0.0
1001
ACDBBLOCKREPETAG
1070
     1
1071
       93
1005
1228F5
  0
LINE
  5
1228F6
  8
OBJECT
 10
5837.0000000000127
 20
-590.5000000000008
 30
0.0
 11
5850.0000000000146
 21
-590.5000000000008
 31
0.0
1001
ACDBBLOCKREPETAG
1070
     1
1071
       94
1005
1228F6
  0
LINE
  5
1228F7
  8
OBJECT
 10
5833.0000000000146
 20
-704.0000000000008
 30
0.0
 11
5797.0000000000136
 21
-704.0
 31
0.0
1001
ACDBBLOCKREPETAG
1070
     1
1071
       95
1005
1228F7
  0
LINE
  5
1228F8
  8
OBJECT
 10
5833.0000000000146
 20
-586.0000000000008
 30
0.0
 11
5837.0000000000127
 21
-590.5000000000008
 31
0.0
1001
ACDBBLOCKREPETAG
1070
     1
1071
       96
1005
1228F8
  0
LINE
  5
1228F9
  8
OBJECT
 10
5850.0000000000146
 20
-590.5000000000008
 30
0.0
 11
5850.0000000000146
 21
-675.74491827928784
 31
0.0
1001
ACDBBLOCKREPETAG
1070
     1
1071
       97
1005
1228F9
  0
ARC
  5
1228FA
  8
OBJECT
 10
5847.2000000000153
 20
-685.0000000000008
 30
0.0
 40
85.0
 50
36.869897645906562
 51
88.112268108168848
1001
ACDBBLOCKREPETAG
1070
     1
1071
       98
1005
1228FA
  0
LINE
  5
1228FB
  8
HIDDEN
 10
5842.0000000000127
 20
-600.50000000000068
 30
0.0
 11
5842.0000000000127
 21
-689.50000000000091
 31
0.0
1001
ACDBBLOCKREPETAG
1070
     1
1071
      100
1005
1228FB
  0
LINE
  5
1228FC
  8
OBJECT
 10
5914.0000000000146
 20
-751.07945073181781
 30
0.0
 11
5843.3686800789692
 21
-699.5000000000008
 31
0.0
1001
ACDBBLOCKREPETAG
1070
     1
1071
      101
1005
1228FC
  0
LINE
  5
1228FD
  8
OBJECT
 10
5920.0000000000182
 20
-634.0
 30
0.0
 11
5915.2000000000162
 21
-634.0
 31
0.0
1001
ACDBBLOCKREPETAG
1070
     1
1071
      102
1005
1228FD
  0
LINE
  5
1228FE
  8
OBJECT
 10
5914.0000000000146
 20
-653.35026377573013
 30
0.0
 11
5915.2000000000162
 21
-634.0
 31
0.0
1001
ACDBBLOCKREPETAG
1070
     1
1071
      103
1005
1228FE
  0
LINE
  5
1228FF
  8
OBJECT
 10
5837.0000000000127
 20
-699.5000000000008
 30
0.0
 11
5843.3686800789692
 21
-699.5000000000008
 31
0.0
1001
ACDBBLOCKREPETAG
1070
     1
1071
      104
1005
1228FF
  0
LINE
  5
122900
  8
OBJECT
 10
5833.0000000000146
 20
-704.0000000000008
 30
0.0
 11
5837.0000000000127
 21
-699.5000000000008
 31
0.0
1001
ACDBBLOCKREPETAG
1070
     1
1071
      105
1005
122900
  0
CIRCLE
  5
122901
  8
OBJECT
 10
6000.0
 20
-696.0
 30
0.0
 40
62.0
1001
ACDBBLOCKREPETAG
1070
     1
1071
        0
1005
122901
  0
LINE
  5
122902
  8
OBJECT
 10
6202.9999999999864
 20
-583.0000000000008
 30
0.0
 11
6209.9999999999864
 21
-583.0000000000008
 31
0.0
1001
ACDBBLOCKREPETAG
1070
     1
1071
       83
1005
122902
  0
LINE
  5
122903
  8
OBJECT
 10
6209.9999999999864
 20
-583.0000000000008
 30
0.0
 11
6209.9999999999864
 21
-707.00000000000091
 31
0.0
1001
ACDBBLOCKREPETAG
1070
     1
1071
       84
1005
122903
  0
LINE
  5
122904
  8
OBJECT
 10
6085.9999999999864
 20
-653.3502637757274
 30
0.0
 11
6085.9999999999864
 21
-755.00000000000102
 31
0.0
1001
ACDBBLOCKREPETAG
1070
     1
1071
       85
1005
122904
  0
LINE
  5
122905
  8
OBJECT
 10
6209.9999999999864
 20
-707.00000000000091
 30
0.0
 11
6202.9999999999864
 21
-707.00000000000091
 31
0.0
1001
ACDBBLOCKREPETAG
1070
     1
1071
       86
1005
122905
  0
LINE
  5
122906
  8
OBJECT
 10
6202.9999999999864
 20
-707.00000000000091
 30
0.0
 11
6202.9999999999864
 21
-583.0000000000008
 31
0.0
1001
ACDBBLOCKREPETAG
1070
     1
1071
       87
1005
122906
  0
LINE
  5
122907
  8
CENTER
 10
6134.9999999999873
 20
-645.0000000000008
 30
0.0
 11
6224.9999999999873
 21
-645.0000000000008
 31
0.0
1001
ACDBBLOCKREPETAG
1070
     1
1071
       88
1005
122907
  0
LINE
  5
122908
  8
OBJECT
 10
6079.9999999999818
 20
-758.0
 30
0.0
 11
6082.9999999999864
 21
-758.0000000000008
 31
0.0
1001
ACDBBLOCKREPETAG
1070
     1
1071
       89
1005
122908
  0
ARC
  5
122909
  8
OBJECT
 10
6082.9999999999864
 20
-755.00000000000102
 30
0.0
 40
3.0
 50
270.0
 51
0.0
1001
ACDBBLOCKREPETAG
1070
     1
1071
       90
1005
122909
  0
LINE
  5
12290A
  8
OBJECT
 10
6202.9999999999864
 20
-586.0000000000008
 30
0.0
 11
6166.9999999999873
 21
-586.0000000000008
 31
0.0
1001
ACDBBLOCKREPETAG
1070
     1
1071
       91
1005
12290A
  0
LINE
  5
12290B
  8
OBJECT
 10
6166.9999999999873
 20
-586.0000000000008
 30
0.0
 11
6166.9999999999873
 21
-704.0000000000008
 31
0.0
1001
ACDBBLOCKREPETAG
1070
     1
1071
       92
1005
12290B
  0
LINE
  5
12290C
  8
OBJECT
 10
6162.9999999999864
 20
-590.5000000000008
 30
0.0
 11
6162.9999999999864
 21
-699.5000000000008
 31
0.0
1001
ACDBBLOCKREPETAG
1070
     1
1071
       93
1005
12290C
  0
LINE
  5
12290D
  8
OBJECT
 10
6162.9999999999864
 20
-590.5000000000008
 30
0.0
 11
6149.9999999999873
 21
-590.5000000000008
 31
0.0
1001
ACDBBLOCKREPETAG
1070
     1
1071
       94
1005
12290D
  0
LINE
  5
12290E
  8
OBJECT
 10
6166.9999999999873
 20
-704.0000000000008
 30
0.0
 11
6202.9999999999864
 21
-704.0000000000008
 31
0.0
1001
ACDBBLOCKREPETAG
1070
     1
1071
       95
1005
12290E
  0
LINE
  5
12290F
  8
OBJECT
 10
6166.9999999999873
 20
-586.0000000000008
 30
0.0
 11
6162.9999999999864
 21
-590.5000000000008
 31
0.0
1001
ACDBBLOCKREPETAG
1070
     1
1071
       96
1005
12290F
  0
LINE
  5
122910
  8
OBJECT
 10
6149.9999999999873
 20
-590.5000000000008
 30
0.0
 11
6149.9999999999873
 21
-675.74491827928784
 31
0.0
1001
ACDBBLOCKREPETAG
1070
     1
1071
       97
1005
122910
  0
ARC
  5
122911
  8
OBJECT
 10
6152.7999999999838
 20
-685.0000000000008
 30
0.0
 40
85.0
 50
91.887731891831123
 51
143.1301023540934
1001
ACDBBLOCKREPETAG
1070
     1
1071
       98
1005
122911
  0
LINE
  5
122912
  8
HIDDEN
 10
6157.9999999999873
 20
-600.50000000000068
 30
0.0
 11
6157.9999999999873
 21
-689.50000000000091
 31
0.0
1001
ACDBBLOCKREPETAG
1070
     1
1071
      100
1005
122912
  0
LINE
  5
122913
  8
OBJECT
 10
6085.9999999999864
 20
-751.07945073181781
 30
0.0
 11
6156.6313199210299
 21
-699.5000000000008
 31
0.0
1001
ACDBBLOCKREPETAG
1070
     1
1071
      101
1005
122913
  0
LINE
  5
122914
  8
OBJECT
 10
6079.9999999999818
 20
-634.0
 30
0.0
 11
6084.7999999999856
 21
-634.0
 31
0.0
1001
ACDBBLOCKREPETAG
1070
     1
1071
      102
1005
122914
  0
LINE
  5
122915
  8
OBJECT
 10
6085.9999999999864
 20
-653.35026377573013
 30
0.0
 11
6084.7999999999856
 21
-634.0
 31
0.0
1001
ACDBBLOCKREPETAG
1070
     1
1071
      103
1005
122915
  0
LINE
  5
122916
  8
OBJECT
 10
6162.9999999999864
 20
-699.5000000000008
 30
0.0
 11
6156.6313199210299
 21
-699.5000000000008
 31
0.0
1001
ACDBBLOCKREPETAG
1070
     1
1071
      104
1005
122916
  0
LINE
  5
122917
  8
OBJECT
 10
6166.9999999999873
 20
-704.0000000000008
 30
0.0
 11
6162.9999999999864
 21
-699.5000000000008
 31
0.0
1001
ACDBBLOCKREPETAG
1070
     1
1071
      105
1005
122917
  0
LINE
  5
122918
  8
OBJECT
 10
3923.0
 20
-570.99999999999432
 30
0.0
 11
3923.0
 21
-549.99999999999432
 31
0.0
1001
ACDBBLOCKREPETAG
1070
     1
1071
       36
1005
122918
  0
LINE
  5
122919
  8
OBJECT
 10
3923.0
 20
-549.99999999999432
 30
0.0
 11
4077.0
 21
-549.99999999999432
 31
0.0
1001
ACDBBLOCKREPETAG
1070
     1
1071
       37
1005
122919
  0
LINE
  5
12291A
  8
HIDDEN
 10
3943.0
 20
-619.99999999999432
 30
0.0
 11
4057.0
 21
-619.99999999999432
 31
0.0
1001
ACDBBLOCKREPETAG
1070
     1
1071
       38
1005
12291A
  0
LINE
  5
12291B
  8
OBJECT
 10
4077.0
 20
-549.99999999999432
 30
0.0
 11
4077.0
 21
-570.99999999999432
 31
0.0
1001
ACDBBLOCKREPETAG
1070
     1
1071
       39
1005
12291B
  0
LINE
  5
12291C
  8
OBJECT
 10
4077.0
 20
-570.99999999999432
 30
0.0
 11
3923.0
 21
-570.99999999999432
 31
0.0
1001
ACDBBLOCKREPETAG
1070
     1
1071
       40
1005
12291C
  0
LINE
  5
12291D
  8
CENTER
 10
4000.0
 20
-534.99999999999432
 30
0.0
 11
4000.0
 21
-769.9999999999942
 31
0.0
1001
ACDBBLOCKREPETAG
1070
     1
1071
       41
1005
12291D
  0
LINE
  5
12291E
  8
OBJECT
 10
3928.0
 20
-570.99999999999432
 30
0.0
 11
3928.0
 21
-633.99999999999432
 31
0.0
1001
ACDBBLOCKREPETAG
1070
     1
1071
       42
1005
12291E
  0
LINE
  5
12291F
  8
OBJECT
 10
4072.0
 20
-633.99999999999432
 30
0.0
 11
4072.0
 21
-570.99999999999432
 31
0.0
1001
ACDBBLOCKREPETAG
1070
     1
1071
       43
1005
12291F
  0
LINE
  5
122920
  8
OBJECT
 10
3920.0
 20
-757.9999999999942
 30
0.0
 11
4080.0
 21
-757.9999999999942
 31
0.0
1001
ACDBBLOCKREPETAG
1070
     1
1071
       44
1005
122920
  0
LINE
  5
122921
  8
OBJECT
 10
4080.0
 20
-633.99999999999432
 30
0.0
 11
3920.0
 21
-633.99999999999432
 31
0.0
1001
ACDBBLOCKREPETAG
1070
     1
1071
       45
1005
122921
  0
LINE
  5
122922
  8
OBJECT
 10
3920.0
 20
-757.9999999999942
 30
0.0
 11
3920.0
 21
-769.9999999999942
 31
0.0
1001
ACDBBLOCKREPETAG
1070
     1
1071
       46
1005
122922
  0
LINE
  5
122923
  8
OBJECT
 10
3920.0
 20
-769.9999999999942
 30
0.0
 11
4080.0
 21
-769.9999999999942
 31
0.0
1001
ACDBBLOCKREPETAG
1070
     1
1071
       47
1005
122923
  0
LINE
  5
122924
  8
OBJECT
 10
4080.0
 20
-769.9999999999942
 30
0.0
 11
4080.0
 21
-757.9999999999942
 31
0.0
1001
ACDBBLOCKREPETAG
1070
     1
1071
       48
1005
122924
  0
ARC
  5
122925
  8
OBJECT
 10
4200.6872746716726
 20
-749.40809941010195
 30
0.0
 40
170.6350503965856
 50
137.44134459184301
 51
149.91949581337221
1001
ACDBBLOCKREPETAG
1070
     1
1071
       52
1005
122925
  0
ARC
  5
122926
  8
OBJECT
 10
4200.6872746716726
 20
-642.59190058988645
 30
0.0
 40
170.6350503965856
 50
210.08050418662771
 51
222.55865540815699
1001
ACDBBLOCKREPETAG
1070
     1
1071
       53
1005
122926
  0
ARC
  5
122927
  8
OBJECT
 10
3799.3127253283278
 20
-749.40809941010195
 30
0.0
 40
170.6350503965856
 50
30.080504186774089
 51
42.558655408456282
1001
ACDBBLOCKREPETAG
1070
     1
1071
       54
1005
122927
  0
ARC
  5
122928
  8
OBJECT
 10
3799.3127253283278
 20
-642.59190058988645
 30
0.0
 40
170.6350503965856
 50
317.44134459154373
 51
329.91949581322592
1001
ACDBBLOCKREPETAG
1070
     1
1071
       55
1005
122928
  0
POINT
  5
122929
  8
DOTS
 10
4000.0
 20
-754.9999999999942
 30
0.0
1001
ACDBBLOCKREPETAG
1070
     1
1071
      184
1005
122929
  0
LINE
  5
12292A
  8
OBJECT
 10
3969.4199755553018
 20
-243.89888500818171
 30
0.0
 11
3979.8564918232369
 21
-222.48688253356801
 31
0.0
1001
ACDBBLOCKREPETAG
1070
     1
1071
      305
1005
12292A
  0
LINE
  5
12292B
  8
OBJECT
 10
3965.2972169006089
 20
-240.71813901882729
 30
0.0
 11
3973.9071022665089
 21
-223.05373004430751
 31
0.0
1001
ACDBBLOCKREPETAG
1070
     1
1071
      306
1005
12292B
  0
LINE
  5
12292C
  8
OBJECT
 10
4024.102933093302
 20
-243.80694712371681
 30
0.0
 11
4020.6596569999951
 21
-232.55462199999889
 31
0.0
1001
ACDBBLOCKREPETAG
1070
     1
1071
      307
1005
12292C
  0
ARC
  5
12292D
  8
OBJECT
 10
3976.579695307315
 20
-207.1289369828437
 30
0.0
 40
60.031113246032611
 50
314.07020130418567
 51
322.33936106091278
1001
ACDBBLOCKREPETAG
1070
     1
1071
      308
1005
12292D
  0
LINE
  5
12292E
  8
OBJECT
 10
3986.7927499013749
 20
-218.22553374208019
 30
0.0
 11
4020.6596569999951
 21
-232.5546219999969
 31
0.0
1001
ACDBBLOCKREPETAG
1070
     1
1071
      309
1005
12292E
  0
ARC
  5
12292F
  8
OBJECT
 10
3982.896169761902
 20
-227.4351299990567
 30
0.0
 40
10.0
 50
67.066778292911366
 51
154.0147343702935
1001
ACDBBLOCKREPETAG
1070
     1
1071
      310
1005
12292F
  0
ARC
  5
122930
  8
OBJECT
 10
3986.1488390381278
 20
-225.55386256729159
 30
0.0
 40
7.0
 50
67.066778292911366
 51
154.01473377497121
1001
ACDBBLOCKREPETAG
1070
     1
1071
      311
1005
122930
  0
CIRCLE
  5
122931
  8
OBJECT
 10
4000.0
 20
-199.99999999999909
 30
0.0
 40
53.5
1001
ACDBBLOCKREPETAG
1070
     1
1071
      340
1005
122931
  0
POINT
  5
122932
  8
DOTS
 10
4000.0
 20
-199.99999999999909
 30
0.0
 50
270.0
1001
ACDBBLOCKREPETAG
1070
     1
1071
      153
1005
122932
  0
ARC
  5
122933
  8
OBJECT
 10
4000.0
 20
-199.99999999999909
 30
0.0
 40
50.0
 50
298.81994300000417
 51
228.52376955967449
1001
ACDBBLOCKREPETAG
1070
     1
1071
       48
1005
122933
  0
LINE
  5
122934
  8
CENTER
 10
4080.0
 20
-199.99999999999909
 30
0.0
 11
3920.0
 21
-199.99999999999909
 31
0.0
1001
ACDBBLOCKREPETAG
1070
     1
1071
       49
1005
122934
  0
LINE
  5
122935
  8
CENTER
 10
4000.0
 20
-279.99999999999909
 30
0.0
 11
4000.0
 21
-104.9999999999991
 31
0.0
1001
ACDBBLOCKREPETAG
1070
     1
1071
       50
1005
122935
  0
CIRCLE
  5
122936
  8
OBJECT
 10
4000.0
 20
-199.99999999999909
 30
0.0
 40
70.0
1001
ACDBBLOCKREPETAG
1070
     1
1071
       51
1005
122936
  0
CIRCLE
  5
122937
  8
OBJECT
 10
4000.0
 20
-199.99999999999909
 30
0.0
 40
77.0
1001
ACDBBLOCKREPETAG
1070
     1
1071
       52
1005
122937
  0
ARC
  5
122938
  8
OBJECT
 10
4000.0
 20
-199.99999999999909
 30
0.0
 40
80.0
 50
50.805032573864182
 51
129.1949674261358
1001
ACDBBLOCKREPETAG
1070
     1
1071
       53
1005
122938
  0
LINE
  5
122939
  8
OBJECT
 10
4045.661800227324
 20
-137.99999999999909
 30
0.0
 11
4080.0
 21
-137.99999999999909
 31
0.0
1001
ACDBBLOCKREPETAG
1070
     1
1071
       54
1005
122939
  0
LINE
  5
12293A
  8
OBJECT
 10
4062.0
 20
-261.99999999999909
 30
0.0
 11
4080.0
 21
-261.99999999999909
 31
0.0
1001
ACDBBLOCKREPETAG
1070
     1
1071
       55
1005
12293A
  0
LINE
  5
12293B
  8
OBJECT
 10
4062.0
 20
-261.99999999999909
 30
0.0
 11
4062.0
 21
-279.99999999999909
 31
0.0
1001
ACDBBLOCKREPETAG
1070
     1
1071
       57
1005
12293B
  0
LINE
  5
12293C
  8
OBJECT
 10
3938.0
 20
-261.99999999999909
 30
0.0
 11
3938.0
 21
-279.99999999999909
 31
0.0
1001
ACDBBLOCKREPETAG
1070
     1
1071
       58
1005
12293C
  0
LINE
  5
12293D
  8
OBJECT
 10
3938.0
 20
-261.99999999999909
 30
0.0
 11
3920.0
 21
-261.99999999999909
 31
0.0
1001
ACDBBLOCKREPETAG
1070
     1
1071
       60
1005
12293D
  0
LINE
  5
12293E
  8
OBJECT
 10
3954.338199772676
 20
-137.99999999999909
 30
0.0
 11
3920.0
 21
-137.99999999999909
 31
0.0
1001
ACDBBLOCKREPETAG
1070
     1
1071
       61
1005
12293E
  0
LINE
  5
12293F
  8
OBJECT
 10
3945.5527778486362
 20
-254.44722215136329
 30
0.0
 11
3938.0
 21
-261.99999999999909
 31
0.0
1001
ACDBBLOCKREPETAG
1070
     1
1071
       42
1005
12293F
  0
LINE
  5
122940
  8
OBJECT
 10
4054.4472221513638
 20
-254.44722215136329
 30
0.0
 11
4062.0
 21
-261.99999999999909
 31
0.0
1001
ACDBBLOCKREPETAG
1070
     1
1071
       43
1005
122940
  0
LINE
  5
122941
  8
OBJECT
 10
3797.0000000000159
 20
-261.99999999999909
 30
0.0
 11
3790.0000000000159
 21
-261.99999999999909
 31
0.0
1001
ACDBBLOCKREPETAG
1070
     1
1071
       85
1005
122941
  0
LINE
  5
122942
  8
OBJECT
 10
3790.0000000000159
 20
-261.99999999999909
 30
0.0
 11
3790.0000000000159
 21
-137.99999999999909
 31
0.0
1001
ACDBBLOCKREPETAG
1070
     1
1071
       86
1005
122942
  0
LINE
  5
122943
  8
OBJECT
 10
3790.0000000000159
 20
-137.99999999999909
 30
0.0
 11
3797.0000000000159
 21
-137.99999999999909
 31
0.0
1001
ACDBBLOCKREPETAG
1070
     1
1071
       87
1005
122943
  0
LINE
  5
122944
  8
OBJECT
 10
3797.0000000000159
 20
-137.99999999999909
 30
0.0
 11
3797.0000000000159
 21
-261.99999999999909
 31
0.0
1001
ACDBBLOCKREPETAG
1070
     1
1071
       88
1005
122944
  0
LINE
  5
122945
  8
CENTER
 10
3775.0000000000159
 20
-199.99999999999909
 30
0.0
 11
3920.0
 21
-199.99999999999909
 31
0.0
1001
ACDBBLOCKREPETAG
1070
     1
1071
       89
1005
122945
  0
LINE
  5
122946
  8
OBJECT
 10
3850.000025035813
 20
-154.9999999999954
 30
0.0
 11
3914.0
 21
-154.99999999999909
 31
0.0
1001
ACDBBLOCKREPETAG
1070
     1
1071
       90
1005
122946
  0
LINE
  5
122947
  8
OBJECT
 10
3850.000025035813
 20
-244.99999999999909
 30
0.0
 11
3914.0
 21
-244.99999999999909
 31
0.0
1001
ACDBBLOCKREPETAG
1070
     1
1071
       91
1005
122947
  0
LINE
  5
122948
  8
OBJECT
 10
3797.0000000000159
 20
-258.99999999999909
 30
0.0
 11
3833.0000000000159
 21
-258.99999999999909
 31
0.0
1001
ACDBBLOCKREPETAG
1070
     1
1071
       92
1005
122948
  0
LINE
  5
122949
  8
OBJECT
 10
3833.0000000000159
 20
-258.99999999999909
 30
0.0
 11
3833.0000000000159
 21
-140.99999999999909
 31
0.0
1001
ACDBBLOCKREPETAG
1070
     1
1071
       93
1005
122949
  0
LINE
  5
12294A
  8
OBJECT
 10
3833.0000000000159
 20
-140.99999999999909
 30
0.0
 11
3797.0000000000159
 21
-140.99999999999909
 31
0.0
1001
ACDBBLOCKREPETAG
1070
     1
1071
       94
1005
12294A
  0
LINE
  5
12294B
  8
OBJECT
 10
3837.0000000000159
 20
-254.49999999999909
 30
0.0
 11
3850.000000000015
 21
-254.49999999999909
 31
0.0
1001
ACDBBLOCKREPETAG
1070
     1
1071
       95
1005
12294B
  0
LINE
  5
12294C
  8
OBJECT
 10
3850.000000000015
 20
-145.49999999999909
 30
0.0
 11
3837.0000000000159
 21
-145.49999999999909
 31
0.0
1001
ACDBBLOCKREPETAG
1070
     1
1071
       96
1005
12294C
  0
LINE
  5
12294D
  8
OBJECT
 10
3837.0000000000159
 20
-145.49999999999909
 30
0.0
 11
3837.0000000000159
 21
-254.49999999999909
 31
0.0
1001
ACDBBLOCKREPETAG
1070
     1
1071
       97
1005
12294D
  0
LINE
  5
12294E
  8
OBJECT
 10
3833.0000000000159
 20
-258.99999999999909
 30
0.0
 11
3837.0000000000159
 21
-254.49999999999909
 31
0.0
1001
ACDBBLOCKREPETAG
1070
     1
1071
       98
1005
12294E
  0
LINE
  5
12294F
  8
OBJECT
 10
3833.0000000000159
 20
-140.99999999999909
 30
0.0
 11
3837.0000000000159
 21
-145.49999999999909
 31
0.0
1001
ACDBBLOCKREPETAG
1070
     1
1071
       99
1005
12294F
  0
LINE
  5
122950
  8
OBJECT
 10
3917.0
 20
-261.99999999999909
 30
0.0
 11
3920.0
 21
-261.99999999999909
 31
0.0
1001
ACDBBLOCKREPETAG
1070
     1
1071
      100
1005
122950
  0
ARC
  5
122951
  8
OBJECT
 10
3917.0
 20
-258.99999999999909
 30
0.0
 40
3.0
 50
180.0
 51
270.0
1001
ACDBBLOCKREPETAG
1070
     1
1071
      101
1005
122951
  0
LINE
  5
122952
  8
OBJECT
 10
3920.0
 20
-137.99999999999909
 30
0.0
 11
3917.0
 21
-137.99999999999909
 31
0.0
1001
ACDBBLOCKREPETAG
1070
     1
1071
      102
1005
122952
  0
ARC
  5
122953
  8
OBJECT
 10
3917.0
 20
-140.99999999999909
 30
0.0
 40
3.0
 50
90.0
 51
180.0
1001
ACDBBLOCKREPETAG
1070
     1
1071
      103
1005
122953
  0
LINE
  5
122954
  8
OBJECT
 10
3914.0
 20
-140.99999999999909
 30
0.0
 11
3914.0
 21
-189.6772096796403
 31
0.0
1001
ACDBBLOCKREPETAG
1070
     1
1071
      104
1005
122954
  0
LINE
  5
122955
  8
OBJECT
 10
3914.0
 20
-210.3227903203578
 30
0.0
 11
3914.0
 21
-258.99999999999909
 31
0.0
1001
ACDBBLOCKREPETAG
1070
     1
1071
      105
1005
122955
  0
LINE
  5
122956
  8
HIDDEN
 10
3842.0000000000159
 20
-244.49999999999909
 30
0.0
 11
3842.0000000000159
 21
-155.49999999999909
 31
0.0
1001
ACDBBLOCKREPETAG
1070
     1
1071
      106
1005
122956
  0
LINE
  5
122957
  8
OBJECT
 10
3850.000025035813
 20
-145.50004907618759
 30
0.0
 11
3850.000025035813
 21
-254.50004907618771
 31
0.0
1001
ACDBBLOCKREPETAG
1070
     1
1071
      108
1005
122957
  0
ARC
  5
122958
  8
OBJECT
 10
3870.1999999999771
 20
-199.99999999999909
 30
0.0
 40
45.000000000000547
 50
270.0
 51
90.0
1001
ACDBBLOCKREPETAG
1070
     1
1071
      109
1005
122958
  0
LINE
  5
122959
  8
CENTER
 10
4000.0
 20
-300.99999999999898
 30
0.0
 11
4000.0
 21
-279.99999999999909
 31
0.0
1001
ACDBBLOCKREPETAG
1070
     1
1071
        0
1005
122959
  0
LINE
  5
12295A
  8
OBJECT
 10
4062.0
 20
-283.0
 30
0.0
 11
4062.0
 21
-279.99999999999909
 31
0.0
1001
ACDBBLOCKREPETAG
1070
     1
1071
        1
1005
12295A
  0
ARC
  5
12295B
  8
OBJECT
 10
4059.0
 20
-283.0
 30
0.0
 40
3.0
 50
270.0
 51
0.0
1001
ACDBBLOCKREPETAG
1070
     1
1071
        2
1005
12295B
  0
LINE
  5
12295C
  8
OBJECT
 10
3938.0
 20
-279.99999999999909
 30
0.0
 11
3938.0
 21
-282.99999999999818
 31
0.0
1001
ACDBBLOCKREPETAG
1070
     1
1071
        3
1005
12295C
  0
ARC
  5
12295D
  8
OBJECT
 10
3941.0
 20
-282.99999999999818
 30
0.0
 40
3.0
 50
180.0
 51
270.0
1001
ACDBBLOCKREPETAG
1070
     1
1071
        4
1005
12295D
  0
LINE
  5
12295E
  8
OBJECT
 10
3941.0
 20
-285.99999999999818
 30
0.0
 11
4059.0
 21
-286.0
 31
0.0
1001
ACDBBLOCKREPETAG
1070
     1
1071
        5
1005
12295E
  0
LINE
  5
12295F
  8
OBJECT
 10
4202.9999999999854
 20
-137.99999999999909
 30
0.0
 11
4209.9999999999854
 21
-137.99999999999909
 31
0.0
1001
ACDBBLOCKREPETAG
1070
     1
1071
       85
1005
12295F
  0
LINE
  5
122960
  8
OBJECT
 10
4209.9999999999854
 20
-137.99999999999909
 30
0.0
 11
4209.9999999999854
 21
-261.99999999999909
 31
0.0
1001
ACDBBLOCKREPETAG
1070
     1
1071
       86
1005
122960
  0
LINE
  5
122961
  8
OBJECT
 10
4209.9999999999854
 20
-261.99999999999909
 30
0.0
 11
4202.9999999999854
 21
-261.99999999999909
 31
0.0
1001
ACDBBLOCKREPETAG
1070
     1
1071
       87
1005
122961
  0
LINE
  5
122962
  8
OBJECT
 10
4202.9999999999854
 20
-261.99999999999909
 30
0.0
 11
4202.9999999999854
 21
-137.99999999999909
 31
0.0
1001
ACDBBLOCKREPETAG
1070
     1
1071
       88
1005
122962
  0
LINE
  5
122963
  8
CENTER
 10
4224.9999999999864
 20
-199.99999999999909
 30
0.0
 11
4080.0
 21
-199.99999999999909
 31
0.0
1001
ACDBBLOCKREPETAG
1070
     1
1071
       89
1005
122963
  0
LINE
  5
122964
  8
OBJECT
 10
4149.9999749641856
 20
-245.0000000000027
 30
0.0
 11
4086.0
 21
-244.99999999999909
 31
0.0
1001
ACDBBLOCKREPETAG
1070
     1
1071
       90
1005
122964
  0
LINE
  5
122965
  8
OBJECT
 10
4149.9999749641856
 20
-154.99999999999909
 30
0.0
 11
4086.0
 21
-154.99999999999909
 31
0.0
1001
ACDBBLOCKREPETAG
1070
     1
1071
       91
1005
122965
  0
LINE
  5
122966
  8
OBJECT
 10
4202.9999999999854
 20
-140.99999999999909
 30
0.0
 11
4166.9999999999854
 21
-140.99999999999909
 31
0.0
1001
ACDBBLOCKREPETAG
1070
     1
1071
       92
1005
122966
  0
LINE
  5
122967
  8
OBJECT
 10
4166.9999999999854
 20
-140.99999999999909
 30
0.0
 11
4166.9999999999854
 21
-258.99999999999909
 31
0.0
1001
ACDBBLOCKREPETAG
1070
     1
1071
       93
1005
122967
  0
LINE
  5
122968
  8
OBJECT
 10
4166.9999999999854
 20
-258.99999999999909
 30
0.0
 11
4202.9999999999854
 21
-258.99999999999909
 31
0.0
1001
ACDBBLOCKREPETAG
1070
     1
1071
       94
1005
122968
  0
LINE
  5
122969
  8
OBJECT
 10
4162.9999999999854
 20
-145.49999999999909
 30
0.0
 11
4149.9999999999864
 21
-145.49999999999909
 31
0.0
1001
ACDBBLOCKREPETAG
1070
     1
1071
       95
1005
122969
  0
LINE
  5
12296A
  8
OBJECT
 10
4149.9999999999864
 20
-254.49999999999909
 30
0.0
 11
4162.9999999999854
 21
-254.49999999999909
 31
0.0
1001
ACDBBLOCKREPETAG
1070
     1
1071
       96
1005
12296A
  0
LINE
  5
12296B
  8
OBJECT
 10
4162.9999999999854
 20
-254.49999999999909
 30
0.0
 11
4162.9999999999854
 21
-145.49999999999909
 31
0.0
1001
ACDBBLOCKREPETAG
1070
     1
1071
       97
1005
12296B
  0
LINE
  5
12296C
  8
OBJECT
 10
4166.9999999999854
 20
-140.99999999999909
 30
0.0
 11
4162.9999999999854
 21
-145.49999999999909
 31
0.0
1001
ACDBBLOCKREPETAG
1070
     1
1071
       98
1005
12296C
  0
LINE
  5
12296D
  8
OBJECT
 10
4166.9999999999854
 20
-258.99999999999909
 30
0.0
 11
4162.9999999999854
 21
-254.49999999999909
 31
0.0
1001
ACDBBLOCKREPETAG
1070
     1
1071
       99
1005
12296D
  0
LINE
  5
12296E
  8
OBJECT
 10
4083.0
 20
-137.99999999999909
 30
0.0
 11
4080.0
 21
-137.99999999999909
 31
0.0
1001
ACDBBLOCKREPETAG
1070
     1
1071
      100
1005
12296E
  0
ARC
  5
12296F
  8
OBJECT
 10
4083.0
 20
-140.99999999999909
 30
0.0
 40
3.0
 50
0.0
 51
90.0
1001
ACDBBLOCKREPETAG
1070
     1
1071
      101
1005
12296F
  0
LINE
  5
122970
  8
OBJECT
 10
4080.0
 20
-261.99999999999909
 30
0.0
 11
4083.0
 21
-261.99999999999909
 31
0.0
1001
ACDBBLOCKREPETAG
1070
     1
1071
      102
1005
122970
  0
ARC
  5
122971
  8
OBJECT
 10
4083.0
 20
-258.99999999999909
 30
0.0
 40
3.0
 50
270.0
 51
0.0
1001
ACDBBLOCKREPETAG
1070
     1
1071
      103
1005
122971
  0
LINE
  5
122972
  8
OBJECT
 10
4086.0
 20
-258.99999999999909
 30
0.0
 11
4086.0
 21
-210.3227903203578
 31
0.0
1001
ACDBBLOCKREPETAG
1070
     1
1071
      104
1005
122972
  0
LINE
  5
122973
  8
OBJECT
 10
4086.0
 20
-189.6772096796403
 30
0.0
 11
4086.0
 21
-140.99999999999909
 31
0.0
1001
ACDBBLOCKREPETAG
1070
     1
1071
      105
1005
122973
  0
LINE
  5
122974
  8
HIDDEN
 10
4157.9999999999864
 20
-155.49999999999909
 30
0.0
 11
4157.9999999999864
 21
-244.49999999999909
 31
0.0
1001
ACDBBLOCKREPETAG
1070
     1
1071
      106
1005
122974
  0
LINE
  5
122975
  8
OBJECT
 10
4149.9999749641856
 20
-254.4999509238105
 30
0.0
 11
4149.9999749641856
 21
-145.4999509238105
 31
0.0
1001
ACDBBLOCKREPETAG
1070
     1
1071
      108
1005
122975
  0
ARC
  5
122976
  8
OBJECT
 10
4129.8000000000247
 20
-199.99999999999909
 30
0.0
 40
45.000000000000547
 50
90.0
 51
270.0
1001
ACDBBLOCKREPETAG
1070
     1
1071
      109
1005
122976
  0
LINE
  5
122977
  8
OBJECT
 10
3797.0000000000159
 20
-583.0
 30
0.0
 11
3790.0000000000159
 21
-583.0
 31
0.0
1001
ACDBBLOCKREPETAG
1070
     1
1071
       83
1005
122977
  0
LINE
  5
122978
  8
OBJECT
 10
3790.0000000000159
 20
-583.0
 30
0.0
 11
3790.0000000000159
 21
-707.0
 31
0.0
1001
ACDBBLOCKREPETAG
1070
     1
1071
       84
1005
122978
  0
LINE
  5
122979
  8
OBJECT
 10
3914.0000000000159
 20
-653.3502637757274
 30
0.0
 11
3914.0000000000159
 21
-755.00000000000102
 31
0.0
1001
ACDBBLOCKREPETAG
1070
     1
1071
       85
1005
122979
  0
LINE
  5
12297A
  8
OBJECT
 10
3790.0000000000159
 20
-707.0
 30
0.0
 11
3797.0000000000159
 21
-707.0
 31
0.0
1001
ACDBBLOCKREPETAG
1070
     1
1071
       86
1005
12297A
  0
LINE
  5
12297B
  8
OBJECT
 10
3797.0000000000159
 20
-707.0
 30
0.0
 11
3797.0000000000159
 21
-583.0
 31
0.0
1001
ACDBBLOCKREPETAG
1070
     1
1071
       87
1005
12297B
  0
LINE
  5
12297C
  8
CENTER
 10
3865.0000000000159
 20
-645.0000000000008
 30
0.0
 11
3775.0000000000159
 21
-645.0
 31
0.0
1001
ACDBBLOCKREPETAG
1070
     1
1071
       88
1005
12297C
  0
LINE
  5
12297D
  8
OBJECT
 10
3920.0000000000182
 20
-758.0
 30
0.0
 11
3917.0000000000141
 21
-758.0000000000008
 31
0.0
1001
ACDBBLOCKREPETAG
1070
     1
1071
       89
1005
12297D
  0
ARC
  5
12297E
  8
OBJECT
 10
3917.0000000000141
 20
-755.00000000000102
 30
0.0
 40
3.0
 50
180.0
 51
270.0
1001
ACDBBLOCKREPETAG
1070
     1
1071
       90
1005
12297E
  0
LINE
  5
12297F
  8
OBJECT
 10
3797.0000000000159
 20
-586.0
 30
0.0
 11
3833.0000000000159
 21
-586.0000000000008
 31
0.0
1001
ACDBBLOCKREPETAG
1070
     1
1071
       91
1005
12297F
  0
LINE
  5
122980
  8
OBJECT
 10
3833.0000000000159
 20
-586.0000000000008
 30
0.0
 11
3833.0000000000159
 21
-704.0000000000008
 31
0.0
1001
ACDBBLOCKREPETAG
1070
     1
1071
       92
1005
122980
  0
LINE
  5
122981
  8
OBJECT
 10
3837.0000000000159
 20
-590.5000000000008
 30
0.0
 11
3837.0000000000159
 21
-699.5000000000008
 31
0.0
1001
ACDBBLOCKREPETAG
1070
     1
1071
       93
1005
122981
  0
LINE
  5
122982
  8
OBJECT
 10
3837.0000000000159
 20
-590.5000000000008
 30
0.0
 11
3850.000000000015
 21
-590.5000000000008
 31
0.0
1001
ACDBBLOCKREPETAG
1070
     1
1071
       94
1005
122982
  0
LINE
  5
122983
  8
OBJECT
 10
3833.0000000000159
 20
-704.0000000000008
 30
0.0
 11
3797.0000000000159
 21
-704.0
 31
0.0
1001
ACDBBLOCKREPETAG
1070
     1
1071
       95
1005
122983
  0
LINE
  5
122984
  8
OBJECT
 10
3833.0000000000159
 20
-586.0000000000008
 30
0.0
 11
3837.0000000000159
 21
-590.5000000000008
 31
0.0
1001
ACDBBLOCKREPETAG
1070
     1
1071
       96
1005
122984
  0
LINE
  5
122985
  8
OBJECT
 10
3850.000000000015
 20
-590.5000000000008
 30
0.0
 11
3850.000000000015
 21
-675.74491827928784
 31
0.0
1001
ACDBBLOCKREPETAG
1070
     1
1071
       97
1005
122985
  0
ARC
  5
122986
  8
OBJECT
 10
3847.2000000000148
 20
-685.0000000000008
 30
0.0
 40
85.0
 50
36.869897645906562
 51
88.112268108168848
1001
ACDBBLOCKREPETAG
1070
     1
1071
       98
1005
122986
  0
LINE
  5
122987
  8
HIDDEN
 10
3842.0000000000159
 20
-600.50000000000068
 30
0.0
 11
3842.0000000000159
 21
-689.50000000000091
 31
0.0
1001
ACDBBLOCKREPETAG
1070
     1
1071
      100
1005
122987
  0
LINE
  5
122988
  8
OBJECT
 10
3914.0000000000159
 20
-751.07945073181781
 30
0.0
 11
3843.3686800789692
 21
-699.5000000000008
 31
0.0
1001
ACDBBLOCKREPETAG
1070
     1
1071
      101
1005
122988
  0
LINE
  5
122989
  8
OBJECT
 10
3920.0000000000182
 20
-634.0
 30
0.0
 11
3915.2000000000148
 21
-634.0
 31
0.0
1001
ACDBBLOCKREPETAG
1070
     1
1071
      102
1005
122989
  0
LINE
  5
12298A
  8
OBJECT
 10
3914.0000000000159
 20
-653.35026377573013
 30
0.0
 11
3915.2000000000148
 21
-634.0
 31
0.0
1001
ACDBBLOCKREPETAG
1070
     1
1071
      103
1005
12298A
  0
LINE
  5
12298B
  8
OBJECT
 10
3837.0000000000159
 20
-699.5000000000008
 30
0.0
 11
3843.3686800789692
 21
-699.5000000000008
 31
0.0
1001
ACDBBLOCKREPETAG
1070
     1
1071
      104
1005
12298B
  0
LINE
  5
12298C
  8
OBJECT
 10
3833.0000000000159
 20
-704.0000000000008
 30
0.0
 11
3837.0000000000159
 21
-699.5000000000008
 31
0.0
1001
ACDBBLOCKREPETAG
1070
     1
1071
      105
1005
12298C
  0
CIRCLE
  5
12298D
  8
OBJECT
 10
4000.0
 20
-696.0
 30
0.0
 40
62.0
1001
ACDBBLOCKREPETAG
1070
     1
1071
        0
1005
12298D
  0
LINE
  5
12298E
  8
OBJECT
 10
4202.9999999999854
 20
-583.0000000000008
 30
0.0
 11
4209.9999999999854
 21
-583.0000000000008
 31
0.0
1001
ACDBBLOCKREPETAG
1070
     1
1071
       83
1005
12298E
  0
LINE
  5
12298F
  8
OBJECT
 10
4209.9999999999854
 20
-583.0000000000008
 30
0.0
 11
4209.9999999999854
 21
-707.00000000000091
 31
0.0
1001
ACDBBLOCKREPETAG
1070
     1
1071
       84
1005
12298F
  0
LINE
  5
122990
  8
OBJECT
 10
4085.9999999999859
 20
-653.3502637757274
 30
0.0
 11
4085.9999999999859
 21
-755.00000000000102
 31
0.0
1001
ACDBBLOCKREPETAG
1070
     1
1071
       85
1005
122990
  0
LINE
  5
122991
  8
OBJECT
 10
4209.9999999999854
 20
-707.00000000000091
 30
0.0
 11
4202.9999999999854
 21
-707.00000000000091
 31
0.0
1001
ACDBBLOCKREPETAG
1070
     1
1071
       86
1005
122991
  0
LINE
  5
122992
  8
OBJECT
 10
4202.9999999999854
 20
-707.00000000000091
 30
0.0
 11
4202.9999999999854
 21
-583.0000000000008
 31
0.0
1001
ACDBBLOCKREPETAG
1070
     1
1071
       87
1005
122992
  0
LINE
  5
122993
  8
CENTER
 10
4134.9999999999854
 20
-645.0000000000008
 30
0.0
 11
4224.9999999999864
 21
-645.0000000000008
 31
0.0
1001
ACDBBLOCKREPETAG
1070
     1
1071
       88
1005
122993
  0
LINE
  5
122994
  8
OBJECT
 10
4079.9999999999818
 20
-758.0
 30
0.0
 11
4082.999999999985
 21
-758.0000000000008
 31
0.0
1001
ACDBBLOCKREPETAG
1070
     1
1071
       89
1005
122994
  0
ARC
  5
122995
  8
OBJECT
 10
4082.999999999985
 20
-755.00000000000102
 30
0.0
 40
3.0
 50
270.0
 51
0.0
1001
ACDBBLOCKREPETAG
1070
     1
1071
       90
1005
122995
  0
LINE
  5
122996
  8
OBJECT
 10
4202.9999999999854
 20
-586.0000000000008
 30
0.0
 11
4166.9999999999854
 21
-586.0000000000008
 31
0.0
1001
ACDBBLOCKREPETAG
1070
     1
1071
       91
1005
122996
  0
LINE
  5
122997
  8
OBJECT
 10
4166.9999999999854
 20
-586.0000000000008
 30
0.0
 11
4166.9999999999854
 21
-704.0000000000008
 31
0.0
1001
ACDBBLOCKREPETAG
1070
     1
1071
       92
1005
122997
  0
LINE
  5
122998
  8
OBJECT
 10
4162.9999999999854
 20
-590.5000000000008
 30
0.0
 11
4162.9999999999854
 21
-699.5000000000008
 31
0.0
1001
ACDBBLOCKREPETAG
1070
     1
1071
       93
1005
122998
  0
LINE
  5
122999
  8
OBJECT
 10
4162.9999999999854
 20
-590.5000000000008
 30
0.0
 11
4149.9999999999864
 21
-590.5000000000008
 31
0.0
1001
ACDBBLOCKREPETAG
1070
     1
1071
       94
1005
122999
  0
LINE
  5
12299A
  8
OBJECT
 10
4166.9999999999854
 20
-704.0000000000008
 30
0.0
 11
4202.9999999999854
 21
-704.0000000000008
 31
0.0
1001
ACDBBLOCKREPETAG
1070
     1
1071
       95
1005
12299A
  0
LINE
  5
12299B
  8
OBJECT
 10
4166.9999999999854
 20
-586.0000000000008
 30
0.0
 11
4162.9999999999854
 21
-590.5000000000008
 31
0.0
1001
ACDBBLOCKREPETAG
1070
     1
1071
       96
1005
12299B
  0
LINE
  5
12299C
  8
OBJECT
 10
4149.9999999999864
 20
-590.5000000000008
 30
0.0
 11
4149.9999999999864
 21
-675.74491827928784
 31
0.0
1001
ACDBBLOCKREPETAG
1070
     1
1071
       97
1005
12299C
  0
ARC
  5
12299D
  8
OBJECT
 10
4152.7999999999838
 20
-685.0000000000008
 30
0.0
 40
85.0
 50
91.887731891831123
 51
143.1301023540934
1001
ACDBBLOCKREPETAG
1070
     1
1071
       98
1005
12299D
  0
LINE
  5
12299E
  8
HIDDEN
 10
4157.9999999999864
 20
-600.50000000000068
 30
0.0
 11
4157.9999999999864
 21
-689.50000000000091
 31
0.0
1001
ACDBBLOCKREPETAG
1070
     1
1071
      100
1005
12299E
  0
LINE
  5
12299F
  8
OBJECT
 10
4085.9999999999859
 20
-751.07945073181781
 30
0.0
 11
4156.6313199210299
 21
-699.5000000000008
 31
0.0
1001
ACDBBLOCKREPETAG
1070
     1
1071
      101
1005
12299F
  0
LINE
  5
1229A0
  8
OBJECT
 10
4079.9999999999818
 20
-634.0
 30
0.0
 11
4084.7999999999852
 21
-634.0
 31
0.0
1001
ACDBBLOCKREPETAG
1070
     1
1071
      102
1005
1229A0
  0
LINE
  5
1229A1
  8
OBJECT
 10
4085.9999999999859
 20
-653.35026377573013
 30
0.0
 11
4084.7999999999852
 21
-634.0
 31
0.0
1001
ACDBBLOCKREPETAG
1070
     1
1071
      103
1005
1229A1
  0
LINE
  5
1229A2
  8
OBJECT
 10
4162.9999999999854
 20
-699.5000000000008
 30
0.0
 11
4156.6313199210299
 21
-699.5000000000008
 31
0.0
1001
ACDBBLOCKREPETAG
1070
     1
1071
      104
1005
1229A2
  0
LINE
  5
1229A3
  8
OBJECT
 10
4166.9999999999854
 20
-704.0000000000008
 30
0.0
 11
4162.9999999999854
 21
-699.5000000000008
 31
0.0
1001
ACDBBLOCKREPETAG
1070
     1
1071
      105
1005
1229A3
  0
LINE
  5
1229A4
  8
OBJECT
 10
1923.0
 20
-570.99999999999432
 30
0.0
 11
1923.0
 21
-549.99999999999432
 31
0.0
1001
ACDBBLOCKREPETAG
1070
     1
1071
       36
1005
1229A4
  0
LINE
  5
1229A5
  8
OBJECT
 10
1923.0
 20
-549.99999999999432
 30
0.0
 11
2077.0
 21
-549.99999999999432
 31
0.0
1001
ACDBBLOCKREPETAG
1070
     1
1071
       37
1005
1229A5
  0
LINE
  5
1229A6
  8
HIDDEN
 10
1943.0
 20
-619.99999999999432
 30
0.0
 11
2057.0
 21
-619.99999999999432
 31
0.0
1001
ACDBBLOCKREPETAG
1070
     1
1071
       38
1005
1229A6
  0
LINE
  5
1229A7
  8
OBJECT
 10
2077.0
 20
-549.99999999999432
 30
0.0
 11
2077.0
 21
-570.99999999999432
 31
0.0
1001
ACDBBLOCKREPETAG
1070
     1
1071
       39
1005
1229A7
  0
LINE
  5
1229A8
  8
OBJECT
 10
2077.0
 20
-570.99999999999432
 30
0.0
 11
1923.0
 21
-570.99999999999432
 31
0.0
1001
ACDBBLOCKREPETAG
1070
     1
1071
       40
1005
1229A8
  0
LINE
  5
1229A9
  8
CENTER
 10
2000.0
 20
-534.99999999999432
 30
0.0
 11
2000.0
 21
-769.9999999999942
 31
0.0
1001
ACDBBLOCKREPETAG
1070
     1
1071
       41
1005
1229A9
  0
LINE
  5
1229AA
  8
OBJECT
 10
1928.0
 20
-570.99999999999432
 30
0.0
 11
1928.0
 21
-633.99999999999432
 31
0.0
1001
ACDBBLOCKREPETAG
1070
     1
1071
       42
1005
1229AA
  0
LINE
  5
1229AB
  8
OBJECT
 10
2072.0
 20
-633.99999999999432
 30
0.0
 11
2072.0
 21
-570.99999999999432
 31
0.0
1001
ACDBBLOCKREPETAG
1070
     1
1071
       43
1005
1229AB
  0
LINE
  5
1229AC
  8
OBJECT
 10
1920.0
 20
-757.9999999999942
 30
0.0
 11
2080.0
 21
-757.9999999999942
 31
0.0
1001
ACDBBLOCKREPETAG
1070
     1
1071
       44
1005
1229AC
  0
LINE
  5
1229AD
  8
OBJECT
 10
2080.0
 20
-633.99999999999432
 30
0.0
 11
1920.0
 21
-633.99999999999432
 31
0.0
1001
ACDBBLOCKREPETAG
1070
     1
1071
       45
1005
1229AD
  0
LINE
  5
1229AE
  8
OBJECT
 10
1920.0
 20
-757.9999999999942
 30
0.0
 11
1920.0
 21
-769.9999999999942
 31
0.0
1001
ACDBBLOCKREPETAG
1070
     1
1071
       46
1005
1229AE
  0
LINE
  5
1229AF
  8
OBJECT
 10
1920.0
 20
-769.9999999999942
 30
0.0
 11
2080.0
 21
-769.9999999999942
 31
0.0
1001
ACDBBLOCKREPETAG
1070
     1
1071
       47
1005
1229AF
  0
LINE
  5
1229B0
  8
OBJECT
 10
2080.0
 20
-769.9999999999942
 30
0.0
 11
2080.0
 21
-757.9999999999942
 31
0.0
1001
ACDBBLOCKREPETAG
1070
     1
1071
       48
1005
1229B0
  0
ARC
  5
1229B1
  8
OBJECT
 10
2200.6872746716731
 20
-749.40809941010195
 30
0.0
 40
170.6350503965856
 50
137.44134459184301
 51
149.91949581336559
1001
ACDBBLOCKREPETAG
1070
     1
1071
       52
1005
1229B1
  0
ARC
  5
1229B2
  8
OBJECT
 10
2200.6872746716731
 20
-642.59190058988645
 30
0.0
 40
170.6350503965856
 50
210.0805041866343
 51
222.55865540815699
1001
ACDBBLOCKREPETAG
1070
     1
1071
       53
1005
1229B2
  0
ARC
  5
1229B3
  8
OBJECT
 10
1799.312725328326
 20
-749.40809941010195
 30
0.0
 40
170.6350503965856
 50
30.080504186774089
 51
42.558655408447443
1001
ACDBBLOCKREPETAG
1070
     1
1071
       54
1005
1229B3
  0
ARC
  5
1229B4
  8
OBJECT
 10
1799.312725328326
 20
-642.59190058988645
 30
0.0
 40
170.6350503965856
 50
317.44134459155248
 51
329.91949581322592
1001
ACDBBLOCKREPETAG
1070
     1
1071
       55
1005
1229B4
  0
POINT
  5
1229B5
  8
DOTS
 10
2000.0
 20
-754.9999999999942
 30
0.0
1001
ACDBBLOCKREPETAG
1070
     1
1071
      184
1005
1229B5
  0
LINE
  5
1229B6
  8
OBJECT
 10
1969.4199755553
 20
-243.89888500818171
 30
0.0
 11
1979.856491823236
 21
-222.48688253356801
 31
0.0
1001
ACDBBLOCKREPETAG
1070
     1
1071
      305
1005
1229B6
  0
LINE
  5
1229B7
  8
OBJECT
 10
1965.2972169006091
 20
-240.71813901882729
 30
0.0
 11
1973.907102266508
 21
-223.05373004430751
 31
0.0
1001
ACDBBLOCKREPETAG
1070
     1
1071
      306
1005
1229B7
  0
LINE
  5
1229B8
  8
OBJECT
 10
2024.102933093302
 20
-243.80694712371681
 30
0.0
 11
2020.659656999997
 21
-232.55462199999889
 31
0.0
1001
ACDBBLOCKREPETAG
1070
     1
1071
      307
1005
1229B8
  0
ARC
  5
1229B9
  8
OBJECT
 10
1976.579695307315
 20
-207.1289369828437
 30
0.0
 40
60.031113246032611
 50
314.07020130418567
 51
322.33936106091278
1001
ACDBBLOCKREPETAG
1070
     1
1071
      308
1005
1229B9
  0
LINE
  5
1229BA
  8
OBJECT
 10
1986.7927499013749
 20
-218.22553374208019
 30
0.0
 11
2020.659656999997
 21
-232.5546219999969
 31
0.0
1001
ACDBBLOCKREPETAG
1070
     1
1071
      309
1005
1229BA
  0
ARC
  5
1229BB
  8
OBJECT
 10
1982.8961697619
 20
-227.4351299990567
 30
0.0
 40
10.0
 50
67.066778292923374
 51
154.0147343702935
1001
ACDBBLOCKREPETAG
1070
     1
1071
      310
1005
1229BB
  0
ARC
  5
1229BC
  8
OBJECT
 10
1986.1488390381271
 20
-225.55386256729159
 30
0.0
 40
7.0
 50
67.066778292923374
 51
154.01473377497121
1001
ACDBBLOCKREPETAG
1070
     1
1071
      311
1005
1229BC
  0
CIRCLE
  5
1229BD
  8
OBJECT
 10
2000.0
 20
-199.99999999999909
 30
0.0
 40
53.5
1001
ACDBBLOCKREPETAG
1070
     1
1071
      340
1005
1229BD
  0
POINT
  5
1229BE
  8
DOTS
 10
2000.0
 20
-199.99999999999909
 30
0.0
 50
270.0
1001
ACDBBLOCKREPETAG
1070
     1
1071
      153
1005
1229BE
  0
ARC
  5
1229BF
  8
OBJECT
 10
2000.0
 20
-199.99999999999909
 30
0.0
 40
50.0
 50
298.81994300000417
 51
228.52376955967449
1001
ACDBBLOCKREPETAG
1070
     1
1071
       48
1005
1229BF
  0
LINE
  5
1229C0
  8
CENTER
 10
2080.0
 20
-199.99999999999909
 30
0.0
 11
1920.0
 21
-199.99999999999909
 31
0.0
1001
ACDBBLOCKREPETAG
1070
     1
1071
       49
1005
1229C0
  0
LINE
  5
1229C1
  8
CENTER
 10
2000.0
 20
-279.99999999999909
 30
0.0
 11
2000.0
 21
-104.9999999999991
 31
0.0
1001
ACDBBLOCKREPETAG
1070
     1
1071
       50
1005
1229C1
  0
CIRCLE
  5
1229C2
  8
OBJECT
 10
2000.0
 20
-199.99999999999909
 30
0.0
 40
70.0
1001
ACDBBLOCKREPETAG
1070
     1
1071
       51
1005
1229C2
  0
CIRCLE
  5
1229C3
  8
OBJECT
 10
2000.0
 20
-199.99999999999909
 30
0.0
 40
77.0
1001
ACDBBLOCKREPETAG
1070
     1
1071
       52
1005
1229C3
  0
ARC
  5
1229C4
  8
OBJECT
 10
2000.0
 20
-199.99999999999909
 30
0.0
 40
80.0
 50
50.805032573864182
 51
129.1949674261358
1001
ACDBBLOCKREPETAG
1070
     1
1071
       53
1005
1229C4
  0
LINE
  5
1229C5
  8
OBJECT
 10
2045.6618002273251
 20
-137.99999999999909
 30
0.0
 11
2080.0
 21
-137.99999999999909
 31
0.0
1001
ACDBBLOCKREPETAG
1070
     1
1071
       54
1005
1229C5
  0
LINE
  5
1229C6
  8
OBJECT
 10
2062.0
 20
-261.99999999999909
 30
0.0
 11
2080.0
 21
-261.99999999999909
 31
0.0
1001
ACDBBLOCKREPETAG
1070
     1
1071
       55
1005
1229C6
  0
LINE
  5
1229C7
  8
OBJECT
 10
2062.0
 20
-261.99999999999909
 30
0.0
 11
2062.0
 21
-279.99999999999909
 31
0.0
1001
ACDBBLOCKREPETAG
1070
     1
1071
       57
1005
1229C7
  0
LINE
  5
1229C8
  8
OBJECT
 10
1938.0
 20
-261.99999999999909
 30
0.0
 11
1938.0
 21
-279.99999999999909
 31
0.0
1001
ACDBBLOCKREPETAG
1070
     1
1071
       58
1005
1229C8
  0
LINE
  5
1229C9
  8
OBJECT
 10
1938.0
 20
-261.99999999999909
 30
0.0
 11
1920.0
 21
-261.99999999999909
 31
0.0
1001
ACDBBLOCKREPETAG
1070
     1
1071
       60
1005
1229C9
  0
LINE
  5
1229CA
  8
OBJECT
 10
1954.3381997726749
 20
-137.99999999999909
 30
0.0
 11
1920.0
 21
-137.99999999999909
 31
0.0
1001
ACDBBLOCKREPETAG
1070
     1
1071
       61
1005
1229CA
  0
LINE
  5
1229CB
  8
OBJECT
 10
1945.5527778486351
 20
-254.44722215136329
 30
0.0
 11
1938.0
 21
-261.99999999999909
 31
0.0
1001
ACDBBLOCKREPETAG
1070
     1
1071
       42
1005
1229CB
  0
LINE
  5
1229CC
  8
OBJECT
 10
2054.4472221513638
 20
-254.44722215136329
 30
0.0
 11
2062.0
 21
-261.99999999999909
 31
0.0
1001
ACDBBLOCKREPETAG
1070
     1
1071
       43
1005
1229CC
  0
LINE
  5
1229CD
  8
OBJECT
 10
1797.0000000000141
 20
-261.99999999999909
 30
0.0
 11
1790.0000000000141
 21
-261.99999999999909
 31
0.0
1001
ACDBBLOCKREPETAG
1070
     1
1071
       85
1005
1229CD
  0
LINE
  5
1229CE
  8
OBJECT
 10
1790.0000000000141
 20
-261.99999999999909
 30
0.0
 11
1790.0000000000141
 21
-137.99999999999909
 31
0.0
1001
ACDBBLOCKREPETAG
1070
     1
1071
       86
1005
1229CE
  0
LINE
  5
1229CF
  8
OBJECT
 10
1790.0000000000141
 20
-137.99999999999909
 30
0.0
 11
1797.0000000000141
 21
-137.99999999999909
 31
0.0
1001
ACDBBLOCKREPETAG
1070
     1
1071
       87
1005
1229CF
  0
LINE
  5
1229D0
  8
OBJECT
 10
1797.0000000000141
 20
-137.99999999999909
 30
0.0
 11
1797.0000000000141
 21
-261.99999999999909
 31
0.0
1001
ACDBBLOCKREPETAG
1070
     1
1071
       88
1005
1229D0
  0
LINE
  5
1229D1
  8
CENTER
 10
1775.0000000000141
 20
-199.99999999999909
 30
0.0
 11
1920.0
 21
-199.99999999999909
 31
0.0
1001
ACDBBLOCKREPETAG
1070
     1
1071
       89
1005
1229D1
  0
LINE
  5
1229D2
  8
OBJECT
 10
1850.000025035813
 20
-154.9999999999954
 30
0.0
 11
1914.0
 21
-154.99999999999909
 31
0.0
1001
ACDBBLOCKREPETAG
1070
     1
1071
       90
1005
1229D2
  0
LINE
  5
1229D3
  8
OBJECT
 10
1850.000025035813
 20
-244.99999999999909
 30
0.0
 11
1914.0
 21
-244.99999999999909
 31
0.0
1001
ACDBBLOCKREPETAG
1070
     1
1071
       91
1005
1229D3
  0
LINE
  5
1229D4
  8
OBJECT
 10
1797.0000000000141
 20
-258.99999999999909
 30
0.0
 11
1833.000000000015
 21
-258.99999999999909
 31
0.0
1001
ACDBBLOCKREPETAG
1070
     1
1071
       92
1005
1229D4
  0
LINE
  5
1229D5
  8
OBJECT
 10
1833.000000000015
 20
-258.99999999999909
 30
0.0
 11
1833.000000000015
 21
-140.99999999999909
 31
0.0
1001
ACDBBLOCKREPETAG
1070
     1
1071
       93
1005
1229D5
  0
LINE
  5
1229D6
  8
OBJECT
 10
1833.000000000015
 20
-140.99999999999909
 30
0.0
 11
1797.0000000000141
 21
-140.99999999999909
 31
0.0
1001
ACDBBLOCKREPETAG
1070
     1
1071
       94
1005
1229D6
  0
LINE
  5
1229D7
  8
OBJECT
 10
1837.000000000015
 20
-254.49999999999909
 30
0.0
 11
1850.0000000000141
 21
-254.49999999999909
 31
0.0
1001
ACDBBLOCKREPETAG
1070
     1
1071
       95
1005
1229D7
  0
LINE
  5
1229D8
  8
OBJECT
 10
1850.0000000000141
 20
-145.49999999999909
 30
0.0
 11
1837.000000000015
 21
-145.49999999999909
 31
0.0
1001
ACDBBLOCKREPETAG
1070
     1
1071
       96
1005
1229D8
  0
LINE
  5
1229D9
  8
OBJECT
 10
1837.000000000015
 20
-145.49999999999909
 30
0.0
 11
1837.000000000015
 21
-254.49999999999909
 31
0.0
1001
ACDBBLOCKREPETAG
1070
     1
1071
       97
1005
1229D9
  0
LINE
  5
1229DA
  8
OBJECT
 10
1833.000000000015
 20
-258.99999999999909
 30
0.0
 11
1837.000000000015
 21
-254.49999999999909
 31
0.0
1001
ACDBBLOCKREPETAG
1070
     1
1071
       98
1005
1229DA
  0
LINE
  5
1229DB
  8
OBJECT
 10
1833.000000000015
 20
-140.99999999999909
 30
0.0
 11
1837.000000000015
 21
-145.49999999999909
 31
0.0
1001
ACDBBLOCKREPETAG
1070
     1
1071
       99
1005
1229DB
  0
LINE
  5
1229DC
  8
OBJECT
 10
1917.0
 20
-261.99999999999909
 30
0.0
 11
1920.0
 21
-261.99999999999909
 31
0.0
1001
ACDBBLOCKREPETAG
1070
     1
1071
      100
1005
1229DC
  0
ARC
  5
1229DD
  8
OBJECT
 10
1917.0
 20
-258.99999999999909
 30
0.0
 40
3.0
 50
180.0
 51
270.0
1001
ACDBBLOCKREPETAG
1070
     1
1071
      101
1005
1229DD
  0
LINE
  5
1229DE
  8
OBJECT
 10
1920.0
 20
-137.99999999999909
 30
0.0
 11
1917.0
 21
-137.99999999999909
 31
0.0
1001
ACDBBLOCKREPETAG
1070
     1
1071
      102
1005
1229DE
  0
ARC
  5
1229DF
  8
OBJECT
 10
1917.0
 20
-140.99999999999909
 30
0.0
 40
3.0
 50
90.0
 51
180.0
1001
ACDBBLOCKREPETAG
1070
     1
1071
      103
1005
1229DF
  0
LINE
  5
1229E0
  8
OBJECT
 10
1914.0
 20
-140.99999999999909
 30
0.0
 11
1914.0
 21
-189.6772096796403
 31
0.0
1001
ACDBBLOCKREPETAG
1070
     1
1071
      104
1005
1229E0
  0
LINE
  5
1229E1
  8
OBJECT
 10
1914.0
 20
-210.3227903203578
 30
0.0
 11
1914.0
 21
-258.99999999999909
 31
0.0
1001
ACDBBLOCKREPETAG
1070
     1
1071
      105
1005
1229E1
  0
LINE
  5
1229E2
  8
HIDDEN
 10
1842.0000000000141
 20
-244.49999999999909
 30
0.0
 11
1842.0000000000141
 21
-155.49999999999909
 31
0.0
1001
ACDBBLOCKREPETAG
1070
     1
1071
      106
1005
1229E2
  0
LINE
  5
1229E3
  8
OBJECT
 10
1850.000025035813
 20
-145.50004907618759
 30
0.0
 11
1850.000025035813
 21
-254.50004907618771
 31
0.0
1001
ACDBBLOCKREPETAG
1070
     1
1071
      108
1005
1229E3
  0
ARC
  5
1229E4
  8
OBJECT
 10
1870.199999999975
 20
-199.99999999999909
 30
0.0
 40
45.000000000000547
 50
270.0
 51
90.0
1001
ACDBBLOCKREPETAG
1070
     1
1071
      109
1005
1229E4
  0
LINE
  5
1229E5
  8
CENTER
 10
2000.0
 20
-300.99999999999898
 30
0.0
 11
2000.0
 21
-279.99999999999909
 31
0.0
1001
ACDBBLOCKREPETAG
1070
     1
1071
        0
1005
1229E5
  0
LINE
  5
1229E6
  8
OBJECT
 10
2062.0
 20
-283.0
 30
0.0
 11
2062.0
 21
-279.99999999999909
 31
0.0
1001
ACDBBLOCKREPETAG
1070
     1
1071
        1
1005
1229E6
  0
ARC
  5
1229E7
  8
OBJECT
 10
2059.0
 20
-283.0
 30
0.0
 40
3.0
 50
270.0
 51
0.0
1001
ACDBBLOCKREPETAG
1070
     1
1071
        2
1005
1229E7
  0
LINE
  5
1229E8
  8
OBJECT
 10
1938.0
 20
-279.99999999999909
 30
0.0
 11
1938.0
 21
-282.99999999999818
 31
0.0
1001
ACDBBLOCKREPETAG
1070
     1
1071
        3
1005
1229E8
  0
ARC
  5
1229E9
  8
OBJECT
 10
1941.0
 20
-282.99999999999818
 30
0.0
 40
3.0
 50
180.0
 51
270.0
1001
ACDBBLOCKREPETAG
1070
     1
1071
        4
1005
1229E9
  0
LINE
  5
1229EA
  8
OBJECT
 10
1941.0
 20
-285.99999999999818
 30
0.0
 11
2059.0
 21
-286.0
 31
0.0
1001
ACDBBLOCKREPETAG
1070
     1
1071
        5
1005
1229EA
  0
LINE
  5
1229EB
  8
OBJECT
 10
2202.9999999999859
 20
-137.99999999999909
 30
0.0
 11
2209.9999999999859
 21
-137.99999999999909
 31
0.0
1001
ACDBBLOCKREPETAG
1070
     1
1071
       85
1005
1229EB
  0
LINE
  5
1229EC
  8
OBJECT
 10
2209.9999999999859
 20
-137.99999999999909
 30
0.0
 11
2209.9999999999859
 21
-261.99999999999909
 31
0.0
1001
ACDBBLOCKREPETAG
1070
     1
1071
       86
1005
1229EC
  0
LINE
  5
1229ED
  8
OBJECT
 10
2209.9999999999859
 20
-261.99999999999909
 30
0.0
 11
2202.9999999999859
 21
-261.99999999999909
 31
0.0
1001
ACDBBLOCKREPETAG
1070
     1
1071
       87
1005
1229ED
  0
LINE
  5
1229EE
  8
OBJECT
 10
2202.9999999999859
 20
-261.99999999999909
 30
0.0
 11
2202.9999999999859
 21
-137.99999999999909
 31
0.0
1001
ACDBBLOCKREPETAG
1070
     1
1071
       88
1005
1229EE
  0
LINE
  5
1229EF
  8
CENTER
 10
2224.999999999985
 20
-199.99999999999909
 30
0.0
 11
2080.0
 21
-199.99999999999909
 31
0.0
1001
ACDBBLOCKREPETAG
1070
     1
1071
       89
1005
1229EF
  0
LINE
  5
1229F0
  8
OBJECT
 10
2149.9999749641861
 20
-245.0000000000027
 30
0.0
 11
2086.0
 21
-244.99999999999909
 31
0.0
1001
ACDBBLOCKREPETAG
1070
     1
1071
       90
1005
1229F0
  0
LINE
  5
1229F1
  8
OBJECT
 10
2149.9999749641861
 20
-154.99999999999909
 30
0.0
 11
2086.0
 21
-154.99999999999909
 31
0.0
1001
ACDBBLOCKREPETAG
1070
     1
1071
       91
1005
1229F1
  0
LINE
  5
1229F2
  8
OBJECT
 10
2202.9999999999859
 20
-140.99999999999909
 30
0.0
 11
2166.9999999999859
 21
-140.99999999999909
 31
0.0
1001
ACDBBLOCKREPETAG
1070
     1
1071
       92
1005
1229F2
  0
LINE
  5
1229F3
  8
OBJECT
 10
2166.9999999999859
 20
-140.99999999999909
 30
0.0
 11
2166.9999999999859
 21
-258.99999999999909
 31
0.0
1001
ACDBBLOCKREPETAG
1070
     1
1071
       93
1005
1229F3
  0
LINE
  5
1229F4
  8
OBJECT
 10
2166.9999999999859
 20
-258.99999999999909
 30
0.0
 11
2202.9999999999859
 21
-258.99999999999909
 31
0.0
1001
ACDBBLOCKREPETAG
1070
     1
1071
       94
1005
1229F4
  0
LINE
  5
1229F5
  8
OBJECT
 10
2162.9999999999859
 20
-145.49999999999909
 30
0.0
 11
2149.9999999999859
 21
-145.49999999999909
 31
0.0
1001
ACDBBLOCKREPETAG
1070
     1
1071
       95
1005
1229F5
  0
LINE
  5
1229F6
  8
OBJECT
 10
2149.9999999999859
 20
-254.49999999999909
 30
0.0
 11
2162.9999999999859
 21
-254.49999999999909
 31
0.0
1001
ACDBBLOCKREPETAG
1070
     1
1071
       96
1005
1229F6
  0
LINE
  5
1229F7
  8
OBJECT
 10
2162.9999999999859
 20
-254.49999999999909
 30
0.0
 11
2162.9999999999859
 21
-145.49999999999909
 31
0.0
1001
ACDBBLOCKREPETAG
1070
     1
1071
       97
1005
1229F7
  0
LINE
  5
1229F8
  8
OBJECT
 10
2166.9999999999859
 20
-140.99999999999909
 30
0.0
 11
2162.9999999999859
 21
-145.49999999999909
 31
0.0
1001
ACDBBLOCKREPETAG
1070
     1
1071
       98
1005
1229F8
  0
LINE
  5
1229F9
  8
OBJECT
 10
2166.9999999999859
 20
-258.99999999999909
 30
0.0
 11
2162.9999999999859
 21
-254.49999999999909
 31
0.0
1001
ACDBBLOCKREPETAG
1070
     1
1071
       99
1005
1229F9
  0
LINE
  5
1229FA
  8
OBJECT
 10
2083.0
 20
-137.99999999999909
 30
0.0
 11
2080.0
 21
-137.99999999999909
 31
0.0
1001
ACDBBLOCKREPETAG
1070
     1
1071
      100
1005
1229FA
  0
ARC
  5
1229FB
  8
OBJECT
 10
2083.0
 20
-140.99999999999909
 30
0.0
 40
3.0
 50
0.0
 51
90.0
1001
ACDBBLOCKREPETAG
1070
     1
1071
      101
1005
1229FB
  0
LINE
  5
1229FC
  8
OBJECT
 10
2080.0
 20
-261.99999999999909
 30
0.0
 11
2083.0
 21
-261.99999999999909
 31
0.0
1001
ACDBBLOCKREPETAG
1070
     1
1071
      102
1005
1229FC
  0
ARC
  5
1229FD
  8
OBJECT
 10
2083.0
 20
-258.99999999999909
 30
0.0
 40
3.0
 50
270.0
 51
0.0
1001
ACDBBLOCKREPETAG
1070
     1
1071
      103
1005
1229FD
  0
LINE
  5
1229FE
  8
OBJECT
 10
2086.0
 20
-258.99999999999909
 30
0.0
 11
2086.0
 21
-210.3227903203578
 31
0.0
1001
ACDBBLOCKREPETAG
1070
     1
1071
      104
1005
1229FE
  0
LINE
  5
1229FF
  8
OBJECT
 10
2086.0
 20
-189.6772096796403
 30
0.0
 11
2086.0
 21
-140.99999999999909
 31
0.0
1001
ACDBBLOCKREPETAG
1070
     1
1071
      105
1005
1229FF
  0
LINE
  5
122A00
  8
HIDDEN
 10
2157.9999999999859
 20
-155.49999999999909
 30
0.0
 11
2157.9999999999859
 21
-244.49999999999909
 31
0.0
1001
ACDBBLOCKREPETAG
1070
     1
1071
      106
1005
122A00
  0
LINE
  5
122A01
  8
OBJECT
 10
2149.9999749641861
 20
-254.4999509238105
 30
0.0
 11
2149.9999749641861
 21
-145.4999509238105
 31
0.0
1001
ACDBBLOCKREPETAG
1070
     1
1071
      108
1005
122A01
  0
ARC
  5
122A02
  8
OBJECT
 10
2129.8000000000252
 20
-199.99999999999909
 30
0.0
 40
45.000000000000547
 50
90.0
 51
270.0
1001
ACDBBLOCKREPETAG
1070
     1
1071
      109
1005
122A02
  0
LINE
  5
122A03
  8
OBJECT
 10
1797.0000000000141
 20
-583.0
 30
0.0
 11
1790.0000000000141
 21
-583.0
 31
0.0
1001
ACDBBLOCKREPETAG
1070
     1
1071
       83
1005
122A03
  0
LINE
  5
122A04
  8
OBJECT
 10
1790.0000000000141
 20
-583.0
 30
0.0
 11
1790.0000000000141
 21
-707.0
 31
0.0
1001
ACDBBLOCKREPETAG
1070
     1
1071
       84
1005
122A04
  0
LINE
  5
122A05
  8
OBJECT
 10
1914.0000000000141
 20
-653.3502637757274
 30
0.0
 11
1914.0000000000141
 21
-755.00000000000102
 31
0.0
1001
ACDBBLOCKREPETAG
1070
     1
1071
       85
1005
122A05
  0
LINE
  5
122A06
  8
OBJECT
 10
1790.0000000000141
 20
-707.0
 30
0.0
 11
1797.0000000000141
 21
-707.0
 31
0.0
1001
ACDBBLOCKREPETAG
1070
     1
1071
       86
1005
122A06
  0
LINE
  5
122A07
  8
OBJECT
 10
1797.0000000000141
 20
-707.0
 30
0.0
 11
1797.0000000000141
 21
-583.0
 31
0.0
1001
ACDBBLOCKREPETAG
1070
     1
1071
       87
1005
122A07
  0
LINE
  5
122A08
  8
CENTER
 10
1865.0000000000141
 20
-645.0000000000008
 30
0.0
 11
1775.0000000000141
 21
-645.0
 31
0.0
1001
ACDBBLOCKREPETAG
1070
     1
1071
       88
1005
122A08
  0
LINE
  5
122A09
  8
OBJECT
 10
1920.000000000018
 20
-758.0
 30
0.0
 11
1917.000000000015
 21
-758.0000000000008
 31
0.0
1001
ACDBBLOCKREPETAG
1070
     1
1071
       89
1005
122A09
  0
ARC
  5
122A0A
  8
OBJECT
 10
1917.000000000015
 20
-755.00000000000102
 30
0.0
 40
3.0
 50
180.0
 51
270.0
1001
ACDBBLOCKREPETAG
1070
     1
1071
       90
1005
122A0A
  0
LINE
  5
122A0B
  8
OBJECT
 10
1797.0000000000141
 20
-586.0
 30
0.0
 11
1833.000000000015
 21
-586.0000000000008
 31
0.0
1001
ACDBBLOCKREPETAG
1070
     1
1071
       91
1005
122A0B
  0
LINE
  5
122A0C
  8
OBJECT
 10
1833.000000000015
 20
-586.0000000000008
 30
0.0
 11
1833.000000000015
 21
-704.0000000000008
 31
0.0
1001
ACDBBLOCKREPETAG
1070
     1
1071
       92
1005
122A0C
  0
LINE
  5
122A0D
  8
OBJECT
 10
1837.000000000015
 20
-590.5000000000008
 30
0.0
 11
1837.000000000015
 21
-699.5000000000008
 31
0.0
1001
ACDBBLOCKREPETAG
1070
     1
1071
       93
1005
122A0D
  0
LINE
  5
122A0E
  8
OBJECT
 10
1837.000000000015
 20
-590.5000000000008
 30
0.0
 11
1850.0000000000141
 21
-590.5000000000008
 31
0.0
1001
ACDBBLOCKREPETAG
1070
     1
1071
       94
1005
122A0E
  0
LINE
  5
122A0F
  8
OBJECT
 10
1833.000000000015
 20
-704.0000000000008
 30
0.0
 11
1797.0000000000141
 21
-704.0
 31
0.0
1001
ACDBBLOCKREPETAG
1070
     1
1071
       95
1005
122A0F
  0
LINE
  5
122A10
  8
OBJECT
 10
1833.000000000015
 20
-586.0000000000008
 30
0.0
 11
1837.000000000015
 21
-590.5000000000008
 31
0.0
1001
ACDBBLOCKREPETAG
1070
     1
1071
       96
1005
122A10
  0
LINE
  5
122A11
  8
OBJECT
 10
1850.0000000000141
 20
-590.5000000000008
 30
0.0
 11
1850.0000000000141
 21
-675.74491827928784
 31
0.0
1001
ACDBBLOCKREPETAG
1070
     1
1071
       97
1005
122A11
  0
ARC
  5
122A12
  8
OBJECT
 10
1847.2000000000151
 20
-685.0000000000008
 30
0.0
 40
85.0
 50
36.869897645898732
 51
88.112268108168848
1001
ACDBBLOCKREPETAG
1070
     1
1071
       98
1005
122A12
  0
LINE
  5
122A13
  8
HIDDEN
 10
1842.0000000000141
 20
-600.50000000000068
 30
0.0
 11
1842.0000000000141
 21
-689.50000000000091
 31
0.0
1001
ACDBBLOCKREPETAG
1070
     1
1071
      100
1005
122A13
  0
LINE
  5
122A14
  8
OBJECT
 10
1914.0000000000141
 20
-751.07945073181781
 30
0.0
 11
1843.368680078969
 21
-699.5000000000008
 31
0.0
1001
ACDBBLOCKREPETAG
1070
     1
1071
      101
1005
122A14
  0
LINE
  5
122A15
  8
OBJECT
 10
1920.000000000018
 20
-634.0
 30
0.0
 11
1915.2000000000151
 21
-634.0
 31
0.0
1001
ACDBBLOCKREPETAG
1070
     1
1071
      102
1005
122A15
  0
LINE
  5
122A16
  8
OBJECT
 10
1914.0000000000141
 20
-653.35026377573013
 30
0.0
 11
1915.2000000000151
 21
-634.0
 31
0.0
1001
ACDBBLOCKREPETAG
1070
     1
1071
      103
1005
122A16
  0
LINE
  5
122A17
  8
OBJECT
 10
1837.000000000015
 20
-699.5000000000008
 30
0.0
 11
1843.368680078969
 21
-699.5000000000008
 31
0.0
1001
ACDBBLOCKREPETAG
1070
     1
1071
      104
1005
122A17
  0
LINE
  5
122A18
  8
OBJECT
 10
1833.000000000015
 20
-704.0000000000008
 30
0.0
 11
1837.000000000015
 21
-699.5000000000008
 31
0.0
1001
ACDBBLOCKREPETAG
1070
     1
1071
      105
1005
122A18
  0
CIRCLE
  5
122A19
  8
OBJECT
 10
2000.0
 20
-696.0
 30
0.0
 40
62.0
1001
ACDBBLOCKREPETAG
1070
     1
1071
        0
1005
122A19
  0
LINE
  5
122A1A
  8
OBJECT
 10
2202.9999999999859
 20
-583.0000000000008
 30
0.0
 11
2209.9999999999859
 21
-583.0000000000008
 31
0.0
1001
ACDBBLOCKREPETAG
1070
     1
1071
       83
1005
122A1A
  0
LINE
  5
122A1B
  8
OBJECT
 10
2209.9999999999859
 20
-583.0000000000008
 30
0.0
 11
2209.9999999999859
 21
-707.00000000000091
 31
0.0
1001
ACDBBLOCKREPETAG
1070
     1
1071
       84
1005
122A1B
  0
LINE
  5
122A1C
  8
OBJECT
 10
2085.9999999999859
 20
-653.3502637757274
 30
0.0
 11
2085.9999999999859
 21
-755.00000000000102
 31
0.0
1001
ACDBBLOCKREPETAG
1070
     1
1071
       85
1005
122A1C
  0
LINE
  5
122A1D
  8
OBJECT
 10
2209.9999999999859
 20
-707.00000000000091
 30
0.0
 11
2202.9999999999859
 21
-707.00000000000091
 31
0.0
1001
ACDBBLOCKREPETAG
1070
     1
1071
       86
1005
122A1D
  0
LINE
  5
122A1E
  8
OBJECT
 10
2202.9999999999859
 20
-707.00000000000091
 30
0.0
 11
2202.9999999999859
 21
-583.0000000000008
 31
0.0
1001
ACDBBLOCKREPETAG
1070
     1
1071
       87
1005
122A1E
  0
LINE
  5
122A1F
  8
CENTER
 10
2134.9999999999859
 20
-645.0000000000008
 30
0.0
 11
2224.999999999985
 21
-645.0000000000008
 31
0.0
1001
ACDBBLOCKREPETAG
1070
     1
1071
       88
1005
122A1F
  0
LINE
  5
122A20
  8
OBJECT
 10
2079.9999999999809
 20
-758.0
 30
0.0
 11
2082.999999999985
 21
-758.0000000000008
 31
0.0
1001
ACDBBLOCKREPETAG
1070
     1
1071
       89
1005
122A20
  0
ARC
  5
122A21
  8
OBJECT
 10
2082.999999999985
 20
-755.00000000000102
 30
0.0
 40
3.0
 50
270.0
 51
0.0
1001
ACDBBLOCKREPETAG
1070
     1
1071
       90
1005
122A21
  0
LINE
  5
122A22
  8
OBJECT
 10
2202.9999999999859
 20
-586.0000000000008
 30
0.0
 11
2166.9999999999859
 21
-586.0000000000008
 31
0.0
1001
ACDBBLOCKREPETAG
1070
     1
1071
       91
1005
122A22
  0
LINE
  5
122A23
  8
OBJECT
 10
2166.9999999999859
 20
-586.0000000000008
 30
0.0
 11
2166.9999999999859
 21
-704.0000000000008
 31
0.0
1001
ACDBBLOCKREPETAG
1070
     1
1071
       92
1005
122A23
  0
LINE
  5
122A24
  8
OBJECT
 10
2162.9999999999859
 20
-590.5000000000008
 30
0.0
 11
2162.9999999999859
 21
-699.5000000000008
 31
0.0
1001
ACDBBLOCKREPETAG
1070
     1
1071
       93
1005
122A24
  0
LINE
  5
122A25
  8
OBJECT
 10
2162.9999999999859
 20
-590.5000000000008
 30
0.0
 11
2149.9999999999859
 21
-590.5000000000008
 31
0.0
1001
ACDBBLOCKREPETAG
1070
     1
1071
       94
1005
122A25
  0
LINE
  5
122A26
  8
OBJECT
 10
2166.9999999999859
 20
-704.0000000000008
 30
0.0
 11
2202.9999999999859
 21
-704.0000000000008
 31
0.0
1001
ACDBBLOCKREPETAG
1070
     1
1071
       95
1005
122A26
  0
LINE
  5
122A27
  8
OBJECT
 10
2166.9999999999859
 20
-586.0000000000008
 30
0.0
 11
2162.9999999999859
 21
-590.5000000000008
 31
0.0
1001
ACDBBLOCKREPETAG
1070
     1
1071
       96
1005
122A27
  0
LINE
  5
122A28
  8
OBJECT
 10
2149.9999999999859
 20
-590.5000000000008
 30
0.0
 11
2149.9999999999859
 21
-675.74491827928784
 31
0.0
1001
ACDBBLOCKREPETAG
1070
     1
1071
       97
1005
122A28
  0
ARC
  5
122A29
  8
OBJECT
 10
2152.7999999999838
 20
-685.0000000000008
 30
0.0
 40
85.0
 50
91.887731891831123
 51
143.1301023540934
1001
ACDBBLOCKREPETAG
1070
     1
1071
       98
1005
122A29
  0
LINE
  5
122A2A
  8
HIDDEN
 10
2157.9999999999859
 20
-600.50000000000068
 30
0.0
 11
2157.9999999999859
 21
-689.50000000000091
 31
0.0
1001
ACDBBLOCKREPETAG
1070
     1
1071
      100
1005
122A2A
  0
LINE
  5
122A2B
  8
OBJECT
 10
2085.9999999999859
 20
-751.07945073181781
 30
0.0
 11
2156.6313199210308
 21
-699.5000000000008
 31
0.0
1001
ACDBBLOCKREPETAG
1070
     1
1071
      101
1005
122A2B
  0
LINE
  5
122A2C
  8
OBJECT
 10
2079.9999999999809
 20
-634.0
 30
0.0
 11
2084.7999999999852
 21
-634.0
 31
0.0
1001
ACDBBLOCKREPETAG
1070
     1
1071
      102
1005
122A2C
  0
LINE
  5
122A2D
  8
OBJECT
 10
2085.9999999999859
 20
-653.35026377573013
 30
0.0
 11
2084.7999999999852
 21
-634.0
 31
0.0
1001
ACDBBLOCKREPETAG
1070
     1
1071
      103
1005
122A2D
  0
LINE
  5
122A2E
  8
OBJECT
 10
2162.9999999999859
 20
-699.5000000000008
 30
0.0
 11
2156.6313199210308
 21
-699.5000000000008
 31
0.0
1001
ACDBBLOCKREPETAG
1070
     1
1071
      104
1005
122A2E
  0
LINE
  5
122A2F
  8
OBJECT
 10
2166.9999999999859
 20
-704.0000000000008
 30
0.0
 11
2162.9999999999859
 21
-699.5000000000008
 31
0.0
1001
ACDBBLOCKREPETAG
1070
     1
1071
      105
1005
122A2F
  0
LINE
  5
122A30
  8
SLIM
 10
11914.999999999991
 20
-765.19743878931536
 30
0.0
 11
11925.197438789301
 21
-755.0
 31
0.0
1001
ACAD
1010
0.0
1020
0.0
1030
0.0
1001
ACDBBLOCKREPETAG
1070
     1
1071
        0
1005
0
  0
LINE
  5
122A31
  8
SLIM
 10
11914.999999999991
 20
-783.15795103145354
 30
0.0
 11
11943.15795103144
 21
-755.0
 31
0.0
1001
ACAD
1010
0.0
1020
0.0
1030
0.0
1001
ACDBBLOCKREPETAG
1070
     1
1071
       10
1005
122A31
  0
LINE
  5
122A32
  8
SLIM
 10
11914.999999999991
 20
-801.11846327359149
 30
0.0
 11
11961.11846327358
 21
-755.0
 31
0.0
1001
ACAD
1010
0.0
1020
0.0
1030
0.0
1001
ACDBBLOCKREPETAG
1070
     1
1071
       11
1005
122A32
  0
LINE
  5
122A33
  8
SLIM
 10
11914.999999999991
 20
-819.0789755157291
 30
0.0
 11
11979.07897551572
 21
-755.0
 31
0.0
1001
ACAD
1010
0.0
1020
0.0
1030
0.0
1001
ACDBBLOCKREPETAG
1070
     1
1071
       12
1005
122A33
  0
LINE
  5
122A34
  8
SLIM
 10
11914.999999999991
 20
-837.03948775786716
 30
0.0
 11
11997.03948775786
 21
-755.0
 31
0.0
1001
ACAD
1010
0.0
1020
0.0
1030
0.0
1001
ACDBBLOCKREPETAG
1070
     1
1071
       13
1005
122A34
  0
LINE
  5
122A35
  8
SLIM
 10
11914.999999999991
 20
-855.00000000000523
 30
0.0
 11
12015.0
 21
-755.0
 31
0.0
1001
ACAD
1010
0.0
1020
0.0
1030
0.0
1001
ACDBBLOCKREPETAG
1070
     1
1071
       14
1005
122A35
  0
LINE
  5
122A36
  8
SLIM
 10
11914.999999999991
 20
-872.96051224214295
 30
0.0
 11
12032.96051224214
 21
-755.0
 31
0.0
1001
ACAD
1010
0.0
1020
0.0
1030
0.0
1001
ACDBBLOCKREPETAG
1070
     1
1071
       15
1005
122A36
  0
LINE
  5
122A37
  8
SLIM
 10
11914.999999999991
 20
-890.92102448428136
 30
0.0
 11
12050.921024484271
 21
-755.0
 31
0.0
1001
ACAD
1010
0.0
1020
0.0
1030
0.0
1001
ACDBBLOCKREPETAG
1070
     1
1071
       16
1005
122A37
  0
LINE
  5
122A38
  8
SLIM
 10
11915.0
 20
-908.8815367264192
 30
0.0
 11
12068.881536726411
 21
-755.0
 31
0.0
1001
ACAD
1010
0.0
1020
0.0
1030
0.0
1001
ACDBBLOCKREPETAG
1070
     1
1071
       17
1005
122A38
  0
LINE
  5
122A39
  8
SLIM
 10
11915.0
 20
-926.84204896855715
 30
0.0
 11
12085.000000000009
 21
-756.84204896854578
 31
0.0
1001
ACAD
1010
0.0
1020
0.0
1030
0.0
1001
ACDBBLOCKREPETAG
1070
     1
1071
       18
1005
122A39
  0
LINE
  5
122A3A
  8
SLIM
 10
11915.0
 20
-944.80256121069533
 30
0.0
 11
12085.000000000009
 21
-774.80256121068464
 31
0.0
1001
ACAD
1010
0.0
1020
0.0
1030
0.0
1001
ACDBBLOCKREPETAG
1070
     1
1071
       19
1005
122A3A
  0
LINE
  5
122A3B
  8
SLIM
 10
11915.0
 20
-962.76307345283294
 30
0.0
 11
12085.000000000009
 21
-792.76307345282305
 31
0.0
1001
ACAD
1010
0.0
1020
0.0
1030
0.0
1001
ACDBBLOCKREPETAG
1070
     1
1071
       20
1005
122A3B
  0
LINE
  5
122A3C
  8
SLIM
 10
11915.0
 20
-980.72358569497135
 30
0.0
 11
12085.0
 21
-810.7235856949618
 31
0.0
1001
ACAD
1010
0.0
1020
0.0
1030
0.0
1001
ACDBBLOCKREPETAG
1070
     1
1071
       21
1005
122A3C
  0
LINE
  5
122A3D
  8
SLIM
 10
11915.0
 20
-998.68409793710907
 30
0.0
 11
12085.0
 21
-828.68409793710055
 31
0.0
1001
ACAD
1010
0.0
1020
0.0
1030
0.0
1001
ACDBBLOCKREPETAG
1070
     1
1071
       22
1005
122A3D
  0
LINE
  5
122A3E
  8
SLIM
 10
11915.0
 20
-1016.644610179247
 30
0.0
 11
12085.0
 21
-846.64461017923895
 31
0.0
1001
ACAD
1010
0.0
1020
0.0
1030
0.0
1001
ACDBBLOCKREPETAG
1070
     1
1071
       23
1005
122A3E
  0
LINE
  5
122A3F
  8
SLIM
 10
11915.0
 20
-1034.605122421385
 30
0.0
 11
12085.0
 21
-864.60512242137781
 31
0.0
1001
ACAD
1010
0.0
1020
0.0
1030
0.0
1001
ACDBBLOCKREPETAG
1070
     1
1071
       24
1005
122A3F
  0
LINE
  5
122A40
  8
SLIM
 10
11915.0
 20
-1052.565634663523
 30
0.0
 11
12085.0
 21
-882.56563466351645
 31
0.0
1001
ACAD
1010
0.0
1020
0.0
1030
0.0
1001
ACDBBLOCKREPETAG
1070
     1
1071
       25
1005
122A40
  0
LINE
  5
122A41
  8
SLIM
 10
11915.0
 20
-1070.5261469056611
 30
0.0
 11
12085.0
 21
-900.5261469056552
 31
0.0
1001
ACAD
1010
0.0
1020
0.0
1030
0.0
1001
ACDBBLOCKREPETAG
1070
     1
1071
       26
1005
122A41
  0
LINE
  5
122A42
  8
SLIM
 10
11915.0
 20
-1088.4866591477989
 30
0.0
 11
12085.0
 21
-918.48665914779383
 31
0.0
1001
ACAD
1010
0.0
1020
0.0
1030
0.0
1001
ACDBBLOCKREPETAG
1070
     1
1071
       27
1005
122A42
  0
LINE
  5
122A43
  8
SLIM
 10
11915.0
 20
-1106.447171389937
 30
0.0
 11
12085.0
 21
-936.44717138993246
 31
0.0
1001
ACAD
1010
0.0
1020
0.0
1030
0.0
1001
ACDBBLOCKREPETAG
1070
     1
1071
       28
1005
122A43
  0
LINE
  5
122A44
  8
SLIM
 10
11915.0
 20
-1124.4076836320739
 30
0.0
 11
12085.0
 21
-954.40768363207064
 31
0.0
1001
ACAD
1010
0.0
1020
0.0
1030
0.0
1001
ACDBBLOCKREPETAG
1070
     1
1071
       29
1005
122A44
  0
LINE
  5
122A45
  8
SLIM
 10
11915.575570103911
 20
-1141.7926257703
 30
0.0
 11
12085.0
 21
-972.36819587420985
 31
0.0
1001
ACAD
1010
0.0
1020
0.0
1030
0.0
1001
ACDBBLOCKREPETAG
1070
     1
1071
       30
1005
122A45
  0
LINE
  5
122A46
  8
SLIM
 10
11917.789879832389
 20
-1157.538828283954
 30
0.0
 11
12085.0
 21
-990.32870811634814
 31
0.0
1001
ACAD
1010
0.0
1020
0.0
1030
0.0
1001
ACDBBLOCKREPETAG
1070
     1
1071
       31
1005
122A46
  0
LINE
  5
122A47
  8
SLIM
 10
11920.004189560879
 20
-1173.28503079761
 30
0.0
 11
12085.0
 21
-1008.289220358487
 31
0.0
1001
ACAD
1010
0.0
1020
0.0
1030
0.0
1001
ACDBBLOCKREPETAG
1070
     1
1071
       32
1005
122A47
  0
LINE
  5
122A48
  8
SLIM
 10
11922.21849928936
 20
-1189.0312333112661
 30
0.0
 11
12085.0
 21
-1026.249732600626
 31
0.0
1001
ACAD
1010
0.0
1020
0.0
1030
0.0
1001
ACDBBLOCKREPETAG
1070
     1
1071
       33
1005
122A48
  0
LINE
  5
122A49
  8
SLIM
 10
11924.432809017841
 20
-1204.777435824921
 30
0.0
 11
12085.0
 21
-1044.210244842764
 31
0.0
1001
ACAD
1010
0.0
1020
0.0
1030
0.0
1001
ACDBBLOCKREPETAG
1070
     1
1071
       34
1005
122A49
  0
LINE
  5
122A4A
  8
SLIM
 10
11926.64711874633
 20
-1220.523638338577
 30
0.0
 11
12085.0
 21
-1062.170757084903
 31
0.0
1001
ACAD
1010
0.0
1020
0.0
1030
0.0
1001
ACDBBLOCKREPETAG
1070
     1
1071
       35
1005
122A4A
  0
LINE
  5
122A4B
  8
SLIM
 10
11928.861428474809
 20
-1236.2698408522319
 30
0.0
 11
12085.0
 21
-1080.1312693270411
 31
0.0
1001
ACAD
1010
0.0
1020
0.0
1030
0.0
1001
ACDBBLOCKREPETAG
1070
     1
1071
       36
1005
122A4B
  0
LINE
  5
122A4C
  8
SLIM
 10
11931.07573820329
 20
-1252.0160433658871
 30
0.0
 11
12085.0
 21
-1098.0917815691801
 31
0.0
1001
ACAD
1010
0.0
1020
0.0
1030
0.0
1001
ACDBBLOCKREPETAG
1070
     1
1071
       37
1005
122A4C
  0
LINE
  5
122A4D
  8
SLIM
 10
11932.999999999991
 20
-1268.0522938113261
 30
0.0
 11
12085.0
 21
-1116.052293811319
 31
0.0
1001
ACAD
1010
0.0
1020
0.0
1030
0.0
1001
ACDBBLOCKREPETAG
1070
     1
1071
       38
1005
122A4D
  0
LINE
  5
122A4E
  8
SLIM
 10
11932.999999999991
 20
-1286.0128060534651
 30
0.0
 11
12085.0
 21
-1134.012806053458
 31
0.0
1001
ACAD
1010
0.0
1020
0.0
1030
0.0
1001
ACDBBLOCKREPETAG
1070
     1
1071
       39
1005
122A4E
  0
LINE
  5
122A4F
  8
SLIM
 10
11932.999999999991
 20
-1303.9733182956029
 30
0.0
 11
12082.664314193131
 21
-1154.3090041024641
 31
0.0
1001
ACAD
1010
0.0
1020
0.0
1030
0.0
1001
ACDBBLOCKREPETAG
1070
     1
1071
       40
1005
122A4F
  0
LINE
  5
122A50
  8
SLIM
 10
11949.93383053773
 20
-1304.999999999997
 30
0.0
 11
12079.725321280779
 21
-1175.2085092569521
 31
0.0
1001
ACAD
1010
0.0
1020
0.0
1030
0.0
1001
ACDBBLOCKREPETAG
1070
     1
1071
       41
1005
122A50
  0
LINE
  5
122A51
  8
SLIM
 10
11967.89434277986
 20
-1304.999999999997
 30
0.0
 11
12076.78632836842
 21
-1196.108014411438
 31
0.0
1001
ACAD
1010
0.0
1020
0.0
1030
0.0
1001
ACDBBLOCKREPETAG
1070
     1
1071
       42
1005
122A51
  0
LINE
  5
122A52
  8
SLIM
 10
11985.854855022009
 20
-1304.999999999998
 30
0.0
 11
12073.847335456079
 21
-1217.007519565926
 31
0.0
1001
ACAD
1010
0.0
1020
0.0
1030
0.0
1001
ACDBBLOCKREPETAG
1070
     1
1071
       43
1005
122A52
  0
LINE
  5
122A53
  8
SLIM
 10
12003.815367264149
 20
-1304.999999999998
 30
0.0
 11
12070.908342543729
 21
-1237.907024720414
 31
0.0
1001
ACAD
1010
0.0
1020
0.0
1030
0.0
1001
ACDBBLOCKREPETAG
1070
     1
1071
       44
1005
122A53
  0
LINE
  5
122A54
  8
SLIM
 10
12021.775879506289
 20
-1304.9999999999991
 30
0.0
 11
12067.969349631379
 21
-1258.8065298749009
 31
0.0
1001
ACAD
1010
0.0
1020
0.0
1030
0.0
1001
ACDBBLOCKREPETAG
1070
     1
1071
       45
1005
122A54
  0
LINE
  5
122A55
  8
SLIM
 10
12039.736391748431
 20
-1304.9999999999991
 30
0.0
 11
12067.0
 21
-1277.7363917484149
 31
0.0
1001
ACAD
1010
0.0
1020
0.0
1030
0.0
1001
ACDBBLOCKREPETAG
1070
     1
1071
       46
1005
122A55
  0
LINE
  5
122A56
  8
SLIM
 10
12057.69690399056
 20
-1304.9999999999991
 30
0.0
 11
12067.0
 21
-1295.696903990553
 31
0.0
1001
ACAD
1010
0.0
1020
0.0
1030
0.0
1001
ACDBBLOCKREPETAG
1070
     1
1071
       47
1005
122A56
  0
LINE
  5
122A57
  8
OBJECT
 10
11932.999999999991
 20
-1304.9999999999959
 30
0.0
 11
12067.0
 21
-1305.0
 31
0.0
1001
ACDBBLOCKREPETAG
1070
     1
1071
        1
1005
122A57
  0
LINE
  5
122A58
  8
OBJECT
 10
11914.999999999991
 20
-755.0
 30
0.0
 11
11915.0
 21
-1137.699682809141
 31
0.0
1001
ACDBBLOCKREPETAG
1070
     1
1071
        2
1005
122A58
  0
LINE
  5
122A59
  8
OBJECT
 10
12085.000000000009
 20
-755.0
 30
0.0
 11
12085.0
 21
-1137.6996828091719
 31
0.0
1001
ACDBBLOCKREPETAG
1070
     1
1071
        3
1005
122A59
  0
LINE
  5
122A5A
  8
OBJECT
 10
11915.0
 20
-1137.699682809141
 30
0.0
 11
11932.999999999991
 21
-1265.699682809081
 31
0.0
1001
ACDBBLOCKREPETAG
1070
     1
1071
        4
1005
122A5A
  0
LINE
  5
122A5B
  8
OBJECT
 10
12067.0
 20
-1265.6996828091289
 30
0.0
 11
12085.0
 21
-1137.6996828091719
 31
0.0
1001
ACDBBLOCKREPETAG
1070
     1
1071
        5
1005
122A5B
  0
LINE
  5
122A5C
  8
OBJECT
 10
12085.000000000009
 20
-755.0
 30
0.0
 11
11914.999999999991
 21
-755.0
 31
0.0
1001
ACDBBLOCKREPETAG
1070
     1
1071
        6
1005
122A5C
  0
LINE
  5
122A5D
  8
OBJECT
 10
11932.999999999991
 20
-1265.699682809081
 30
0.0
 11
11932.999999999991
 21
-1304.9999999999959
 31
0.0
1001
ACDBBLOCKREPETAG
1070
     1
1071
        8
1005
122A5D
  0
LINE
  5
122A5E
  8
OBJECT
 10
12067.0
 20
-1265.6996828091289
 30
0.0
 11
12067.0
 21
-1305.0
 31
0.0
1001
ACDBBLOCKREPETAG
1070
     1
1071
        9
1005
122A5E
  0
LINE
  5
122A5F
  8
SLIM
 10
9914.9999999999927
 20
-765.19743878931536
 30
0.0
 11
9925.1974387893097
 21
-755.0
 31
0.0
1001
ACAD
1010
0.0
1020
0.0
1030
0.0
1001
ACDBBLOCKREPETAG
1070
     1
1071
        0
1005
0
  0
LINE
  5
122A60
  8
SLIM
 10
9914.9999999999927
 20
-783.15795103145354
 30
0.0
 11
9943.1579510314441
 21
-755.0
 31
0.0
1001
ACAD
1010
0.0
1020
0.0
1030
0.0
1001
ACDBBLOCKREPETAG
1070
     1
1071
       10
1005
122A60
  0
LINE
  5
122A61
  8
SLIM
 10
9914.9999999999927
 20
-801.11846327359149
 30
0.0
 11
9961.1184632735858
 21
-755.0
 31
0.0
1001
ACAD
1010
0.0
1020
0.0
1030
0.0
1001
ACDBBLOCKREPETAG
1070
     1
1071
       11
1005
122A61
  0
LINE
  5
122A62
  8
SLIM
 10
9914.9999999999945
 20
-819.0789755157291
 30
0.0
 11
9979.0789755157257
 21
-755.0
 31
0.0
1001
ACAD
1010
0.0
1020
0.0
1030
0.0
1001
ACDBBLOCKREPETAG
1070
     1
1071
       12
1005
122A62
  0
LINE
  5
122A63
  8
SLIM
 10
9914.9999999999945
 20
-837.03948775786716
 30
0.0
 11
9997.0394877578656
 21
-755.0
 31
0.0
1001
ACAD
1010
0.0
1020
0.0
1030
0.0
1001
ACDBBLOCKREPETAG
1070
     1
1071
       13
1005
122A63
  0
LINE
  5
122A64
  8
SLIM
 10
9914.9999999999945
 20
-855.00000000000523
 30
0.0
 11
10015.0
 21
-755.0
 31
0.0
1001
ACAD
1010
0.0
1020
0.0
1030
0.0
1001
ACDBBLOCKREPETAG
1070
     1
1071
       14
1005
122A64
  0
LINE
  5
122A65
  8
SLIM
 10
9914.9999999999945
 20
-872.96051224214295
 30
0.0
 11
10032.96051224214
 21
-755.0
 31
0.0
1001
ACAD
1010
0.0
1020
0.0
1030
0.0
1001
ACDBBLOCKREPETAG
1070
     1
1071
       15
1005
122A65
  0
LINE
  5
122A66
  8
SLIM
 10
9914.9999999999945
 20
-890.92102448428136
 30
0.0
 11
10050.921024484271
 21
-755.0
 31
0.0
1001
ACAD
1010
0.0
1020
0.0
1030
0.0
1001
ACDBBLOCKREPETAG
1070
     1
1071
       16
1005
122A66
  0
LINE
  5
122A67
  8
SLIM
 10
9914.9999999999964
 20
-908.8815367264192
 30
0.0
 11
10068.881536726411
 21
-755.0
 31
0.0
1001
ACAD
1010
0.0
1020
0.0
1030
0.0
1001
ACDBBLOCKREPETAG
1070
     1
1071
       17
1005
122A67
  0
LINE
  5
122A68
  8
SLIM
 10
9914.9999999999964
 20
-926.84204896855715
 30
0.0
 11
10085.000000000009
 21
-756.84204896854578
 31
0.0
1001
ACAD
1010
0.0
1020
0.0
1030
0.0
1001
ACDBBLOCKREPETAG
1070
     1
1071
       18
1005
122A68
  0
LINE
  5
122A69
  8
SLIM
 10
9914.9999999999964
 20
-944.80256121069533
 30
0.0
 11
10085.000000000009
 21
-774.80256121068464
 31
0.0
1001
ACAD
1010
0.0
1020
0.0
1030
0.0
1001
ACDBBLOCKREPETAG
1070
     1
1071
       19
1005
122A69
  0
LINE
  5
122A6A
  8
SLIM
 10
9914.9999999999964
 20
-962.76307345283294
 30
0.0
 11
10085.000000000009
 21
-792.76307345282305
 31
0.0
1001
ACAD
1010
0.0
1020
0.0
1030
0.0
1001
ACDBBLOCKREPETAG
1070
     1
1071
       20
1005
122A6A
  0
LINE
  5
122A6B
  8
SLIM
 10
9914.9999999999964
 20
-980.72358569497135
 30
0.0
 11
10085.0
 21
-810.7235856949618
 31
0.0
1001
ACAD
1010
0.0
1020
0.0
1030
0.0
1001
ACDBBLOCKREPETAG
1070
     1
1071
       21
1005
122A6B
  0
LINE
  5
122A6C
  8
SLIM
 10
9914.9999999999982
 20
-998.68409793710907
 30
0.0
 11
10085.0
 21
-828.68409793710055
 31
0.0
1001
ACAD
1010
0.0
1020
0.0
1030
0.0
1001
ACDBBLOCKREPETAG
1070
     1
1071
       22
1005
122A6C
  0
LINE
  5
122A6D
  8
SLIM
 10
9914.9999999999982
 20
-1016.644610179247
 30
0.0
 11
10085.0
 21
-846.64461017923895
 31
0.0
1001
ACAD
1010
0.0
1020
0.0
1030
0.0
1001
ACDBBLOCKREPETAG
1070
     1
1071
       23
1005
122A6D
  0
LINE
  5
122A6E
  8
SLIM
 10
9914.9999999999982
 20
-1034.605122421385
 30
0.0
 11
10085.0
 21
-864.60512242137781
 31
0.0
1001
ACAD
1010
0.0
1020
0.0
1030
0.0
1001
ACDBBLOCKREPETAG
1070
     1
1071
       24
1005
122A6E
  0
LINE
  5
122A6F
  8
SLIM
 10
9914.9999999999982
 20
-1052.565634663523
 30
0.0
 11
10085.0
 21
-882.56563466351645
 31
0.0
1001
ACAD
1010
0.0
1020
0.0
1030
0.0
1001
ACDBBLOCKREPETAG
1070
     1
1071
       25
1005
122A6F
  0
LINE
  5
122A70
  8
SLIM
 10
9914.9999999999982
 20
-1070.5261469056611
 30
0.0
 11
10085.0
 21
-900.5261469056552
 31
0.0
1001
ACAD
1010
0.0
1020
0.0
1030
0.0
1001
ACDBBLOCKREPETAG
1070
     1
1071
       26
1005
122A70
  0
LINE
  5
122A71
  8
SLIM
 10
9915.0
 20
-1088.4866591477989
 30
0.0
 11
10085.0
 21
-918.48665914779383
 31
0.0
1001
ACAD
1010
0.0
1020
0.0
1030
0.0
1001
ACDBBLOCKREPETAG
1070
     1
1071
       27
1005
122A71
  0
LINE
  5
122A72
  8
SLIM
 10
9915.0
 20
-1106.447171389937
 30
0.0
 11
10085.0
 21
-936.44717138993246
 31
0.0
1001
ACAD
1010
0.0
1020
0.0
1030
0.0
1001
ACDBBLOCKREPETAG
1070
     1
1071
       28
1005
122A72
  0
LINE
  5
122A73
  8
SLIM
 10
9915.0
 20
-1124.4076836320739
 30
0.0
 11
10085.0
 21
-954.40768363207064
 31
0.0
1001
ACAD
1010
0.0
1020
0.0
1030
0.0
1001
ACDBBLOCKREPETAG
1070
     1
1071
       29
1005
122A73
  0
LINE
  5
122A74
  8
SLIM
 10
9915.5755701039125
 20
-1141.7926257703
 30
0.0
 11
10085.0
 21
-972.36819587420985
 31
0.0
1001
ACAD
1010
0.0
1020
0.0
1030
0.0
1001
ACDBBLOCKREPETAG
1070
     1
1071
       30
1005
122A74
  0
LINE
  5
122A75
  8
SLIM
 10
9917.7898798323986
 20
-1157.538828283954
 30
0.0
 11
10085.0
 21
-990.32870811634814
 31
0.0
1001
ACAD
1010
0.0
1020
0.0
1030
0.0
1001
ACDBBLOCKREPETAG
1070
     1
1071
       31
1005
122A75
  0
LINE
  5
122A76
  8
SLIM
 10
9920.0041895608792
 20
-1173.28503079761
 30
0.0
 11
10085.0
 21
-1008.289220358487
 31
0.0
1001
ACAD
1010
0.0
1020
0.0
1030
0.0
1001
ACDBBLOCKREPETAG
1070
     1
1071
       32
1005
122A76
  0
LINE
  5
122A77
  8
SLIM
 10
9922.2184992893599
 20
-1189.0312333112661
 30
0.0
 11
10085.0
 21
-1026.249732600626
 31
0.0
1001
ACAD
1010
0.0
1020
0.0
1030
0.0
1001
ACDBBLOCKREPETAG
1070
     1
1071
       33
1005
122A77
  0
LINE
  5
122A78
  8
SLIM
 10
9924.4328090178442
 20
-1204.777435824921
 30
0.0
 11
10085.0
 21
-1044.210244842764
 31
0.0
1001
ACAD
1010
0.0
1020
0.0
1030
0.0
1001
ACDBBLOCKREPETAG
1070
     1
1071
       34
1005
122A78
  0
LINE
  5
122A79
  8
SLIM
 10
9926.6471187463285
 20
-1220.523638338577
 30
0.0
 11
10085.0
 21
-1062.170757084903
 31
0.0
1001
ACAD
1010
0.0
1020
0.0
1030
0.0
1001
ACDBBLOCKREPETAG
1070
     1
1071
       35
1005
122A79
  0
LINE
  5
122A7A
  8
SLIM
 10
9928.8614284748091
 20
-1236.2698408522319
 30
0.0
 11
10085.0
 21
-1080.1312693270411
 31
0.0
1001
ACAD
1010
0.0
1020
0.0
1030
0.0
1001
ACDBBLOCKREPETAG
1070
     1
1071
       36
1005
122A7A
  0
LINE
  5
122A7B
  8
SLIM
 10
9931.0757382032916
 20
-1252.0160433658871
 30
0.0
 11
10085.0
 21
-1098.0917815691801
 31
0.0
1001
ACAD
1010
0.0
1020
0.0
1030
0.0
1001
ACDBBLOCKREPETAG
1070
     1
1071
       37
1005
122A7B
  0
LINE
  5
122A7C
  8
SLIM
 10
9932.9999999999927
 20
-1268.0522938113261
 30
0.0
 11
10085.0
 21
-1116.052293811319
 31
0.0
1001
ACAD
1010
0.0
1020
0.0
1030
0.0
1001
ACDBBLOCKREPETAG
1070
     1
1071
       38
1005
122A7C
  0
LINE
  5
122A7D
  8
SLIM
 10
9932.9999999999927
 20
-1286.0128060534651
 30
0.0
 11
10085.0
 21
-1134.012806053458
 31
0.0
1001
ACAD
1010
0.0
1020
0.0
1030
0.0
1001
ACDBBLOCKREPETAG
1070
     1
1071
       39
1005
122A7D
  0
LINE
  5
122A7E
  8
SLIM
 10
9932.9999999999927
 20
-1303.9733182956029
 30
0.0
 11
10082.664314193131
 21
-1154.3090041024641
 31
0.0
1001
ACAD
1010
0.0
1020
0.0
1030
0.0
1001
ACDBBLOCKREPETAG
1070
     1
1071
       40
1005
122A7E
  0
LINE
  5
122A7F
  8
SLIM
 10
9949.9338305377387
 20
-1304.999999999997
 30
0.0
 11
10079.725321280779
 21
-1175.2085092569521
 31
0.0
1001
ACAD
1010
0.0
1020
0.0
1030
0.0
1001
ACDBBLOCKREPETAG
1070
     1
1071
       41
1005
122A7F
  0
LINE
  5
122A80
  8
SLIM
 10
9967.8943427798768
 20
-1304.999999999997
 30
0.0
 11
10076.786328368429
 21
-1196.108014411438
 31
0.0
1001
ACAD
1010
0.0
1020
0.0
1030
0.0
1001
ACDBBLOCKREPETAG
1070
     1
1071
       42
1005
122A80
  0
LINE
  5
122A81
  8
SLIM
 10
9985.8548550220112
 20
-1304.999999999998
 30
0.0
 11
10073.847335456079
 21
-1217.007519565926
 31
0.0
1001
ACAD
1010
0.0
1020
0.0
1030
0.0
1001
ACDBBLOCKREPETAG
1070
     1
1071
       43
1005
122A81
  0
LINE
  5
122A82
  8
SLIM
 10
10003.815367264149
 20
-1304.999999999998
 30
0.0
 11
10070.90834254372
 21
-1237.907024720414
 31
0.0
1001
ACAD
1010
0.0
1020
0.0
1030
0.0
1001
ACDBBLOCKREPETAG
1070
     1
1071
       44
1005
122A82
  0
LINE
  5
122A83
  8
SLIM
 10
10021.77587950628
 20
-1304.9999999999991
 30
0.0
 11
10067.969349631379
 21
-1258.8065298749009
 31
0.0
1001
ACAD
1010
0.0
1020
0.0
1030
0.0
1001
ACDBBLOCKREPETAG
1070
     1
1071
       45
1005
122A83
  0
LINE
  5
122A84
  8
SLIM
 10
10039.736391748431
 20
-1304.9999999999991
 30
0.0
 11
10067.000000000009
 21
-1277.7363917484149
 31
0.0
1001
ACAD
1010
0.0
1020
0.0
1030
0.0
1001
ACDBBLOCKREPETAG
1070
     1
1071
       46
1005
122A84
  0
LINE
  5
122A85
  8
SLIM
 10
10057.69690399056
 20
-1304.9999999999991
 30
0.0
 11
10067.000000000009
 21
-1295.696903990553
 31
0.0
1001
ACAD
1010
0.0
1020
0.0
1030
0.0
1001
ACDBBLOCKREPETAG
1070
     1
1071
       47
1005
122A85
  0
LINE
  5
122A86
  8
OBJECT
 10
9932.9999999999927
 20
-1304.9999999999959
 30
0.0
 11
10067.000000000009
 21
-1305.0
 31
0.0
1001
ACDBBLOCKREPETAG
1070
     1
1071
        1
1005
122A86
  0
LINE
  5
122A87
  8
OBJECT
 10
9914.9999999999927
 20
-755.0
 30
0.0
 11
9915.0
 21
-1137.699682809141
 31
0.0
1001
ACDBBLOCKREPETAG
1070
     1
1071
        2
1005
122A87
  0
LINE
  5
122A88
  8
OBJECT
 10
10085.000000000009
 20
-755.0
 30
0.0
 11
10085.0
 21
-1137.6996828091719
 31
0.0
1001
ACDBBLOCKREPETAG
1070
     1
1071
        3
1005
122A88
  0
LINE
  5
122A89
  8
OBJECT
 10
9915.0
 20
-1137.699682809141
 30
0.0
 11
9932.9999999999927
 21
-1265.699682809081
 31
0.0
1001
ACDBBLOCKREPETAG
1070
     1
1071
        4
1005
122A89
  0
LINE
  5
122A8A
  8
OBJECT
 10
10067.000000000009
 20
-1265.6996828091289
 30
0.0
 11
10085.0
 21
-1137.6996828091719
 31
0.0
1001
ACDBBLOCKREPETAG
1070
     1
1071
        5
1005
122A8A
  0
LINE
  5
122A8B
  8
OBJECT
 10
10085.000000000009
 20
-755.0
 30
0.0
 11
9914.9999999999927
 21
-755.0
 31
0.0
1001
ACDBBLOCKREPETAG
1070
     1
1071
        6
1005
122A8B
  0
LINE
  5
122A8C
  8
OBJECT
 10
9932.9999999999927
 20
-1265.699682809081
 30
0.0
 11
9932.9999999999927
 21
-1304.9999999999959
 31
0.0
1001
ACDBBLOCKREPETAG
1070
     1
1071
        8
1005
122A8C
  0
LINE
  5
122A8D
  8
OBJECT
 10
10067.000000000009
 20
-1265.6996828091289
 30
0.0
 11
10067.000000000009
 21
-1305.0
 31
0.0
1001
ACDBBLOCKREPETAG
1070
     1
1071
        9
1005
122A8D
  0
LINE
  5
122A8E
  8
SLIM
 10
7914.9999999999918
 20
-765.19743878931536
 30
0.0
 11
7925.1974387893079
 21
-755.0
 31
0.0
1001
ACAD
1010
0.0
1020
0.0
1030
0.0
1001
ACDBBLOCKREPETAG
1070
     1
1071
        0
1005
0
  0
LINE
  5
122A8F
  8
SLIM
 10
7914.9999999999918
 20
-783.15795103145354
 30
0.0
 11
7943.1579510314459
 21
-755.0
 31
0.0
1001
ACAD
1010
0.0
1020
0.0
1030
0.0
1001
ACDBBLOCKREPETAG
1070
     1
1071
       11
1005
122A8F
  0
LINE
  5
122A90
  8
SLIM
 10
7914.9999999999918
 20
-801.11846327359149
 30
0.0
 11
7961.1184632735867
 21
-755.0
 31
0.0
1001
ACAD
1010
0.0
1020
0.0
1030
0.0
1001
ACDBBLOCKREPETAG
1070
     1
1071
       12
1005
122A90
  0
LINE
  5
122A91
  8
SLIM
 10
7914.9999999999918
 20
-819.0789755157291
 30
0.0
 11
7979.078975515723
 21
-755.0
 31
0.0
1001
ACAD
1010
0.0
1020
0.0
1030
0.0
1001
ACDBBLOCKREPETAG
1070
     1
1071
       13
1005
122A91
  0
LINE
  5
122A92
  8
SLIM
 10
7914.9999999999964
 20
-837.03948775786716
 30
0.0
 11
7997.0394877578628
 21
-755.0
 31
0.0
1001
ACAD
1010
0.0
1020
0.0
1030
0.0
1001
ACDBBLOCKREPETAG
1070
     1
1071
       14
1005
122A92
  0
LINE
  5
122A93
  8
SLIM
 10
7914.9999999999964
 20
-855.00000000000523
 30
0.0
 11
8015.0
 21
-755.0
 31
0.0
1001
ACAD
1010
0.0
1020
0.0
1030
0.0
1001
ACDBBLOCKREPETAG
1070
     1
1071
       15
1005
122A93
  0
LINE
  5
122A94
  8
SLIM
 10
7914.9999999999964
 20
-872.96051224214295
 30
0.0
 11
8032.960512242139
 21
-755.0
 31
0.0
1001
ACAD
1010
0.0
1020
0.0
1030
0.0
1001
ACDBBLOCKREPETAG
1070
     1
1071
       16
1005
122A94
  0
LINE
  5
122A95
  8
SLIM
 10
7914.9999999999982
 20
-890.92102448428136
 30
0.0
 11
8050.9210244842798
 21
-755.0
 31
0.0
1001
ACAD
1010
0.0
1020
0.0
1030
0.0
1001
ACDBBLOCKREPETAG
1070
     1
1071
       17
1005
122A95
  0
LINE
  5
122A96
  8
SLIM
 10
7914.9999999999982
 20
-908.8815367264192
 30
0.0
 11
8068.8815367264133
 21
-755.0
 31
0.0
1001
ACAD
1010
0.0
1020
0.0
1030
0.0
1001
ACDBBLOCKREPETAG
1070
     1
1071
       18
1005
122A96
  0
LINE
  5
122A97
  8
SLIM
 10
7914.9999999999982
 20
-926.84204896855715
 30
0.0
 11
8085.0000000000064
 21
-756.84204896854578
 31
0.0
1001
ACAD
1010
0.0
1020
0.0
1030
0.0
1001
ACDBBLOCKREPETAG
1070
     1
1071
       19
1005
122A97
  0
LINE
  5
122A98
  8
SLIM
 10
7914.9999999999982
 20
-944.80256121069533
 30
0.0
 11
8085.0000000000064
 21
-774.80256121068464
 31
0.0
1001
ACAD
1010
0.0
1020
0.0
1030
0.0
1001
ACDBBLOCKREPETAG
1070
     1
1071
       20
1005
122A98
  0
LINE
  5
122A99
  8
SLIM
 10
7914.9999999999982
 20
-962.76307345283294
 30
0.0
 11
8085.0000000000064
 21
-792.76307345282305
 31
0.0
1001
ACAD
1010
0.0
1020
0.0
1030
0.0
1001
ACDBBLOCKREPETAG
1070
     1
1071
       21
1005
122A99
  0
LINE
  5
122A9A
  8
SLIM
 10
7914.9999999999982
 20
-980.72358569497135
 30
0.0
 11
8085.0000000000064
 21
-810.7235856949618
 31
0.0
1001
ACAD
1010
0.0
1020
0.0
1030
0.0
1001
ACDBBLOCKREPETAG
1070
     1
1071
       22
1005
122A9A
  0
LINE
  5
122A9B
  8
SLIM
 10
7914.9999999999982
 20
-998.68409793710907
 30
0.0
 11
8085.0000000000064
 21
-828.68409793710055
 31
0.0
1001
ACAD
1010
0.0
1020
0.0
1030
0.0
1001
ACDBBLOCKREPETAG
1070
     1
1071
       23
1005
122A9B
  0
LINE
  5
122A9C
  8
SLIM
 10
7914.9999999999982
 20
-1016.644610179247
 30
0.0
 11
8085.0000000000064
 21
-846.64461017923895
 31
0.0
1001
ACAD
1010
0.0
1020
0.0
1030
0.0
1001
ACDBBLOCKREPETAG
1070
     1
1071
       24
1005
122A9C
  0
LINE
  5
122A9D
  8
SLIM
 10
7914.9999999999982
 20
-1034.605122421385
 30
0.0
 11
8085.0000000000064
 21
-864.60512242137781
 31
0.0
1001
ACAD
1010
0.0
1020
0.0
1030
0.0
1001
ACDBBLOCKREPETAG
1070
     1
1071
       25
1005
122A9D
  0
LINE
  5
122A9E
  8
SLIM
 10
7914.9999999999982
 20
-1052.565634663523
 30
0.0
 11
8085.0000000000064
 21
-882.56563466351645
 31
0.0
1001
ACAD
1010
0.0
1020
0.0
1030
0.0
1001
ACDBBLOCKREPETAG
1070
     1
1071
       26
1005
122A9E
  0
LINE
  5
122A9F
  8
SLIM
 10
7914.9999999999982
 20
-1070.5261469056611
 30
0.0
 11
8085.0000000000064
 21
-900.5261469056552
 31
0.0
1001
ACAD
1010
0.0
1020
0.0
1030
0.0
1001
ACDBBLOCKREPETAG
1070
     1
1071
       27
1005
122A9F
  0
LINE
  5
122AA0
  8
SLIM
 10
7914.9999999999982
 20
-1088.4866591477989
 30
0.0
 11
8085.0000000000064
 21
-918.48665914779383
 31
0.0
1001
ACAD
1010
0.0
1020
0.0
1030
0.0
1001
ACDBBLOCKREPETAG
1070
     1
1071
       28
1005
122AA0
  0
LINE
  5
122AA1
  8
SLIM
 10
7914.9999999999982
 20
-1106.447171389937
 30
0.0
 11
8085.0000000000018
 21
-936.44717138993246
 31
0.0
1001
ACAD
1010
0.0
1020
0.0
1030
0.0
1001
ACDBBLOCKREPETAG
1070
     1
1071
       29
1005
122AA1
  0
LINE
  5
122AA2
  8
SLIM
 10
7915.0
 20
-1124.4076836320739
 30
0.0
 11
8085.0000000000018
 21
-954.40768363207064
 31
0.0
1001
ACAD
1010
0.0
1020
0.0
1030
0.0
1001
ACDBBLOCKREPETAG
1070
     1
1071
       30
1005
122AA2
  0
LINE
  5
122AA3
  8
SLIM
 10
7915.5755701039097
 20
-1141.7926257703
 30
0.0
 11
8085.0000000000018
 21
-972.36819587420985
 31
0.0
1001
ACAD
1010
0.0
1020
0.0
1030
0.0
1001
ACDBBLOCKREPETAG
1070
     1
1071
       31
1005
122AA3
  0
LINE
  5
122AA4
  8
SLIM
 10
7917.7898798323949
 20
-1157.538828283956
 30
0.0
 11
8085.0000000000018
 21
-990.32870811634814
 31
0.0
1001
ACAD
1010
0.0
1020
0.0
1030
0.0
1001
ACDBBLOCKREPETAG
1070
     1
1071
       32
1005
122AA4
  0
LINE
  5
122AA5
  8
SLIM
 10
7920.0041895608774
 20
-1173.2850307976109
 30
0.0
 11
8085.0000000000018
 21
-1008.289220358487
 31
0.0
1001
ACAD
1010
0.0
1020
0.0
1030
0.0
1001
ACDBBLOCKREPETAG
1070
     1
1071
       33
1005
122AA5
  0
LINE
  5
122AA6
  8
SLIM
 10
7922.2184992893599
 20
-1189.031233311267
 30
0.0
 11
8085.0000000000018
 21
-1026.249732600626
 31
0.0
1001
ACAD
1010
0.0
1020
0.0
1030
0.0
1001
ACDBBLOCKREPETAG
1070
     1
1071
       34
1005
122AA6
  0
LINE
  5
122AA7
  8
SLIM
 10
7924.4328090178433
 20
-1204.777435824923
 30
0.0
 11
8085.0000000000018
 21
-1044.210244842764
 31
0.0
1001
ACAD
1010
0.0
1020
0.0
1030
0.0
1001
ACDBBLOCKREPETAG
1070
     1
1071
       35
1005
122AA7
  0
LINE
  5
122AA8
  8
SLIM
 10
7926.647118746323
 20
-1220.5236383385779
 30
0.0
 11
8085.0000000000018
 21
-1062.170757084903
 31
0.0
1001
ACAD
1010
0.0
1020
0.0
1030
0.0
1001
ACDBBLOCKREPETAG
1070
     1
1071
       36
1005
122AA8
  0
LINE
  5
122AA9
  8
SLIM
 10
7928.8614284748082
 20
-1236.269840852234
 30
0.0
 11
8085.0
 21
-1080.1312693270411
 31
0.0
1001
ACAD
1010
0.0
1020
0.0
1030
0.0
1001
ACDBBLOCKREPETAG
1070
     1
1071
       37
1005
122AA9
  0
LINE
  5
122AAA
  8
SLIM
 10
7931.0757382032898
 20
-1252.01604336589
 30
0.0
 11
8085.0
 21
-1098.0917815691801
 31
0.0
1001
ACAD
1010
0.0
1020
0.0
1030
0.0
1001
ACDBBLOCKREPETAG
1070
     1
1071
       38
1005
122AAA
  0
LINE
  5
122AAB
  8
SLIM
 10
7936.0522938113209
 20
-1265.0
 30
0.0
 11
8085.0
 21
-1116.052293811319
 31
0.0
1001
ACAD
1010
0.0
1020
0.0
1030
0.0
1001
ACDBBLOCKREPETAG
1070
     1
1071
       39
1005
122AAB
  0
LINE
  5
122AAC
  8
SLIM
 10
7943.0
 20
-1276.0128060534571
 30
0.0
 11
7954.0128060534598
 21
-1265.0
 31
0.0
1001
ACAD
1010
0.0
1020
0.0
1030
0.0
1001
ACDBBLOCKREPETAG
1070
     1
1071
       40
1005
122AAC
  0
LINE
  5
122AAD
  8
SLIM
 10
7954.0128060534598
 20
-1265.0
 30
0.0
 11
8085.0
 21
-1134.012806053458
 31
0.0
1001
ACAD
1010
0.0
1020
0.0
1030
0.0
1001
ACDBBLOCKREPETAG
1070
     1
1071
       41
1005
122AAD
  0
LINE
  5
122AAE
  8
SLIM
 10
7946.973318295597
 20
-1290.0
 30
0.0
 11
7971.9733182955979
 21
-1265.0
 31
0.0
1001
ACAD
1010
0.0
1020
0.0
1030
0.0
1001
ACDBBLOCKREPETAG
1070
     1
1071
       42
1005
122AAE
  0
LINE
  5
122AAF
  8
SLIM
 10
7971.9733182955979
 20
-1265.0
 30
0.0
 11
8082.664314193129
 21
-1154.309004102465
 31
0.0
1001
ACAD
1010
0.0
1020
0.0
1030
0.0
1001
ACDBBLOCKREPETAG
1070
     1
1071
       43
1005
122AAF
  0
LINE
  5
122AB0
  8
SLIM
 10
7964.9338305377341
 20
-1290.0
 30
0.0
 11
7989.9338305377341
 21
-1265.0
 31
0.0
1001
ACAD
1010
0.0
1020
0.0
1030
0.0
1001
ACDBBLOCKREPETAG
1070
     1
1071
       44
1005
122AB0
  0
LINE
  5
122AB1
  8
SLIM
 10
7989.9338305377341
 20
-1265.0
 30
0.0
 11
8079.7253212807827
 21
-1175.208509256953
 31
0.0
1001
ACAD
1010
0.0
1020
0.0
1030
0.0
1001
ACDBBLOCKREPETAG
1070
     1
1071
       45
1005
122AB1
  0
LINE
  5
122AB2
  8
SLIM
 10
7982.8943427798713
 20
-1290.0
 30
0.0
 11
8007.8943427798722
 21
-1265.0
 31
0.0
1001
ACAD
1010
0.0
1020
0.0
1030
0.0
1001
ACDBBLOCKREPETAG
1070
     1
1071
       46
1005
122AB2
  0
LINE
  5
122AB3
  8
SLIM
 10
8007.8943427798722
 20
-1265.0
 30
0.0
 11
8076.786328368431
 21
-1196.108014411441
 31
0.0
1001
ACAD
1010
0.0
1020
0.0
1030
0.0
1001
ACDBBLOCKREPETAG
1070
     1
1071
       47
1005
122AB3
  0
LINE
  5
122AB4
  8
SLIM
 10
8000.8548550220103
 20
-1290.0
 30
0.0
 11
8025.8548550220094
 21
-1265.0
 31
0.0
1001
ACAD
1010
0.0
1020
0.0
1030
0.0
1001
ACDBBLOCKREPETAG
1070
     1
1071
       48
1005
122AB4
  0
LINE
  5
122AB5
  8
SLIM
 10
8025.8548550220094
 20
-1265.0
 30
0.0
 11
8073.8473354560829
 21
-1217.007519565929
 31
0.0
1001
ACAD
1010
0.0
1020
0.0
1030
0.0
1001
ACDBBLOCKREPETAG
1070
     1
1071
       49
1005
122AB5
  0
LINE
  5
122AB6
  8
SLIM
 10
8018.8153672641492
 20
-1290.0
 30
0.0
 11
8043.8153672641502
 21
-1265.0
 31
0.0
1001
ACAD
1010
0.0
1020
0.0
1030
0.0
1001
ACDBBLOCKREPETAG
1070
     1
1071
       50
1005
122AB6
  0
LINE
  5
122AB7
  8
SLIM
 10
8043.8153672641502
 20
-1265.0
 30
0.0
 11
8070.9083425437329
 21
-1237.907024720417
 31
0.0
1001
ACAD
1010
0.0
1020
0.0
1030
0.0
1001
ACDBBLOCKREPETAG
1070
     1
1071
       51
1005
122AB7
  0
LINE
  5
122AB8
  8
SLIM
 10
8036.7758795062846
 20
-1290.0
 30
0.0
 11
8057.0
 21
-1269.7758795062871
 31
0.0
1001
ACAD
1010
0.0
1020
0.0
1030
0.0
1001
ACDBBLOCKREPETAG
1070
     1
1071
       52
1005
122AB8
  0
LINE
  5
122AB9
  8
SLIM
 10
8061.7758795062846
 20
-1265.0
 30
0.0
 11
8067.9693496313812
 21
-1258.806529874905
 31
0.0
1001
ACAD
1010
0.0
1020
0.0
1030
0.0
1001
ACDBBLOCKREPETAG
1070
     1
1071
       53
1005
122AB9
  0
LINE
  5
122ABA
  8
SLIM
 10
8054.7363917484254
 20
-1290.0
 30
0.0
 11
8057.0
 21
-1287.7363917484261
 31
0.0
1001
ACAD
1010
0.0
1020
0.0
1030
0.0
1001
ACDBBLOCKREPETAG
1070
     1
1071
       54
1005
122ABA
  0
LINE
  5
122ABB
  8
OBJECT
 10
7943.0
 20
-1290.0
 30
0.0
 11
8057.0
 21
-1290.0
 31
0.0
1001
ACDBBLOCKREPETAG
1070
     1
1071
        1
1005
122ABB
  0
LINE
  5
122ABC
  8
OBJECT
 10
7932.9016071049627
 20
-1265.0
 30
0.0
 11
8067.09839289504
 21
-1265.0
 31
0.0
1001
ACDBBLOCKREPETAG
1070
     1
1071
        2
1005
122ABC
  0
LINE
  5
122ABD
  8
OBJECT
 10
7943.0
 20
-1290.0
 30
0.0
 11
7943.0
 21
-1265.0
 31
0.0
1001
ACDBBLOCKREPETAG
1070
     1
1071
        3
1005
122ABD
  0
LINE
  5
122ABE
  8
OBJECT
 10
8057.0
 20
-1290.0
 30
0.0
 11
8057.0
 21
-1265.0
 31
0.0
1001
ACDBBLOCKREPETAG
1070
     1
1071
        4
1005
122ABE
  0
LINE
  5
122ABF
  8
OBJECT
 10
7914.9999999999918
 20
-755.0
 30
0.0
 11
7915.0
 21
-1137.699682809143
 31
0.0
1001
ACDBBLOCKREPETAG
1070
     1
1071
        5
1005
122ABF
  0
LINE
  5
122AC0
  8
OBJECT
 10
8085.0000000000064
 20
-755.0
 30
0.0
 11
8085.0
 21
-1137.6996828091719
 31
0.0
1001
ACDBBLOCKREPETAG
1070
     1
1071
        6
1005
122AC0
  0
LINE
  5
122AC1
  8
OBJECT
 10
7915.0
 20
-1137.699682809143
 30
0.0
 11
7932.9016071049627
 21
-1265.0
 31
0.0
1001
ACDBBLOCKREPETAG
1070
     1
1071
        7
1005
122AC1
  0
LINE
  5
122AC2
  8
OBJECT
 10
8067.09839289504
 20
-1265.0
 30
0.0
 11
8085.0
 21
-1137.6996828091719
 31
0.0
1001
ACDBBLOCKREPETAG
1070
     1
1071
        8
1005
122AC2
  0
LINE
  5
122AC3
  8
OBJECT
 10
8085.0000000000064
 20
-755.0
 30
0.0
 11
7914.9999999999918
 21
-755.0
 31
0.0
1001
ACDBBLOCKREPETAG
1070
     1
1071
        9
1005
122AC3
  0
TEXT
  5
122AC4
  8
SLIM
 10
0.0
 20
670.0
 30
0.0
 40
100.0
  1
4SL2-Z606-P110-0-S
 41
0.75
  0
TEXT
  5
122AC5
  8
SLIM
 10
0.0
 20
520.0
 30
0.0
 40
100.0
  1
4SL2-Z606-P110-0-W
 41
0.75
  0
LINE
  5
122AC6
  8
OBJECT
 10
12085.999999999991
 20
-1388.9999999999991
 30
0.0
 11
12085.999999999991
 21
-1398.9999999999991
 31
0.0
1001
ACDBBLOCKREPETAG
1070
     1
1071
      121
1005
122AC6
  0
LINE
  5
122AC7
  8
OBJECT
 10
12069.999999999991
 20
-1388.9999999999991
 30
0.0
 11
12069.999999999991
 21
-1398.9999999999991
 31
0.0
1001
ACDBBLOCKREPETAG
1070
     1
1071
      122
1005
122AC7
  0
LINE
  5
122AC8
  8
OBJECT
 10
12085.999999999991
 20
-1398.9999999999991
 30
0.0
 11
12069.999999999991
 21
-1398.9999999999991
 31
0.0
1001
ACDBBLOCKREPETAG
1070
     1
1071
      123
1005
122AC8
  0
LINE
  5
122AC9
  8
OBJECT
 10
12090.0
 20
-1349.9999999999959
 30
0.0
 11
11924.0
 21
-1349.9999999999959
 31
0.0
1001
ACDBBLOCKREPETAG
1070
     1
1071
      124
1005
122AC9
  0
LINE
  5
122ACA
  8
OBJECT
 10
12090.0
 20
-1364.9999999999991
 30
0.0
 11
12090.0
 21
-1349.9999999999959
 31
0.0
1001
ACDBBLOCKREPETAG
1070
     1
1071
      125
1005
122ACA
  0
LINE
  5
122ACB
  8
OBJECT
 10
11924.0
 20
-1364.9999999999991
 30
0.0
 11
12090.0
 21
-1364.9999999999991
 31
0.0
1001
ACDBBLOCKREPETAG
1070
     1
1071
      126
1005
122ACB
  0
LINE
  5
122ACC
  8
OBJECT
 10
12067.49999999998
 20
-1364.9999999999991
 30
0.0
 11
12067.49999999998
 21
-1375.0
 31
0.0
1001
ACDBBLOCKREPETAG
1070
     1
1071
      127
1005
122ACC
  0
LINE
  5
122ACD
  8
OBJECT
 10
12072.999999999991
 20
-1375.0
 30
0.0
 11
12072.999999999991
 21
-1364.9999999999991
 31
0.0
1001
ACDBBLOCKREPETAG
1070
     1
1071
      128
1005
122ACD
  0
LINE
  5
122ACE
  8
OBJECT
 10
12082.999999999991
 20
-1375.0
 30
0.0
 11
12082.999999999991
 21
-1364.9999999999991
 31
0.0
1001
ACDBBLOCKREPETAG
1070
     1
1071
      129
1005
122ACE
  0
LINE
  5
122ACF
  8
OBJECT
 10
11924.0
 20
-1375.0
 30
0.0
 11
11924.0
 21
-1388.9999999999959
 31
0.0
1001
ACDBBLOCKREPETAG
1070
     1
1071
      130
1005
122ACF
  0
LINE
  5
122AD0
  8
OBJECT
 10
12090.0
 20
-1375.0
 30
0.0
 11
12090.0
 21
-1388.9999999999959
 31
0.0
1001
ACDBBLOCKREPETAG
1070
     1
1071
      131
1005
122AD0
  0
LINE
  5
122AD1
  8
OBJECT
 10
11924.0
 20
-1388.9999999999959
 30
0.0
 11
12090.0
 21
-1388.9999999999959
 31
0.0
1001
ACDBBLOCKREPETAG
1070
     1
1071
      132
1005
122AD1
  0
LINE
  5
122AD2
  8
OBJECT
 10
11924.0
 20
-1375.0
 30
0.0
 11
12090.0
 21
-1375.0
 31
0.0
1001
ACDBBLOCKREPETAG
1070
     1
1071
      133
1005
122AD2
  0
LINE
  5
122AD3
  8
OBJECT
 10
11932.49999999998
 20
-1364.9999999999991
 30
0.0
 11
11932.49999999998
 21
-1375.0
 31
0.0
1001
ACDBBLOCKREPETAG
1070
     1
1071
      134
1005
122AD3
  0
LINE
  5
122AD4
  8
OBJECT
 10
11934.0
 20
-1313.9999999999959
 30
0.0
 11
12065.999999999991
 21
-1313.9999999999959
 31
0.0
1001
ACDBBLOCKREPETAG
1070
     1
1071
      135
1005
122AD4
  0
LINE
  5
122AD5
  8
OBJECT
 10
11924.0
 20
-1364.9999999999991
 30
0.0
 11
11924.0
 21
-1349.9999999999959
 31
0.0
1001
ACDBBLOCKREPETAG
1070
     1
1071
      136
1005
122AD5
  0
LINE
  5
122AD6
  8
HIDDEN
 10
11943.0
 20
-1324.9999999999991
 30
0.0
 11
12057.0
 21
-1324.9999999999991
 31
0.0
1001
ACDBBLOCKREPETAG
1070
     1
1071
      137
1005
122AD6
  0
LINE
  5
122AD7
  8
OBJECT
 10
12086.999999999991
 20
-1348.2
 30
0.0
 11
12086.999999999991
 21
-1349.9999999999991
 31
0.0
1001
ACDBBLOCKREPETAG
1070
     1
1071
      138
1005
122AD7
  0
LINE
  5
122AD8
  8
OBJECT
 10
12068.999999999991
 20
-1348.2
 30
0.0
 11
12068.999999999991
 21
-1349.9999999999991
 31
0.0
1001
ACDBBLOCKREPETAG
1070
     1
1071
      139
1005
122AD8
  0
LINE
  5
122AD9
  8
OBJECT
 10
12072.249999999991
 20
-1338.5
 30
0.0
 11
12083.749999999991
 21
-1338.5
 31
0.0
1001
ACDBBLOCKREPETAG
1070
     1
1071
      140
1005
122AD9
  0
LINE
  5
122ADA
  8
OBJECT
 10
12072.249999999991
 20
-1338.5
 30
0.0
 11
12072.249999999991
 21
-1348.2
 31
0.0
1001
ACDBBLOCKREPETAG
1070
     1
1071
      141
1005
122ADA
  0
LINE
  5
122ADB
  8
OBJECT
 10
12083.749999999991
 20
-1338.5
 30
0.0
 11
12083.749999999991
 21
-1348.2
 31
0.0
1001
ACDBBLOCKREPETAG
1070
     1
1071
      142
1005
122ADB
  0
LINE
  5
122ADC
  8
OBJECT
 10
11931.99999999998
 20
-1429.9999999999991
 30
0.0
 11
12067.99999999998
 21
-1429.9999999999991
 31
0.0
1001
ACDBBLOCKREPETAG
1070
     1
1071
      143
1005
122ADC
  0
LINE
  5
122ADD
  8
OBJECT
 10
11931.99999999998
 20
-1429.9999999999991
 30
0.0
 11
11931.99999999998
 21
-1388.9999999999991
 31
0.0
1001
ACDBBLOCKREPETAG
1070
     1
1071
      144
1005
122ADD
  0
LINE
  5
122ADE
  8
OBJECT
 10
12067.99999999998
 20
-1429.9999999999991
 30
0.0
 11
12067.99999999998
 21
-1388.9999999999991
 31
0.0
1001
ACDBBLOCKREPETAG
1070
     1
1071
      145
1005
122ADE
  0
LINE
  5
122ADF
  8
OBJECT
 10
12086.999999999991
 20
-1348.2
 30
0.0
 11
12068.999999999991
 21
-1348.2
 31
0.0
1001
ACDBBLOCKREPETAG
1070
     1
1071
      146
1005
122ADF
  0
LINE
  5
122AE0
  8
CENTER
 10
12000.0
 20
-1054.9999999999991
 30
0.0
 11
12000.0
 21
-1444.9999999999991
 31
0.0
1001
ACDBBLOCKREPETAG
1070
     1
1071
      147
1005
122AE0
  0
LINE
  5
122AE1
  8
OBJECT
 10
11925.0
 20
-1054.9999999999991
 30
0.0
 11
11925.0
 21
-1136.9999999999959
 31
0.0
1001
ACDBBLOCKREPETAG
1070
     1
1071
      148
1005
122AE1
  0
LINE
  5
122AE2
  8
OBJECT
 10
12075.0
 20
-1054.9999999999991
 30
0.0
 11
12075.0
 21
-1136.999999999992
 31
0.0
1001
ACDBBLOCKREPETAG
1070
     1
1071
      149
1005
122AE2
  0
LINE
  5
122AE3
  8
OBJECT
 10
11925.0
 20
-1136.9999999999959
 30
0.0
 11
12075.0
 21
-1136.999999999992
 31
0.0
1001
ACDBBLOCKREPETAG
1070
     1
1071
      150
1005
122AE3
  0
LINE
  5
122AE4
  8
OBJECT
 10
11943.0
 20
-1313.9999999999959
 30
0.0
 11
11943.0
 21
-1264.999999999992
 31
0.0
1001
ACDBBLOCKREPETAG
1070
     1
1071
      151
1005
122AE4
  0
LINE
  5
122AE5
  8
OBJECT
 10
12057.0
 20
-1264.999999999992
 30
0.0
 11
11943.0
 21
-1264.999999999992
 31
0.0
1001
ACDBBLOCKREPETAG
1070
     1
1071
      152
1005
122AE5
  0
LINE
  5
122AE6
  8
OBJECT
 10
12057.0
 20
-1264.999999999992
 30
0.0
 11
12057.0
 21
-1313.9999999999959
 31
0.0
1001
ACDBBLOCKREPETAG
1070
     1
1071
      153
1005
122AE6
  0
LINE
  5
122AE7
  8
OBJECT
 10
11925.0
 20
-1136.9999999999959
 30
0.0
 11
11943.0
 21
-1264.999999999992
 31
0.0
1001
ACDBBLOCKREPETAG
1070
     1
1071
      154
1005
122AE7
  0
LINE
  5
122AE8
  8
OBJECT
 10
12057.0
 20
-1264.999999999992
 30
0.0
 11
12075.0
 21
-1136.999999999992
 31
0.0
1001
ACDBBLOCKREPETAG
1070
     1
1071
      155
1005
122AE8
  0
LINE
  5
122AE9
  8
OBJECT
 10
11934.0
 20
-1349.9999999999959
 30
0.0
 11
11934.0
 21
-1313.9999999999959
 31
0.0
1001
ACDBBLOCKREPETAG
1070
     1
1071
      156
1005
122AE9
  0
LINE
  5
122AEA
  8
OBJECT
 10
12066.0
 20
-1349.9999999999959
 30
0.0
 11
12065.999999999991
 21
-1313.9999999999959
 31
0.0
1001
ACDBBLOCKREPETAG
1070
     1
1071
      157
1005
122AEA
  0
LINE
  5
122AEB
  8
OBJECT
 10
11954.75
 20
-1339.699999999993
 30
0.0
 11
11967.25
 21
-1339.699999999993
 31
0.0
1001
ACDBBLOCKREPETAG
1070
     1
1071
      158
1005
122AEB
  0
LINE
  5
122AEC
  8
OBJECT
 10
11946.0
 20
-1349.9999999999959
 30
0.0
 11
11946.0
 21
-1347.6999999999971
 31
0.0
1001
ACDBBLOCKREPETAG
1070
     1
1071
      159
1005
122AEC
  0
LINE
  5
122AED
  8
OBJECT
 10
11976.0
 20
-1349.9999999999959
 30
0.0
 11
11976.0
 21
-1347.6999999999971
 31
0.0
1001
ACDBBLOCKREPETAG
1070
     1
1071
      160
1005
122AED
  0
LINE
  5
122AEE
  8
OBJECT
 10
11954.75
 20
-1339.699999999993
 30
0.0
 11
11954.75
 21
-1347.6999999999971
 31
0.0
1001
ACDBBLOCKREPETAG
1070
     1
1071
      161
1005
122AEE
  0
LINE
  5
122AEF
  8
OBJECT
 10
11967.25
 20
-1339.699999999993
 30
0.0
 11
11967.25
 21
-1347.6999999999971
 31
0.0
1001
ACDBBLOCKREPETAG
1070
     1
1071
      162
1005
122AEF
  0
LINE
  5
122AF0
  8
OBJECT
 10
11946.0
 20
-1347.6999999999971
 30
0.0
 11
11976.0
 21
-1347.6999999999971
 31
0.0
1001
ACDBBLOCKREPETAG
1070
     1
1071
      163
1005
122AF0
  0
LINE
  5
122AF1
  8
OBJECT
 10
11953.0
 20
-1388.9999999999959
 30
0.0
 11
11953.0
 21
-1398.9999999999959
 31
0.0
1001
ACDBBLOCKREPETAG
1070
     1
1071
      164
1005
122AF1
  0
LINE
  5
122AF2
  8
OBJECT
 10
11969.0
 20
-1388.9999999999959
 30
0.0
 11
11969.0
 21
-1398.9999999999959
 31
0.0
1001
ACDBBLOCKREPETAG
1070
     1
1071
      165
1005
122AF2
  0
LINE
  5
122AF3
  8
OBJECT
 10
11953.0
 20
-1398.9999999999959
 30
0.0
 11
11969.0
 21
-1398.9999999999959
 31
0.0
1001
ACDBBLOCKREPETAG
1070
     1
1071
      166
1005
122AF3
  0
LINE
  5
122AF4
  8
OBJECT
 10
11966.0
 20
-1374.9999999999959
 30
0.0
 11
11966.0
 21
-1364.9999999999959
 31
0.0
1001
ACDBBLOCKREPETAG
1070
     1
1071
      167
1005
122AF4
  0
LINE
  5
122AF5
  8
OBJECT
 10
11956.0
 20
-1374.9999999999959
 30
0.0
 11
11956.0
 21
-1364.9999999999959
 31
0.0
1001
ACDBBLOCKREPETAG
1070
     1
1071
      168
1005
122AF5
  0
LINE
  5
122AF6
  8
OBJECT
 10
10090.0
 20
-1349.9999999999959
 30
0.0
 11
9924.0
 21
-1349.9999999999959
 31
0.0
1001
ACDBBLOCKREPETAG
1070
     1
1071
       12
1005
122AF6
  0
LINE
  5
122AF7
  8
OBJECT
 10
10066.0
 20
-1313.9999999999959
 30
0.0
 11
9934.0
 21
-1313.9999999999959
 31
0.0
1001
ACDBBLOCKREPETAG
1070
     1
1071
       13
1005
122AF7
  0
LINE
  5
122AF8
  8
OBJECT
 10
10090.0
 20
-1365.0
 30
0.0
 11
10090.0
 21
-1349.9999999999959
 31
0.0
1001
ACDBBLOCKREPETAG
1070
     1
1071
       14
1005
122AF8
  0
LINE
  5
122AF9
  8
OBJECT
 10
9924.0
 20
-1365.0
 30
0.0
 11
10090.0
 21
-1365.0
 31
0.0
1001
ACDBBLOCKREPETAG
1070
     1
1071
       15
1005
122AF9
  0
LINE
  5
122AFA
  8
OBJECT
 10
10067.49999999998
 20
-1365.0
 30
0.0
 11
10067.49999999998
 21
-1375.0
 31
0.0
1001
ACDBBLOCKREPETAG
1070
     1
1071
       16
1005
122AFA
  0
LINE
  5
122AFB
  8
OBJECT
 10
9924.0
 20
-1375.0
 30
0.0
 11
9924.0
 21
-1388.9999999999959
 31
0.0
1001
ACDBBLOCKREPETAG
1070
     1
1071
       17
1005
122AFB
  0
LINE
  5
122AFC
  8
OBJECT
 10
10090.0
 20
-1375.0
 30
0.0
 11
10090.0
 21
-1388.9999999999959
 31
0.0
1001
ACDBBLOCKREPETAG
1070
     1
1071
       18
1005
122AFC
  0
LINE
  5
122AFD
  8
OBJECT
 10
9924.0
 20
-1388.9999999999959
 30
0.0
 11
10090.0
 21
-1388.9999999999959
 31
0.0
1001
ACDBBLOCKREPETAG
1070
     1
1071
       19
1005
122AFD
  0
LINE
  5
122AFE
  8
OBJECT
 10
9924.0
 20
-1375.0
 30
0.0
 11
10090.0
 21
-1375.0
 31
0.0
1001
ACDBBLOCKREPETAG
1070
     1
1071
       20
1005
122AFE
  0
LINE
  5
122AFF
  8
OBJECT
 10
9932.4999999999836
 20
-1365.0
 30
0.0
 11
9932.4999999999836
 21
-1375.0
 31
0.0
1001
ACDBBLOCKREPETAG
1070
     1
1071
       21
1005
122AFF
  0
LINE
  5
122B00
  8
OBJECT
 10
9924.0
 20
-1365.0
 30
0.0
 11
9924.0
 21
-1349.9999999999959
 31
0.0
1001
ACDBBLOCKREPETAG
1070
     1
1071
       22
1005
122B00
  0
LINE
  5
122B01
  8
HIDDEN
 10
9943.0
 20
-1325.0
 30
0.0
 11
10057.0
 21
-1325.0
 31
0.0
1001
ACDBBLOCKREPETAG
1070
     1
1071
       23
1005
122B01
  0
LINE
  5
122B02
  8
CENTER
 10
10000.0
 20
-1055.0
 30
0.0
 11
10000.0
 21
-1403.9999999999959
 31
0.0
1001
ACDBBLOCKREPETAG
1070
     1
1071
       24
1005
122B02
  0
LINE
  5
122B03
  8
OBJECT
 10
9925.0
 20
-1055.0
 30
0.0
 11
9925.0
 21
-1136.9999999999959
 31
0.0
1001
ACDBBLOCKREPETAG
1070
     1
1071
       25
1005
122B03
  0
LINE
  5
122B04
  8
OBJECT
 10
10075.0
 20
-1055.0
 30
0.0
 11
10075.0
 21
-1136.999999999993
 31
0.0
1001
ACDBBLOCKREPETAG
1070
     1
1071
       26
1005
122B04
  0
LINE
  5
122B05
  8
OBJECT
 10
9925.0
 20
-1136.9999999999959
 30
0.0
 11
10075.0
 21
-1136.999999999993
 31
0.0
1001
ACDBBLOCKREPETAG
1070
     1
1071
       27
1005
122B05
  0
LINE
  5
122B06
  8
OBJECT
 10
10057.0
 20
-1313.9999999999959
 30
0.0
 11
10057.0
 21
-1264.999999999993
 31
0.0
1001
ACDBBLOCKREPETAG
1070
     1
1071
       28
1005
122B06
  0
LINE
  5
122B07
  8
OBJECT
 10
9943.0
 20
-1313.9999999999959
 30
0.0
 11
9943.0
 21
-1264.999999999993
 31
0.0
1001
ACDBBLOCKREPETAG
1070
     1
1071
       29
1005
122B07
  0
LINE
  5
122B08
  8
OBJECT
 10
10057.0
 20
-1264.999999999993
 30
0.0
 11
9943.0
 21
-1264.999999999993
 31
0.0
1001
ACDBBLOCKREPETAG
1070
     1
1071
       30
1005
122B08
  0
LINE
  5
122B09
  8
OBJECT
 10
9925.0
 20
-1136.9999999999959
 30
0.0
 11
9943.0
 21
-1264.999999999993
 31
0.0
1001
ACDBBLOCKREPETAG
1070
     1
1071
       31
1005
122B09
  0
LINE
  5
122B0A
  8
OBJECT
 10
10057.0
 20
-1264.999999999993
 30
0.0
 11
10075.0
 21
-1136.999999999993
 31
0.0
1001
ACDBBLOCKREPETAG
1070
     1
1071
       32
1005
122B0A
  0
LINE
  5
122B0B
  8
OBJECT
 10
9934.0
 20
-1313.9999999999959
 30
0.0
 11
9934.0
 21
-1349.9999999999959
 31
0.0
1001
ACDBBLOCKREPETAG
1070
     1
1071
       33
1005
122B0B
  0
LINE
  5
122B0C
  8
OBJECT
 10
10066.0
 20
-1313.9999999999959
 30
0.0
 11
10066.0
 21
-1349.9999999999959
 31
0.0
1001
ACDBBLOCKREPETAG
1070
     1
1071
       34
1005
122B0C
  0
LINE
  5
122B0D
  8
OBJECT
 10
10082.999999999991
 20
-1374.9999999999959
 30
0.0
 11
10082.999999999991
 21
-1364.9999999999959
 31
0.0
1001
ACDBBLOCKREPETAG
1070
     1
1071
       35
1005
122B0D
  0
LINE
  5
122B0E
  8
OBJECT
 10
10072.999999999991
 20
-1374.9999999999959
 30
0.0
 11
10072.999999999991
 21
-1364.9999999999959
 31
0.0
1001
ACDBBLOCKREPETAG
1070
     1
1071
       36
1005
122B0E
  0
LINE
  5
122B0F
  8
OBJECT
 10
10068.99999999998
 20
-1344.9999999999959
 30
0.0
 11
10068.99999999998
 21
-1349.9999999999959
 31
0.0
1001
ACDBBLOCKREPETAG
1070
     1
1071
       37
1005
122B0F
  0
LINE
  5
122B10
  8
OBJECT
 10
10087.0
 20
-1344.9999999999959
 30
0.0
 11
10087.0
 21
-1349.9999999999959
 31
0.0
1001
ACDBBLOCKREPETAG
1070
     1
1071
       38
1005
122B10
  0
LINE
  5
122B11
  8
OBJECT
 10
10087.0
 20
-1344.9999999999959
 30
0.0
 11
10068.99999999998
 21
-1344.9999999999959
 31
0.0
1001
ACDBBLOCKREPETAG
1070
     1
1071
       39
1005
122B11
  0
LINE
  5
122B12
  8
OBJECT
 10
10073.0
 20
-1396.9999999999959
 30
0.0
 11
10073.0
 21
-1399.9999999999959
 31
0.0
1001
ACDBBLOCKREPETAG
1070
     1
1071
       40
1005
122B12
  0
LINE
  5
122B13
  8
OBJECT
 10
10073.0
 20
-1399.9999999999959
 30
0.0
 11
10083.0
 21
-1399.9999999999959
 31
0.0
1001
ACDBBLOCKREPETAG
1070
     1
1071
       41
1005
122B13
  0
LINE
  5
122B14
  8
OBJECT
 10
10068.18504542377
 20
-1396.9999999999959
 30
0.0
 11
10087.814954576221
 21
-1396.9999999999959
 31
0.0
1001
ACDBBLOCKREPETAG
1070
     1
1071
       42
1005
122B14
  0
LINE
  5
122B15
  8
OBJECT
 10
10083.0
 20
-1399.9999999999959
 30
0.0
 11
10083.0
 21
-1396.9999999999959
 31
0.0
1001
ACDBBLOCKREPETAG
1070
     1
1071
       43
1005
122B15
  0
LINE
  5
122B16
  8
OBJECT
 10
10068.18503599129
 20
-1388.999986840256
 30
0.0
 11
10068.18503599129
 21
-1396.999986840256
 31
0.0
1001
ACDBBLOCKREPETAG
1070
     1
1071
       44
1005
122B16
  0
LINE
  5
122B17
  8
OBJECT
 10
10073.0925013592
 20
-1388.999986840256
 30
0.0
 11
10073.0925013592
 21
-1396.999986840256
 31
0.0
1001
ACDBBLOCKREPETAG
1070
     1
1071
       45
1005
122B17
  0
LINE
  5
122B18
  8
OBJECT
 10
10082.90743209502
 20
-1388.999986840256
 30
0.0
 11
10082.90743209502
 21
-1396.999986840256
 31
0.0
1001
ACDBBLOCKREPETAG
1070
     1
1071
       46
1005
122B18
  0
LINE
  5
122B19
  8
OBJECT
 10
10087.81499155279
 20
-1388.999986840256
 30
0.0
 11
10087.81499155279
 21
-1396.999986840256
 31
0.0
1001
ACDBBLOCKREPETAG
1070
     1
1071
       47
1005
122B19
  0
LINE
  5
122B1A
  8
OBJECT
 10
9968.5
 20
-1344.9999999999959
 30
0.0
 11
9951.9999999999909
 21
-1344.9999999999959
 31
0.0
1001
ACDBBLOCKREPETAG
1070
     1
1071
       48
1005
122B1A
  0
LINE
  5
122B1B
  8
OBJECT
 10
9976.0
 20
-1349.9999999999959
 30
0.0
 11
9976.0
 21
-1347.9999999999959
 31
0.0
1001
ACDBBLOCKREPETAG
1070
     1
1071
       49
1005
122B1B
  0
LINE
  5
122B1C
  8
OBJECT
 10
9966.0
 20
-1374.9999999999959
 30
0.0
 11
9966.0
 21
-1364.9999999999959
 31
0.0
1001
ACDBBLOCKREPETAG
1070
     1
1071
       50
1005
122B1C
  0
LINE
  5
122B1D
  8
OBJECT
 10
9956.0
 20
-1374.9999999999959
 30
0.0
 11
9956.0
 21
-1364.9999999999959
 31
0.0
1001
ACDBBLOCKREPETAG
1070
     1
1071
       51
1005
122B1D
  0
LINE
  5
122B1E
  8
OBJECT
 10
9951.9999999999909
 20
-1344.9999999999959
 30
0.0
 11
9951.9999999999909
 21
-1349.9999999999959
 31
0.0
1001
ACDBBLOCKREPETAG
1070
     1
1071
       52
1005
122B1E
  0
LINE
  5
122B1F
  8
OBJECT
 10
9956.0
 20
-1396.9999999999959
 30
0.0
 11
9956.0
 21
-1399.9999999999959
 31
0.0
1001
ACDBBLOCKREPETAG
1070
     1
1071
       53
1005
122B1F
  0
LINE
  5
122B20
  8
OBJECT
 10
9956.0
 20
-1399.9999999999959
 30
0.0
 11
9966.0
 21
-1399.9999999999959
 31
0.0
1001
ACDBBLOCKREPETAG
1070
     1
1071
       54
1005
122B20
  0
LINE
  5
122B21
  8
OBJECT
 10
9951.185045423772
 20
-1396.9999999999959
 30
0.0
 11
9970.814954576219
 21
-1396.9999999999959
 31
0.0
1001
ACDBBLOCKREPETAG
1070
     1
1071
       55
1005
122B21
  0
LINE
  5
122B22
  8
OBJECT
 10
9966.0
 20
-1399.9999999999959
 30
0.0
 11
9966.0
 21
-1396.9999999999959
 31
0.0
1001
ACDBBLOCKREPETAG
1070
     1
1071
       56
1005
122B22
  0
LINE
  5
122B23
  8
OBJECT
 10
9976.0
 20
-1347.9999999999959
 30
0.0
 11
9968.5
 21
-1344.9999999999959
 31
0.0
1001
ACDBBLOCKREPETAG
1070
     1
1071
       57
1005
122B23
  0
LINE
  5
122B24
  8
OBJECT
 10
9951.1850359912914
 20
-1388.999986840256
 30
0.0
 11
9951.1850359912914
 21
-1396.999986840256
 31
0.0
1001
ACDBBLOCKREPETAG
1070
     1
1071
       58
1005
122B24
  0
LINE
  5
122B25
  8
OBJECT
 10
9956.0925013591986
 20
-1388.999986840256
 30
0.0
 11
9956.0925013591986
 21
-1396.999986840256
 31
0.0
1001
ACDBBLOCKREPETAG
1070
     1
1071
       59
1005
122B25
  0
LINE
  5
122B26
  8
OBJECT
 10
9965.907432095024
 20
-1388.999986840256
 30
0.0
 11
9965.907432095024
 21
-1396.999986840256
 31
0.0
1001
ACDBBLOCKREPETAG
1070
     1
1071
       60
1005
122B26
  0
LINE
  5
122B27
  8
OBJECT
 10
9970.8149915528011
 20
-1388.999986840256
 30
0.0
 11
9970.8149915528011
 21
-1396.999986840256
 31
0.0
1001
ACDBBLOCKREPETAG
1070
     1
1071
       61
1005
122B27
  0
LINE
  5
122B28
  8
OBJECT
 10
7943.0
 20
-1364.9999999999959
 30
0.0
 11
8057.0
 21
-1364.9999999999959
 31
0.0
1001
ACDBBLOCKREPETAG
1070
     1
1071
        0
1005
122B28
  0
LINE
  5
122B29
  8
OBJECT
 10
7943.0
 20
-1364.9999999999959
 30
0.0
 11
7943.0
 21
-1264.9999999999959
 31
0.0
1001
ACDBBLOCKREPETAG
1070
     1
1071
        1
1005
122B29
  0
LINE
  5
122B2A
  8
OBJECT
 10
8057.0
 20
-1364.9999999999959
 30
0.0
 11
8057.0
 21
-1264.9999999999959
 31
0.0
1001
ACDBBLOCKREPETAG
1070
     1
1071
        2
1005
122B2A
  0
LINE
  5
122B2B
  8
OBJECT
 10
7943.0
 20
-1264.9999999999959
 30
0.0
 11
8057.0
 21
-1264.9999999999959
 31
0.0
1001
ACDBBLOCKREPETAG
1070
     1
1071
        3
1005
122B2B
  0
LINE
  5
122B2C
  8
HIDDEN
 10
7950.0
 20
-1264.9999999999959
 30
0.0
 11
7950.0
 21
-1364.9999999999959
 31
0.0
1001
ACDBBLOCKREPETAG
1070
     1
1071
        4
1005
122B2C
  0
LINE
  5
122B2D
  8
HIDDEN
 10
8050.0
 20
-1264.9999999999959
 30
0.0
 11
8050.0
 21
-1364.9999999999959
 31
0.0
1001
ACDBBLOCKREPETAG
1070
     1
1071
        5
1005
122B2D
  0
LINE
  5
122B2E
  8
CENTER
 10
8000.0
 20
-1055.0
 30
0.0
 11
8000.0
 21
-1379.9999999999959
 31
0.0
1001
ACDBBLOCKREPETAG
1070
     1
1071
        6
1005
122B2E
  0
LINE
  5
122B2F
  8
OBJECT
 10
7925.0
 20
-1055.0
 30
0.0
 11
7925.0
 21
-1136.9999999999959
 31
0.0
1001
ACDBBLOCKREPETAG
1070
     1
1071
        7
1005
122B2F
  0
LINE
  5
122B30
  8
OBJECT
 10
8075.0
 20
-1055.0
 30
0.0
 11
8075.0
 21
-1136.9999999999959
 31
0.0
1001
ACDBBLOCKREPETAG
1070
     1
1071
        8
1005
122B30
  0
LINE
  5
122B31
  8
OBJECT
 10
7925.0
 20
-1136.9999999999959
 30
0.0
 11
8075.0
 21
-1136.9999999999959
 31
0.0
1001
ACDBBLOCKREPETAG
1070
     1
1071
        9
1005
122B31
  0
LINE
  5
122B32
  8
OBJECT
 10
7925.0
 20
-1136.9999999999959
 30
0.0
 11
7943.0
 21
-1264.9999999999959
 31
0.0
1001
ACDBBLOCKREPETAG
1070
     1
1071
       10
1005
122B32
  0
LINE
  5
122B33
  8
OBJECT
 10
8057.0
 20
-1264.9999999999959
 30
0.0
 11
8075.0
 21
-1136.9999999999959
 31
0.0
1001
ACDBBLOCKREPETAG
1070
     1
1071
       11
1005
122B33
  0
LINE
  5
122B34
  8
OBJECT
 10
6085.9999999999927
 20
-1388.9999999999991
 30
0.0
 11
6085.9999999999927
 21
-1398.9999999999991
 31
0.0
1001
ACDBBLOCKREPETAG
1070
     1
1071
      121
1005
122B34
  0
LINE
  5
122B35
  8
OBJECT
 10
6069.9999999999927
 20
-1388.9999999999991
 30
0.0
 11
6069.9999999999927
 21
-1398.9999999999991
 31
0.0
1001
ACDBBLOCKREPETAG
1070
     1
1071
      122
1005
122B35
  0
LINE
  5
122B36
  8
OBJECT
 10
6085.9999999999927
 20
-1398.9999999999991
 30
0.0
 11
6069.9999999999927
 21
-1398.9999999999991
 31
0.0
1001
ACDBBLOCKREPETAG
1070
     1
1071
      123
1005
122B36
  0
LINE
  5
122B37
  8
OBJECT
 10
6090.0
 20
-1349.9999999999959
 30
0.0
 11
5924.0
 21
-1349.9999999999959
 31
0.0
1001
ACDBBLOCKREPETAG
1070
     1
1071
      124
1005
122B37
  0
LINE
  5
122B38
  8
OBJECT
 10
6090.0
 20
-1364.9999999999991
 30
0.0
 11
6090.0
 21
-1349.9999999999959
 31
0.0
1001
ACDBBLOCKREPETAG
1070
     1
1071
      125
1005
122B38
  0
LINE
  5
122B39
  8
OBJECT
 10
5924.0
 20
-1364.9999999999991
 30
0.0
 11
6090.0
 21
-1364.9999999999991
 31
0.0
1001
ACDBBLOCKREPETAG
1070
     1
1071
      126
1005
122B39
  0
LINE
  5
122B3A
  8
OBJECT
 10
6067.4999999999864
 20
-1364.9999999999991
 30
0.0
 11
6067.4999999999864
 21
-1375.0
 31
0.0
1001
ACDBBLOCKREPETAG
1070
     1
1071
      127
1005
122B3A
  0
LINE
  5
122B3B
  8
OBJECT
 10
6072.9999999999927
 20
-1375.0
 30
0.0
 11
6072.9999999999927
 21
-1364.9999999999991
 31
0.0
1001
ACDBBLOCKREPETAG
1070
     1
1071
      128
1005
122B3B
  0
LINE
  5
122B3C
  8
OBJECT
 10
6082.9999999999927
 20
-1375.0
 30
0.0
 11
6082.9999999999927
 21
-1364.9999999999991
 31
0.0
1001
ACDBBLOCKREPETAG
1070
     1
1071
      129
1005
122B3C
  0
LINE
  5
122B3D
  8
OBJECT
 10
5924.0
 20
-1375.0
 30
0.0
 11
5924.0
 21
-1388.9999999999959
 31
0.0
1001
ACDBBLOCKREPETAG
1070
     1
1071
      130
1005
122B3D
  0
LINE
  5
122B3E
  8
OBJECT
 10
6090.0
 20
-1375.0
 30
0.0
 11
6090.0
 21
-1388.9999999999959
 31
0.0
1001
ACDBBLOCKREPETAG
1070
     1
1071
      131
1005
122B3E
  0
LINE
  5
122B3F
  8
OBJECT
 10
5924.0
 20
-1388.9999999999959
 30
0.0
 11
6090.0
 21
-1388.9999999999959
 31
0.0
1001
ACDBBLOCKREPETAG
1070
     1
1071
      132
1005
122B3F
  0
LINE
  5
122B40
  8
OBJECT
 10
5924.0
 20
-1375.0
 30
0.0
 11
6090.0
 21
-1375.0
 31
0.0
1001
ACDBBLOCKREPETAG
1070
     1
1071
      133
1005
122B40
  0
LINE
  5
122B41
  8
OBJECT
 10
5932.4999999999864
 20
-1364.9999999999991
 30
0.0
 11
5932.4999999999864
 21
-1375.0
 31
0.0
1001
ACDBBLOCKREPETAG
1070
     1
1071
      134
1005
122B41
  0
LINE
  5
122B42
  8
OBJECT
 10
5934.0
 20
-1313.9999999999959
 30
0.0
 11
6065.9999999999909
 21
-1313.9999999999959
 31
0.0
1001
ACDBBLOCKREPETAG
1070
     1
1071
      135
1005
122B42
  0
LINE
  5
122B43
  8
OBJECT
 10
5924.0
 20
-1364.9999999999991
 30
0.0
 11
5924.0
 21
-1349.9999999999959
 31
0.0
1001
ACDBBLOCKREPETAG
1070
     1
1071
      136
1005
122B43
  0
LINE
  5
122B44
  8
HIDDEN
 10
5943.0
 20
-1324.9999999999991
 30
0.0
 11
6057.0
 21
-1324.9999999999991
 31
0.0
1001
ACDBBLOCKREPETAG
1070
     1
1071
      137
1005
122B44
  0
LINE
  5
122B45
  8
OBJECT
 10
6086.9999999999918
 20
-1348.2
 30
0.0
 11
6086.9999999999918
 21
-1349.9999999999991
 31
0.0
1001
ACDBBLOCKREPETAG
1070
     1
1071
      138
1005
122B45
  0
LINE
  5
122B46
  8
OBJECT
 10
6068.9999999999909
 20
-1348.2
 30
0.0
 11
6068.9999999999909
 21
-1349.9999999999991
 31
0.0
1001
ACDBBLOCKREPETAG
1070
     1
1071
      139
1005
122B46
  0
LINE
  5
122B47
  8
OBJECT
 10
6072.2499999999927
 20
-1338.5
 30
0.0
 11
6083.7499999999927
 21
-1338.5
 31
0.0
1001
ACDBBLOCKREPETAG
1070
     1
1071
      140
1005
122B47
  0
LINE
  5
122B48
  8
OBJECT
 10
6072.2499999999927
 20
-1338.5
 30
0.0
 11
6072.2499999999927
 21
-1348.2
 31
0.0
1001
ACDBBLOCKREPETAG
1070
     1
1071
      141
1005
122B48
  0
LINE
  5
122B49
  8
OBJECT
 10
6083.7499999999927
 20
-1338.5
 30
0.0
 11
6083.7499999999927
 21
-1348.2
 31
0.0
1001
ACDBBLOCKREPETAG
1070
     1
1071
      142
1005
122B49
  0
LINE
  5
122B4A
  8
OBJECT
 10
5931.9999999999873
 20
-1429.9999999999991
 30
0.0
 11
6067.9999999999873
 21
-1429.9999999999991
 31
0.0
1001
ACDBBLOCKREPETAG
1070
     1
1071
      143
1005
122B4A
  0
LINE
  5
122B4B
  8
OBJECT
 10
5931.9999999999873
 20
-1429.9999999999991
 30
0.0
 11
5931.9999999999873
 21
-1388.9999999999991
 31
0.0
1001
ACDBBLOCKREPETAG
1070
     1
1071
      144
1005
122B4B
  0
LINE
  5
122B4C
  8
OBJECT
 10
6067.9999999999873
 20
-1429.9999999999991
 30
0.0
 11
6067.9999999999873
 21
-1388.9999999999991
 31
0.0
1001
ACDBBLOCKREPETAG
1070
     1
1071
      145
1005
122B4C
  0
LINE
  5
122B4D
  8
OBJECT
 10
6086.9999999999918
 20
-1348.2
 30
0.0
 11
6068.9999999999909
 21
-1348.2
 31
0.0
1001
ACDBBLOCKREPETAG
1070
     1
1071
      146
1005
122B4D
  0
LINE
  5
122B4E
  8
CENTER
 10
6000.0
 20
-1054.9999999999991
 30
0.0
 11
6000.0
 21
-1444.9999999999991
 31
0.0
1001
ACDBBLOCKREPETAG
1070
     1
1071
      147
1005
122B4E
  0
LINE
  5
122B4F
  8
OBJECT
 10
5925.0
 20
-1054.9999999999991
 30
0.0
 11
5925.0
 21
-1136.9999999999959
 31
0.0
1001
ACDBBLOCKREPETAG
1070
     1
1071
      148
1005
122B4F
  0
LINE
  5
122B50
  8
OBJECT
 10
6075.0
 20
-1054.9999999999991
 30
0.0
 11
6075.0
 21
-1136.999999999992
 31
0.0
1001
ACDBBLOCKREPETAG
1070
     1
1071
      149
1005
122B50
  0
LINE
  5
122B51
  8
OBJECT
 10
5925.0
 20
-1136.9999999999959
 30
0.0
 11
6075.0
 21
-1136.999999999992
 31
0.0
1001
ACDBBLOCKREPETAG
1070
     1
1071
      150
1005
122B51
  0
LINE
  5
122B52
  8
OBJECT
 10
5943.0
 20
-1313.9999999999959
 30
0.0
 11
5943.0
 21
-1264.999999999992
 31
0.0
1001
ACDBBLOCKREPETAG
1070
     1
1071
      151
1005
122B52
  0
LINE
  5
122B53
  8
OBJECT
 10
6057.0
 20
-1264.999999999992
 30
0.0
 11
5943.0
 21
-1264.999999999992
 31
0.0
1001
ACDBBLOCKREPETAG
1070
     1
1071
      152
1005
122B53
  0
LINE
  5
122B54
  8
OBJECT
 10
6057.0
 20
-1264.999999999992
 30
0.0
 11
6057.0
 21
-1313.9999999999959
 31
0.0
1001
ACDBBLOCKREPETAG
1070
     1
1071
      153
1005
122B54
  0
LINE
  5
122B55
  8
OBJECT
 10
5925.0
 20
-1136.9999999999959
 30
0.0
 11
5943.0
 21
-1264.999999999992
 31
0.0
1001
ACDBBLOCKREPETAG
1070
     1
1071
      154
1005
122B55
  0
LINE
  5
122B56
  8
OBJECT
 10
6057.0
 20
-1264.999999999992
 30
0.0
 11
6075.0
 21
-1136.999999999992
 31
0.0
1001
ACDBBLOCKREPETAG
1070
     1
1071
      155
1005
122B56
  0
LINE
  5
122B57
  8
OBJECT
 10
5934.0
 20
-1349.9999999999959
 30
0.0
 11
5934.0
 21
-1313.9999999999959
 31
0.0
1001
ACDBBLOCKREPETAG
1070
     1
1071
      156
1005
122B57
  0
LINE
  5
122B58
  8
OBJECT
 10
6066.0
 20
-1349.9999999999959
 30
0.0
 11
6065.9999999999909
 21
-1313.9999999999959
 31
0.0
1001
ACDBBLOCKREPETAG
1070
     1
1071
      157
1005
122B58
  0
LINE
  5
122B59
  8
OBJECT
 10
5954.75
 20
-1339.699999999993
 30
0.0
 11
5967.2499999999991
 21
-1339.699999999993
 31
0.0
1001
ACDBBLOCKREPETAG
1070
     1
1071
      158
1005
122B59
  0
LINE
  5
122B5A
  8
OBJECT
 10
5946.0
 20
-1349.9999999999959
 30
0.0
 11
5946.0
 21
-1347.6999999999971
 31
0.0
1001
ACDBBLOCKREPETAG
1070
     1
1071
      159
1005
122B5A
  0
LINE
  5
122B5B
  8
OBJECT
 10
5976.0
 20
-1349.9999999999959
 30
0.0
 11
5976.0
 21
-1347.6999999999971
 31
0.0
1001
ACDBBLOCKREPETAG
1070
     1
1071
      160
1005
122B5B
  0
LINE
  5
122B5C
  8
OBJECT
 10
5954.75
 20
-1339.699999999993
 30
0.0
 11
5954.75
 21
-1347.6999999999971
 31
0.0
1001
ACDBBLOCKREPETAG
1070
     1
1071
      161
1005
122B5C
  0
LINE
  5
122B5D
  8
OBJECT
 10
5967.2499999999991
 20
-1339.699999999993
 30
0.0
 11
5967.2499999999991
 21
-1347.6999999999971
 31
0.0
1001
ACDBBLOCKREPETAG
1070
     1
1071
      162
1005
122B5D
  0
LINE
  5
122B5E
  8
OBJECT
 10
5946.0
 20
-1347.6999999999971
 30
0.0
 11
5976.0
 21
-1347.6999999999971
 31
0.0
1001
ACDBBLOCKREPETAG
1070
     1
1071
      163
1005
122B5E
  0
LINE
  5
122B5F
  8
OBJECT
 10
5953.0
 20
-1388.9999999999959
 30
0.0
 11
5953.0
 21
-1398.9999999999959
 31
0.0
1001
ACDBBLOCKREPETAG
1070
     1
1071
      164
1005
122B5F
  0
LINE
  5
122B60
  8
OBJECT
 10
5969.0
 20
-1388.9999999999959
 30
0.0
 11
5969.0
 21
-1398.9999999999959
 31
0.0
1001
ACDBBLOCKREPETAG
1070
     1
1071
      165
1005
122B60
  0
LINE
  5
122B61
  8
OBJECT
 10
5953.0
 20
-1398.9999999999959
 30
0.0
 11
5969.0
 21
-1398.9999999999959
 31
0.0
1001
ACDBBLOCKREPETAG
1070
     1
1071
      166
1005
122B61
  0
LINE
  5
122B62
  8
OBJECT
 10
5966.0
 20
-1374.9999999999959
 30
0.0
 11
5966.0
 21
-1364.9999999999959
 31
0.0
1001
ACDBBLOCKREPETAG
1070
     1
1071
      167
1005
122B62
  0
LINE
  5
122B63
  8
OBJECT
 10
5956.0
 20
-1374.9999999999959
 30
0.0
 11
5956.0
 21
-1364.9999999999959
 31
0.0
1001
ACDBBLOCKREPETAG
1070
     1
1071
      168
1005
122B63
  0
LINE
  5
122B64
  8
OBJECT
 10
4090.0
 20
-1349.9999999999959
 30
0.0
 11
3924.0
 21
-1349.9999999999959
 31
0.0
1001
ACDBBLOCKREPETAG
1070
     1
1071
       12
1005
122B64
  0
LINE
  5
122B65
  8
OBJECT
 10
4066.0
 20
-1313.9999999999959
 30
0.0
 11
3934.0
 21
-1313.9999999999959
 31
0.0
1001
ACDBBLOCKREPETAG
1070
     1
1071
       13
1005
122B65
  0
LINE
  5
122B66
  8
OBJECT
 10
4090.0
 20
-1365.0
 30
0.0
 11
4090.0
 21
-1349.9999999999959
 31
0.0
1001
ACDBBLOCKREPETAG
1070
     1
1071
       14
1005
122B66
  0
LINE
  5
122B67
  8
OBJECT
 10
3924.0
 20
-1365.0
 30
0.0
 11
4090.0
 21
-1365.0
 31
0.0
1001
ACDBBLOCKREPETAG
1070
     1
1071
       15
1005
122B67
  0
LINE
  5
122B68
  8
OBJECT
 10
4067.4999999999841
 20
-1365.0
 30
0.0
 11
4067.4999999999841
 21
-1375.0
 31
0.0
1001
ACDBBLOCKREPETAG
1070
     1
1071
       16
1005
122B68
  0
LINE
  5
122B69
  8
OBJECT
 10
3924.0
 20
-1375.0
 30
0.0
 11
3924.0
 21
-1388.9999999999959
 31
0.0
1001
ACDBBLOCKREPETAG
1070
     1
1071
       17
1005
122B69
  0
LINE
  5
122B6A
  8
OBJECT
 10
4090.0
 20
-1375.0
 30
0.0
 11
4090.0
 21
-1388.9999999999959
 31
0.0
1001
ACDBBLOCKREPETAG
1070
     1
1071
       18
1005
122B6A
  0
LINE
  5
122B6B
  8
OBJECT
 10
3924.0
 20
-1388.9999999999959
 30
0.0
 11
4090.0
 21
-1388.9999999999959
 31
0.0
1001
ACDBBLOCKREPETAG
1070
     1
1071
       19
1005
122B6B
  0
LINE
  5
122B6C
  8
OBJECT
 10
3924.0
 20
-1375.0
 30
0.0
 11
4090.0
 21
-1375.0
 31
0.0
1001
ACDBBLOCKREPETAG
1070
     1
1071
       20
1005
122B6C
  0
LINE
  5
122B6D
  8
OBJECT
 10
3932.499999999985
 20
-1365.0
 30
0.0
 11
3932.499999999985
 21
-1375.0
 31
0.0
1001
ACDBBLOCKREPETAG
1070
     1
1071
       21
1005
122B6D
  0
LINE
  5
122B6E
  8
OBJECT
 10
3924.0
 20
-1365.0
 30
0.0
 11
3924.0
 21
-1349.9999999999959
 31
0.0
1001
ACDBBLOCKREPETAG
1070
     1
1071
       22
1005
122B6E
  0
LINE
  5
122B6F
  8
HIDDEN
 10
3943.0
 20
-1325.0
 30
0.0
 11
4057.0
 21
-1325.0
 31
0.0
1001
ACDBBLOCKREPETAG
1070
     1
1071
       23
1005
122B6F
  0
LINE
  5
122B70
  8
CENTER
 10
4000.0
 20
-1055.0
 30
0.0
 11
4000.0
 21
-1403.9999999999959
 31
0.0
1001
ACDBBLOCKREPETAG
1070
     1
1071
       24
1005
122B70
  0
LINE
  5
122B71
  8
OBJECT
 10
3925.0
 20
-1055.0
 30
0.0
 11
3925.0
 21
-1136.9999999999959
 31
0.0
1001
ACDBBLOCKREPETAG
1070
     1
1071
       25
1005
122B71
  0
LINE
  5
122B72
  8
OBJECT
 10
4075.0
 20
-1055.0
 30
0.0
 11
4075.0
 21
-1136.999999999993
 31
0.0
1001
ACDBBLOCKREPETAG
1070
     1
1071
       26
1005
122B72
  0
LINE
  5
122B73
  8
OBJECT
 10
3925.0
 20
-1136.9999999999959
 30
0.0
 11
4075.0
 21
-1136.999999999993
 31
0.0
1001
ACDBBLOCKREPETAG
1070
     1
1071
       27
1005
122B73
  0
LINE
  5
122B74
  8
OBJECT
 10
4057.0
 20
-1313.9999999999959
 30
0.0
 11
4057.0
 21
-1264.999999999993
 31
0.0
1001
ACDBBLOCKREPETAG
1070
     1
1071
       28
1005
122B74
  0
LINE
  5
122B75
  8
OBJECT
 10
3943.0
 20
-1313.9999999999959
 30
0.0
 11
3943.0
 21
-1264.999999999993
 31
0.0
1001
ACDBBLOCKREPETAG
1070
     1
1071
       29
1005
122B75
  0
LINE
  5
122B76
  8
OBJECT
 10
4057.0
 20
-1264.999999999993
 30
0.0
 11
3943.0
 21
-1264.999999999993
 31
0.0
1001
ACDBBLOCKREPETAG
1070
     1
1071
       30
1005
122B76
  0
LINE
  5
122B77
  8
OBJECT
 10
3925.0
 20
-1136.9999999999959
 30
0.0
 11
3943.0
 21
-1264.999999999993
 31
0.0
1001
ACDBBLOCKREPETAG
1070
     1
1071
       31
1005
122B77
  0
LINE
  5
122B78
  8
OBJECT
 10
4057.0
 20
-1264.999999999993
 30
0.0
 11
4075.0
 21
-1136.999999999993
 31
0.0
1001
ACDBBLOCKREPETAG
1070
     1
1071
       32
1005
122B78
  0
LINE
  5
122B79
  8
OBJECT
 10
3934.0
 20
-1313.9999999999959
 30
0.0
 11
3934.0
 21
-1349.9999999999959
 31
0.0
1001
ACDBBLOCKREPETAG
1070
     1
1071
       33
1005
122B79
  0
LINE
  5
122B7A
  8
OBJECT
 10
4066.0
 20
-1313.9999999999959
 30
0.0
 11
4066.0
 21
-1349.9999999999959
 31
0.0
1001
ACDBBLOCKREPETAG
1070
     1
1071
       34
1005
122B7A
  0
LINE
  5
122B7B
  8
OBJECT
 10
4082.9999999999932
 20
-1374.9999999999959
 30
0.0
 11
4082.9999999999932
 21
-1364.9999999999959
 31
0.0
1001
ACDBBLOCKREPETAG
1070
     1
1071
       35
1005
122B7B
  0
LINE
  5
122B7C
  8
OBJECT
 10
4072.9999999999918
 20
-1374.9999999999959
 30
0.0
 11
4072.9999999999918
 21
-1364.9999999999959
 31
0.0
1001
ACDBBLOCKREPETAG
1070
     1
1071
       36
1005
122B7C
  0
LINE
  5
122B7D
  8
OBJECT
 10
4068.9999999999841
 20
-1344.9999999999959
 30
0.0
 11
4068.9999999999841
 21
-1349.9999999999959
 31
0.0
1001
ACDBBLOCKREPETAG
1070
     1
1071
       37
1005
122B7D
  0
LINE
  5
122B7E
  8
OBJECT
 10
4087.0
 20
-1344.9999999999959
 30
0.0
 11
4087.0
 21
-1349.9999999999959
 31
0.0
1001
ACDBBLOCKREPETAG
1070
     1
1071
       38
1005
122B7E
  0
LINE
  5
122B7F
  8
OBJECT
 10
4087.0
 20
-1344.9999999999959
 30
0.0
 11
4068.9999999999841
 21
-1344.9999999999959
 31
0.0
1001
ACDBBLOCKREPETAG
1070
     1
1071
       39
1005
122B7F
  0
LINE
  5
122B80
  8
OBJECT
 10
4073.0
 20
-1396.9999999999959
 30
0.0
 11
4073.0
 21
-1399.9999999999959
 31
0.0
1001
ACDBBLOCKREPETAG
1070
     1
1071
       40
1005
122B80
  0
LINE
  5
122B81
  8
OBJECT
 10
4073.0
 20
-1399.9999999999959
 30
0.0
 11
4083.0
 21
-1399.9999999999959
 31
0.0
1001
ACDBBLOCKREPETAG
1070
     1
1071
       41
1005
122B81
  0
LINE
  5
122B82
  8
OBJECT
 10
4068.185045423772
 20
-1396.9999999999959
 30
0.0
 11
4087.8149545762199
 21
-1396.9999999999959
 31
0.0
1001
ACDBBLOCKREPETAG
1070
     1
1071
       42
1005
122B82
  0
LINE
  5
122B83
  8
OBJECT
 10
4083.0
 20
-1399.9999999999959
 30
0.0
 11
4083.0
 21
-1396.9999999999959
 31
0.0
1001
ACDBBLOCKREPETAG
1070
     1
1071
       43
1005
122B83
  0
LINE
  5
122B84
  8
OBJECT
 10
4068.1850359912942
 20
-1388.999986840256
 30
0.0
 11
4068.1850359912942
 21
-1396.999986840256
 31
0.0
1001
ACDBBLOCKREPETAG
1070
     1
1071
       44
1005
122B84
  0
LINE
  5
122B85
  8
OBJECT
 10
4073.0925013591982
 20
-1388.999986840256
 30
0.0
 11
4073.0925013591982
 21
-1396.999986840256
 31
0.0
1001
ACDBBLOCKREPETAG
1070
     1
1071
       45
1005
122B85
  0
LINE
  5
122B86
  8
OBJECT
 10
4082.907432095024
 20
-1388.999986840256
 30
0.0
 11
4082.907432095024
 21
-1396.999986840256
 31
0.0
1001
ACDBBLOCKREPETAG
1070
     1
1071
       46
1005
122B86
  0
LINE
  5
122B87
  8
OBJECT
 10
4087.814991552797
 20
-1388.999986840256
 30
0.0
 11
4087.814991552797
 21
-1396.999986840256
 31
0.0
1001
ACDBBLOCKREPETAG
1070
     1
1071
       47
1005
122B87
  0
LINE
  5
122B88
  8
OBJECT
 10
3968.5
 20
-1344.9999999999959
 30
0.0
 11
3951.9999999999932
 21
-1344.9999999999959
 31
0.0
1001
ACDBBLOCKREPETAG
1070
     1
1071
       48
1005
122B88
  0
LINE
  5
122B89
  8
OBJECT
 10
3976.0
 20
-1349.9999999999959
 30
0.0
 11
3976.0
 21
-1347.9999999999959
 31
0.0
1001
ACDBBLOCKREPETAG
1070
     1
1071
       49
1005
122B89
  0
LINE
  5
122B8A
  8
OBJECT
 10
3966.0
 20
-1374.9999999999959
 30
0.0
 11
3966.0
 21
-1364.9999999999959
 31
0.0
1001
ACDBBLOCKREPETAG
1070
     1
1071
       50
1005
122B8A
  0
LINE
  5
122B8B
  8
OBJECT
 10
3956.0
 20
-1374.9999999999959
 30
0.0
 11
3956.0
 21
-1364.9999999999959
 31
0.0
1001
ACDBBLOCKREPETAG
1070
     1
1071
       51
1005
122B8B
  0
LINE
  5
122B8C
  8
OBJECT
 10
3951.9999999999932
 20
-1344.9999999999959
 30
0.0
 11
3951.9999999999932
 21
-1349.9999999999959
 31
0.0
1001
ACDBBLOCKREPETAG
1070
     1
1071
       52
1005
122B8C
  0
LINE
  5
122B8D
  8
OBJECT
 10
3956.0
 20
-1396.9999999999959
 30
0.0
 11
3956.0
 21
-1399.9999999999959
 31
0.0
1001
ACDBBLOCKREPETAG
1070
     1
1071
       53
1005
122B8D
  0
LINE
  5
122B8E
  8
OBJECT
 10
3956.0
 20
-1399.9999999999959
 30
0.0
 11
3966.0
 21
-1399.9999999999959
 31
0.0
1001
ACDBBLOCKREPETAG
1070
     1
1071
       54
1005
122B8E
  0
LINE
  5
122B8F
  8
OBJECT
 10
3951.185045423772
 20
-1396.9999999999959
 30
0.0
 11
3970.8149545762212
 21
-1396.9999999999959
 31
0.0
1001
ACDBBLOCKREPETAG
1070
     1
1071
       55
1005
122B8F
  0
LINE
  5
122B90
  8
OBJECT
 10
3966.0
 20
-1399.9999999999959
 30
0.0
 11
3966.0
 21
-1396.9999999999959
 31
0.0
1001
ACDBBLOCKREPETAG
1070
     1
1071
       56
1005
122B90
  0
LINE
  5
122B91
  8
OBJECT
 10
3976.0
 20
-1347.9999999999959
 30
0.0
 11
3968.5
 21
-1344.9999999999959
 31
0.0
1001
ACDBBLOCKREPETAG
1070
     1
1071
       57
1005
122B91
  0
LINE
  5
122B92
  8
OBJECT
 10
3951.1850359912951
 20
-1388.999986840256
 30
0.0
 11
3951.1850359912951
 21
-1396.999986840256
 31
0.0
1001
ACDBBLOCKREPETAG
1070
     1
1071
       58
1005
122B92
  0
LINE
  5
122B93
  8
OBJECT
 10
3956.0925013591991
 20
-1388.999986840256
 30
0.0
 11
3956.0925013591991
 21
-1396.999986840256
 31
0.0
1001
ACDBBLOCKREPETAG
1070
     1
1071
       59
1005
122B93
  0
LINE
  5
122B94
  8
OBJECT
 10
3965.907432095024
 20
-1388.999986840256
 30
0.0
 11
3965.907432095024
 21
-1396.999986840256
 31
0.0
1001
ACDBBLOCKREPETAG
1070
     1
1071
       60
1005
122B94
  0
LINE
  5
122B95
  8
OBJECT
 10
3970.8149915527979
 20
-1388.999986840256
 30
0.0
 11
3970.8149915527979
 21
-1396.999986840256
 31
0.0
1001
ACDBBLOCKREPETAG
1070
     1
1071
       61
1005
122B95
  0
LINE
  5
122B96
  8
OBJECT
 10
7925.0
 20
-770.0
 30
0.0
 11
7925.0
 21
-1043.0
 31
0.0
1001
ACDBBLOCKREPETAG
1070
     1
1071
        1
1005
122B96
  0
LINE
  5
122B97
  8
OBJECT
 10
8075.0
 20
-769.9999999999942
 30
0.0
 11
8075.0
 21
-1043.0
 31
0.0
1001
ACDBBLOCKREPETAG
1070
     1
1071
        3
1005
122B97
  0
LINE
  5
122B98
  8
CENTER
 10
8000.0
 20
-770.0
 30
0.0
 11
8000.0
 21
-1055.0
 31
0.0
1001
ACDBBLOCKREPETAG
1070
     1
1071
        6
1005
122B98
  0
LINE
  5
122B99
  8
OBJECT
 10
7920.0
 20
-1055.0
 30
0.0
 11
8080.0
 21
-1055.0
 31
0.0
1001
ACDBBLOCKREPETAG
1070
     1
1071
        7
1005
122B99
  0
LINE
  5
122B9A
  8
OBJECT
 10
7920.0
 20
-1043.0
 30
0.0
 11
8080.0
 21
-1043.0
 31
0.0
1001
ACDBBLOCKREPETAG
1070
     1
1071
        8
1005
122B9A
  0
LINE
  5
122B9B
  8
OBJECT
 10
7920.0
 20
-1043.0
 30
0.0
 11
7920.0
 21
-1055.0
 31
0.0
1001
ACDBBLOCKREPETAG
1070
     1
1071
        9
1005
122B9B
  0
LINE
  5
122B9C
  8
OBJECT
 10
8080.0
 20
-1043.0
 30
0.0
 11
8080.0
 21
-1055.0
 31
0.0
1001
ACDBBLOCKREPETAG
1070
     1
1071
       10
1005
122B9C
  0
LINE
  5
122B9D
  8
OBJECT
 10
9925.0
 20
-770.0
 30
0.0
 11
9925.0
 21
-1043.0
 31
0.0
1001
ACDBBLOCKREPETAG
1070
     1
1071
        1
1005
122B9D
  0
LINE
  5
122B9E
  8
OBJECT
 10
10075.0
 20
-769.9999999999942
 30
0.0
 11
10075.0
 21
-1043.0
 31
0.0
1001
ACDBBLOCKREPETAG
1070
     1
1071
        3
1005
122B9E
  0
LINE
  5
122B9F
  8
CENTER
 10
10000.0
 20
-770.0
 30
0.0
 11
10000.0
 21
-1055.0
 31
0.0
1001
ACDBBLOCKREPETAG
1070
     1
1071
        6
1005
122B9F
  0
LINE
  5
122BA0
  8
OBJECT
 10
9920.0
 20
-1055.0
 30
0.0
 11
10080.0
 21
-1055.0
 31
0.0
1001
ACDBBLOCKREPETAG
1070
     1
1071
        7
1005
122BA0
  0
LINE
  5
122BA1
  8
OBJECT
 10
9920.0
 20
-1043.0
 30
0.0
 11
10080.0
 21
-1043.0
 31
0.0
1001
ACDBBLOCKREPETAG
1070
     1
1071
        8
1005
122BA1
  0
LINE
  5
122BA2
  8
OBJECT
 10
9920.0
 20
-1043.0
 30
0.0
 11
9920.0
 21
-1055.0
 31
0.0
1001
ACDBBLOCKREPETAG
1070
     1
1071
        9
1005
122BA2
  0
LINE
  5
122BA3
  8
OBJECT
 10
10080.0
 20
-1043.0
 30
0.0
 11
10080.0
 21
-1055.0
 31
0.0
1001
ACDBBLOCKREPETAG
1070
     1
1071
       10
1005
122BA3
  0
LINE
  5
122BA4
  8
OBJECT
 10
11925.0
 20
-770.0
 30
0.0
 11
11925.0
 21
-1043.0
 31
0.0
1001
ACDBBLOCKREPETAG
1070
     1
1071
        1
1005
122BA4
  0
LINE
  5
122BA5
  8
OBJECT
 10
12075.0
 20
-769.9999999999942
 30
0.0
 11
12075.0
 21
-1043.0
 31
0.0
1001
ACDBBLOCKREPETAG
1070
     1
1071
        3
1005
122BA5
  0
LINE
  5
122BA6
  8
CENTER
 10
12000.0
 20
-770.0
 30
0.0
 11
12000.0
 21
-1055.0
 31
0.0
1001
ACDBBLOCKREPETAG
1070
     1
1071
        6
1005
122BA6
  0
LINE
  5
122BA7
  8
OBJECT
 10
11920.0
 20
-1055.0
 30
0.0
 11
12080.0
 21
-1055.0
 31
0.0
1001
ACDBBLOCKREPETAG
1070
     1
1071
        7
1005
122BA7
  0
LINE
  5
122BA8
  8
OBJECT
 10
11920.0
 20
-1043.0
 30
0.0
 11
12080.0
 21
-1043.0
 31
0.0
1001
ACDBBLOCKREPETAG
1070
     1
1071
        8
1005
122BA8
  0
LINE
  5
122BA9
  8
OBJECT
 10
11920.0
 20
-1043.0
 30
0.0
 11
11920.0
 21
-1055.0
 31
0.0
1001
ACDBBLOCKREPETAG
1070
     1
1071
        9
1005
122BA9
  0
LINE
  5
122BAA
  8
OBJECT
 10
12080.0
 20
-1043.0
 30
0.0
 11
12080.0
 21
-1055.0
 31
0.0
1001
ACDBBLOCKREPETAG
1070
     1
1071
       10
1005
122BAA
  0
LINE
  5
122BAB
  8
CENTER
 10
11909.0
 20
-1638.9999999999959
 30
0.0
 11
12105.0
 21
-1638.9999999999959
 31
0.0
1001
ACDBBLOCKREPETAG
1070
     1
1071
       10
1005
122BAB
  0
LINE
  5
122BAC
  8
CENTER
 10
12000.0
 20
-1547.7253355707801
 30
0.0
 11
12000.0
 21
-1730.2746644292131
 31
0.0
1001
ACDBBLOCKREPETAG
1070
     1
1071
       11
1005
122BAC
  0
CIRCLE
  5
122BAD
  8
OBJECT
 10
12000.0
 20
-1638.9999999999959
 30
0.0
 40
50.0
1001
ACDBBLOCKREPETAG
1070
     1
1071
       12
1005
122BAD
  0
CIRCLE
  5
122BAE
  8
OBJECT
 10
12000.0
 20
-1638.9999999999959
 30
0.0
 40
60.0
1001
ACDBBLOCKREPETAG
1070
     1
1071
       13
1005
122BAE
  0
CIRCLE
  5
122BAF
  8
OBJECT
 10
12000.0
 20
-1638.9999999999959
 30
0.0
 40
68.0
1001
ACDBBLOCKREPETAG
1070
     1
1071
       14
1005
122BAF
  0
ARC
  5
122BB0
  8
OBJECT
 10
12077.5
 20
-1638.9999999999959
 30
0.0
 40
12.0
 50
272.10542627221611
 51
87.894573727783893
1001
ACDBBLOCKREPETAG
1070
     1
1071
       15
1005
122BB0
  0
ARC
  5
122BB1
  8
OBJECT
 10
12078.49193548386
 20
-1612.0182271895239
 30
0.0
 40
15.0
 50
198.97051877965251
 51
267.89457372778372
1001
ACDBBLOCKREPETAG
1070
     1
1071
       16
1005
122BB1
  0
ARC
  5
122BB2
  8
OBJECT
 10
12078.49193548386
 20
-1665.981772810464
 30
0.0
 40
15.0
 50
92.105426272216135
 51
161.02948122034729
1001
ACDBBLOCKREPETAG
1070
     1
1071
       17
1005
122BB2
  0
CIRCLE
  5
122BB3
  8
SLIM
 10
12078.0
 20
-1638.9999999999959
 30
0.0
 40
8.0
1001
ACDBBLOCKREPETAG
1070
     1
1071
       18
1005
122BB3
  0
POLYLINE
  5
122BB4
  8
SLIM
 66
     1
 10
0.0
 20
0.0
 30
0.0
 70
     1
1001
ACDBBLOCKREPETAG
1070
     1
1071
       19
1005
122BB4
  0
VERTEX
  5
122E02
  8
SLIM
 10
12075.69059892322
 20
-1634.9999999999959
 30
0.0
  0
VERTEX
  5
122E03
  8
SLIM
 10
12073.38119784648
 20
-1638.9999999999959
 30
0.0
  0
VERTEX
  5
122E04
  8
SLIM
 10
12075.69059892322
 20
-1642.9999999999959
 30
0.0
  0
VERTEX
  5
122E05
  8
SLIM
 10
12080.309401076751
 20
-1642.9999999999959
 30
0.0
  0
VERTEX
  5
122E06
  8
SLIM
 10
12082.618802153511
 20
-1638.9999999999959
 30
0.0
  0
VERTEX
  5
122E07
  8
SLIM
 10
12080.309401076751
 20
-1634.9999999999959
 30
0.0
  0
SEQEND
  5
122E08
  8
SLIM
  0
ARC
  5
122BB5
  8
OBJECT
 10
11961.25
 20
-1571.8830312067
 30
0.0
 40
12.0
 50
32.105426272130188
 51
207.89457372768319
1001
ACDBBLOCKREPETAG
1070
     1
1071
       20
1005
122BB5
  0
ARC
  5
122BB6
  8
OBJECT
 10
11937.38713156505
 20
-1584.514876283989
 30
0.0
 40
15.0
 50
318.97051877944762
 51
27.89457372768311
1001
ACDBBLOCKREPETAG
1070
     1
1071
       21
1005
122BB6
  0
ARC
  5
122BB7
  8
OBJECT
 10
11984.120932951069
 20
-1557.533103473517
 30
0.0
 40
15.0
 50
212.10542627213019
 51
281.02948122044069
1001
ACDBBLOCKREPETAG
1070
     1
1071
       22
1005
122BB7
  0
CIRCLE
  5
122BB8
  8
SLIM
 10
11961.0
 20
-1571.450018504808
 30
0.0
 40
7.9999999999999982
1001
ACDBBLOCKREPETAG
1070
     1
1071
       23
1005
122BB8
  0
POLYLINE
  5
122BB9
  8
SLIM
 66
     1
 10
0.0
 20
0.0
 30
0.0
 70
     1
1001
ACDBBLOCKREPETAG
1070
     1
1071
       24
1005
122BB9
  0
VERTEX
  5
122E09
  8
SLIM
 10
11958.69059892324
 20
-1575.4500185048089
 30
0.0
  0
VERTEX
  5
122E0A
  8
SLIM
 10
11963.309401076751
 20
-1575.4500185048089
 30
0.0
  0
VERTEX
  5
122E0B
  8
SLIM
 10
11965.618802153511
 20
-1571.450018504808
 30
0.0
  0
VERTEX
  5
122E0C
  8
SLIM
 10
11963.309401076751
 20
-1567.4500185048089
 30
0.0
  0
VERTEX
  5
122E0D
  8
SLIM
 10
11958.69059892324
 20
-1567.4500185048089
 30
0.0
  0
VERTEX
  5
122E0E
  8
SLIM
 10
11956.38119784648
 20
-1571.450018504808
 30
0.0
  0
SEQEND
  5
122E0F
  8
SLIM
  0
ARC
  5
122BBA
  8
OBJECT
 10
11961.25
 20
-1706.1169687932891
 30
0.0
 40
12.0
 50
152.10542627231681
 51
327.89457372786978
1001
ACDBBLOCKREPETAG
1070
     1
1071
       25
1005
122BBA
  0
ARC
  5
122BBB
  8
OBJECT
 10
11984.120932951069
 20
-1720.4668965264721
 30
0.0
 40
15.0
 50
78.970518779559228
 51
147.89457372786981
1001
ACDBBLOCKREPETAG
1070
     1
1071
       26
1005
122BBB
  0
ARC
  5
122BBC
  8
OBJECT
 10
11937.38713156505
 20
-1693.485123716004
 30
0.0
 40
15.0
 50
332.10542627231678
 51
41.029481220552412
1001
ACDBBLOCKREPETAG
1070
     1
1071
       27
1005
122BBC
  0
CIRCLE
  5
122BBD
  8
SLIM
 10
11961.0
 20
-1706.549981495182
 30
0.0
 40
8.0
1001
ACDBBLOCKREPETAG
1070
     1
1071
       28
1005
122BBD
  0
POLYLINE
  5
122BBE
  8
SLIM
 66
     1
 10
0.0
 20
0.0
 30
0.0
 70
     1
1001
ACDBBLOCKREPETAG
1070
     1
1071
       29
1005
122BBE
  0
VERTEX
  5
122E10
  8
SLIM
 10
11965.618802153511
 20
-1706.54998149518
 30
0.0
  0
VERTEX
  5
122E11
  8
SLIM
 10
11963.309401076751
 20
-1702.5499814951829
 30
0.0
  0
VERTEX
  5
122E12
  8
SLIM
 10
11958.69059892324
 20
-1702.54998149518
 30
0.0
  0
VERTEX
  5
122E13
  8
SLIM
 10
11956.38119784648
 20
-1706.549981495182
 30
0.0
  0
VERTEX
  5
122E14
  8
SLIM
 10
11958.69059892322
 20
-1710.54998149518
 30
0.0
  0
VERTEX
  5
122E15
  8
SLIM
 10
11963.309401076751
 20
-1710.5499814951841
 30
0.0
  0
SEQEND
  5
122E16
  8
SLIM
  0
ARC
  5
122BBF
  8
OBJECT
 10
12000.0
 20
-1638.9999999999959
 30
0.0
 40
76.0
 50
34.863837954171863
 51
85.136162045732945
1001
ACDBBLOCKREPETAG
1070
     1
1071
       42
1005
122BBF
  0
ARC
  5
122BC0
  8
OBJECT
 10
12000.0
 20
-1638.9999999999959
 30
0.0
 40
76.0
 50
154.86383795430939
 51
205.1361620456905
1001
ACDBBLOCKREPETAG
1070
     1
1071
       43
1005
122BC0
  0
ARC
  5
122BC1
  8
OBJECT
 10
12000.0
 20
-1638.9999999999959
 30
0.0
 40
76.0
 50
274.86383795426718
 51
325.13616204582797
1001
ACDBBLOCKREPETAG
1070
     1
1071
       44
1005
122BC1
  0
ARC
  5
122BC2
  8
OBJECT
 10
12078.0
 20
-1638.9999999999959
 30
0.0
 40
12.0
 50
325.13616204582797
 51
34.863837954171863
1001
ACDBBLOCKREPETAG
1070
     1
1071
       45
1005
122BC2
  0
LINE
  5
122BC3
  8
OBJECT
 10
12087.84615384616
 20
-1632.140462520134
 30
0.0
 11
12062.358974359049
 21
-1595.556262627535
 31
0.0
1001
ACDBBLOCKREPETAG
1070
     1
1071
       46
1005
122BC3
  0
LINE
  5
122BC4
  8
OBJECT
 10
12087.846153846171
 20
-1645.859537479857
 30
0.0
 11
12062.358974359049
 21
-1682.4437373724591
 31
0.0
1001
ACDBBLOCKREPETAG
1070
     1
1071
       47
1005
122BC4
  0
ARC
  5
122BC5
  8
OBJECT
 10
11961.0
 20
-1571.4500185048109
 30
0.0
 40
12.0
 50
85.136162045942811
 51
154.86383795410001
1001
ACDBBLOCKREPETAG
1070
     1
1071
       48
1005
122BC5
  0
LINE
  5
122BC6
  8
OBJECT
 10
11950.13638936114
 20
-1566.3527678843909
 30
0.0
 11
11931.19713262058
 21
-1606.7174127373471
 31
0.0
1001
ACDBBLOCKREPETAG
1070
     1
1071
       49
1005
122BC6
  0
LINE
  5
122BC7
  8
OBJECT
 10
11962.017456792681
 20
-1559.4932304045269
 30
0.0
 11
12006.443893020371
 21
-1563.273675364886
 31
0.0
1001
ACDBBLOCKREPETAG
1070
     1
1071
       50
1005
122BC7
  0
ARC
  5
122BC8
  8
OBJECT
 10
11961.0
 20
-1706.549981495182
 30
0.0
 40
12.0
 50
205.13616204589991
 51
274.8638379540572
1001
ACDBBLOCKREPETAG
1070
     1
1071
       51
1005
122BC8
  0
LINE
  5
122BC9
  8
OBJECT
 10
11962.01745679269
 20
-1718.506769595464
 30
0.0
 11
12006.44389302036
 21
-1714.726324635106
 31
0.0
1001
ACDBBLOCKREPETAG
1070
     1
1071
       52
1005
122BC9
  0
LINE
  5
122BCA
  8
OBJECT
 10
11950.13638936114
 20
-1711.647232115605
 30
0.0
 11
11931.19713262058
 21
-1671.2825872626429
 31
0.0
1001
ACDBBLOCKREPETAG
1070
     1
1071
       53
1005
122BCA
  0
LINE
  5
122BCB
  8
CENTER
 10
9909.0
 20
-1638.9999999999959
 30
0.0
 11
10105.0
 21
-1638.9999999999959
 31
0.0
1001
ACDBBLOCKREPETAG
1070
     1
1071
        0
1005
122BCB
  0
LINE
  5
122BCC
  8
CENTER
 10
10000.0
 20
-1547.7253355707801
 30
0.0
 11
10000.0
 21
-1730.2746644292131
 31
0.0
1001
ACDBBLOCKREPETAG
1070
     1
1071
        1
1005
122BCC
  0
CIRCLE
  5
122BCD
  8
OBJECT
 10
10000.0
 20
-1638.9999999999959
 30
0.0
 40
50.0
1001
ACDBBLOCKREPETAG
1070
     1
1071
        2
1005
122BCD
  0
CIRCLE
  5
122BCE
  8
OBJECT
 10
10000.0
 20
-1638.9999999999959
 30
0.0
 40
62.0
1001
ACDBBLOCKREPETAG
1070
     1
1071
        3
1005
122BCE
  0
CIRCLE
  5
122BCF
  8
SLIM
 10
10078.0
 20
-1638.9999999999959
 30
0.0
 40
5.0
1001
ACDBBLOCKREPETAG
1070
     1
1071
        4
1005
122BCF
  0
POLYLINE
  5
122BD0
  8
SLIM
 66
     1
 10
0.0
 20
0.0
 30
0.0
 70
     1
1001
ACDBBLOCKREPETAG
1070
     1
1071
        5
1005
122BD0
  0
VERTEX
  5
122E17
  8
SLIM
 10
10073.092522711881
 20
-1630.4999999999959
 30
0.0
  0
VERTEX
  5
122E18
  8
SLIM
 10
10068.18504542377
 20
-1638.9999999999959
 30
0.0
  0
VERTEX
  5
122E19
  8
SLIM
 10
10073.092522711881
 20
-1647.4999999999959
 30
0.0
  0
VERTEX
  5
122E1A
  8
SLIM
 10
10082.907477288099
 20
-1647.4999999999959
 30
0.0
  0
VERTEX
  5
122E1B
  8
SLIM
 10
10087.814954576221
 20
-1638.9999999999959
 30
0.0
  0
VERTEX
  5
122E1C
  8
SLIM
 10
10082.907477288099
 20
-1630.4999999999959
 30
0.0
  0
SEQEND
  5
122E1D
  8
SLIM
  0
CIRCLE
  5
122BD1
  8
SLIM
 10
9961.0
 20
-1571.450018504808
 30
0.0
 40
4.9999999999999991
1001
ACDBBLOCKREPETAG
1070
     1
1071
        6
1005
122BD1
  0
POLYLINE
  5
122BD2
  8
SLIM
 66
     1
 10
0.0
 20
0.0
 30
0.0
 70
     1
1001
ACDBBLOCKREPETAG
1070
     1
1071
        7
1005
122BD2
  0
VERTEX
  5
122E1E
  8
SLIM
 10
9956.092522711886
 20
-1579.950018504808
 30
0.0
  0
VERTEX
  5
122E1F
  8
SLIM
 10
9965.907477288114
 20
-1579.950018504808
 30
0.0
  0
VERTEX
  5
122E20
  8
SLIM
 10
9970.814954576219
 20
-1571.450018504808
 30
0.0
  0
VERTEX
  5
122E21
  8
SLIM
 10
9965.907477288114
 20
-1562.9500185048089
 30
0.0
  0
VERTEX
  5
122E22
  8
SLIM
 10
9956.092522711886
 20
-1562.9500185048089
 30
0.0
  0
VERTEX
  5
122E23
  8
SLIM
 10
9951.185045423772
 20
-1571.450018504808
 30
0.0
  0
SEQEND
  5
122E24
  8
SLIM
  0
CIRCLE
  5
122BD3
  8
SLIM
 10
9961.0
 20
-1706.549981495182
 30
0.0
 40
5.0
1001
ACDBBLOCKREPETAG
1070
     1
1071
        8
1005
122BD3
  0
POLYLINE
  5
122BD4
  8
SLIM
 66
     1
 10
0.0
 20
0.0
 30
0.0
 70
     1
1001
ACDBBLOCKREPETAG
1070
     1
1071
        9
1005
122BD4
  0
VERTEX
  5
122E25
  8
SLIM
 10
9970.814954576219
 20
-1706.549981495182
 30
0.0
  0
VERTEX
  5
122E26
  8
SLIM
 10
9965.9074772881049
 20
-1698.04998149518
 30
0.0
  0
VERTEX
  5
122E27
  8
SLIM
 10
9956.092522711886
 20
-1698.0499814951841
 30
0.0
  0
VERTEX
  5
122E28
  8
SLIM
 10
9951.185045423772
 20
-1706.54998149518
 30
0.0
  0
VERTEX
  5
122E29
  8
SLIM
 10
9956.092522711886
 20
-1715.0499814951829
 30
0.0
  0
VERTEX
  5
122E2A
  8
SLIM
 10
9965.907477288114
 20
-1715.04998149518
 30
0.0
  0
SEQEND
  5
122E2B
  8
SLIM
  0
ARC
  5
122BD5
  8
OBJECT
 10
10000.0
 20
-1638.9999999999959
 30
0.0
 40
76.0
 50
34.863837954171863
 51
85.136162045732945
1001
ACDBBLOCKREPETAG
1070
     1
1071
       30
1005
122BD5
  0
ARC
  5
122BD6
  8
OBJECT
 10
10000.0
 20
-1638.9999999999959
 30
0.0
 40
76.0
 50
154.86383795430939
 51
205.1361620456905
1001
ACDBBLOCKREPETAG
1070
     1
1071
       31
1005
122BD6
  0
ARC
  5
122BD7
  8
OBJECT
 10
10000.0
 20
-1638.9999999999959
 30
0.0
 40
76.0
 50
274.86383795426718
 51
325.13616204582797
1001
ACDBBLOCKREPETAG
1070
     1
1071
       32
1005
122BD7
  0
ARC
  5
122BD8
  8
OBJECT
 10
10078.0
 20
-1638.9999999999959
 30
0.0
 40
12.0
 50
325.13616204582797
 51
34.863837954171863
1001
ACDBBLOCKREPETAG
1070
     1
1071
       33
1005
122BD8
  0
LINE
  5
122BD9
  8
OBJECT
 10
10087.84615384616
 20
-1632.140462520134
 30
0.0
 11
10062.35897435904
 21
-1595.556262627535
 31
0.0
1001
ACDBBLOCKREPETAG
1070
     1
1071
       34
1005
122BD9
  0
LINE
  5
122BDA
  8
OBJECT
 10
10087.846153846171
 20
-1645.859537479857
 30
0.0
 11
10062.35897435904
 21
-1682.4437373724591
 31
0.0
1001
ACDBBLOCKREPETAG
1070
     1
1071
       35
1005
122BDA
  0
ARC
  5
122BDB
  8
OBJECT
 10
9961.0
 20
-1571.4500185048109
 30
0.0
 40
12.0
 50
85.136162045942811
 51
154.86383795410001
1001
ACDBBLOCKREPETAG
1070
     1
1071
       36
1005
122BDB
  0
LINE
  5
122BDC
  8
OBJECT
 10
9950.1363893611433
 20
-1566.3527678843909
 30
0.0
 11
9931.1971326205894
 21
-1606.7174127373471
 31
0.0
1001
ACDBBLOCKREPETAG
1070
     1
1071
       37
1005
122BDC
  0
LINE
  5
122BDD
  8
OBJECT
 10
9962.0174567926842
 20
-1559.4932304045269
 30
0.0
 11
10006.443893020371
 21
-1563.273675364886
 31
0.0
1001
ACDBBLOCKREPETAG
1070
     1
1071
       38
1005
122BDD
  0
ARC
  5
122BDE
  8
OBJECT
 10
9961.0
 20
-1706.549981495182
 30
0.0
 40
12.0
 50
205.13616204589991
 51
274.8638379540572
1001
ACDBBLOCKREPETAG
1070
     1
1071
       39
1005
122BDE
  0
LINE
  5
122BDF
  8
OBJECT
 10
9962.0174567926897
 20
-1718.506769595464
 30
0.0
 11
10006.44389302036
 21
-1714.726324635106
 31
0.0
1001
ACDBBLOCKREPETAG
1070
     1
1071
       40
1005
122BDF
  0
LINE
  5
122BE0
  8
OBJECT
 10
9950.1363893611433
 20
-1711.647232115605
 30
0.0
 11
9931.1971326205821
 21
-1671.2825872626429
 31
0.0
1001
ACDBBLOCKREPETAG
1070
     1
1071
       41
1005
122BE0
  0
LINE
  5
122BE1
  8
CENTER
 10
5909.0
 20
-1679.9999999999991
 30
0.0
 11
6105.0
 21
-1679.9999999999991
 31
0.0
1001
ACDBBLOCKREPETAG
1070
     1
1071
       10
1005
122BE1
  0
LINE
  5
122BE2
  8
CENTER
 10
6000.0
 20
-1588.725335570783
 30
0.0
 11
6000.0
 21
-1771.274664429216
 31
0.0
1001
ACDBBLOCKREPETAG
1070
     1
1071
       11
1005
122BE2
  0
CIRCLE
  5
122BE3
  8
OBJECT
 10
6000.0
 20
-1679.9999999999991
 30
0.0
 40
50.0
1001
ACDBBLOCKREPETAG
1070
     1
1071
       12
1005
122BE3
  0
CIRCLE
  5
122BE4
  8
OBJECT
 10
6000.0
 20
-1679.9999999999991
 30
0.0
 40
60.0
1001
ACDBBLOCKREPETAG
1070
     1
1071
       13
1005
122BE4
  0
CIRCLE
  5
122BE5
  8
OBJECT
 10
6000.0
 20
-1679.9999999999991
 30
0.0
 40
68.0
1001
ACDBBLOCKREPETAG
1070
     1
1071
       14
1005
122BE5
  0
ARC
  5
122BE6
  8
OBJECT
 10
6077.5
 20
-1679.9999999999991
 30
0.0
 40
12.0
 50
272.10542627221611
 51
87.894573727783893
1001
ACDBBLOCKREPETAG
1070
     1
1071
       15
1005
122BE6
  0
ARC
  5
122BE7
  8
OBJECT
 10
6078.4919354838639
 20
-1653.018227189528
 30
0.0
 40
15.0
 50
198.9705187796356
 51
267.89457372778372
1001
ACDBBLOCKREPETAG
1070
     1
1071
       16
1005
122BE7
  0
ARC
  5
122BE8
  8
OBJECT
 10
6078.4919354838639
 20
-1706.9817728104681
 30
0.0
 40
15.0
 50
92.105426272216135
 51
161.02948122036429
1001
ACDBBLOCKREPETAG
1070
     1
1071
       17
1005
122BE8
  0
CIRCLE
  5
122BE9
  8
SLIM
 10
6078.0
 20
-1679.9999999999991
 30
0.0
 40
8.0
1001
ACDBBLOCKREPETAG
1070
     1
1071
       18
1005
122BE9
  0
POLYLINE
  5
122BEA
  8
SLIM
 66
     1
 10
0.0
 20
0.0
 30
0.0
 70
     1
1001
ACDBBLOCKREPETAG
1070
     1
1071
       19
1005
122BEA
  0
VERTEX
  5
122E2C
  8
SLIM
 10
6075.6905989232328
 20
-1675.9999999999991
 30
0.0
  0
VERTEX
  5
122E2D
  8
SLIM
 10
6073.3811978464801
 20
-1679.9999999999991
 30
0.0
  0
VERTEX
  5
122E2E
  8
SLIM
 10
6075.6905989232328
 20
-1683.9999999999991
 30
0.0
  0
VERTEX
  5
122E2F
  8
SLIM
 10
6080.3094010767527
 20
-1683.9999999999991
 30
0.0
  0
VERTEX
  5
122E30
  8
SLIM
 10
6082.6188021535136
 20
-1679.9999999999991
 30
0.0
  0
VERTEX
  5
122E31
  8
SLIM
 10
6080.3094010767527
 20
-1675.9999999999991
 30
0.0
  0
SEQEND
  5
122E32
  8
SLIM
  0
ARC
  5
122BEB
  8
OBJECT
 10
5961.25
 20
-1612.883031206703
 30
0.0
 40
12.0
 50
32.105426272157878
 51
207.89457372770741
1001
ACDBBLOCKREPETAG
1070
     1
1071
       20
1005
122BEB
  0
ARC
  5
122BEC
  8
OBJECT
 10
5937.387131565054
 20
-1625.514876283992
 30
0.0
 40
15.0
 50
318.97051877944762
 51
27.894573727707481
1001
ACDBBLOCKREPETAG
1070
     1
1071
       21
1005
122BEC
  0
ARC
  5
122BED
  8
OBJECT
 10
5984.1209329510702
 20
-1598.53310347352
 30
0.0
 40
15.0
 50
212.1054262721579
 51
281.02948122044069
1001
ACDBBLOCKREPETAG
1070
     1
1071
       22
1005
122BED
  0
CIRCLE
  5
122BEE
  8
SLIM
 10
5961.0
 20
-1612.4500185048121
 30
0.0
 40
7.9999999999999982
1001
ACDBBLOCKREPETAG
1070
     1
1071
       23
1005
122BEE
  0
POLYLINE
  5
122BEF
  8
SLIM
 66
     1
 10
0.0
 20
0.0
 30
0.0
 70
     1
1001
ACDBBLOCKREPETAG
1070
     1
1071
       24
1005
122BEF
  0
VERTEX
  5
122E33
  8
SLIM
 10
5958.69059892324
 20
-1616.4500185048121
 30
0.0
  0
VERTEX
  5
122E34
  8
SLIM
 10
5963.3094010767518
 20
-1616.4500185048121
 30
0.0
  0
VERTEX
  5
122E35
  8
SLIM
 10
5965.6188021535136
 20
-1612.4500185048121
 30
0.0
  0
VERTEX
  5
122E36
  8
SLIM
 10
5963.3094010767518
 20
-1608.4500185048121
 30
0.0
  0
VERTEX
  5
122E37
  8
SLIM
 10
5958.69059892324
 20
-1608.4500185048121
 30
0.0
  0
VERTEX
  5
122E38
  8
SLIM
 10
5956.3811978464792
 20
-1612.4500185048121
 30
0.0
  0
SEQEND
  5
122E39
  8
SLIM
  0
ARC
  5
122BF0
  8
OBJECT
 10
5961.25
 20
-1747.116968793292
 30
0.0
 40
12.0
 50
152.1054262722925
 51
327.89457372784221
1001
ACDBBLOCKREPETAG
1070
     1
1071
       25
1005
122BF0
  0
ARC
  5
122BF1
  8
OBJECT
 10
5984.1209329510702
 20
-1761.466896526475
 30
0.0
 40
15.0
 50
78.970518779559228
 51
147.8945737278421
1001
ACDBBLOCKREPETAG
1070
     1
1071
       26
1005
122BF1
  0
ARC
  5
122BF2
  8
OBJECT
 10
5937.387131565054
 20
-1734.4851237160069
 30
0.0
 40
15.0
 50
332.1054262722925
 51
41.029481220552412
1001
ACDBBLOCKREPETAG
1070
     1
1071
       27
1005
122BF2
  0
CIRCLE
  5
122BF3
  8
SLIM
 10
5961.0
 20
-1747.5499814951861
 30
0.0
 40
8.0
1001
ACDBBLOCKREPETAG
1070
     1
1071
       28
1005
122BF3
  0
POLYLINE
  5
122BF4
  8
SLIM
 66
     1
 10
0.0
 20
0.0
 30
0.0
 70
     1
1001
ACDBBLOCKREPETAG
1070
     1
1071
       29
1005
122BF4
  0
VERTEX
  5
122E3A
  8
SLIM
 10
5965.6188021535136
 20
-1747.5499814951829
 30
0.0
  0
VERTEX
  5
122E3B
  8
SLIM
 10
5963.3094010767518
 20
-1743.549981495187
 30
0.0
  0
VERTEX
  5
122E3C
  8
SLIM
 10
5958.69059892324
 20
-1743.5499814951829
 30
0.0
  0
VERTEX
  5
122E3D
  8
SLIM
 10
5956.3811978464792
 20
-1747.5499814951861
 30
0.0
  0
VERTEX
  5
122E3E
  8
SLIM
 10
5958.6905989232328
 20
-1751.549981495182
 30
0.0
  0
VERTEX
  5
122E3F
  8
SLIM
 10
5963.3094010767518
 20
-1751.549981495187
 30
0.0
  0
SEQEND
  5
122E40
  8
SLIM
  0
ARC
  5
122BF5
  8
OBJECT
 10
6000.0
 20
-1679.9999999999991
 30
0.0
 40
76.0
 50
34.863837954142063
 51
85.136162045732945
1001
ACDBBLOCKREPETAG
1070
     1
1071
       42
1005
122BF5
  0
ARC
  5
122BF6
  8
OBJECT
 10
6000.0
 20
-1679.9999999999991
 30
0.0
 40
76.0
 50
154.86383795430939
 51
205.1361620456905
1001
ACDBBLOCKREPETAG
1070
     1
1071
       43
1005
122BF6
  0
ARC
  5
122BF7
  8
OBJECT
 10
6000.0
 20
-1679.9999999999991
 30
0.0
 40
76.0
 50
274.86383795426718
 51
325.13616204585799
1001
ACDBBLOCKREPETAG
1070
     1
1071
       44
1005
122BF7
  0
ARC
  5
122BF8
  8
OBJECT
 10
6078.0
 20
-1679.9999999999991
 30
0.0
 40
12.0
 50
325.13616204585799
 51
34.863837954142063
1001
ACDBBLOCKREPETAG
1070
     1
1071
       45
1005
122BF8
  0
LINE
  5
122BF9
  8
OBJECT
 10
6087.846153846167
 20
-1673.1404625201369
 30
0.0
 11
6062.3589743590501
 21
-1636.556262627538
 31
0.0
1001
ACDBBLOCKREPETAG
1070
     1
1071
       46
1005
122BF9
  0
LINE
  5
122BFA
  8
OBJECT
 10
6087.8461538461697
 20
-1686.8595374798599
 30
0.0
 11
6062.3589743590501
 21
-1723.4437373724629
 31
0.0
1001
ACDBBLOCKREPETAG
1070
     1
1071
       47
1005
122BFA
  0
ARC
  5
122BFB
  8
OBJECT
 10
5961.0
 20
-1612.4500185048139
 30
0.0
 40
12.0
 50
85.136162045942811
 51
154.86383795410001
1001
ACDBBLOCKREPETAG
1070
     1
1071
       48
1005
122BFB
  0
LINE
  5
122BFC
  8
OBJECT
 10
5950.1363893611451
 20
-1607.3527678843941
 30
0.0
 11
5931.1971326205849
 21
-1647.7174127373501
 31
0.0
1001
ACDBBLOCKREPETAG
1070
     1
1071
       49
1005
122BFC
  0
LINE
  5
122BFD
  8
OBJECT
 10
5962.0174567926842
 20
-1600.4932304045301
 30
0.0
 11
6006.4438930203669
 21
-1604.273675364889
 31
0.0
1001
ACDBBLOCKREPETAG
1070
     1
1071
       50
1005
122BFD
  0
ARC
  5
122BFE
  8
OBJECT
 10
5961.0
 20
-1747.549981495185
 30
0.0
 40
12.0
 50
205.13616204589991
 51
274.8638379540572
1001
ACDBBLOCKREPETAG
1070
     1
1071
       51
1005
122BFE
  0
LINE
  5
122BFF
  8
OBJECT
 10
5962.0174567926879
 20
-1759.5067695954669
 30
0.0
 11
6006.4438930203651
 21
-1755.7263246351099
 31
0.0
1001
ACDBBLOCKREPETAG
1070
     1
1071
       52
1005
122BFF
  0
LINE
  5
122C00
  8
OBJECT
 10
5950.1363893611451
 20
-1752.6472321156079
 30
0.0
 11
5931.1971326205821
 21
-1712.282587262647
 31
0.0
1001
ACDBBLOCKREPETAG
1070
     1
1071
       53
1005
122C00
  0
LINE
  5
122C01
  8
CENTER
 10
3909.0
 20
-1638.9999999999959
 30
0.0
 11
4105.0
 21
-1638.9999999999959
 31
0.0
1001
ACDBBLOCKREPETAG
1070
     1
1071
        0
1005
122C01
  0
LINE
  5
122C02
  8
CENTER
 10
4000.0
 20
-1547.7253355707801
 30
0.0
 11
4000.0
 21
-1730.2746644292131
 31
0.0
1001
ACDBBLOCKREPETAG
1070
     1
1071
        1
1005
122C02
  0
CIRCLE
  5
122C03
  8
OBJECT
 10
4000.0
 20
-1638.9999999999959
 30
0.0
 40
50.0
1001
ACDBBLOCKREPETAG
1070
     1
1071
        2
1005
122C03
  0
CIRCLE
  5
122C04
  8
OBJECT
 10
4000.0
 20
-1638.9999999999959
 30
0.0
 40
62.0
1001
ACDBBLOCKREPETAG
1070
     1
1071
        3
1005
122C04
  0
CIRCLE
  5
122C05
  8
SLIM
 10
4078.0
 20
-1638.9999999999959
 30
0.0
 40
5.0
1001
ACDBBLOCKREPETAG
1070
     1
1071
        4
1005
122C05
  0
POLYLINE
  5
122C06
  8
SLIM
 66
     1
 10
0.0
 20
0.0
 30
0.0
 70
     1
1001
ACDBBLOCKREPETAG
1070
     1
1071
        5
1005
122C06
  0
VERTEX
  5
122E41
  8
SLIM
 10
4073.092522711886
 20
-1630.4999999999959
 30
0.0
  0
VERTEX
  5
122E42
  8
SLIM
 10
4068.185045423772
 20
-1638.9999999999959
 30
0.0
  0
VERTEX
  5
122E43
  8
SLIM
 10
4073.092522711886
 20
-1647.4999999999959
 30
0.0
  0
VERTEX
  5
122E44
  8
SLIM
 10
4082.9074772881072
 20
-1647.4999999999959
 30
0.0
  0
VERTEX
  5
122E45
  8
SLIM
 10
4087.8149545762199
 20
-1638.9999999999959
 30
0.0
  0
VERTEX
  5
122E46
  8
SLIM
 10
4082.9074772881072
 20
-1630.4999999999959
 30
0.0
  0
SEQEND
  5
122E47
  8
SLIM
  0
CIRCLE
  5
122C07
  8
SLIM
 10
3961.0
 20
-1571.450018504808
 30
0.0
 40
4.9999999999999991
1001
ACDBBLOCKREPETAG
1070
     1
1071
        6
1005
122C07
  0
POLYLINE
  5
122C08
  8
SLIM
 66
     1
 10
0.0
 20
0.0
 30
0.0
 70
     1
1001
ACDBBLOCKREPETAG
1070
     1
1071
        7
1005
122C08
  0
VERTEX
  5
122E48
  8
SLIM
 10
3956.092522711886
 20
-1579.950018504808
 30
0.0
  0
VERTEX
  5
122E49
  8
SLIM
 10
3965.907477288114
 20
-1579.950018504808
 30
0.0
  0
VERTEX
  5
122E4A
  8
SLIM
 10
3970.8149545762212
 20
-1571.450018504808
 30
0.0
  0
VERTEX
  5
122E4B
  8
SLIM
 10
3965.907477288114
 20
-1562.9500185048089
 30
0.0
  0
VERTEX
  5
122E4C
  8
SLIM
 10
3956.092522711886
 20
-1562.9500185048089
 30
0.0
  0
VERTEX
  5
122E4D
  8
SLIM
 10
3951.185045423772
 20
-1571.450018504808
 30
0.0
  0
SEQEND
  5
122E4E
  8
SLIM
  0
CIRCLE
  5
122C09
  8
SLIM
 10
3961.0
 20
-1706.549981495182
 30
0.0
 40
5.0
1001
ACDBBLOCKREPETAG
1070
     1
1071
        8
1005
122C09
  0
POLYLINE
  5
122C0A
  8
SLIM
 66
     1
 10
0.0
 20
0.0
 30
0.0
 70
     1
1001
ACDBBLOCKREPETAG
1070
     1
1071
        9
1005
122C0A
  0
VERTEX
  5
122E4F
  8
SLIM
 10
3970.8149545762212
 20
-1706.549981495182
 30
0.0
  0
VERTEX
  5
122E50
  8
SLIM
 10
3965.9074772881072
 20
-1698.04998149518
 30
0.0
  0
VERTEX
  5
122E51
  8
SLIM
 10
3956.092522711886
 20
-1698.0499814951841
 30
0.0
  0
VERTEX
  5
122E52
  8
SLIM
 10
3951.185045423772
 20
-1706.54998149518
 30
0.0
  0
VERTEX
  5
122E53
  8
SLIM
 10
3956.092522711886
 20
-1715.0499814951829
 30
0.0
  0
VERTEX
  5
122E54
  8
SLIM
 10
3965.907477288114
 20
-1715.04998149518
 30
0.0
  0
SEQEND
  5
122E55
  8
SLIM
  0
ARC
  5
122C0B
  8
OBJECT
 10
4000.0
 20
-1638.9999999999959
 30
0.0
 40
76.0
 50
34.863837954142063
 51
85.136162045732945
1001
ACDBBLOCKREPETAG
1070
     1
1071
       30
1005
122C0B
  0
ARC
  5
122C0C
  8
OBJECT
 10
4000.0
 20
-1638.9999999999959
 30
0.0
 40
76.0
 50
154.86383795430939
 51
205.1361620456905
1001
ACDBBLOCKREPETAG
1070
     1
1071
       31
1005
122C0C
  0
ARC
  5
122C0D
  8
OBJECT
 10
4000.0
 20
-1638.9999999999959
 30
0.0
 40
76.0
 50
274.86383795426718
 51
325.13616204585799
1001
ACDBBLOCKREPETAG
1070
     1
1071
       32
1005
122C0D
  0
ARC
  5
122C0E
  8
OBJECT
 10
4078.0
 20
-1638.9999999999959
 30
0.0
 40
12.0
 50
325.13616204585799
 51
34.863837954142063
1001
ACDBBLOCKREPETAG
1070
     1
1071
       33
1005
122C0E
  0
LINE
  5
122C0F
  8
OBJECT
 10
4087.846153846167
 20
-1632.140462520134
 30
0.0
 11
4062.3589743590492
 21
-1595.556262627535
 31
0.0
1001
ACDBBLOCKREPETAG
1070
     1
1071
       34
1005
122C0F
  0
LINE
  5
122C10
  8
OBJECT
 10
4087.8461538461711
 20
-1645.859537479857
 30
0.0
 11
4062.3589743590492
 21
-1682.4437373724591
 31
0.0
1001
ACDBBLOCKREPETAG
1070
     1
1071
       35
1005
122C10
  0
ARC
  5
122C11
  8
OBJECT
 10
3961.0
 20
-1571.4500185048109
 30
0.0
 40
12.0
 50
85.136162045942811
 51
154.86383795411109
1001
ACDBBLOCKREPETAG
1070
     1
1071
       36
1005
122C11
  0
LINE
  5
122C12
  8
OBJECT
 10
3950.136389361146
 20
-1566.3527678843909
 30
0.0
 11
3931.1971326205862
 21
-1606.7174127373471
 31
0.0
1001
ACDBBLOCKREPETAG
1070
     1
1071
       37
1005
122C12
  0
LINE
  5
122C13
  8
OBJECT
 10
3962.0174567926852
 20
-1559.4932304045269
 30
0.0
 11
4006.4438930203678
 21
-1563.273675364886
 31
0.0
1001
ACDBBLOCKREPETAG
1070
     1
1071
       38
1005
122C13
  0
ARC
  5
122C14
  8
OBJECT
 10
3961.0
 20
-1706.549981495182
 30
0.0
 40
12.0
 50
205.13616204588891
 51
274.8638379540572
1001
ACDBBLOCKREPETAG
1070
     1
1071
       39
1005
122C14
  0
LINE
  5
122C15
  8
OBJECT
 10
3962.0174567926879
 20
-1718.506769595464
 30
0.0
 11
4006.4438930203651
 21
-1714.726324635106
 31
0.0
1001
ACDBBLOCKREPETAG
1070
     1
1071
       40
1005
122C15
  0
LINE
  5
122C16
  8
OBJECT
 10
3950.136389361146
 20
-1711.647232115605
 30
0.0
 11
3931.1971326205821
 21
-1671.2825872626429
 31
0.0
1001
ACDBBLOCKREPETAG
1070
     1
1071
       41
1005
122C16
  0
LINE
  5
122C17
  8
OBJECT
 10
1943.0
 20
-1364.9999999999959
 30
0.0
 11
2057.0
 21
-1364.9999999999959
 31
0.0
1001
ACDBBLOCKREPETAG
1070
     1
1071
        0
1005
122C17
  0
LINE
  5
122C18
  8
OBJECT
 10
1943.0
 20
-1364.9999999999959
 30
0.0
 11
1943.0
 21
-1264.9999999999959
 31
0.0
1001
ACDBBLOCKREPETAG
1070
     1
1071
        1
1005
122C18
  0
LINE
  5
122C19
  8
OBJECT
 10
2057.0
 20
-1364.9999999999959
 30
0.0
 11
2057.0
 21
-1264.9999999999959
 31
0.0
1001
ACDBBLOCKREPETAG
1070
     1
1071
        2
1005
122C19
  0
LINE
  5
122C1A
  8
OBJECT
 10
1943.0
 20
-1264.9999999999959
 30
0.0
 11
2057.0
 21
-1264.9999999999959
 31
0.0
1001
ACDBBLOCKREPETAG
1070
     1
1071
        3
1005
122C1A
  0
LINE
  5
122C1B
  8
HIDDEN
 10
1950.0
 20
-1264.9999999999959
 30
0.0
 11
1950.0
 21
-1364.9999999999959
 31
0.0
1001
ACDBBLOCKREPETAG
1070
     1
1071
        4
1005
122C1B
  0
LINE
  5
122C1C
  8
HIDDEN
 10
2050.0
 20
-1264.9999999999959
 30
0.0
 11
2050.0
 21
-1364.9999999999959
 31
0.0
1001
ACDBBLOCKREPETAG
1070
     1
1071
        5
1005
122C1C
  0
LINE
  5
122C1D
  8
CENTER
 10
2000.0
 20
-1055.0
 30
0.0
 11
2000.0
 21
-1379.9999999999959
 31
0.0
1001
ACDBBLOCKREPETAG
1070
     1
1071
        6
1005
122C1D
  0
LINE
  5
122C1E
  8
OBJECT
 10
1925.0
 20
-1055.0
 30
0.0
 11
1925.0
 21
-1136.9999999999959
 31
0.0
1001
ACDBBLOCKREPETAG
1070
     1
1071
        7
1005
122C1E
  0
LINE
  5
122C1F
  8
OBJECT
 10
2075.0
 20
-1055.0
 30
0.0
 11
2075.0
 21
-1136.9999999999959
 31
0.0
1001
ACDBBLOCKREPETAG
1070
     1
1071
        8
1005
122C1F
  0
LINE
  5
122C20
  8
OBJECT
 10
1925.0
 20
-1136.9999999999959
 30
0.0
 11
2075.0
 21
-1136.9999999999959
 31
0.0
1001
ACDBBLOCKREPETAG
1070
     1
1071
        9
1005
122C20
  0
LINE
  5
122C21
  8
OBJECT
 10
1925.0
 20
-1136.9999999999959
 30
0.0
 11
1943.0
 21
-1264.9999999999959
 31
0.0
1001
ACDBBLOCKREPETAG
1070
     1
1071
       10
1005
122C21
  0
LINE
  5
122C22
  8
OBJECT
 10
2057.0
 20
-1264.9999999999959
 30
0.0
 11
2075.0
 21
-1136.9999999999959
 31
0.0
1001
ACDBBLOCKREPETAG
1070
     1
1071
       11
1005
122C22
  0
TEXT
  5
122C23
  8
SLIM
 10
3853.75
 20
-1906.4999999999959
 30
0.0
 40
35.0
  1
両受けスタイル（W）
 41
0.75
  0
LINE
  5
122C24
  8
OBJECT
 10
1925.0
 20
-770.0
 30
0.0
 11
1925.0
 21
-1043.0
 31
0.0
1001
ACDBBLOCKREPETAG
1070
     1
1071
        1
1005
122C24
  0
LINE
  5
122C25
  8
OBJECT
 10
2075.0
 20
-769.9999999999942
 30
0.0
 11
2075.0
 21
-1043.0
 31
0.0
1001
ACDBBLOCKREPETAG
1070
     1
1071
        3
1005
122C25
  0
LINE
  5
122C26
  8
CENTER
 10
2000.0
 20
-770.0
 30
0.0
 11
2000.0
 21
-1055.0
 31
0.0
1001
ACDBBLOCKREPETAG
1070
     1
1071
        6
1005
122C26
  0
LINE
  5
122C27
  8
OBJECT
 10
1920.0
 20
-1055.0
 30
0.0
 11
2080.0
 21
-1055.0
 31
0.0
1001
ACDBBLOCKREPETAG
1070
     1
1071
        7
1005
122C27
  0
LINE
  5
122C28
  8
OBJECT
 10
1920.0
 20
-1043.0
 30
0.0
 11
2080.0
 21
-1043.0
 31
0.0
1001
ACDBBLOCKREPETAG
1070
     1
1071
        8
1005
122C28
  0
LINE
  5
122C29
  8
OBJECT
 10
1920.0
 20
-1043.0
 30
0.0
 11
1920.0
 21
-1055.0
 31
0.0
1001
ACDBBLOCKREPETAG
1070
     1
1071
        9
1005
122C29
  0
LINE
  5
122C2A
  8
OBJECT
 10
2080.0
 20
-1043.0
 30
0.0
 11
2080.0
 21
-1055.0
 31
0.0
1001
ACDBBLOCKREPETAG
1070
     1
1071
       10
1005
122C2A
  0
LINE
  5
122C2B
  8
OBJECT
 10
3925.0
 20
-770.0
 30
0.0
 11
3925.0
 21
-1043.0
 31
0.0
1001
ACDBBLOCKREPETAG
1070
     1
1071
        1
1005
122C2B
  0
LINE
  5
122C2C
  8
OBJECT
 10
4075.0
 20
-769.9999999999942
 30
0.0
 11
4075.0
 21
-1043.0
 31
0.0
1001
ACDBBLOCKREPETAG
1070
     1
1071
        3
1005
122C2C
  0
LINE
  5
122C2D
  8
CENTER
 10
4000.0
 20
-770.0
 30
0.0
 11
4000.0
 21
-1055.0
 31
0.0
1001
ACDBBLOCKREPETAG
1070
     1
1071
        6
1005
122C2D
  0
LINE
  5
122C2E
  8
OBJECT
 10
3920.0
 20
-1055.0
 30
0.0
 11
4080.0
 21
-1055.0
 31
0.0
1001
ACDBBLOCKREPETAG
1070
     1
1071
        7
1005
122C2E
  0
LINE
  5
122C2F
  8
OBJECT
 10
3920.0
 20
-1043.0
 30
0.0
 11
4080.0
 21
-1043.0
 31
0.0
1001
ACDBBLOCKREPETAG
1070
     1
1071
        8
1005
122C2F
  0
LINE
  5
122C30
  8
OBJECT
 10
3920.0
 20
-1043.0
 30
0.0
 11
3920.0
 21
-1055.0
 31
0.0
1001
ACDBBLOCKREPETAG
1070
     1
1071
        9
1005
122C30
  0
LINE
  5
122C31
  8
OBJECT
 10
4080.0
 20
-1043.0
 30
0.0
 11
4080.0
 21
-1055.0
 31
0.0
1001
ACDBBLOCKREPETAG
1070
     1
1071
       10
1005
122C31
  0
LINE
  5
122C32
  8
OBJECT
 10
5925.0
 20
-770.0
 30
0.0
 11
5925.0
 21
-1043.0
 31
0.0
1001
ACDBBLOCKREPETAG
1070
     1
1071
        1
1005
122C32
  0
LINE
  5
122C33
  8
OBJECT
 10
6075.0
 20
-769.9999999999942
 30
0.0
 11
6075.0
 21
-1043.0
 31
0.0
1001
ACDBBLOCKREPETAG
1070
     1
1071
        3
1005
122C33
  0
LINE
  5
122C34
  8
CENTER
 10
6000.0
 20
-770.0
 30
0.0
 11
6000.0
 21
-1055.0
 31
0.0
1001
ACDBBLOCKREPETAG
1070
     1
1071
        6
1005
122C34
  0
LINE
  5
122C35
  8
OBJECT
 10
5920.0
 20
-1055.0
 30
0.0
 11
6080.0
 21
-1055.0
 31
0.0
1001
ACDBBLOCKREPETAG
1070
     1
1071
        7
1005
122C35
  0
LINE
  5
122C36
  8
OBJECT
 10
5920.0
 20
-1043.0
 30
0.0
 11
6080.0
 21
-1043.0
 31
0.0
1001
ACDBBLOCKREPETAG
1070
     1
1071
        8
1005
122C36
  0
LINE
  5
122C37
  8
OBJECT
 10
5920.0
 20
-1043.0
 30
0.0
 11
5920.0
 21
-1055.0
 31
0.0
1001
ACDBBLOCKREPETAG
1070
     1
1071
        9
1005
122C37
  0
LINE
  5
122C38
  8
OBJECT
 10
6080.0
 20
-1043.0
 30
0.0
 11
6080.0
 21
-1055.0
 31
0.0
1001
ACDBBLOCKREPETAG
1070
     1
1071
       10
1005
122C38
  0
TEXT
  5
122C39
  8
SLIM
 10
5811.8000000000002
 20
-2004.0
 30
0.0
 40
28.0
  1
※ 対応スラブ厚　150mm以上
 41
0.75
  0
TEXT
  5
122C3A
  8
SLIM
 10
5611.5
 20
-2097.333333333333
 30
0.0
 40
28.0
  1
国土交通大臣認定・（財）日本消防設備安全センター性能評定取得品
 41
0.75
  0
TEXT
  5
122C3B
  8
SLIM
 10
5631.1000000000004
 20
-2144.0
 30
0.0
 40
28.0
  1
注）ご採用にあたり、認定書及び評定書の内容をご確認ください。
 41
0.75
  0
TEXT
  5
122C3C
  8
SLIM
 10
11824.6
 20
-1962.9999999999959
 30
0.0
 40
28.0
  1
※ 対応スラブ厚　150～540
 41
0.75
  0
TEXT
  5
122C3D
  8
SLIM
 10
11611.5
 20
-2056.3333333333289
 30
0.0
 40
28.0
  1
国土交通大臣認定・（財）日本消防設備安全センター性能評定取得品
 41
0.75
  0
TEXT
  5
122C3E
  8
SLIM
 10
11631.1
 20
-2102.9999999999968
 30
0.0
 40
28.0
  1
注）ご採用にあたり、認定書及び評定書の内容をご確認ください。
 41
0.75
  0
TEXT
  5
122C3F
  8
SLIM
 10
9824.6000000000004
 20
-1962.9999999999959
 30
0.0
 40
28.0
  1
※ 対応スラブ厚　180～540
 41
0.75
  0
TEXT
  5
122C40
  8
SLIM
 10
9611.5000000000018
 20
-2056.3333333333289
 30
0.0
 40
28.0
  1
国土交通大臣認定・（財）日本消防設備安全センター性能評定取得品
 41
0.75
  0
TEXT
  5
122C41
  8
SLIM
 10
9631.1000000000004
 20
-2102.9999999999968
 30
0.0
 40
28.0
  1
注）ご採用にあたり、認定書及び評定書の内容をご確認ください。
 41
0.75
  0
TEXT
  5
122C42
  8
SLIM
 10
7771.3999999999987
 20
-1695.666666666664
 30
0.0
 40
28.0
  1
※ 対応スラブ厚　180｛150｝～500
 41
0.75
  0
TEXT
  5
122C43
  8
SLIM
 10
7733.2999999999975
 20
-1742.3333333333319
 30
0.0
 40
28.0
  1
｛｝内はカンペイ立て管との組み合わせの場合
 41
0.75
  0
TEXT
  5
122C44
  8
SLIM
 10
7611.4999999999982
 20
-1835.666666666664
 30
0.0
 40
28.0
  1
国土交通大臣認定・（財）日本消防設備安全センター性能評定取得品
 41
0.75
  0
TEXT
  5
122C45
  8
SLIM
 10
7631.1000000000004
 20
-1882.3333333333319
 30
0.0
 40
28.0
  1
注）ご採用にあたり、認定書及び評定書の内容をご確認ください。
 41
0.75
  0
TEXT
  5
122C46
  8
SLIM
 10
9739.1250000000018
 20
-1906.4999999999959
 30
0.0
 40
35.0
  1
両受けスタイル（W）＋シンドカット
 41
0.75
  0
TEXT
  5
122C47
  8
SLIM
 10
11743.5
 20
-1906.4999999999959
 30
0.0
 40
35.0
  1
カンペイ君（WKP）＋シンドカット
 41
0.75
  0
TEXT
  5
122C48
  8
SLIM
 10
7741.625
 20
-1632.499999999998
 30
0.0
 40
35.0
  1
片受けスタイル（S）＋シンドカット
 41
0.75
  0
TEXT
  5
122C49
  8
SLIM
 10
5858.1250000000009
 20
-1947.4999999999991
 30
0.0
 40
35.0
  1
カンペイ君（WKP）
 41
0.75
  0
TEXT
  5
122C4A
  8
SLIM
 10
1856.25
 20
-1632.499999999998
 30
0.0
 40
35.0
  1
片受けスタイル（S）
 41
0.75
  0
TEXT
  5
122C4B
  8
SLIM
 10
0.0
 20
370.0
 30
0.0
 40
100.0
  1
4SL2-Z606-P110-0-WKP
 41
0.75
  0
VIEWPORT
  5
F6BA7
 67
     1
  8
0
 10
145.33033752441401
 20
101.8328354358673
 30
0.0
 40
334.0025019414623
 41
222.19657968139651
 68
     1
 69
     1
1001
ACAD
1000
MVIEW
1002
{
1070
    16
1010
0.0
1020
0.0
1030
0.0
1010
0.0
1020
0.0
1030
1.0
1040
0.0
1040
222.19657968139651
1040
145.33033752441401
1040
101.8328354358673
1040
50.0
1040
0.0
1040
0.0
1070
     0
1070
     0
1070
     1
1070
     1
1070
     0
1070
     0
1070
     0
1070
     0
1040
0.0
1040
0.0
1040
0.0
1040
10.0
1040
10.0
1040
10.0
1040
10.0
1070
     0
1002
{
1002
}
1002
}
  0
VIEWPORT
  5
F6BA9
 67
     1
  8
OBJECT
 10
145.3303314447403
 20
101.8328338861465
 30
0.0
 40
232.5285303115844
 41
162.93253421783439
 68
     2
 69
     2
1001
ACAD
1000
MVIEW
1002
{
1070
    16
1010
0.0
1020
0.0
1030
0.0
1010
0.0
1020
0.0
1030
1.0
1040
0.0
1040
25942.55904403147
1040
2377.604457077377
1040
-7591.5176687056619
1040
50.0
1040
0.0
1040
0.0
1070
     0
1070
   600
1070
     1
1070
     1
1070
     0
1070
     0
1070
     0
1070
     0
1040
0.0
1040
0.0
1040
0.0
1040
1.0
1040
1.0
1040
0.0
1040
0.0
1070
     0
1002
{
1002
}
1002
}
  0
ENDSEC
  0
EOF
