  0
SECTION
  2
HEADER
  9
$ACADVER
  1
AC1009
  9
$INSBASE
 10
0.0
 20
0.0
 30
0.0
  9
$EXTMIN
 10
0.0
 20
-1878.9999999999991
 30
0.0
  9
$EXTMAX
 10
12387.100000000009
 20
770.0
 30
0.0
  9
$LIMMIN
 10
0.0
 20
0.0
  9
$LIMMAX
 10
210.0
 20
297.0
  9
$ORTHOMODE
 70
     0
  9
$REGENMODE
 70
     1
  9
$FILLMODE
 70
     1
  9
$QTEXTMODE
 70
     0
  9
$MIRRTEXT
 70
     0
  9
$DRAGMODE
 70
     2
  9
$LTSCALE
 40
1.0
  9
$OSMODE
 70
   109
  9
$ATTMODE
 70
     1
  9
$TEXTSIZE
 40
4.0
  9
$TRACEWID
 40
0.05
  9
$TEXTSTYLE
  7
STANDARD
  9
$CLAYER
  8
OBJECT
  9
$CELTYPE
  6
BYLAYER
  9
$CECOLOR
 62
   256
  9
$DIMSCALE
 40
10.0
  9
$DIMASZ
 40
2.0
  9
$DIMEXO
 40
1.0
  9
$DIMDLI
 40
10.0
  9
$DIMRND
 40
0.0
  9
$DIMDLE
 40
0.0
  9
$DIMEXE
 40
1.0
  9
$DIMTP
 40
0.0
  9
$DIMTM
 40
0.0
  9
$DIMTXT
 40
3.2000000000000002
  9
$DIMCEN
 40
0.0
  9
$DIMTSZ
 40
0.0
  9
$DIMTOL
 70
     0
  9
$DIMLIM
 70
     0
  9
$DIMTIH
 70
     0
  9
$DIMTOH
 70
     0
  9
$DIMSE1
 70
     0
  9
$DIMSE2
 70
     0
  9
$DIMTAD
 70
     1
  9
$DIMZIN
 70
     8
  9
$DIMBLK
  1
OPEN30
  9
$DIMASO
 70
     1
  9
$DIMSHO
 70
     1
  9
$DIMPOST
  1

  9
$DIMAPOST
  1

  9
$DIMALT
 70
     0
  9
$DIMALTD
 70
     2
  9
$DIMALTF
 40
25.399999999999999
  9
$DIMLFAC
 40
1.0
  9
$DIMTOFL
 70
     1
  9
$DIMTVP
 40
0.0
  9
$DIMTIX
 70
     0
  9
$DIMSOXD
 70
     0
  9
$DIMSAH
 70
     0
  9
$DIMBLK1
  1

  9
$DIMBLK2
  1

  9
$DIMSTYLE
  2
S10
  9
$DIMCLRD
 70
   256
  9
$DIMCLRE
 70
   256
  9
$DIMCLRT
 70
   256
  9
$DIMTFAC
 40
1.0
  9
$DIMGAP
 40
0.9
  9
$LUNITS
 70
     2
  9
$LUPREC
 70
     2
  9
$SKETCHINC
 40
0.1
  9
$FILLETRAD
 40
0.0
  9
$AUNITS
 70
     0
  9
$AUPREC
 70
     2
  9
$MENU
  1
ACAD
  9
$ELEVATION
 40
0.0
  9
$PELEVATION
 40
0.0
  9
$THICKNESS
 40
0.0
  9
$LIMCHECK
 70
     0
  9
$BLIPMODE
 70
     0
  9
$CHAMFERA
 40
2.0
  9
$CHAMFERB
 40
2.0
  9
$SKPOLY
 70
     0
  9
$TDCREATE
 40
2453095.4929404748
  9
$TDUPDATE
 40
2456573.656972535
  9
$TDINDWG
 40
18.3958102199
  9
$TDUSRTIMER
 40
18.395809675900001
  9
$USRTIMER
 70
     1
  9
$ANGBASE
 50
0.0
  9
$ANGDIR
 70
     0
  9
$PDMODE
 70
    35
  9
$PDSIZE
 40
2.0
  9
$PLINEWID
 40
0.0
  9
$COORDS
 70
     1
  9
$SPLFRAME
 70
     0
  9
$SPLINETYPE
 70
     6
  9
$SPLINESEGS
 70
     8
  9
$ATTDIA
 70
     0
  9
$ATTREQ
 70
     1
  9
$HANDLING
 70
     1
  9
$HANDSEED
  5
12229B
  9
$SURFTAB1
 70
     6
  9
$SURFTAB2
 70
     6
  9
$SURFTYPE
 70
     6
  9
$SURFU
 70
     6
  9
$SURFV
 70
     6
  9
$UCSNAME
  2

  9
$UCSORG
 10
0.0
 20
0.0
 30
0.0
  9
$UCSXDIR
 10
1.0
 20
0.0
 30
0.0
  9
$UCSYDIR
 10
0.0
 20
1.0
 30
0.0
  9
$PUCSNAME
  2

  9
$PUCSORG
 10
0.0
 20
0.0
 30
0.0
  9
$PUCSXDIR
 10
1.0
 20
0.0
 30
0.0
  9
$PUCSYDIR
 10
0.0
 20
1.0
 30
0.0
  9
$USERI1
 70
     0
  9
$USERI2
 70
     0
  9
$USERI3
 70
     0
  9
$USERI4
 70
     0
  9
$USERI5
 70
     0
  9
$USERR1
 40
0.0
  9
$USERR2
 40
0.0
  9
$USERR3
 40
0.0
  9
$USERR4
 40
0.0
  9
$USERR5
 40
0.0
  9
$WORLDVIEW
 70
     1
  9
$SHADEDGE
 70
     3
  9
$SHADEDIF
 70
    70
  9
$TILEMODE
 70
     1
  9
$MAXACTVP
 70
    64
  9
$PLIMCHECK
 70
     0
  9
$PEXTMIN
 10
29.066066288948051
 20
20.366566777229309
 30
0.0
  9
$PEXTMAX
 10
261.5945966005325
 20
183.29910099506381
 30
0.0
  9
$PLIMMIN
 10
-3.17498779296875
 20
-3.1749999523162842
  9
$PLIMMAX
 10
293.83566284179687
 20
206.8406708240509
  9
$UNITMODE
 70
     0
  9
$VISRETAIN
 70
     1
  9
$PLINEGEN
 70
     0
  9
$PSLTSCALE
 70
     1
  0
ENDSEC
  0
SECTION
  2
TABLES
  0
TABLE
  2
VPORT
 70
     1
  0
VPORT
  2
*ACTIVE
 70
     0
 10
0.0
 20
0.0
 11
1.0
 21
1.0
 12
4870.5793744815537
 22
-756.87279194842995
 13
0.0
 23
0.0
 14
1.0
 24
1.0
 15
0.0
 25
0.0
 16
0.0
 26
0.0
 36
1.0
 17
0.0
 27
0.0
 37
0.0
 40
5761.4964767386336
 41
1.6622516556291389
 42
50.0
 43
0.0
 44
0.0
 50
0.0
 51
0.0
 71
     0
 72
   600
 73
     1
 74
     1
 75
     0
 76
     0
 77
     0
 78
     0
  0
ENDTAB
  0
TABLE
  2
LTYPE
 70
     4
  0
LTYPE
  2
CONTINUOUS
 70
     0
  3
Solid line
 72
    65
 73
     0
 40
0.0
  0
LTYPE
  2
PHANTOM2
 70
     0
  3
___ _ _ ___ _ _ ___ _ _ ___ _ _
 72
    65
 73
     6
 40
1.25
 49
0.625
 49
-0.125
 49
0.125
 49
-0.125
 49
0.125
 49
-0.125
  0
LTYPE
  2
ACAD_ISO08W100
 70
     0
  3
ISO long-dash short-dash ____ __ ____ __ ____ _
 72
    65
 73
     4
 40
36.0
 49
24.0
 49
-3.0
 49
6.0
 49
-3.0
  0
LTYPE
  2
ACAD_ISO02W100
 70
     0
  3
ISO dash __ __ __ __ __ __ __ __ __ __ __ __ __
 72
    65
 73
     2
 40
15.0
 49
12.0
 49
-3.0
  0
ENDTAB
  0
TABLE
  2
LAYER
 70
     7
  0
LAYER
  2
0
 70
     0
 62
     7
  6
CONTINUOUS
  0
LAYER
  2
OBJECT
 70
     0
 62
     4
  6
CONTINUOUS
  0
LAYER
  2
DEFPOINTS
 70
     0
 62
     7
  6
CONTINUOUS
  0
LAYER
  2
HIDDEN
 70
     0
 62
     2
  6
ACAD_ISO02W100
  0
LAYER
  2
CENTER
 70
     0
 62
     2
  6
ACAD_ISO08W100
  0
LAYER
  2
DOTS
 70
     0
 62
     1
  6
CONTINUOUS
  0
LAYER
  2
SLIM
 70
     0
 62
     2
  6
CONTINUOUS
  0
ENDTAB
  0
TABLE
  2
STYLE
 70
     2
  0
STYLE
  2
STANDARD
 70
     0
 40
0.0
 41
0.75
 50
0.0
 71
     0
 42
4.0
  3
simplex.shx
  4
bigfont.shx
  0
ENDTAB
  0
TABLE
  2
VIEW
 70
     0
  0
ENDTAB
  0
TABLE
  2
UCS
 70
     0
  0
ENDTAB
  0
TABLE
  2
APPID
 70
    18
  0
APPID
  2
ACAD
 70
     0
  0
APPID
  2
ACADANNOTATIVE
 70
     0
  0
APPID
  2
ACAD_PSEXT
 70
     0
  0
APPID
  2
ACAD_EXEMPT_FROM_CAD_STANDARDS
 70
     0
  0
APPID
  2
ACAECLAYERSTANDARD
 70
     0
  0
APPID
  2
ACAUTHENVIRON
 70
     0
  0
APPID
  2
ACDBDYNAMICBLOCKTRUENAME
 70
     0
  0
APPID
  2
ACDBDYNAMICBLOCKGUID
 70
     0
  0
APPID
  2
ACDBBLOCKREPETAG
 70
     0
  0
APPID
  2
ACDBBLOCKREPBTAG
 70
     0
  0
APPID
  2
ACAD_NAV_VCDISPLAY
 70
     0
  0
APPID
  2
ACAD_DSTYLE_DIMRADIAL_EXTENSION
 70
     0
  0
APPID
  2
ACAD_DSTYLE_DIMJAG
 70
     0
  0
APPID
  2
ACAD_DSTYLE_DIMTALN
 70
     0
  0
APPID
  2
ACADANNOPO
 70
     0
  0
APPID
  2
GRADIENTCOLOR1ACI
 70
     0
  0
APPID
  2
GRADIENTCOLOR2ACI
 70
     0
  0
APPID
  2
ACAD_MLEADERVER
 70
     0
  0
ENDTAB
  0
TABLE
  2
DIMSTYLE
 70
     3
  0
DIMSTYLE
  2
STANDARD
 70
     0
  3

  4

  5

  6

  7

 40
1.0
 41
0.18
 42
0.0625
 43
0.38
 44
0.18
 45
0.0
 46
0.0
 47
0.0
 48
0.0
140
0.18
141
0.09
142
0.0
143
25.399999999999999
144
1.0
145
0.0
146
1.0
147
0.09
 71
     0
 72
     0
 73
     1
 74
     1
 75
     0
 76
     0
 77
     0
 78
     0
170
     0
171
     2
172
     0
173
     0
174
     0
175
     0
176
     0
177
     0
178
     0
  0
DIMSTYLE
  2
S10
 70
     0
  3

  4

  5

  6

  7

 40
10.0
 41
2.0
 42
1.0
 43
10.0
 44
1.0
 45
0.0
 46
0.0
 47
0.0
 48
0.0
140
3.2000000000000002
141
0.0
142
0.0
143
25.399999999999999
144
1.0
145
0.0
146
1.0
147
0.9
 71
     0
 72
     0
 73
     0
 74
     0
 75
     0
 76
     0
 77
     1
 78
     8
170
     0
171
     2
172
     1
173
     0
174
     0
175
     0
176
   256
177
   256
178
   256
  0
ENDTAB
  0
ENDSEC
  0
SECTION
  2
BLOCKS
  0
BLOCK
  8
0
  2
$MODEL_SPACE
 70
     0
 10
0.0
 20
0.0
 30
0.0
  3
$MODEL_SPACE
  1

  0
ENDBLK
  5
1220E0
  8
0
  0
BLOCK
 67
     1
  8
0
  2
$PAPER_SPACE
 70
     0
 10
0.0
 20
0.0
 30
0.0
  3
$PAPER_SPACE
  1

  0
ENDBLK
  5
1220DC
 67
     1
  8
0
  0
BLOCK
  8
0
  2
_OPEN30
 70
     0
 10
0.0
 20
0.0
 30
0.0
  3
_OPEN30
  1

  0
LINE
  5
202
  8
0
  6
BYBLOCK
 62
     0
 10
-1.0
 20
0.26794919
 30
0.0
 11
0.0
 21
0.0
 31
0.0
  0
LINE
  5
203
  8
0
  6
BYBLOCK
 62
     0
 10
0.0
 20
0.0
 30
0.0
 11
-1.0
 21
-0.26794919
 31
0.0
  0
LINE
  5
204
  8
0
  6
BYBLOCK
 62
     0
 10
0.0
 20
0.0
 30
0.0
 11
-1.0
 21
0.0
 31
0.0
  0
ENDBLK
  5
206
  8
0
  0
ENDSEC
  0
SECTION
  2
ENTITIES
  0
LINE
  5
12107E
  8
SLIM
 10
11914.999999999991
 20
-659.47385309434696
 30
0.0
 11
11919.47385309434
 21
-654.99999999999966
 31
0.0
1001
ACAD
1010
0.0
1020
0.0
1030
0.0
1001
ACDBBLOCKREPETAG
1070
     1
1071
        0
1005
0
  0
LINE
  5
12107F
  8
SLIM
 10
11914.999999999991
 20
-677.43436533648446
 30
0.0
 11
11937.434365336479
 21
-654.99999999999966
 31
0.0
1001
ACAD
1010
0.0
1020
0.0
1030
0.0
1001
ACDBBLOCKREPETAG
1070
     1
1071
       10
1005
12107F
  0
LINE
  5
121080
  8
SLIM
 10
11914.999999999991
 20
-695.39487757862241
 30
0.0
 11
11955.39487757861
 21
-654.99999999999966
 31
0.0
1001
ACAD
1010
0.0
1020
0.0
1030
0.0
1001
ACDBBLOCKREPETAG
1070
     1
1071
       11
1005
121080
  0
LINE
  5
121081
  8
SLIM
 10
11914.999999999991
 20
-713.35538982076014
 30
0.0
 11
11973.35538982075
 21
-654.99999999999966
 31
0.0
1001
ACAD
1010
0.0
1020
0.0
1030
0.0
1001
ACDBBLOCKREPETAG
1070
     1
1071
       12
1005
121081
  0
LINE
  5
121082
  8
SLIM
 10
11914.999999999991
 20
-731.31590206289775
 30
0.0
 11
11991.31590206289
 21
-654.99999999999966
 31
0.0
1001
ACAD
1010
0.0
1020
0.0
1030
0.0
1001
ACDBBLOCKREPETAG
1070
     1
1071
       13
1005
121082
  0
LINE
  5
121083
  8
SLIM
 10
11915.0
 20
-749.27641430503525
 30
0.0
 11
12009.27641430503
 21
-654.99999999999966
 31
0.0
1001
ACAD
1010
0.0
1020
0.0
1030
0.0
1001
ACDBBLOCKREPETAG
1070
     1
1071
       14
1005
121083
  0
LINE
  5
121084
  8
SLIM
 10
11915.0
 20
-767.23692654717331
 30
0.0
 11
12027.23692654717
 21
-654.99999999999966
 31
0.0
1001
ACAD
1010
0.0
1020
0.0
1030
0.0
1001
ACDBBLOCKREPETAG
1070
     1
1071
       15
1005
121084
  0
LINE
  5
121085
  8
SLIM
 10
11915.0
 20
-785.19743878931081
 30
0.0
 11
12045.19743878931
 21
-654.99999999999966
 31
0.0
1001
ACAD
1010
0.0
1020
0.0
1030
0.0
1001
ACDBBLOCKREPETAG
1070
     1
1071
       16
1005
121085
  0
LINE
  5
121086
  8
SLIM
 10
11915.0
 20
-803.15795103144865
 30
0.0
 11
12063.15795103144
 21
-654.99999999999966
 31
0.0
1001
ACAD
1010
0.0
1020
0.0
1030
0.0
1001
ACDBBLOCKREPETAG
1070
     1
1071
       17
1005
121086
  0
LINE
  5
121087
  8
SLIM
 10
11915.0
 20
-821.11846327358626
 30
0.0
 11
12081.11846327358
 21
-654.99999999999966
 31
0.0
1001
ACAD
1010
0.0
1020
0.0
1030
0.0
1001
ACDBBLOCKREPETAG
1070
     1
1071
       18
1005
121087
  0
LINE
  5
121088
  8
SLIM
 10
11915.0
 20
-839.07897551572387
 30
0.0
 11
12085.000000000009
 21
-669.07897551571614
 31
0.0
1001
ACAD
1010
0.0
1020
0.0
1030
0.0
1001
ACDBBLOCKREPETAG
1070
     1
1071
       19
1005
121088
  0
LINE
  5
121089
  8
SLIM
 10
11915.0
 20
-857.03948775786182
 30
0.0
 11
12085.0
 21
-687.03948775785511
 31
0.0
1001
ACAD
1010
0.0
1020
0.0
1030
0.0
1001
ACDBBLOCKREPETAG
1070
     1
1071
       20
1005
121089
  0
LINE
  5
12108A
  8
SLIM
 10
11915.28360074955
 20
-874.71639925044155
 30
0.0
 11
12085.0
 21
-704.99999999999409
 31
0.0
1001
ACAD
1010
0.0
1020
0.0
1030
0.0
1001
ACDBBLOCKREPETAG
1070
     1
1071
       21
1005
12108A
  0
LINE
  5
12108B
  8
SLIM
 10
11917.49791047804
 20
-890.46260176409692
 30
0.0
 11
12085.0
 21
-722.96051224213272
 31
0.0
1001
ACAD
1010
0.0
1020
0.0
1030
0.0
1001
ACDBBLOCKREPETAG
1070
     1
1071
       22
1005
12108B
  0
LINE
  5
12108C
  8
SLIM
 10
11919.71222020652
 20
-906.20880427775239
 30
0.0
 11
12085.0
 21
-740.92102448427181
 31
0.0
1001
ACAD
1010
0.0
1020
0.0
1030
0.0
1001
ACDBBLOCKREPETAG
1070
     1
1071
       23
1005
12108C
  0
LINE
  5
12108D
  8
SLIM
 10
11921.926529935001
 20
-921.95500679140764
 30
0.0
 11
12085.0
 21
-758.88153672641045
 31
0.0
1001
ACAD
1010
0.0
1020
0.0
1030
0.0
1001
ACDBBLOCKREPETAG
1070
     1
1071
       24
1005
12108D
  0
LINE
  5
12108E
  8
SLIM
 10
11924.140839663491
 20
-937.701209305063
 30
0.0
 11
12085.0
 21
-776.84204896854953
 31
0.0
1001
ACAD
1010
0.0
1020
0.0
1030
0.0
1001
ACDBBLOCKREPETAG
1070
     1
1071
       25
1005
12108E
  0
LINE
  5
12108F
  8
SLIM
 10
11926.35514939196
 20
-953.44741181871825
 30
0.0
 11
12085.0
 21
-794.80256121068851
 31
0.0
1001
ACAD
1010
0.0
1020
0.0
1030
0.0
1001
ACDBBLOCKREPETAG
1070
     1
1071
       26
1005
12108F
  0
LINE
  5
121090
  8
SLIM
 10
11928.56945912045
 20
-969.19361433237384
 30
0.0
 11
12085.0
 21
-812.76307345282714
 31
0.0
1001
ACAD
1010
0.0
1020
0.0
1030
0.0
1001
ACDBBLOCKREPETAG
1070
     1
1071
       27
1005
121090
  0
LINE
  5
121091
  8
SLIM
 10
11930.78376884894
 20
-984.93981684602909
 30
0.0
 11
12085.0
 21
-830.72358569496612
 31
0.0
1001
ACAD
1010
0.0
1020
0.0
1030
0.0
1001
ACDBBLOCKREPETAG
1070
     1
1071
       28
1005
121091
  0
LINE
  5
121092
  8
SLIM
 10
11932.998078577421
 20
-1000.686019359684
 30
0.0
 11
12085.0
 21
-848.68409793710521
 31
0.0
1001
ACAD
1010
0.0
1020
0.0
1030
0.0
1001
ACDBBLOCKREPETAG
1070
     1
1071
       29
1005
121092
  0
LINE
  5
121093
  8
SLIM
 10
11932.999999999991
 20
-1018.644610179251
 30
0.0
 11
12085.0
 21
-866.64461017924395
 31
0.0
1001
ACAD
1010
0.0
1020
0.0
1030
0.0
1001
ACDBBLOCKREPETAG
1070
     1
1071
       30
1005
121093
  0
LINE
  5
121094
  8
SLIM
 10
11932.999999999991
 20
-1036.60512242139
 30
0.0
 11
12083.05183715436
 21
-886.55328526701646
 31
0.0
1001
ACAD
1010
0.0
1020
0.0
1030
0.0
1001
ACDBBLOCKREPETAG
1070
     1
1071
       31
1005
121094
  0
LINE
  5
121095
  8
SLIM
 10
11942.565634663521
 20
-1044.9999999999959
 30
0.0
 11
12080.112844242019
 21
-907.45279042150355
 31
0.0
1001
ACAD
1010
0.0
1020
0.0
1030
0.0
1001
ACDBBLOCKREPETAG
1070
     1
1071
       32
1005
121095
  0
LINE
  5
121096
  8
SLIM
 10
11960.52614690566
 20
-1044.9999999999959
 30
0.0
 11
12077.17385132967
 21
-928.35229557599109
 31
0.0
1001
ACAD
1010
0.0
1020
0.0
1030
0.0
1001
ACDBBLOCKREPETAG
1070
     1
1071
       33
1005
121096
  0
LINE
  5
121097
  8
SLIM
 10
11978.4866591478
 20
-1044.999999999997
 30
0.0
 11
12074.23485841732
 21
-949.25180073047841
 31
0.0
1001
ACAD
1010
0.0
1020
0.0
1030
0.0
1001
ACDBBLOCKREPETAG
1070
     1
1071
       34
1005
121097
  0
LINE
  5
121098
  8
SLIM
 10
11996.44717138994
 20
-1044.999999999998
 30
0.0
 11
12071.29586550497
 21
-970.15130588496572
 31
0.0
1001
ACAD
1010
0.0
1020
0.0
1030
0.0
1001
ACDBBLOCKREPETAG
1070
     1
1071
       35
1005
121098
  0
LINE
  5
121099
  8
SLIM
 10
12014.40768363208
 20
-1044.999999999998
 30
0.0
 11
12068.35687259262
 21
-991.05081103945292
 31
0.0
1001
ACAD
1010
0.0
1020
0.0
1030
0.0
1001
ACDBBLOCKREPETAG
1070
     1
1071
       36
1005
121099
  0
LINE
  5
12109A
  8
SLIM
 10
12032.368195874211
 20
-1044.9999999999991
 30
0.0
 11
12067.0
 21
-1010.368195874201
 31
0.0
1001
ACAD
1010
0.0
1020
0.0
1030
0.0
1001
ACDBBLOCKREPETAG
1070
     1
1071
       37
1005
12109A
  0
LINE
  5
12109B
  8
SLIM
 10
12050.328708116351
 20
-1044.9999999999991
 30
0.0
 11
12067.0
 21
-1028.3287081163401
 31
0.0
1001
ACAD
1010
0.0
1020
0.0
1030
0.0
1001
ACDBBLOCKREPETAG
1070
     1
1071
       38
1005
12109B
  0
LINE
  5
12109C
  8
OBJECT
 10
11932.999999999991
 20
-1044.9999999999959
 30
0.0
 11
12067.0
 21
-1044.9999999999991
 31
0.0
1001
ACDBBLOCKREPETAG
1070
     1
1071
        1
1005
12109C
  0
LINE
  5
12109D
  8
OBJECT
 10
11914.999999999991
 20
-654.99999999999966
 30
0.0
 11
11915.0
 21
-872.69968280914077
 31
0.0
1001
ACDBBLOCKREPETAG
1070
     1
1071
        2
1005
12109D
  0
LINE
  5
12109E
  8
OBJECT
 10
12085.000000000009
 20
-654.99999999999966
 30
0.0
 11
12085.0
 21
-872.69968280917192
 31
0.0
1001
ACDBBLOCKREPETAG
1070
     1
1071
        3
1005
12109E
  0
LINE
  5
12109F
  8
OBJECT
 10
11915.0
 20
-872.69968280914077
 30
0.0
 11
11932.999999999991
 21
-1000.699682809081
 31
0.0
1001
ACDBBLOCKREPETAG
1070
     1
1071
        4
1005
12109F
  0
LINE
  5
1210A0
  8
OBJECT
 10
12067.0
 20
-1000.699682809128
 30
0.0
 11
12085.0
 21
-872.69968280917192
 31
0.0
1001
ACDBBLOCKREPETAG
1070
     1
1071
        5
1005
1210A0
  0
LINE
  5
1210A1
  8
OBJECT
 10
12085.000000000009
 20
-654.99999999999966
 30
0.0
 11
11914.999999999991
 21
-654.99999999999966
 31
0.0
1001
ACDBBLOCKREPETAG
1070
     1
1071
        6
1005
1210A1
  0
LINE
  5
1210A2
  8
OBJECT
 10
11932.999999999991
 20
-1000.699682809081
 30
0.0
 11
11932.999999999991
 21
-1044.9999999999959
 31
0.0
1001
ACDBBLOCKREPETAG
1070
     1
1071
        8
1005
1210A2
  0
LINE
  5
1210A3
  8
OBJECT
 10
12067.0
 20
-1000.699682809128
 30
0.0
 11
12067.0
 21
-1044.9999999999991
 31
0.0
1001
ACDBBLOCKREPETAG
1070
     1
1071
        9
1005
1210A3
  0
LINE
  5
1210A4
  8
SLIM
 10
9914.9999999999927
 20
-659.47385309434696
 30
0.0
 11
9919.4738530943396
 21
-654.99999999999966
 31
0.0
1001
ACAD
1010
0.0
1020
0.0
1030
0.0
1001
ACDBBLOCKREPETAG
1070
     1
1071
        0
1005
0
  0
LINE
  5
1210A5
  8
SLIM
 10
9914.9999999999927
 20
-677.43436533648446
 30
0.0
 11
9937.4343653364795
 21
-654.99999999999966
 31
0.0
1001
ACAD
1010
0.0
1020
0.0
1030
0.0
1001
ACDBBLOCKREPETAG
1070
     1
1071
       10
1005
1210A5
  0
LINE
  5
1210A6
  8
SLIM
 10
9914.9999999999945
 20
-695.39487757862241
 30
0.0
 11
9955.3948775786212
 21
-654.99999999999966
 31
0.0
1001
ACAD
1010
0.0
1020
0.0
1030
0.0
1001
ACDBBLOCKREPETAG
1070
     1
1071
       11
1005
1210A6
  0
LINE
  5
1210A7
  8
SLIM
 10
9914.9999999999945
 20
-713.35538982076014
 30
0.0
 11
9973.3553898207556
 21
-654.99999999999966
 31
0.0
1001
ACAD
1010
0.0
1020
0.0
1030
0.0
1001
ACDBBLOCKREPETAG
1070
     1
1071
       12
1005
1210A7
  0
LINE
  5
1210A8
  8
SLIM
 10
9914.9999999999945
 20
-731.31590206289775
 30
0.0
 11
9991.3159020628937
 21
-654.99999999999966
 31
0.0
1001
ACAD
1010
0.0
1020
0.0
1030
0.0
1001
ACDBBLOCKREPETAG
1070
     1
1071
       13
1005
1210A8
  0
LINE
  5
1210A9
  8
SLIM
 10
9914.9999999999964
 20
-749.27641430503525
 30
0.0
 11
10009.27641430503
 21
-654.99999999999966
 31
0.0
1001
ACAD
1010
0.0
1020
0.0
1030
0.0
1001
ACDBBLOCKREPETAG
1070
     1
1071
       14
1005
1210A9
  0
LINE
  5
1210AA
  8
SLIM
 10
9914.9999999999964
 20
-767.23692654717331
 30
0.0
 11
10027.23692654717
 21
-654.99999999999966
 31
0.0
1001
ACAD
1010
0.0
1020
0.0
1030
0.0
1001
ACDBBLOCKREPETAG
1070
     1
1071
       15
1005
1210AA
  0
LINE
  5
1210AB
  8
SLIM
 10
9914.9999999999964
 20
-785.19743878931081
 30
0.0
 11
10045.19743878931
 21
-654.99999999999966
 31
0.0
1001
ACAD
1010
0.0
1020
0.0
1030
0.0
1001
ACDBBLOCKREPETAG
1070
     1
1071
       16
1005
1210AB
  0
LINE
  5
1210AC
  8
SLIM
 10
9914.9999999999982
 20
-803.15795103144865
 30
0.0
 11
10063.15795103144
 21
-654.99999999999966
 31
0.0
1001
ACAD
1010
0.0
1020
0.0
1030
0.0
1001
ACDBBLOCKREPETAG
1070
     1
1071
       17
1005
1210AC
  0
LINE
  5
1210AD
  8
SLIM
 10
9914.9999999999982
 20
-821.11846327358626
 30
0.0
 11
10081.11846327358
 21
-654.99999999999966
 31
0.0
1001
ACAD
1010
0.0
1020
0.0
1030
0.0
1001
ACDBBLOCKREPETAG
1070
     1
1071
       18
1005
1210AD
  0
LINE
  5
1210AE
  8
SLIM
 10
9914.9999999999982
 20
-839.07897551572387
 30
0.0
 11
10085.000000000009
 21
-669.07897551571614
 31
0.0
1001
ACAD
1010
0.0
1020
0.0
1030
0.0
1001
ACDBBLOCKREPETAG
1070
     1
1071
       19
1005
1210AE
  0
LINE
  5
1210AF
  8
SLIM
 10
9915.0
 20
-857.03948775786182
 30
0.0
 11
10085.0
 21
-687.03948775785511
 31
0.0
1001
ACAD
1010
0.0
1020
0.0
1030
0.0
1001
ACDBBLOCKREPETAG
1070
     1
1071
       20
1005
1210AF
  0
LINE
  5
1210B0
  8
SLIM
 10
9915.2836007495607
 20
-874.71639925044155
 30
0.0
 11
10085.0
 21
-704.99999999999409
 31
0.0
1001
ACAD
1010
0.0
1020
0.0
1030
0.0
1001
ACDBBLOCKREPETAG
1070
     1
1071
       21
1005
1210B0
  0
LINE
  5
1210B1
  8
SLIM
 10
9917.4979104780396
 20
-890.46260176409692
 30
0.0
 11
10085.0
 21
-722.96051224213272
 31
0.0
1001
ACAD
1010
0.0
1020
0.0
1030
0.0
1001
ACDBBLOCKREPETAG
1070
     1
1071
       22
1005
1210B1
  0
LINE
  5
1210B2
  8
SLIM
 10
9919.7122202065257
 20
-906.20880427775239
 30
0.0
 11
10085.0
 21
-740.92102448427181
 31
0.0
1001
ACAD
1010
0.0
1020
0.0
1030
0.0
1001
ACDBBLOCKREPETAG
1070
     1
1071
       23
1005
1210B2
  0
LINE
  5
1210B3
  8
SLIM
 10
9921.9265299350063
 20
-921.95500679140764
 30
0.0
 11
10085.0
 21
-758.88153672641045
 31
0.0
1001
ACAD
1010
0.0
1020
0.0
1030
0.0
1001
ACDBBLOCKREPETAG
1070
     1
1071
       24
1005
1210B3
  0
LINE
  5
1210B4
  8
SLIM
 10
9924.1408396634924
 20
-937.701209305063
 30
0.0
 11
10085.0
 21
-776.84204896854953
 31
0.0
1001
ACAD
1010
0.0
1020
0.0
1030
0.0
1001
ACDBBLOCKREPETAG
1070
     1
1071
       25
1005
1210B4
  0
LINE
  5
1210B5
  8
SLIM
 10
9926.3551493919731
 20
-953.44741181871825
 30
0.0
 11
10085.0
 21
-794.80256121068851
 31
0.0
1001
ACAD
1010
0.0
1020
0.0
1030
0.0
1001
ACDBBLOCKREPETAG
1070
     1
1071
       26
1005
1210B5
  0
LINE
  5
1210B6
  8
SLIM
 10
9928.5694591204574
 20
-969.19361433237384
 30
0.0
 11
10085.0
 21
-812.76307345282714
 31
0.0
1001
ACAD
1010
0.0
1020
0.0
1030
0.0
1001
ACDBBLOCKREPETAG
1070
     1
1071
       27
1005
1210B6
  0
LINE
  5
1210B7
  8
SLIM
 10
9930.7837688489417
 20
-984.93981684602909
 30
0.0
 11
10085.0
 21
-830.72358569496612
 31
0.0
1001
ACAD
1010
0.0
1020
0.0
1030
0.0
1001
ACDBBLOCKREPETAG
1070
     1
1071
       28
1005
1210B7
  0
LINE
  5
1210B8
  8
SLIM
 10
9932.9980785774187
 20
-1000.686019359684
 30
0.0
 11
10085.0
 21
-848.68409793710521
 31
0.0
1001
ACAD
1010
0.0
1020
0.0
1030
0.0
1001
ACDBBLOCKREPETAG
1070
     1
1071
       29
1005
1210B8
  0
LINE
  5
1210B9
  8
SLIM
 10
9932.9999999999927
 20
-1018.644610179251
 30
0.0
 11
10085.0
 21
-866.64461017924395
 31
0.0
1001
ACAD
1010
0.0
1020
0.0
1030
0.0
1001
ACDBBLOCKREPETAG
1070
     1
1071
       30
1005
1210B9
  0
LINE
  5
1210BA
  8
SLIM
 10
9932.9999999999927
 20
-1036.60512242139
 30
0.0
 11
10083.05183715436
 21
-886.55328526701646
 31
0.0
1001
ACAD
1010
0.0
1020
0.0
1030
0.0
1001
ACDBBLOCKREPETAG
1070
     1
1071
       31
1005
1210BA
  0
LINE
  5
1210BB
  8
SLIM
 10
9942.5656346635242
 20
-1044.9999999999959
 30
0.0
 11
10080.11284424201
 21
-907.45279042150355
 31
0.0
1001
ACAD
1010
0.0
1020
0.0
1030
0.0
1001
ACDBBLOCKREPETAG
1070
     1
1071
       32
1005
1210BB
  0
LINE
  5
1210BC
  8
SLIM
 10
9960.5261469056641
 20
-1044.9999999999959
 30
0.0
 11
10077.17385132967
 21
-928.35229557599109
 31
0.0
1001
ACAD
1010
0.0
1020
0.0
1030
0.0
1001
ACDBBLOCKREPETAG
1070
     1
1071
       33
1005
1210BC
  0
LINE
  5
1210BD
  8
SLIM
 10
9978.4866591478003
 20
-1044.999999999997
 30
0.0
 11
10074.23485841732
 21
-949.25180073047841
 31
0.0
1001
ACAD
1010
0.0
1020
0.0
1030
0.0
1001
ACDBBLOCKREPETAG
1070
     1
1071
       34
1005
1210BD
  0
LINE
  5
1210BE
  8
SLIM
 10
9996.4471713899384
 20
-1044.999999999998
 30
0.0
 11
10071.29586550497
 21
-970.15130588496572
 31
0.0
1001
ACAD
1010
0.0
1020
0.0
1030
0.0
1001
ACDBBLOCKREPETAG
1070
     1
1071
       35
1005
1210BE
  0
LINE
  5
1210BF
  8
SLIM
 10
10014.40768363206
 20
-1044.999999999998
 30
0.0
 11
10068.35687259262
 21
-991.05081103945292
 31
0.0
1001
ACAD
1010
0.0
1020
0.0
1030
0.0
1001
ACDBBLOCKREPETAG
1070
     1
1071
       36
1005
1210BF
  0
LINE
  5
1210C0
  8
SLIM
 10
10032.368195874211
 20
-1044.9999999999991
 30
0.0
 11
10067.000000000009
 21
-1010.368195874201
 31
0.0
1001
ACAD
1010
0.0
1020
0.0
1030
0.0
1001
ACDBBLOCKREPETAG
1070
     1
1071
       37
1005
1210C0
  0
LINE
  5
1210C1
  8
SLIM
 10
10050.328708116351
 20
-1044.9999999999991
 30
0.0
 11
10067.000000000009
 21
-1028.3287081163401
 31
0.0
1001
ACAD
1010
0.0
1020
0.0
1030
0.0
1001
ACDBBLOCKREPETAG
1070
     1
1071
       38
1005
1210C1
  0
LINE
  5
1210C2
  8
OBJECT
 10
9932.9999999999927
 20
-1044.9999999999959
 30
0.0
 11
10067.000000000009
 21
-1044.9999999999991
 31
0.0
1001
ACDBBLOCKREPETAG
1070
     1
1071
        1
1005
1210C2
  0
LINE
  5
1210C3
  8
OBJECT
 10
9914.9999999999927
 20
-654.99999999999966
 30
0.0
 11
9915.0
 21
-872.69968280914077
 31
0.0
1001
ACDBBLOCKREPETAG
1070
     1
1071
        2
1005
1210C3
  0
LINE
  5
1210C4
  8
OBJECT
 10
10085.000000000009
 20
-654.99999999999966
 30
0.0
 11
10085.0
 21
-872.69968280917192
 31
0.0
1001
ACDBBLOCKREPETAG
1070
     1
1071
        3
1005
1210C4
  0
LINE
  5
1210C5
  8
OBJECT
 10
9915.0
 20
-872.69968280914077
 30
0.0
 11
9932.9999999999927
 21
-1000.699682809081
 31
0.0
1001
ACDBBLOCKREPETAG
1070
     1
1071
        4
1005
1210C5
  0
LINE
  5
1210C6
  8
OBJECT
 10
10067.000000000009
 20
-1000.699682809128
 30
0.0
 11
10085.0
 21
-872.69968280917192
 31
0.0
1001
ACDBBLOCKREPETAG
1070
     1
1071
        5
1005
1210C6
  0
LINE
  5
1210C7
  8
OBJECT
 10
10085.000000000009
 20
-654.99999999999966
 30
0.0
 11
9914.9999999999927
 21
-654.99999999999966
 31
0.0
1001
ACDBBLOCKREPETAG
1070
     1
1071
        6
1005
1210C7
  0
LINE
  5
1210C8
  8
OBJECT
 10
9932.9999999999927
 20
-1000.699682809081
 30
0.0
 11
9932.9999999999927
 21
-1044.9999999999959
 31
0.0
1001
ACDBBLOCKREPETAG
1070
     1
1071
        8
1005
1210C8
  0
LINE
  5
1210C9
  8
OBJECT
 10
10067.000000000009
 20
-1000.699682809128
 30
0.0
 11
10067.000000000009
 21
-1044.9999999999991
 31
0.0
1001
ACDBBLOCKREPETAG
1070
     1
1071
        9
1005
1210C9
  0
LINE
  5
1210CA
  8
SLIM
 10
7914.9999999999918
 20
-659.47385309434696
 30
0.0
 11
7919.4738530943414
 21
-654.99999999999966
 31
0.0
1001
ACAD
1010
0.0
1020
0.0
1030
0.0
1001
ACDBBLOCKREPETAG
1070
     1
1071
        0
1005
0
  0
LINE
  5
1210CB
  8
SLIM
 10
7914.9999999999918
 20
-677.43436533648446
 30
0.0
 11
7937.4343653364776
 21
-654.99999999999966
 31
0.0
1001
ACAD
1010
0.0
1020
0.0
1030
0.0
1001
ACDBBLOCKREPETAG
1070
     1
1071
       11
1005
1210CB
  0
LINE
  5
1210CC
  8
SLIM
 10
7914.9999999999918
 20
-695.39487757862241
 30
0.0
 11
7955.3948775786157
 21
-654.99999999999966
 31
0.0
1001
ACAD
1010
0.0
1020
0.0
1030
0.0
1001
ACDBBLOCKREPETAG
1070
     1
1071
       12
1005
1210CC
  0
LINE
  5
1210CD
  8
SLIM
 10
7914.9999999999964
 20
-713.35538982076014
 30
0.0
 11
7973.3553898207538
 21
-654.99999999999966
 31
0.0
1001
ACAD
1010
0.0
1020
0.0
1030
0.0
1001
ACDBBLOCKREPETAG
1070
     1
1071
       13
1005
1210CD
  0
LINE
  5
1210CE
  8
SLIM
 10
7914.9999999999982
 20
-731.31590206289775
 30
0.0
 11
7991.3159020628918
 21
-654.99999999999966
 31
0.0
1001
ACAD
1010
0.0
1020
0.0
1030
0.0
1001
ACDBBLOCKREPETAG
1070
     1
1071
       14
1005
1210CE
  0
LINE
  5
1210CF
  8
SLIM
 10
7914.9999999999982
 20
-749.27641430503525
 30
0.0
 11
8009.2764143050308
 21
-654.99999999999966
 31
0.0
1001
ACAD
1010
0.0
1020
0.0
1030
0.0
1001
ACDBBLOCKREPETAG
1070
     1
1071
       15
1005
1210CF
  0
LINE
  5
1210D0
  8
SLIM
 10
7914.9999999999982
 20
-767.23692654717331
 30
0.0
 11
8027.2369265471707
 21
-654.99999999999966
 31
0.0
1001
ACAD
1010
0.0
1020
0.0
1030
0.0
1001
ACDBBLOCKREPETAG
1070
     1
1071
       16
1005
1210D0
  0
LINE
  5
1210D1
  8
SLIM
 10
7914.9999999999982
 20
-785.19743878931081
 30
0.0
 11
8045.1974387893079
 21
-654.99999999999966
 31
0.0
1001
ACAD
1010
0.0
1020
0.0
1030
0.0
1001
ACDBBLOCKREPETAG
1070
     1
1071
       17
1005
1210D1
  0
LINE
  5
1210D2
  8
SLIM
 10
7914.9999999999982
 20
-803.15795103144865
 30
0.0
 11
8063.1579510314468
 21
-654.99999999999966
 31
0.0
1001
ACAD
1010
0.0
1020
0.0
1030
0.0
1001
ACDBBLOCKREPETAG
1070
     1
1071
       18
1005
1210D2
  0
LINE
  5
1210D3
  8
SLIM
 10
7914.9999999999982
 20
-821.11846327358626
 30
0.0
 11
8081.118463273584
 21
-654.99999999999966
 31
0.0
1001
ACAD
1010
0.0
1020
0.0
1030
0.0
1001
ACDBBLOCKREPETAG
1070
     1
1071
       19
1005
1210D3
  0
LINE
  5
1210D4
  8
SLIM
 10
7914.9999999999982
 20
-839.07897551572387
 30
0.0
 11
8085.0000000000064
 21
-669.07897551571614
 31
0.0
1001
ACAD
1010
0.0
1020
0.0
1030
0.0
1001
ACDBBLOCKREPETAG
1070
     1
1071
       20
1005
1210D4
  0
LINE
  5
1210D5
  8
SLIM
 10
7914.9999999999982
 20
-857.03948775786182
 30
0.0
 11
8085.0000000000064
 21
-687.039487757855
 31
0.0
1001
ACAD
1010
0.0
1020
0.0
1030
0.0
1001
ACDBBLOCKREPETAG
1070
     1
1071
       21
1005
1210D5
  0
LINE
  5
1210D6
  8
SLIM
 10
7915.283600749558
 20
-874.71639925044155
 30
0.0
 11
8085.0000000000064
 21
-704.99999999999409
 31
0.0
1001
ACAD
1010
0.0
1020
0.0
1030
0.0
1001
ACDBBLOCKREPETAG
1070
     1
1071
       22
1005
1210D6
  0
LINE
  5
1210D7
  8
SLIM
 10
7917.4979104780423
 20
-890.46260176409692
 30
0.0
 11
8085.0000000000064
 21
-722.96051224213272
 31
0.0
1001
ACAD
1010
0.0
1020
0.0
1030
0.0
1001
ACDBBLOCKREPETAG
1070
     1
1071
       23
1005
1210D7
  0
LINE
  5
1210D8
  8
SLIM
 10
7919.7122202065239
 20
-906.20880427775205
 30
0.0
 11
8085.0000000000064
 21
-740.92102448427181
 31
0.0
1001
ACAD
1010
0.0
1020
0.0
1030
0.0
1001
ACDBBLOCKREPETAG
1070
     1
1071
       24
1005
1210D8
  0
LINE
  5
1210D9
  8
SLIM
 10
7921.9265299350072
 20
-921.95500679140719
 30
0.0
 11
8085.0000000000018
 21
-758.88153672641045
 31
0.0
1001
ACAD
1010
0.0
1020
0.0
1030
0.0
1001
ACDBBLOCKREPETAG
1070
     1
1071
       25
1005
1210D9
  0
LINE
  5
1210DA
  8
SLIM
 10
7924.1408396634897
 20
-937.70120930506255
 30
0.0
 11
8085.0000000000018
 21
-776.84204896854953
 31
0.0
1001
ACAD
1010
0.0
1020
0.0
1030
0.0
1001
ACDBBLOCKREPETAG
1070
     1
1071
       26
1005
1210DA
  0
LINE
  5
1210DB
  8
SLIM
 10
7926.3551493919731
 20
-953.4474118187178
 30
0.0
 11
8085.0000000000018
 21
-794.80256121068851
 31
0.0
1001
ACAD
1010
0.0
1020
0.0
1030
0.0
1001
ACDBBLOCKREPETAG
1070
     1
1071
       27
1005
1210DB
  0
LINE
  5
1210DC
  8
SLIM
 10
7928.5694591204538
 20
-969.19361433237304
 30
0.0
 11
8085.0000000000018
 21
-812.76307345282714
 31
0.0
1001
ACAD
1010
0.0
1020
0.0
1030
0.0
1001
ACDBBLOCKREPETAG
1070
     1
1071
       28
1005
1210DC
  0
LINE
  5
1210DD
  8
SLIM
 10
7930.783768848939
 20
-984.93981684602841
 30
0.0
 11
8085.0000000000018
 21
-830.72358569496612
 31
0.0
1001
ACAD
1010
0.0
1020
0.0
1030
0.0
1001
ACDBBLOCKREPETAG
1070
     1
1071
       29
1005
1210DD
  0
LINE
  5
1210DE
  8
SLIM
 10
7932.9980785774214
 20
-1000.686019359684
 30
0.0
 11
8085.0
 21
-848.68409793710521
 31
0.0
1001
ACAD
1010
0.0
1020
0.0
1030
0.0
1001
ACDBBLOCKREPETAG
1070
     1
1071
       30
1005
1210DE
  0
LINE
  5
1210DF
  8
SLIM
 10
7943.0
 20
-1008.644610179244
 30
0.0
 11
7946.6446101792453
 21
-1004.999999999998
 31
0.0
1001
ACAD
1010
0.0
1020
0.0
1030
0.0
1001
ACDBBLOCKREPETAG
1070
     1
1071
       31
1005
1210DF
  0
LINE
  5
1210E0
  8
SLIM
 10
7946.6446101792453
 20
-1004.999999999998
 30
0.0
 11
8085.0
 21
-866.64461017924395
 31
0.0
1001
ACAD
1010
0.0
1020
0.0
1030
0.0
1001
ACDBBLOCKREPETAG
1070
     1
1071
       32
1005
1210E0
  0
LINE
  5
1210E1
  8
SLIM
 10
7944.6051224213861
 20
-1024.999999999997
 30
0.0
 11
7964.6051224213852
 21
-1004.999999999998
 31
0.0
1001
ACAD
1010
0.0
1020
0.0
1030
0.0
1001
ACDBBLOCKREPETAG
1070
     1
1071
       33
1005
1210E1
  0
LINE
  5
1210E2
  8
SLIM
 10
7964.6051224213852
 20
-1004.999999999998
 30
0.0
 11
8083.051837154364
 21
-886.55328526701703
 31
0.0
1001
ACAD
1010
0.0
1020
0.0
1030
0.0
1001
ACDBBLOCKREPETAG
1070
     1
1071
       34
1005
1210E2
  0
LINE
  5
1210E3
  8
SLIM
 10
7962.5656346635242
 20
-1024.999999999997
 30
0.0
 11
7982.5656346635215
 21
-1004.999999999998
 31
0.0
1001
ACAD
1010
0.0
1020
0.0
1030
0.0
1001
ACDBBLOCKREPETAG
1070
     1
1071
       35
1005
1210E3
  0
LINE
  5
1210E4
  8
SLIM
 10
7982.5656346635215
 20
-1004.999999999998
 30
0.0
 11
8080.1128442420159
 21
-907.45279042150526
 31
0.0
1001
ACAD
1010
0.0
1020
0.0
1030
0.0
1001
ACDBBLOCKREPETAG
1070
     1
1071
       36
1005
1210E4
  0
LINE
  5
1210E5
  8
SLIM
 10
7980.5261469056622
 20
-1024.999999999997
 30
0.0
 11
8000.5261469056613
 21
-1004.999999999998
 31
0.0
1001
ACAD
1010
0.0
1020
0.0
1030
0.0
1001
ACDBBLOCKREPETAG
1070
     1
1071
       37
1005
1210E5
  0
LINE
  5
1210E6
  8
SLIM
 10
8000.5261469056613
 20
-1004.999999999998
 30
0.0
 11
8077.1738513296659
 21
-928.35229557599314
 31
0.0
1001
ACAD
1010
0.0
1020
0.0
1030
0.0
1001
ACDBBLOCKREPETAG
1070
     1
1071
       38
1005
1210E6
  0
LINE
  5
1210E7
  8
SLIM
 10
7998.4866591478003
 20
-1024.999999999997
 30
0.0
 11
8018.4866591478003
 21
-1004.999999999998
 31
0.0
1001
ACAD
1010
0.0
1020
0.0
1030
0.0
1001
ACDBBLOCKREPETAG
1070
     1
1071
       39
1005
1210E7
  0
LINE
  5
1210E8
  8
SLIM
 10
8018.4866591478003
 20
-1004.999999999998
 30
0.0
 11
8074.234858417316
 21
-949.25180073048125
 31
0.0
1001
ACAD
1010
0.0
1020
0.0
1030
0.0
1001
ACDBBLOCKREPETAG
1070
     1
1071
       40
1005
1210E8
  0
LINE
  5
1210E9
  8
SLIM
 10
8016.4471713899393
 20
-1024.999999999997
 30
0.0
 11
8036.4471713899393
 21
-1004.999999999998
 31
0.0
1001
ACAD
1010
0.0
1020
0.0
1030
0.0
1001
ACDBBLOCKREPETAG
1070
     1
1071
       41
1005
1210E9
  0
LINE
  5
1210EA
  8
SLIM
 10
8036.4471713899393
 20
-1004.999999999998
 30
0.0
 11
8071.2958655049679
 21
-970.15130588496913
 31
0.0
1001
ACAD
1010
0.0
1020
0.0
1030
0.0
1001
ACDBBLOCKREPETAG
1070
     1
1071
       42
1005
1210EA
  0
LINE
  5
1210EB
  8
SLIM
 10
8034.4076836320774
 20
-1024.999999999997
 30
0.0
 11
8054.4076836320764
 21
-1004.999999999998
 31
0.0
1001
ACAD
1010
0.0
1020
0.0
1030
0.0
1001
ACDBBLOCKREPETAG
1070
     1
1071
       43
1005
1210EB
  0
LINE
  5
1210EC
  8
SLIM
 10
8054.4076836320764
 20
-1004.999999999998
 30
0.0
 11
8068.3568725926198
 21
-991.05081103945713
 31
0.0
1001
ACAD
1010
0.0
1020
0.0
1030
0.0
1001
ACDBBLOCKREPETAG
1070
     1
1071
       44
1005
1210EC
  0
LINE
  5
1210ED
  8
SLIM
 10
8052.3681958742136
 20
-1024.999999999997
 30
0.0
 11
8057.0
 21
-1020.368195874212
 31
0.0
1001
ACAD
1010
0.0
1020
0.0
1030
0.0
1001
ACDBBLOCKREPETAG
1070
     1
1071
       45
1005
1210ED
  0
LINE
  5
1210EE
  8
OBJECT
 10
7943.0
 20
-1024.999999999997
 30
0.0
 11
8057.0
 21
-1024.999999999997
 31
0.0
1001
ACDBBLOCKREPETAG
1070
     1
1071
        1
1005
1210EE
  0
LINE
  5
1210EF
  8
OBJECT
 10
7933.6047321049664
 20
-1004.999999999998
 30
0.0
 11
8066.3952678950427
 21
-1004.999999999998
 31
0.0
1001
ACDBBLOCKREPETAG
1070
     1
1071
        2
1005
1210EF
  0
LINE
  5
1210F0
  8
OBJECT
 10
7943.0
 20
-1024.999999999997
 30
0.0
 11
7943.0
 21
-1004.999999999998
 31
0.0
1001
ACDBBLOCKREPETAG
1070
     1
1071
        3
1005
1210F0
  0
LINE
  5
1210F1
  8
OBJECT
 10
8057.0
 20
-1024.999999999997
 30
0.0
 11
8057.0
 21
-1004.999999999998
 31
0.0
1001
ACDBBLOCKREPETAG
1070
     1
1071
        4
1005
1210F1
  0
LINE
  5
1210F2
  8
OBJECT
 10
7914.9999999999918
 20
-654.99999999999966
 30
0.0
 11
7915.0
 21
-872.69968280914077
 31
0.0
1001
ACDBBLOCKREPETAG
1070
     1
1071
        5
1005
1210F2
  0
LINE
  5
1210F3
  8
OBJECT
 10
8085.0000000000064
 20
-654.99999999999966
 30
0.0
 11
8085.0
 21
-872.69968280917192
 31
0.0
1001
ACDBBLOCKREPETAG
1070
     1
1071
        6
1005
1210F3
  0
LINE
  5
1210F4
  8
OBJECT
 10
7915.0
 20
-872.69968280914077
 30
0.0
 11
7933.6047321049664
 21
-1004.999999999998
 31
0.0
1001
ACDBBLOCKREPETAG
1070
     1
1071
        7
1005
1210F4
  0
LINE
  5
1210F5
  8
OBJECT
 10
8066.3952678950427
 20
-1004.999999999998
 30
0.0
 11
8085.0
 21
-872.69968280917192
 31
0.0
1001
ACDBBLOCKREPETAG
1070
     1
1071
        8
1005
1210F5
  0
LINE
  5
1210F6
  8
OBJECT
 10
8085.0000000000064
 20
-654.99999999999966
 30
0.0
 11
7914.9999999999918
 21
-654.99999999999966
 31
0.0
1001
ACDBBLOCKREPETAG
1070
     1
1071
        9
1005
1210F6
  0
ARC
  5
1210F7
  8
OBJECT
 10
12000.0
 20
-199.99999999999909
 30
0.0
 40
50.0
 50
298.81994300000417
 51
228.52376955964741
1001
ACDBBLOCKREPETAG
1070
     1
1071
      185
1005
1210F7
  0
LINE
  5
1210F8
  8
SLIM
 10
11927.30183005652
 20
-155.95484036957691
 30
0.0
 11
11955.954840369581
 21
-127.30183005652231
 31
0.0
1001
GRADIENTCOLOR1ACI
1070
     5
1001
GRADIENTCOLOR2ACI
1070
     2
1001
ACAD
1010
0.0
1020
0.0
1030
0.0
1001
ACDBBLOCKREPETAG
1070
     1
1071
      442
1005
1210F8
  0
LINE
  5
1210F9
  8
SLIM
 10
11919.48615207084
 20
-172.75077447633191
 30
0.0
 11
11938.29030895727
 21
-153.94661758989659
 31
0.0
1001
GRADIENTCOLOR1ACI
1070
     5
1001
GRADIENTCOLOR2ACI
1070
     2
1001
ACAD
1010
0.0
1020
0.0
1030
0.0
1001
ACDBBLOCKREPETAG
1070
     1
1071
      443
1005
1210F9
  0
LINE
  5
1210FA
  8
SLIM
 10
11953.9466175899
 20
-138.29030895727169
 30
0.0
 11
11972.75077447633
 21
-119.4861520708364
 31
0.0
1001
GRADIENTCOLOR1ACI
1070
     5
1001
GRADIENTCOLOR2ACI
1070
     2
1001
ACAD
1010
0.0
1020
0.0
1030
0.0
1001
ACDBBLOCKREPETAG
1070
     1
1071
      444
1005
1210FA
  0
LINE
  5
1210FB
  8
SLIM
 10
11916.35966799338
 20
-184.8575146748604
 30
0.0
 11
11927.69595835578
 21
-173.5212243124561
 31
0.0
1001
GRADIENTCOLOR1ACI
1070
     5
1001
GRADIENTCOLOR2ACI
1070
     2
1001
ACAD
1010
0.0
1020
0.0
1030
0.0
1001
ACDBBLOCKREPETAG
1070
     1
1071
      445
1005
1210FB
  0
LINE
  5
1210FC
  8
SLIM
 10
11973.521224312461
 20
-127.6959583557812
 30
0.0
 11
11984.857514674861
 21
-116.359667993377
 31
0.0
1001
GRADIENTCOLOR1ACI
1070
     5
1001
GRADIENTCOLOR2ACI
1070
     2
1001
ACAD
1010
0.0
1020
0.0
1030
0.0
1001
ACDBBLOCKREPETAG
1070
     1
1071
      446
1005
1210FC
  0
LINE
  5
1210FD
  8
SLIM
 10
11915.14405758905
 20
-195.0533812002549
 30
0.0
 11
11924.30302164318
 21
-185.89441714612491
 31
0.0
1001
GRADIENTCOLOR1ACI
1070
     5
1001
GRADIENTCOLOR2ACI
1070
     2
1001
ACAD
1010
0.0
1020
0.0
1030
0.0
1001
ACDBBLOCKREPETAG
1070
     1
1071
      447
1005
1210FD
  0
LINE
  5
1210FE
  8
SLIM
 10
11985.894417146121
 20
-124.30302164318159
 30
0.0
 11
11995.05338120025
 21
-115.1440575890517
 31
0.0
1001
GRADIENTCOLOR1ACI
1070
     5
1001
GRADIENTCOLOR2ACI
1070
     2
1001
ACAD
1010
0.0
1020
0.0
1030
0.0
1001
ACDBBLOCKREPETAG
1070
     1
1071
      448
1005
1210FE
  0
LINE
  5
1210FF
  8
SLIM
 10
11915.097963557469
 20
-204.07973135290339
 30
0.0
 11
11919.17769491037
 21
-199.99999999999909
 31
0.0
1001
GRADIENTCOLOR1ACI
1070
     5
1001
GRADIENTCOLOR2ACI
1070
     2
1001
ACAD
1010
0.0
1020
0.0
1030
0.0
1001
ACDBBLOCKREPETAG
1070
     1
1071
      449
1005
1210FF
  0
LINE
  5
121100
  8
SLIM
 10
12000.0
 20
-119.1776949103767
 30
0.0
 11
12004.0797313529
 21
-115.0979635574724
 31
0.0
1001
GRADIENTCOLOR1ACI
1070
     5
1001
GRADIENTCOLOR2ACI
1070
     2
1001
ACAD
1010
0.0
1020
0.0
1030
0.0
1001
ACDBBLOCKREPETAG
1070
     1
1071
      450
1005
121100
  0
LINE
  5
121101
  8
SLIM
 10
11919.17769491037
 20
-199.99999999999909
 30
0.0
 11
11923.09996216117
 21
-196.07773274920581
 31
0.0
1001
GRADIENTCOLOR1ACI
1070
     5
1001
GRADIENTCOLOR2ACI
1070
     2
1001
ACAD
1010
0.0
1020
0.0
1030
0.0
1001
ACDBBLOCKREPETAG
1070
     1
1071
      451
1005
121101
  0
LINE
  5
121102
  8
SLIM
 10
11996.077732749211
 20
-123.0999621611699
 30
0.0
 11
12000.0
 21
-119.1776949103767
 31
0.0
1001
GRADIENTCOLOR1ACI
1070
     5
1001
GRADIENTCOLOR2ACI
1070
     2
1001
ACAD
1010
0.0
1020
0.0
1030
0.0
1001
ACDBBLOCKREPETAG
1070
     1
1071
      452
1005
121102
  0
LINE
  5
121103
  8
SLIM
 10
11915.889972620869
 20
-212.26797841057399
 30
0.0
 11
11923.16223077717
 21
-204.9957202542767
 31
0.0
1001
GRADIENTCOLOR1ACI
1070
     5
1001
GRADIENTCOLOR2ACI
1070
     2
1001
ACAD
1010
0.0
1020
0.0
1030
0.0
1001
ACDBBLOCKREPETAG
1070
     1
1071
      453
1005
121103
  0
LINE
  5
121104
  8
SLIM
 10
12004.995720254279
 20
-123.1622307771683
 30
0.0
 11
12012.267978410569
 21
-115.88997262087101
 31
0.0
1001
GRADIENTCOLOR1ACI
1070
     5
1001
GRADIENTCOLOR2ACI
1070
     2
1001
ACAD
1010
0.0
1020
0.0
1030
0.0
1001
ACDBBLOCKREPETAG
1070
     1
1071
      454
1005
121104
  0
LINE
  5
121105
  8
SLIM
 10
11917.338265695151
 20
-219.79994145736151
 30
0.0
 11
11924.11014778555
 21
-213.02805936696359
 31
0.0
1001
GRADIENTCOLOR1ACI
1070
     5
1001
GRADIENTCOLOR2ACI
1070
     2
1001
ACAD
1010
0.0
1020
0.0
1030
0.0
1001
ACDBBLOCKREPETAG
1070
     1
1071
      455
1005
121105
  0
LINE
  5
121106
  8
SLIM
 10
12013.028059366959
 20
-124.1101477855505
 30
0.0
 11
12019.799941457361
 21
-117.3382656951526
 31
0.0
1001
GRADIENTCOLOR1ACI
1070
     5
1001
GRADIENTCOLOR2ACI
1070
     2
1001
ACAD
1010
0.0
1020
0.0
1030
0.0
1001
ACDBBLOCKREPETAG
1070
     1
1071
      456
1005
121106
  0
LINE
  5
121107
  8
SLIM
 10
11919.331259406301
 20
-226.78720386727881
 30
0.0
 11
11925.744381959341
 21
-220.3740813142449
 31
0.0
1001
GRADIENTCOLOR1ACI
1070
     5
1001
GRADIENTCOLOR2ACI
1070
     2
1001
ACAD
1010
0.0
1020
0.0
1030
0.0
1001
ACDBBLOCKREPETAG
1070
     1
1071
      457
1005
121107
  0
LINE
  5
121108
  8
SLIM
 10
12020.374081314239
 20
-125.7443819593384
 30
0.0
 11
12026.787203867279
 21
-119.3312594063044
 31
0.0
1001
GRADIENTCOLOR1ACI
1070
     5
1001
GRADIENTCOLOR2ACI
1070
     2
1001
ACAD
1010
0.0
1020
0.0
1030
0.0
1001
ACDBBLOCKREPETAG
1070
     1
1071
      458
1005
121108
  0
LINE
  5
121109
  8
SLIM
 10
11921.79571631862
 20
-233.30300307603289
 30
0.0
 11
11927.946247395779
 21
-227.1524719988744
 31
0.0
1001
GRADIENTCOLOR1ACI
1070
     5
1001
GRADIENTCOLOR2ACI
1070
     2
1001
ACAD
1010
0.0
1020
0.0
1030
0.0
1001
ACDBBLOCKREPETAG
1070
     1
1071
      459
1005
121109
  0
LINE
  5
12110A
  8
SLIM
 10
12027.15247199887
 20
-127.946247395778
 30
0.0
 11
12033.303003076029
 21
-121.7957163186195
 31
0.0
1001
GRADIENTCOLOR1ACI
1070
     5
1001
GRADIENTCOLOR2ACI
1070
     2
1001
ACAD
1010
0.0
1020
0.0
1030
0.0
1001
ACDBBLOCKREPETAG
1070
     1
1071
      460
1005
12110A
  0
LINE
  5
12110B
  8
SLIM
 10
11924.681663531341
 20
-239.39731198437769
 30
0.0
 11
11930.63987686439
 21
-233.4390986513296
 31
0.0
1001
GRADIENTCOLOR1ACI
1070
     5
1001
GRADIENTCOLOR2ACI
1070
     2
1001
ACAD
1010
0.0
1020
0.0
1030
0.0
1001
ACDBBLOCKREPETAG
1070
     1
1071
      461
1005
12110B
  0
LINE
  5
12110C
  8
SLIM
 10
12033.43909865133
 20
-130.63987686439199
 30
0.0
 11
12039.397311984379
 21
-124.6816635313439
 31
0.0
1001
GRADIENTCOLOR1ACI
1070
     5
1001
GRADIENTCOLOR2ACI
1070
     2
1001
ACAD
1010
0.0
1020
0.0
1030
0.0
1001
ACDBBLOCKREPETAG
1070
     1
1071
      462
1005
12110C
  0
LINE
  5
12110D
  8
SLIM
 10
11927.954461102419
 20
-245.10477053436691
 30
0.0
 11
11933.77500701499
 21
-239.28422462179751
 31
0.0
1001
GRADIENTCOLOR1ACI
1070
     5
1001
GRADIENTCOLOR2ACI
1070
     2
1001
ACAD
1010
0.0
1020
0.0
1030
0.0
1001
ACDBBLOCKREPETAG
1070
     1
1071
      463
1005
12110D
  0
LINE
  5
12110E
  8
SLIM
 10
12039.284224621801
 20
-133.77500701499321
 30
0.0
 11
12045.10477053437
 21
-127.95446110242381
 31
0.0
1001
GRADIENTCOLOR1ACI
1070
     5
1001
GRADIENTCOLOR2ACI
1070
     2
1001
ACAD
1010
0.0
1020
0.0
1030
0.0
1001
ACDBBLOCKREPETAG
1070
     1
1071
      464
1005
12110E
  0
LINE
  5
12110F
  8
SLIM
 10
11931.59033196866
 20
-250.4491557891954
 30
0.0
 11
11937.31820758806
 21
-244.72128016980341
 31
0.0
1001
GRADIENTCOLOR1ACI
1070
     5
1001
GRADIENTCOLOR2ACI
1070
     2
1001
ACAD
1010
0.0
1020
0.0
1030
0.0
1001
ACDBBLOCKREPETAG
1070
     1
1071
      465
1005
12110F
  0
LINE
  5
121110
  8
SLIM
 10
12044.721280169801
 20
-137.31820758805651
 30
0.0
 11
12050.449155789191
 21
-131.59033196866449
 31
0.0
1001
GRADIENTCOLOR1ACI
1070
     5
1001
GRADIENTCOLOR2ACI
1070
     2
1001
ACAD
1010
0.0
1020
0.0
1030
0.0
1001
ACDBBLOCKREPETAG
1070
     1
1071
      466
1005
121110
  0
LINE
  5
121111
  8
SLIM
 10
11935.573749692519
 20
-255.4459941864034
 30
0.0
 11
11941.24811054159
 21
-249.77163333734029
 31
0.0
1001
GRADIENTCOLOR1ACI
1070
     5
1001
GRADIENTCOLOR2ACI
1070
     2
1001
ACAD
1010
0.0
1020
0.0
1030
0.0
1001
ACDBBLOCKREPETAG
1070
     1
1071
      467
1005
121111
  0
LINE
  5
121112
  8
SLIM
 10
12053.01974387892
 20
-137.99999999999909
 30
0.0
 11
12055.445994186401
 21
-135.57374969252561
 31
0.0
1001
GRADIENTCOLOR1ACI
1070
     5
1001
GRADIENTCOLOR2ACI
1070
     2
1001
ACAD
1010
0.0
1020
0.0
1030
0.0
1001
ACDBBLOCKREPETAG
1070
     1
1071
      468
1005
121112
  0
LINE
  5
121113
  8
SLIM
 10
11939.895923599141
 20
-260.10407640085572
 30
0.0
 11
11945.55277784863
 21
-254.44722215136329
 31
0.0
1001
GRADIENTCOLOR1ACI
1070
     5
1001
GRADIENTCOLOR2ACI
1070
     2
1001
ACAD
1010
0.0
1020
0.0
1030
0.0
1001
ACDBBLOCKREPETAG
1070
     1
1071
      469
1005
121113
  0
LINE
  5
121114
  8
SLIM
 10
11944.55400581359
 20
-264.4262503074724
 30
0.0
 11
11950.228366662661
 21
-258.75188945840949
 31
0.0
1001
GRADIENTCOLOR1ACI
1070
     5
1001
GRADIENTCOLOR2ACI
1070
     2
1001
ACAD
1010
0.0
1020
0.0
1030
0.0
1001
ACDBBLOCKREPETAG
1070
     1
1071
      470
1005
121114
  0
LINE
  5
121115
  8
SLIM
 10
11949.5508442108
 20
-268.40966803133369
 30
0.0
 11
11955.27871983019
 21
-262.68179241194167
 31
0.0
1001
GRADIENTCOLOR1ACI
1070
     5
1001
GRADIENTCOLOR2ACI
1070
     2
1001
ACAD
1010
0.0
1020
0.0
1030
0.0
1001
ACDBBLOCKREPETAG
1070
     1
1071
      471
1005
121115
  0
LINE
  5
121116
  8
SLIM
 10
11954.89522946563
 20
-272.04553889757437
 30
0.0
 11
11960.715775378199
 21
-266.22499298500497
 31
0.0
1001
GRADIENTCOLOR1ACI
1070
     5
1001
GRADIENTCOLOR2ACI
1070
     2
1001
ACAD
1010
0.0
1020
0.0
1030
0.0
1001
ACDBBLOCKREPETAG
1070
     1
1071
      472
1005
121116
  0
LINE
  5
121117
  8
SLIM
 10
11960.602688015621
 20
-275.31833646865431
 30
0.0
 11
11966.56090134867
 21
-269.36012313560622
 31
0.0
1001
GRADIENTCOLOR1ACI
1070
     5
1001
GRADIENTCOLOR2ACI
1070
     2
1001
ACAD
1010
0.0
1020
0.0
1030
0.0
1001
ACDBBLOCKREPETAG
1070
     1
1071
      473
1005
121117
  0
LINE
  5
121118
  8
SLIM
 10
11966.69699692396
 20
-278.20428368137868
 30
0.0
 11
11972.847528001121
 21
-272.05375260422022
 31
0.0
1001
GRADIENTCOLOR1ACI
1070
     5
1001
GRADIENTCOLOR2ACI
1070
     2
1001
ACAD
1010
0.0
1020
0.0
1030
0.0
1001
ACDBBLOCKREPETAG
1070
     1
1071
      474
1005
121118
  0
LINE
  5
121119
  8
SLIM
 10
11973.212796132721
 20
-280.66874059369371
 30
0.0
 11
11979.62591868575
 21
-274.25561804065973
 31
0.0
1001
GRADIENTCOLOR1ACI
1070
     5
1001
GRADIENTCOLOR2ACI
1070
     2
1001
ACAD
1010
0.0
1020
0.0
1030
0.0
1001
ACDBBLOCKREPETAG
1070
     1
1071
      475
1005
121119
  0
LINE
  5
12111A
  8
SLIM
 10
11980.200058542639
 20
-282.6617343048456
 30
0.0
 11
11986.97194063303
 21
-275.88985221444773
 31
0.0
1001
GRADIENTCOLOR1ACI
1070
     5
1001
GRADIENTCOLOR2ACI
1070
     2
1001
ACAD
1010
0.0
1020
0.0
1030
0.0
1001
ACDBBLOCKREPETAG
1070
     1
1071
      476
1005
12111A
  0
LINE
  5
12111B
  8
SLIM
 10
11987.73202158942
 20
-284.11002737912702
 30
0.0
 11
11995.004279745721
 21
-276.83776922282988
 31
0.0
1001
GRADIENTCOLOR1ACI
1070
     5
1001
GRADIENTCOLOR2ACI
1070
     2
1001
ACAD
1010
0.0
1020
0.0
1030
0.0
1001
ACDBBLOCKREPETAG
1070
     1
1071
      477
1005
12111B
  0
LINE
  5
12111C
  8
SLIM
 10
11995.9202686471
 20
-284.9020364425258
 30
0.0
 11
12000.0
 21
-280.82230508962152
 31
0.0
1001
GRADIENTCOLOR1ACI
1070
     5
1001
GRADIENTCOLOR2ACI
1070
     2
1001
ACAD
1010
0.0
1020
0.0
1030
0.0
1001
ACDBBLOCKREPETAG
1070
     1
1071
      478
1005
12111C
  0
LINE
  5
12111D
  8
SLIM
 10
12000.0
 20
-280.82230508962152
 30
0.0
 11
12003.922267250789
 21
-276.90003783882821
 31
0.0
1001
GRADIENTCOLOR1ACI
1070
     5
1001
GRADIENTCOLOR2ACI
1070
     2
1001
ACAD
1010
0.0
1020
0.0
1030
0.0
1001
ACDBBLOCKREPETAG
1070
     1
1071
      479
1005
12111D
  0
LINE
  5
12111E
  8
SLIM
 10
12004.94661879974
 20
-284.85594241094651
 30
0.0
 11
12014.10558285387
 21
-275.6969783568166
 31
0.0
1001
GRADIENTCOLOR1ACI
1070
     5
1001
GRADIENTCOLOR2ACI
1070
     2
1001
ACAD
1010
0.0
1020
0.0
1030
0.0
1001
ACDBBLOCKREPETAG
1070
     1
1071
      480
1005
12111E
  0
LINE
  5
12111F
  8
SLIM
 10
12015.142485325139
 20
-283.64033200662118
 30
0.0
 11
12026.478775687539
 21
-272.30404164421702
 31
0.0
1001
GRADIENTCOLOR1ACI
1070
     5
1001
GRADIENTCOLOR2ACI
1070
     2
1001
ACAD
1010
0.0
1020
0.0
1030
0.0
1001
ACDBBLOCKREPETAG
1070
     1
1071
      481
1005
12111F
  0
LINE
  5
121120
  8
SLIM
 10
12027.249225523659
 20
-280.51384792916173
 30
0.0
 11
12045.76307345283
 21
-261.99999999999909
 31
0.0
1001
GRADIENTCOLOR1ACI
1070
     5
1001
GRADIENTCOLOR2ACI
1070
     2
1001
ACAD
1010
0.0
1020
0.0
1030
0.0
1001
ACDBBLOCKREPETAG
1070
     1
1071
      482
1005
121120
  0
LINE
  5
121121
  8
SLIM
 10
12044.045159630419
 20
-272.69816994347582
 30
0.0
 11
12054.743329573899
 21
-261.99999999999909
 31
0.0
1001
GRADIENTCOLOR1ACI
1070
     5
1001
GRADIENTCOLOR2ACI
1070
     2
1001
ACAD
1010
0.0
1020
0.0
1030
0.0
1001
ACDBBLOCKREPETAG
1070
     1
1071
      483
1005
121121
  0
LINE
  5
121122
  8
CENTER
 10
12080.0
 20
-199.99999999999909
 30
0.0
 11
11900.0
 21
-199.99999999999909
 31
0.0
1001
ACDBBLOCKREPETAG
1070
     1
1071
      187
1005
121122
  0
LINE
  5
121123
  8
CENTER
 10
12000.0
 20
-299.99999999999898
 30
0.0
 11
12000.0
 21
-99.999999999999091
 31
0.0
1001
ACDBBLOCKREPETAG
1070
     1
1071
      188
1005
121123
  0
CIRCLE
  5
121124
  8
OBJECT
 10
12000.0
 20
-199.99999999999909
 30
0.0
 40
70.0
1001
ACDBBLOCKREPETAG
1070
     1
1071
      189
1005
121124
  0
CIRCLE
  5
121125
  8
OBJECT
 10
12000.0
 20
-199.99999999999909
 30
0.0
 40
77.0
1001
ACDBBLOCKREPETAG
1070
     1
1071
      190
1005
121125
  0
LINE
  5
121126
  8
OBJECT
 10
12045.661800227321
 20
-137.99999999999909
 30
0.0
 11
12080.0
 21
-137.99999999999909
 31
0.0
1001
ACDBBLOCKREPETAG
1070
     1
1071
      192
1005
121126
  0
LINE
  5
121127
  8
OBJECT
 10
12045.661800227321
 20
-261.99999999999909
 30
0.0
 11
12080.0
 21
-261.99999999999909
 31
0.0
1001
ACDBBLOCKREPETAG
1070
     1
1071
      193
1005
121127
  0
ARC
  5
121128
  8
OBJECT
 10
12000.0
 20
-199.99999999999909
 30
0.0
 40
85.0
 50
46.837102859853147
 51
313.16289714014681
1001
ACDBBLOCKREPETAG
1070
     1
1071
      202
1005
121128
  0
LINE
  5
121129
  8
OBJECT
 10
12024.1029330933
 20
-243.80694712371681
 30
0.0
 11
12020.659656999989
 21
-232.55462199999889
 31
0.0
1001
ACDBBLOCKREPETAG
1070
     1
1071
      321
1005
121129
  0
LINE
  5
12112A
  8
OBJECT
 10
11986.79274990136
 20
-218.22553374208019
 30
0.0
 11
12020.659656999989
 21
-232.5546219999969
 31
0.0
1001
ACDBBLOCKREPETAG
1070
     1
1071
      323
1005
12112A
  0
ARC
  5
12112B
  8
OBJECT
 10
11982.8961697619
 20
-227.4351299990567
 30
0.0
 40
10.0
 50
67.066778292911366
 51
154.01473437031629
1001
ACDBBLOCKREPETAG
1070
     1
1071
      324
1005
12112B
  0
ARC
  5
12112C
  8
OBJECT
 10
11986.148839038129
 20
-225.55386256729159
 30
0.0
 40
7.0
 50
67.066778292911366
 51
154.0147337749826
1001
ACDBBLOCKREPETAG
1070
     1
1071
      325
1005
12112C
  0
LINE
  5
12112D
  8
OBJECT
 10
11969.4199755553
 20
-243.89888500818171
 30
0.0
 11
11979.85649182323
 21
-222.48688253356801
 31
0.0
1001
ACDBBLOCKREPETAG
1070
     1
1071
      353
1005
12112D
  0
LINE
  5
12112E
  8
OBJECT
 10
11965.29721690061
 20
-240.71813901882729
 30
0.0
 11
11973.90710226651
 21
-223.05373004430751
 31
0.0
1001
ACDBBLOCKREPETAG
1070
     1
1071
      354
1005
12112E
  0
ARC
  5
12112F
  8
OBJECT
 10
11976.57969530731
 20
-207.1289369828437
 30
0.0
 40
60.031113246032611
 50
314.07020130422319
 51
322.33936106089681
1001
ACDBBLOCKREPETAG
1070
     1
1071
      355
1005
12112F
  0
CIRCLE
  5
121130
  8
OBJECT
 10
12000.0
 20
-199.99999999999909
 30
0.0
 40
53.5
1001
ACDBBLOCKREPETAG
1070
     1
1071
      356
1005
121130
  0
POINT
  5
121131
  8
DOTS
 10
12000.0
 20
-199.99999999999909
 30
0.0
 50
270.0
1001
ACDBBLOCKREPETAG
1070
     1
1071
      365
1005
121131
  0
LINE
  5
121132
  8
OBJECT
 10
12083.0
 20
-534.0
 30
0.0
 11
12080.0
 21
-534.0
 31
0.0
1001
ACDBBLOCKREPETAG
1070
     1
1071
        1
1005
121132
  0
ARC
  5
121133
  8
OBJECT
 10
12083.0
 20
-537.0
 30
0.0
 40
3.0
 50
0.0
 51
90.0
1001
ACDBBLOCKREPETAG
1070
     1
1071
        2
1005
121133
  0
LINE
  5
121134
  8
OBJECT
 10
12080.0
 20
-658.0
 30
0.0
 11
12083.0
 21
-658.0
 31
0.0
1001
ACDBBLOCKREPETAG
1070
     1
1071
        3
1005
121134
  0
ARC
  5
121135
  8
OBJECT
 10
12083.0
 20
-655.0
 30
0.0
 40
3.0
 50
270.0
 51
0.0
1001
ACDBBLOCKREPETAG
1070
     1
1071
        4
1005
121135
  0
LINE
  5
121136
  8
OBJECT
 10
12086.0
 20
-655.0
 30
0.0
 11
12086.0
 21
-537.0
 31
0.0
1001
ACDBBLOCKREPETAG
1070
     1
1071
        5
1005
121136
  0
LINE
  5
121137
  8
CENTER
 10
12101.0
 20
-199.99999999999909
 30
0.0
 11
12080.0
 21
-199.99999999999909
 31
0.0
1001
ACDBBLOCKREPETAG
1070
     1
1071
        0
1005
121137
  0
LINE
  5
121138
  8
OBJECT
 10
12083.0
 20
-137.99999999999909
 30
0.0
 11
12080.0
 21
-137.99999999999909
 31
0.0
1001
ACDBBLOCKREPETAG
1070
     1
1071
        1
1005
121138
  0
ARC
  5
121139
  8
OBJECT
 10
12083.0
 20
-140.99999999999909
 30
0.0
 40
3.0
 50
0.0
 51
90.0
1001
ACDBBLOCKREPETAG
1070
     1
1071
        2
1005
121139
  0
LINE
  5
12113A
  8
OBJECT
 10
12080.0
 20
-261.99999999999909
 30
0.0
 11
12083.0
 21
-261.99999999999909
 31
0.0
1001
ACDBBLOCKREPETAG
1070
     1
1071
        3
1005
12113A
  0
ARC
  5
12113B
  8
OBJECT
 10
12083.0
 20
-258.99999999999909
 30
0.0
 40
3.0
 50
270.0
 51
0.0
1001
ACDBBLOCKREPETAG
1070
     1
1071
        4
1005
12113B
  0
LINE
  5
12113C
  8
OBJECT
 10
12086.0
 20
-258.99999999999909
 30
0.0
 11
12086.0
 21
-140.99999999999909
 31
0.0
1001
ACDBBLOCKREPETAG
1070
     1
1071
        5
1005
12113C
  0
ARC
  5
12113D
  8
OBJECT
 10
10000.0
 20
-199.99999999999909
 30
0.0
 40
50.0
 50
298.81994300000417
 51
228.52376955964741
1001
ACDBBLOCKREPETAG
1070
     1
1071
      185
1005
12113D
  0
LINE
  5
12113E
  8
SLIM
 10
9927.3018300565236
 20
-155.95484036957691
 30
0.0
 11
9955.9548403695771
 21
-127.30183005652231
 31
0.0
1001
GRADIENTCOLOR1ACI
1070
     5
1001
GRADIENTCOLOR2ACI
1070
     2
1001
ACAD
1010
0.0
1020
0.0
1030
0.0
1001
ACDBBLOCKREPETAG
1070
     1
1071
      442
1005
12113E
  0
LINE
  5
12113F
  8
SLIM
 10
9919.4861520708382
 20
-172.75077447633191
 30
0.0
 11
9938.2903089572737
 21
-153.94661758989659
 31
0.0
1001
GRADIENTCOLOR1ACI
1070
     5
1001
GRADIENTCOLOR2ACI
1070
     2
1001
ACAD
1010
0.0
1020
0.0
1030
0.0
1001
ACDBBLOCKREPETAG
1070
     1
1071
      443
1005
12113F
  0
LINE
  5
121140
  8
SLIM
 10
9953.9466175898997
 20
-138.29030895727169
 30
0.0
 11
9972.7507744763316
 21
-119.4861520708364
 31
0.0
1001
GRADIENTCOLOR1ACI
1070
     5
1001
GRADIENTCOLOR2ACI
1070
     2
1001
ACAD
1010
0.0
1020
0.0
1030
0.0
1001
ACDBBLOCKREPETAG
1070
     1
1071
      444
1005
121140
  0
LINE
  5
121141
  8
SLIM
 10
9916.3596679933817
 20
-184.8575146748604
 30
0.0
 11
9927.6959583557837
 21
-173.5212243124561
 31
0.0
1001
GRADIENTCOLOR1ACI
1070
     5
1001
GRADIENTCOLOR2ACI
1070
     2
1001
ACAD
1010
0.0
1020
0.0
1030
0.0
1001
ACDBBLOCKREPETAG
1070
     1
1071
      445
1005
121141
  0
LINE
  5
121142
  8
SLIM
 10
9973.5212243124606
 20
-127.6959583557812
 30
0.0
 11
9984.8575146748644
 21
-116.359667993377
 31
0.0
1001
GRADIENTCOLOR1ACI
1070
     5
1001
GRADIENTCOLOR2ACI
1070
     2
1001
ACAD
1010
0.0
1020
0.0
1030
0.0
1001
ACDBBLOCKREPETAG
1070
     1
1071
      446
1005
121142
  0
LINE
  5
121143
  8
SLIM
 10
9915.1440575890538
 20
-195.0533812002549
 30
0.0
 11
9924.3030216431835
 21
-185.89441714612491
 31
0.0
1001
GRADIENTCOLOR1ACI
1070
     5
1001
GRADIENTCOLOR2ACI
1070
     2
1001
ACAD
1010
0.0
1020
0.0
1030
0.0
1001
ACDBBLOCKREPETAG
1070
     1
1071
      447
1005
121143
  0
LINE
  5
121144
  8
SLIM
 10
9985.8944171461262
 20
-124.30302164318159
 30
0.0
 11
9995.0533812002577
 21
-115.1440575890517
 31
0.0
1001
GRADIENTCOLOR1ACI
1070
     5
1001
GRADIENTCOLOR2ACI
1070
     2
1001
ACAD
1010
0.0
1020
0.0
1030
0.0
1001
ACDBBLOCKREPETAG
1070
     1
1071
      448
1005
121144
  0
LINE
  5
121145
  8
SLIM
 10
9915.0979635574713
 20
-204.07973135290339
 30
0.0
 11
9919.1776949103787
 21
-199.99999999999909
 31
0.0
1001
GRADIENTCOLOR1ACI
1070
     5
1001
GRADIENTCOLOR2ACI
1070
     2
1001
ACAD
1010
0.0
1020
0.0
1030
0.0
1001
ACDBBLOCKREPETAG
1070
     1
1071
      449
1005
121145
  0
LINE
  5
121146
  8
SLIM
 10
10000.0
 20
-119.1776949103767
 30
0.0
 11
10004.0797313529
 21
-115.0979635574724
 31
0.0
1001
GRADIENTCOLOR1ACI
1070
     5
1001
GRADIENTCOLOR2ACI
1070
     2
1001
ACAD
1010
0.0
1020
0.0
1030
0.0
1001
ACDBBLOCKREPETAG
1070
     1
1071
      450
1005
121146
  0
LINE
  5
121147
  8
SLIM
 10
9919.1776949103787
 20
-199.99999999999909
 30
0.0
 11
9923.09996216117
 21
-196.07773274920581
 31
0.0
1001
GRADIENTCOLOR1ACI
1070
     5
1001
GRADIENTCOLOR2ACI
1070
     2
1001
ACAD
1010
0.0
1020
0.0
1030
0.0
1001
ACDBBLOCKREPETAG
1070
     1
1071
      451
1005
121147
  0
LINE
  5
121148
  8
SLIM
 10
9996.0777327492033
 20
-123.0999621611699
 30
0.0
 11
10000.0
 21
-119.1776949103767
 31
0.0
1001
GRADIENTCOLOR1ACI
1070
     5
1001
GRADIENTCOLOR2ACI
1070
     2
1001
ACAD
1010
0.0
1020
0.0
1030
0.0
1001
ACDBBLOCKREPETAG
1070
     1
1071
      452
1005
121148
  0
LINE
  5
121149
  8
SLIM
 10
9915.8899726208747
 20
-212.26797841057399
 30
0.0
 11
9923.1622307771686
 21
-204.9957202542767
 31
0.0
1001
GRADIENTCOLOR1ACI
1070
     5
1001
GRADIENTCOLOR2ACI
1070
     2
1001
ACAD
1010
0.0
1020
0.0
1030
0.0
1001
ACDBBLOCKREPETAG
1070
     1
1071
      453
1005
121149
  0
LINE
  5
12114A
  8
SLIM
 10
10004.99572025427
 20
-123.1622307771683
 30
0.0
 11
10012.26797841056
 21
-115.88997262087101
 31
0.0
1001
GRADIENTCOLOR1ACI
1070
     5
1001
GRADIENTCOLOR2ACI
1070
     2
1001
ACAD
1010
0.0
1020
0.0
1030
0.0
1001
ACDBBLOCKREPETAG
1070
     1
1071
      454
1005
12114A
  0
LINE
  5
12114B
  8
SLIM
 10
9917.3382656951544
 20
-219.79994145736151
 30
0.0
 11
9924.1101477855536
 21
-213.02805936696359
 31
0.0
1001
GRADIENTCOLOR1ACI
1070
     5
1001
GRADIENTCOLOR2ACI
1070
     2
1001
ACAD
1010
0.0
1020
0.0
1030
0.0
1001
ACDBBLOCKREPETAG
1070
     1
1071
      455
1005
12114B
  0
LINE
  5
12114C
  8
SLIM
 10
10013.028059366959
 20
-124.1101477855505
 30
0.0
 11
10019.799941457361
 21
-117.3382656951526
 31
0.0
1001
GRADIENTCOLOR1ACI
1070
     5
1001
GRADIENTCOLOR2ACI
1070
     2
1001
ACAD
1010
0.0
1020
0.0
1030
0.0
1001
ACDBBLOCKREPETAG
1070
     1
1071
      456
1005
12114C
  0
LINE
  5
12114D
  8
SLIM
 10
9919.3312594063045
 20
-226.78720386727881
 30
0.0
 11
9925.7443819593445
 21
-220.3740813142449
 31
0.0
1001
GRADIENTCOLOR1ACI
1070
     5
1001
GRADIENTCOLOR2ACI
1070
     2
1001
ACAD
1010
0.0
1020
0.0
1030
0.0
1001
ACDBBLOCKREPETAG
1070
     1
1071
      457
1005
12114D
  0
LINE
  5
12114E
  8
SLIM
 10
10020.374081314239
 20
-125.7443819593384
 30
0.0
 11
10026.787203867279
 21
-119.3312594063044
 31
0.0
1001
GRADIENTCOLOR1ACI
1070
     5
1001
GRADIENTCOLOR2ACI
1070
     2
1001
ACAD
1010
0.0
1020
0.0
1030
0.0
1001
ACDBBLOCKREPETAG
1070
     1
1071
      458
1005
12114E
  0
LINE
  5
12114F
  8
SLIM
 10
9921.7957163186184
 20
-233.30300307603289
 30
0.0
 11
9927.9462473957792
 21
-227.1524719988744
 31
0.0
1001
GRADIENTCOLOR1ACI
1070
     5
1001
GRADIENTCOLOR2ACI
1070
     2
1001
ACAD
1010
0.0
1020
0.0
1030
0.0
1001
ACDBBLOCKREPETAG
1070
     1
1071
      459
1005
12114F
  0
LINE
  5
121150
  8
SLIM
 10
10027.15247199887
 20
-127.946247395778
 30
0.0
 11
10033.303003076029
 21
-121.7957163186195
 31
0.0
1001
GRADIENTCOLOR1ACI
1070
     5
1001
GRADIENTCOLOR2ACI
1070
     2
1001
ACAD
1010
0.0
1020
0.0
1030
0.0
1001
ACDBBLOCKREPETAG
1070
     1
1071
      460
1005
121150
  0
LINE
  5
121151
  8
SLIM
 10
9924.6816635313444
 20
-239.39731198437769
 30
0.0
 11
9930.6398768643921
 21
-233.4390986513296
 31
0.0
1001
GRADIENTCOLOR1ACI
1070
     5
1001
GRADIENTCOLOR2ACI
1070
     2
1001
ACAD
1010
0.0
1020
0.0
1030
0.0
1001
ACDBBLOCKREPETAG
1070
     1
1071
      461
1005
121151
  0
LINE
  5
121152
  8
SLIM
 10
10033.43909865133
 20
-130.63987686439199
 30
0.0
 11
10039.39731198437
 21
-124.6816635313439
 31
0.0
1001
GRADIENTCOLOR1ACI
1070
     5
1001
GRADIENTCOLOR2ACI
1070
     2
1001
ACAD
1010
0.0
1020
0.0
1030
0.0
1001
ACDBBLOCKREPETAG
1070
     1
1071
      462
1005
121152
  0
LINE
  5
121153
  8
SLIM
 10
9927.9544611024248
 20
-245.10477053436691
 30
0.0
 11
9933.7750070149923
 21
-239.28422462179751
 31
0.0
1001
GRADIENTCOLOR1ACI
1070
     5
1001
GRADIENTCOLOR2ACI
1070
     2
1001
ACAD
1010
0.0
1020
0.0
1030
0.0
1001
ACDBBLOCKREPETAG
1070
     1
1071
      463
1005
121153
  0
LINE
  5
121154
  8
SLIM
 10
10039.284224621801
 20
-133.77500701499321
 30
0.0
 11
10045.104770534361
 21
-127.95446110242381
 31
0.0
1001
GRADIENTCOLOR1ACI
1070
     5
1001
GRADIENTCOLOR2ACI
1070
     2
1001
ACAD
1010
0.0
1020
0.0
1030
0.0
1001
ACDBBLOCKREPETAG
1070
     1
1071
      464
1005
121154
  0
LINE
  5
121155
  8
SLIM
 10
9931.5903319686659
 20
-250.4491557891954
 30
0.0
 11
9937.3182075880559
 21
-244.72128016980341
 31
0.0
1001
GRADIENTCOLOR1ACI
1070
     5
1001
GRADIENTCOLOR2ACI
1070
     2
1001
ACAD
1010
0.0
1020
0.0
1030
0.0
1001
ACDBBLOCKREPETAG
1070
     1
1071
      465
1005
121155
  0
LINE
  5
121156
  8
SLIM
 10
10044.721280169801
 20
-137.31820758805651
 30
0.0
 11
10050.449155789191
 21
-131.59033196866449
 31
0.0
1001
GRADIENTCOLOR1ACI
1070
     5
1001
GRADIENTCOLOR2ACI
1070
     2
1001
ACAD
1010
0.0
1020
0.0
1030
0.0
1001
ACDBBLOCKREPETAG
1070
     1
1071
      466
1005
121156
  0
LINE
  5
121157
  8
SLIM
 10
9935.5737496925303
 20
-255.4459941864034
 30
0.0
 11
9941.2481105415936
 21
-249.77163333734029
 31
0.0
1001
GRADIENTCOLOR1ACI
1070
     5
1001
GRADIENTCOLOR2ACI
1070
     2
1001
ACAD
1010
0.0
1020
0.0
1030
0.0
1001
ACDBBLOCKREPETAG
1070
     1
1071
      467
1005
121157
  0
LINE
  5
121158
  8
SLIM
 10
10053.019743878929
 20
-137.99999999999909
 30
0.0
 11
10055.445994186401
 21
-135.57374969252561
 31
0.0
1001
GRADIENTCOLOR1ACI
1070
     5
1001
GRADIENTCOLOR2ACI
1070
     2
1001
ACAD
1010
0.0
1020
0.0
1030
0.0
1001
ACDBBLOCKREPETAG
1070
     1
1071
      468
1005
121158
  0
LINE
  5
121159
  8
SLIM
 10
9939.8959235991442
 20
-260.10407640085572
 30
0.0
 11
9945.5527778486357
 21
-254.44722215136329
 31
0.0
1001
GRADIENTCOLOR1ACI
1070
     5
1001
GRADIENTCOLOR2ACI
1070
     2
1001
ACAD
1010
0.0
1020
0.0
1030
0.0
1001
ACDBBLOCKREPETAG
1070
     1
1071
      469
1005
121159
  0
LINE
  5
12115A
  8
SLIM
 10
9944.5540058135957
 20
-264.4262503074724
 30
0.0
 11
9950.2283666626608
 21
-258.75188945840949
 31
0.0
1001
GRADIENTCOLOR1ACI
1070
     5
1001
GRADIENTCOLOR2ACI
1070
     2
1001
ACAD
1010
0.0
1020
0.0
1030
0.0
1001
ACDBBLOCKREPETAG
1070
     1
1071
      470
1005
12115A
  0
LINE
  5
12115B
  8
SLIM
 10
9949.5508442108039
 20
-268.40966803133369
 30
0.0
 11
9955.2787198301976
 21
-262.68179241194167
 31
0.0
1001
GRADIENTCOLOR1ACI
1070
     5
1001
GRADIENTCOLOR2ACI
1070
     2
1001
ACAD
1010
0.0
1020
0.0
1030
0.0
1001
ACDBBLOCKREPETAG
1070
     1
1071
      471
1005
12115B
  0
LINE
  5
12115C
  8
SLIM
 10
9954.8952294656337
 20
-272.04553889757437
 30
0.0
 11
9960.7157753781994
 21
-266.22499298500497
 31
0.0
1001
GRADIENTCOLOR1ACI
1070
     5
1001
GRADIENTCOLOR2ACI
1070
     2
1001
ACAD
1010
0.0
1020
0.0
1030
0.0
1001
ACDBBLOCKREPETAG
1070
     1
1071
      472
1005
12115C
  0
LINE
  5
12115D
  8
SLIM
 10
9960.6026880156223
 20
-275.31833646865431
 30
0.0
 11
9966.5609013486755
 21
-269.36012313560622
 31
0.0
1001
GRADIENTCOLOR1ACI
1070
     5
1001
GRADIENTCOLOR2ACI
1070
     2
1001
ACAD
1010
0.0
1020
0.0
1030
0.0
1001
ACDBBLOCKREPETAG
1070
     1
1071
      473
1005
12115D
  0
LINE
  5
12115E
  8
SLIM
 10
9966.6969969239635
 20
-278.20428368137868
 30
0.0
 11
9972.8475280011244
 21
-272.05375260422022
 31
0.0
1001
GRADIENTCOLOR1ACI
1070
     5
1001
GRADIENTCOLOR2ACI
1070
     2
1001
ACAD
1010
0.0
1020
0.0
1030
0.0
1001
ACDBBLOCKREPETAG
1070
     1
1071
      474
1005
12115E
  0
LINE
  5
12115F
  8
SLIM
 10
9973.2127961327205
 20
-280.66874059369371
 30
0.0
 11
9979.6259186857551
 21
-274.25561804065973
 31
0.0
1001
GRADIENTCOLOR1ACI
1070
     5
1001
GRADIENTCOLOR2ACI
1070
     2
1001
ACAD
1010
0.0
1020
0.0
1030
0.0
1001
ACDBBLOCKREPETAG
1070
     1
1071
      475
1005
12115F
  0
LINE
  5
121160
  8
SLIM
 10
9980.2000585426413
 20
-282.6617343048456
 30
0.0
 11
9986.971940633035
 21
-275.88985221444773
 31
0.0
1001
GRADIENTCOLOR1ACI
1070
     5
1001
GRADIENTCOLOR2ACI
1070
     2
1001
ACAD
1010
0.0
1020
0.0
1030
0.0
1001
ACDBBLOCKREPETAG
1070
     1
1071
      476
1005
121160
  0
LINE
  5
121161
  8
SLIM
 10
9987.7320215894215
 20
-284.11002737912702
 30
0.0
 11
9995.0042797457209
 21
-276.83776922282988
 31
0.0
1001
GRADIENTCOLOR1ACI
1070
     5
1001
GRADIENTCOLOR2ACI
1070
     2
1001
ACAD
1010
0.0
1020
0.0
1030
0.0
1001
ACDBBLOCKREPETAG
1070
     1
1071
      477
1005
121161
  0
LINE
  5
121162
  8
SLIM
 10
9995.9202686470962
 20
-284.9020364425258
 30
0.0
 11
10000.0
 21
-280.82230508962152
 31
0.0
1001
GRADIENTCOLOR1ACI
1070
     5
1001
GRADIENTCOLOR2ACI
1070
     2
1001
ACAD
1010
0.0
1020
0.0
1030
0.0
1001
ACDBBLOCKREPETAG
1070
     1
1071
      478
1005
121162
  0
LINE
  5
121163
  8
SLIM
 10
10000.0
 20
-280.82230508962152
 30
0.0
 11
10003.922267250789
 21
-276.90003783882821
 31
0.0
1001
GRADIENTCOLOR1ACI
1070
     5
1001
GRADIENTCOLOR2ACI
1070
     2
1001
ACAD
1010
0.0
1020
0.0
1030
0.0
1001
ACDBBLOCKREPETAG
1070
     1
1071
      479
1005
121163
  0
LINE
  5
121164
  8
SLIM
 10
10004.94661879974
 20
-284.85594241094651
 30
0.0
 11
10014.10558285387
 21
-275.6969783568166
 31
0.0
1001
GRADIENTCOLOR1ACI
1070
     5
1001
GRADIENTCOLOR2ACI
1070
     2
1001
ACAD
1010
0.0
1020
0.0
1030
0.0
1001
ACDBBLOCKREPETAG
1070
     1
1071
      480
1005
121164
  0
LINE
  5
121165
  8
SLIM
 10
10015.142485325139
 20
-283.64033200662118
 30
0.0
 11
10026.478775687539
 21
-272.30404164421702
 31
0.0
1001
GRADIENTCOLOR1ACI
1070
     5
1001
GRADIENTCOLOR2ACI
1070
     2
1001
ACAD
1010
0.0
1020
0.0
1030
0.0
1001
ACDBBLOCKREPETAG
1070
     1
1071
      481
1005
121165
  0
LINE
  5
121166
  8
SLIM
 10
10027.249225523659
 20
-280.51384792916173
 30
0.0
 11
10045.76307345283
 21
-261.99999999999909
 31
0.0
1001
GRADIENTCOLOR1ACI
1070
     5
1001
GRADIENTCOLOR2ACI
1070
     2
1001
ACAD
1010
0.0
1020
0.0
1030
0.0
1001
ACDBBLOCKREPETAG
1070
     1
1071
      482
1005
121166
  0
LINE
  5
121167
  8
SLIM
 10
10044.045159630419
 20
-272.69816994347582
 30
0.0
 11
10054.743329573899
 21
-261.99999999999909
 31
0.0
1001
GRADIENTCOLOR1ACI
1070
     5
1001
GRADIENTCOLOR2ACI
1070
     2
1001
ACAD
1010
0.0
1020
0.0
1030
0.0
1001
ACDBBLOCKREPETAG
1070
     1
1071
      483
1005
121167
  0
LINE
  5
121168
  8
CENTER
 10
10080.0
 20
-199.99999999999909
 30
0.0
 11
9900.0
 21
-199.99999999999909
 31
0.0
1001
ACDBBLOCKREPETAG
1070
     1
1071
      187
1005
121168
  0
LINE
  5
121169
  8
CENTER
 10
10000.0
 20
-299.99999999999898
 30
0.0
 11
10000.0
 21
-99.999999999999091
 31
0.0
1001
ACDBBLOCKREPETAG
1070
     1
1071
      188
1005
121169
  0
CIRCLE
  5
12116A
  8
OBJECT
 10
10000.0
 20
-199.99999999999909
 30
0.0
 40
70.0
1001
ACDBBLOCKREPETAG
1070
     1
1071
      189
1005
12116A
  0
CIRCLE
  5
12116B
  8
OBJECT
 10
10000.0
 20
-199.99999999999909
 30
0.0
 40
77.0
1001
ACDBBLOCKREPETAG
1070
     1
1071
      190
1005
12116B
  0
LINE
  5
12116C
  8
OBJECT
 10
10045.661800227321
 20
-137.99999999999909
 30
0.0
 11
10080.0
 21
-137.99999999999909
 31
0.0
1001
ACDBBLOCKREPETAG
1070
     1
1071
      192
1005
12116C
  0
LINE
  5
12116D
  8
OBJECT
 10
10045.661800227321
 20
-261.99999999999909
 30
0.0
 11
10080.0
 21
-261.99999999999909
 31
0.0
1001
ACDBBLOCKREPETAG
1070
     1
1071
      193
1005
12116D
  0
ARC
  5
12116E
  8
OBJECT
 10
10000.0
 20
-199.99999999999909
 30
0.0
 40
85.0
 50
46.837102859853147
 51
313.16289714014681
1001
ACDBBLOCKREPETAG
1070
     1
1071
      202
1005
12116E
  0
LINE
  5
12116F
  8
OBJECT
 10
10024.1029330933
 20
-243.80694712371681
 30
0.0
 11
10020.659656999989
 21
-232.55462199999889
 31
0.0
1001
ACDBBLOCKREPETAG
1070
     1
1071
      321
1005
12116F
  0
LINE
  5
121170
  8
OBJECT
 10
9986.7927499013749
 20
-218.22553374208019
 30
0.0
 11
10020.659656999989
 21
-232.5546219999969
 31
0.0
1001
ACDBBLOCKREPETAG
1070
     1
1071
      323
1005
121170
  0
ARC
  5
121171
  8
OBJECT
 10
9982.8961697618997
 20
-227.4351299990567
 30
0.0
 40
10.0
 50
67.066778292911366
 51
154.01473437031629
1001
ACDBBLOCKREPETAG
1070
     1
1071
      324
1005
121171
  0
ARC
  5
121172
  8
OBJECT
 10
9986.1488390381292
 20
-225.55386256729159
 30
0.0
 40
7.0
 50
67.066778292911366
 51
154.0147337749826
1001
ACDBBLOCKREPETAG
1070
     1
1071
      325
1005
121172
  0
LINE
  5
121173
  8
OBJECT
 10
9969.4199755553
 20
-243.89888500818171
 30
0.0
 11
9979.8564918232369
 21
-222.48688253356801
 31
0.0
1001
ACDBBLOCKREPETAG
1070
     1
1071
      353
1005
121173
  0
LINE
  5
121174
  8
OBJECT
 10
9965.2972169006098
 20
-240.71813901882729
 30
0.0
 11
9973.9071022665084
 21
-223.05373004430751
 31
0.0
1001
ACDBBLOCKREPETAG
1070
     1
1071
      354
1005
121174
  0
ARC
  5
121175
  8
OBJECT
 10
9976.5796953073132
 20
-207.1289369828437
 30
0.0
 40
60.031113246032611
 50
314.07020130422319
 51
322.33936106089681
1001
ACDBBLOCKREPETAG
1070
     1
1071
      355
1005
121175
  0
CIRCLE
  5
121176
  8
OBJECT
 10
10000.0
 20
-199.99999999999909
 30
0.0
 40
53.5
1001
ACDBBLOCKREPETAG
1070
     1
1071
      356
1005
121176
  0
POINT
  5
121177
  8
DOTS
 10
10000.0
 20
-199.99999999999909
 30
0.0
 50
270.0
1001
ACDBBLOCKREPETAG
1070
     1
1071
      365
1005
121177
  0
LINE
  5
121178
  8
OBJECT
 10
10083.0
 20
-534.0
 30
0.0
 11
10080.0
 21
-534.0
 31
0.0
1001
ACDBBLOCKREPETAG
1070
     1
1071
        1
1005
121178
  0
ARC
  5
121179
  8
OBJECT
 10
10083.0
 20
-537.0
 30
0.0
 40
3.0
 50
0.0
 51
90.0
1001
ACDBBLOCKREPETAG
1070
     1
1071
        2
1005
121179
  0
LINE
  5
12117A
  8
OBJECT
 10
10080.0
 20
-658.0
 30
0.0
 11
10083.0
 21
-658.0
 31
0.0
1001
ACDBBLOCKREPETAG
1070
     1
1071
        3
1005
12117A
  0
ARC
  5
12117B
  8
OBJECT
 10
10083.0
 20
-655.0
 30
0.0
 40
3.0
 50
270.0
 51
0.0
1001
ACDBBLOCKREPETAG
1070
     1
1071
        4
1005
12117B
  0
LINE
  5
12117C
  8
OBJECT
 10
10086.0
 20
-655.0
 30
0.0
 11
10086.0
 21
-537.0
 31
0.0
1001
ACDBBLOCKREPETAG
1070
     1
1071
        5
1005
12117C
  0
LINE
  5
12117D
  8
CENTER
 10
10101.0
 20
-199.99999999999909
 30
0.0
 11
10080.0
 21
-199.99999999999909
 31
0.0
1001
ACDBBLOCKREPETAG
1070
     1
1071
        0
1005
12117D
  0
LINE
  5
12117E
  8
OBJECT
 10
10083.0
 20
-137.99999999999909
 30
0.0
 11
10080.0
 21
-137.99999999999909
 31
0.0
1001
ACDBBLOCKREPETAG
1070
     1
1071
        1
1005
12117E
  0
ARC
  5
12117F
  8
OBJECT
 10
10083.0
 20
-140.99999999999909
 30
0.0
 40
3.0
 50
0.0
 51
90.0
1001
ACDBBLOCKREPETAG
1070
     1
1071
        2
1005
12117F
  0
LINE
  5
121180
  8
OBJECT
 10
10080.0
 20
-261.99999999999909
 30
0.0
 11
10083.0
 21
-261.99999999999909
 31
0.0
1001
ACDBBLOCKREPETAG
1070
     1
1071
        3
1005
121180
  0
ARC
  5
121181
  8
OBJECT
 10
10083.0
 20
-258.99999999999909
 30
0.0
 40
3.0
 50
270.0
 51
0.0
1001
ACDBBLOCKREPETAG
1070
     1
1071
        4
1005
121181
  0
LINE
  5
121182
  8
OBJECT
 10
10086.0
 20
-258.99999999999909
 30
0.0
 11
10086.0
 21
-140.99999999999909
 31
0.0
1001
ACDBBLOCKREPETAG
1070
     1
1071
        5
1005
121182
  0
ARC
  5
121183
  8
OBJECT
 10
8000.0
 20
-199.99999999999909
 30
0.0
 40
50.0
 50
298.81994300000417
 51
228.52376955964741
1001
ACDBBLOCKREPETAG
1070
     1
1071
      185
1005
121183
  0
LINE
  5
121184
  8
SLIM
 10
7927.3018300565236
 20
-155.95484036957691
 30
0.0
 11
7955.9548403695781
 21
-127.30183005652231
 31
0.0
1001
GRADIENTCOLOR1ACI
1070
     5
1001
GRADIENTCOLOR2ACI
1070
     2
1001
ACAD
1010
0.0
1020
0.0
1030
0.0
1001
ACDBBLOCKREPETAG
1070
     1
1071
      442
1005
121184
  0
LINE
  5
121185
  8
SLIM
 10
7919.4861520708373
 20
-172.75077447633191
 30
0.0
 11
7938.2903089572737
 21
-153.94661758989659
 31
0.0
1001
GRADIENTCOLOR1ACI
1070
     5
1001
GRADIENTCOLOR2ACI
1070
     2
1001
ACAD
1010
0.0
1020
0.0
1030
0.0
1001
ACDBBLOCKREPETAG
1070
     1
1071
      443
1005
121185
  0
LINE
  5
121186
  8
SLIM
 10
7953.9466175898988
 20
-138.29030895727169
 30
0.0
 11
7972.7507744763334
 21
-119.4861520708364
 31
0.0
1001
GRADIENTCOLOR1ACI
1070
     5
1001
GRADIENTCOLOR2ACI
1070
     2
1001
ACAD
1010
0.0
1020
0.0
1030
0.0
1001
ACDBBLOCKREPETAG
1070
     1
1071
      444
1005
121186
  0
LINE
  5
121187
  8
SLIM
 10
7916.3596679933771
 20
-184.8575146748604
 30
0.0
 11
7927.6959583557828
 21
-173.5212243124561
 31
0.0
1001
GRADIENTCOLOR1ACI
1070
     5
1001
GRADIENTCOLOR2ACI
1070
     2
1001
ACAD
1010
0.0
1020
0.0
1030
0.0
1001
ACDBBLOCKREPETAG
1070
     1
1071
      445
1005
121187
  0
LINE
  5
121188
  8
SLIM
 10
7973.5212243124561
 20
-127.6959583557812
 30
0.0
 11
7984.8575146748608
 21
-116.359667993377
 31
0.0
1001
GRADIENTCOLOR1ACI
1070
     5
1001
GRADIENTCOLOR2ACI
1070
     2
1001
ACAD
1010
0.0
1020
0.0
1030
0.0
1001
ACDBBLOCKREPETAG
1070
     1
1071
      446
1005
121188
  0
LINE
  5
121189
  8
SLIM
 10
7915.1440575890529
 20
-195.0533812002549
 30
0.0
 11
7924.3030216431825
 21
-185.89441714612491
 31
0.0
1001
GRADIENTCOLOR1ACI
1070
     5
1001
GRADIENTCOLOR2ACI
1070
     2
1001
ACAD
1010
0.0
1020
0.0
1030
0.0
1001
ACDBBLOCKREPETAG
1070
     1
1071
      447
1005
121189
  0
LINE
  5
12118A
  8
SLIM
 10
7985.8944171461262
 20
-124.30302164318159
 30
0.0
 11
7995.0533812002559
 21
-115.1440575890517
 31
0.0
1001
GRADIENTCOLOR1ACI
1070
     5
1001
GRADIENTCOLOR2ACI
1070
     2
1001
ACAD
1010
0.0
1020
0.0
1030
0.0
1001
ACDBBLOCKREPETAG
1070
     1
1071
      448
1005
12118A
  0
LINE
  5
12118B
  8
SLIM
 10
7915.097963557474
 20
-204.07973135290339
 30
0.0
 11
7919.1776949103778
 21
-199.99999999999909
 31
0.0
1001
GRADIENTCOLOR1ACI
1070
     5
1001
GRADIENTCOLOR2ACI
1070
     2
1001
ACAD
1010
0.0
1020
0.0
1030
0.0
1001
ACDBBLOCKREPETAG
1070
     1
1071
      449
1005
12118B
  0
LINE
  5
12118C
  8
SLIM
 10
8000.0
 20
-119.1776949103767
 30
0.0
 11
8004.0797313529074
 21
-115.0979635574724
 31
0.0
1001
GRADIENTCOLOR1ACI
1070
     5
1001
GRADIENTCOLOR2ACI
1070
     2
1001
ACAD
1010
0.0
1020
0.0
1030
0.0
1001
ACDBBLOCKREPETAG
1070
     1
1071
      450
1005
12118C
  0
LINE
  5
12118D
  8
SLIM
 10
7919.1776949103778
 20
-199.99999999999909
 30
0.0
 11
7923.0999621611709
 21
-196.07773274920581
 31
0.0
1001
GRADIENTCOLOR1ACI
1070
     5
1001
GRADIENTCOLOR2ACI
1070
     2
1001
ACAD
1010
0.0
1020
0.0
1030
0.0
1001
ACDBBLOCKREPETAG
1070
     1
1071
      451
1005
12118D
  0
LINE
  5
12118E
  8
SLIM
 10
7996.077732749206
 20
-123.0999621611699
 30
0.0
 11
8000.0
 21
-119.1776949103767
 31
0.0
1001
GRADIENTCOLOR1ACI
1070
     5
1001
GRADIENTCOLOR2ACI
1070
     2
1001
ACAD
1010
0.0
1020
0.0
1030
0.0
1001
ACDBBLOCKREPETAG
1070
     1
1071
      452
1005
12118E
  0
LINE
  5
12118F
  8
SLIM
 10
7915.889972620871
 20
-212.26797841057399
 30
0.0
 11
7923.1622307771704
 21
-204.9957202542767
 31
0.0
1001
GRADIENTCOLOR1ACI
1070
     5
1001
GRADIENTCOLOR2ACI
1070
     2
1001
ACAD
1010
0.0
1020
0.0
1030
0.0
1001
ACDBBLOCKREPETAG
1070
     1
1071
      453
1005
12118F
  0
LINE
  5
121190
  8
SLIM
 10
8004.9957202542737
 20
-123.1622307771683
 30
0.0
 11
8012.2679784105749
 21
-115.88997262087101
 31
0.0
1001
GRADIENTCOLOR1ACI
1070
     5
1001
GRADIENTCOLOR2ACI
1070
     2
1001
ACAD
1010
0.0
1020
0.0
1030
0.0
1001
ACDBBLOCKREPETAG
1070
     1
1071
      454
1005
121190
  0
LINE
  5
121191
  8
SLIM
 10
7917.3382656951526
 20
-219.79994145736151
 30
0.0
 11
7924.1101477855518
 21
-213.02805936696359
 31
0.0
1001
GRADIENTCOLOR1ACI
1070
     5
1001
GRADIENTCOLOR2ACI
1070
     2
1001
ACAD
1010
0.0
1020
0.0
1030
0.0
1001
ACDBBLOCKREPETAG
1070
     1
1071
      455
1005
121191
  0
LINE
  5
121192
  8
SLIM
 10
8013.028059366964
 20
-124.1101477855505
 30
0.0
 11
8019.7999414573624
 21
-117.3382656951526
 31
0.0
1001
GRADIENTCOLOR1ACI
1070
     5
1001
GRADIENTCOLOR2ACI
1070
     2
1001
ACAD
1010
0.0
1020
0.0
1030
0.0
1001
ACDBBLOCKREPETAG
1070
     1
1071
      456
1005
121192
  0
LINE
  5
121193
  8
SLIM
 10
7919.3312594063054
 20
-226.78720386727881
 30
0.0
 11
7925.74438195934
 21
-220.3740813142449
 31
0.0
1001
GRADIENTCOLOR1ACI
1070
     5
1001
GRADIENTCOLOR2ACI
1070
     2
1001
ACAD
1010
0.0
1020
0.0
1030
0.0
1001
ACDBBLOCKREPETAG
1070
     1
1071
      457
1005
121193
  0
LINE
  5
121194
  8
SLIM
 10
8020.3740813142458
 20
-125.7443819593384
 30
0.0
 11
8026.7872038672767
 21
-119.3312594063044
 31
0.0
1001
GRADIENTCOLOR1ACI
1070
     5
1001
GRADIENTCOLOR2ACI
1070
     2
1001
ACAD
1010
0.0
1020
0.0
1030
0.0
1001
ACDBBLOCKREPETAG
1070
     1
1071
      458
1005
121194
  0
LINE
  5
121195
  8
SLIM
 10
7921.7957163186193
 20
-233.30300307603289
 30
0.0
 11
7927.9462473957792
 21
-227.1524719988744
 31
0.0
1001
GRADIENTCOLOR1ACI
1070
     5
1001
GRADIENTCOLOR2ACI
1070
     2
1001
ACAD
1010
0.0
1020
0.0
1030
0.0
1001
ACDBBLOCKREPETAG
1070
     1
1071
      459
1005
121195
  0
LINE
  5
121196
  8
SLIM
 10
8027.1524719988738
 20
-127.946247395778
 30
0.0
 11
8033.3030030760328
 21
-121.7957163186195
 31
0.0
1001
GRADIENTCOLOR1ACI
1070
     5
1001
GRADIENTCOLOR2ACI
1070
     2
1001
ACAD
1010
0.0
1020
0.0
1030
0.0
1001
ACDBBLOCKREPETAG
1070
     1
1071
      460
1005
121196
  0
LINE
  5
121197
  8
SLIM
 10
7924.6816635313462
 20
-239.39731198437769
 30
0.0
 11
7930.639876864393
 21
-233.4390986513296
 31
0.0
1001
GRADIENTCOLOR1ACI
1070
     5
1001
GRADIENTCOLOR2ACI
1070
     2
1001
ACAD
1010
0.0
1020
0.0
1030
0.0
1001
ACDBBLOCKREPETAG
1070
     1
1071
      461
1005
121197
  0
LINE
  5
121198
  8
SLIM
 10
8033.4390986513308
 20
-130.63987686439199
 30
0.0
 11
8039.3973119843777
 21
-124.6816635313439
 31
0.0
1001
GRADIENTCOLOR1ACI
1070
     5
1001
GRADIENTCOLOR2ACI
1070
     2
1001
ACAD
1010
0.0
1020
0.0
1030
0.0
1001
ACDBBLOCKREPETAG
1070
     1
1071
      462
1005
121198
  0
LINE
  5
121199
  8
SLIM
 10
7927.9544611024266
 20
-245.10477053436691
 30
0.0
 11
7933.7750070149932
 21
-239.28422462179751
 31
0.0
1001
GRADIENTCOLOR1ACI
1070
     5
1001
GRADIENTCOLOR2ACI
1070
     2
1001
ACAD
1010
0.0
1020
0.0
1030
0.0
1001
ACDBBLOCKREPETAG
1070
     1
1071
      463
1005
121199
  0
LINE
  5
12119A
  8
SLIM
 10
8039.2842246217979
 20
-133.77500701499321
 30
0.0
 11
8045.1047705343699
 21
-127.95446110242381
 31
0.0
1001
GRADIENTCOLOR1ACI
1070
     5
1001
GRADIENTCOLOR2ACI
1070
     2
1001
ACAD
1010
0.0
1020
0.0
1030
0.0
1001
ACDBBLOCKREPETAG
1070
     1
1071
      464
1005
12119A
  0
LINE
  5
12119B
  8
SLIM
 10
7931.5903319686649
 20
-250.4491557891954
 30
0.0
 11
7937.3182075880577
 21
-244.72128016980341
 31
0.0
1001
GRADIENTCOLOR1ACI
1070
     5
1001
GRADIENTCOLOR2ACI
1070
     2
1001
ACAD
1010
0.0
1020
0.0
1030
0.0
1001
ACDBBLOCKREPETAG
1070
     1
1071
      465
1005
12119B
  0
LINE
  5
12119C
  8
SLIM
 10
8044.7212801698061
 20
-137.31820758805651
 30
0.0
 11
8050.449155789197
 21
-131.59033196866449
 31
0.0
1001
GRADIENTCOLOR1ACI
1070
     5
1001
GRADIENTCOLOR2ACI
1070
     2
1001
ACAD
1010
0.0
1020
0.0
1030
0.0
1001
ACDBBLOCKREPETAG
1070
     1
1071
      466
1005
12119C
  0
LINE
  5
12119D
  8
SLIM
 10
7935.5737496925258
 20
-255.4459941864034
 30
0.0
 11
7941.24811054159
 21
-249.77163333734029
 31
0.0
1001
GRADIENTCOLOR1ACI
1070
     5
1001
GRADIENTCOLOR2ACI
1070
     2
1001
ACAD
1010
0.0
1020
0.0
1030
0.0
1001
ACDBBLOCKREPETAG
1070
     1
1071
      467
1005
12119D
  0
LINE
  5
12119E
  8
SLIM
 10
8053.0197438789319
 20
-137.99999999999909
 30
0.0
 11
8055.4459941864034
 21
-135.57374969252561
 31
0.0
1001
GRADIENTCOLOR1ACI
1070
     5
1001
GRADIENTCOLOR2ACI
1070
     2
1001
ACAD
1010
0.0
1020
0.0
1030
0.0
1001
ACDBBLOCKREPETAG
1070
     1
1071
      468
1005
12119E
  0
LINE
  5
12119F
  8
SLIM
 10
7939.8959235991442
 20
-260.10407640085572
 30
0.0
 11
7945.5527778486357
 21
-254.44722215136329
 31
0.0
1001
GRADIENTCOLOR1ACI
1070
     5
1001
GRADIENTCOLOR2ACI
1070
     2
1001
ACAD
1010
0.0
1020
0.0
1030
0.0
1001
ACDBBLOCKREPETAG
1070
     1
1071
      469
1005
12119F
  0
LINE
  5
1211A0
  8
SLIM
 10
7944.5540058135948
 20
-264.4262503074724
 30
0.0
 11
7950.2283666626608
 21
-258.75188945840949
 31
0.0
1001
GRADIENTCOLOR1ACI
1070
     5
1001
GRADIENTCOLOR2ACI
1070
     2
1001
ACAD
1010
0.0
1020
0.0
1030
0.0
1001
ACDBBLOCKREPETAG
1070
     1
1071
      470
1005
1211A0
  0
LINE
  5
1211A1
  8
SLIM
 10
7949.5508442108039
 20
-268.40966803133369
 30
0.0
 11
7955.2787198301958
 21
-262.68179241194167
 31
0.0
1001
GRADIENTCOLOR1ACI
1070
     5
1001
GRADIENTCOLOR2ACI
1070
     2
1001
ACAD
1010
0.0
1020
0.0
1030
0.0
1001
ACDBBLOCKREPETAG
1070
     1
1071
      471
1005
1211A1
  0
LINE
  5
1211A2
  8
SLIM
 10
7954.895229465631
 20
-272.04553889757437
 30
0.0
 11
7960.7157753782021
 21
-266.22499298500497
 31
0.0
1001
GRADIENTCOLOR1ACI
1070
     5
1001
GRADIENTCOLOR2ACI
1070
     2
1001
ACAD
1010
0.0
1020
0.0
1030
0.0
1001
ACDBBLOCKREPETAG
1070
     1
1071
      472
1005
1211A2
  0
LINE
  5
1211A3
  8
SLIM
 10
7960.6026880156223
 20
-275.31833646865431
 30
0.0
 11
7966.5609013486683
 21
-269.36012313560622
 31
0.0
1001
GRADIENTCOLOR1ACI
1070
     5
1001
GRADIENTCOLOR2ACI
1070
     2
1001
ACAD
1010
0.0
1020
0.0
1030
0.0
1001
ACDBBLOCKREPETAG
1070
     1
1071
      473
1005
1211A3
  0
LINE
  5
1211A4
  8
SLIM
 10
7966.6969969239663
 20
-278.20428368137868
 30
0.0
 11
7972.8475280011244
 21
-272.05375260422022
 31
0.0
1001
GRADIENTCOLOR1ACI
1070
     5
1001
GRADIENTCOLOR2ACI
1070
     2
1001
ACAD
1010
0.0
1020
0.0
1030
0.0
1001
ACDBBLOCKREPETAG
1070
     1
1071
      474
1005
1211A4
  0
LINE
  5
1211A5
  8
SLIM
 10
7973.2127961327187
 20
-280.66874059369371
 30
0.0
 11
7979.6259186857542
 21
-274.25561804065973
 31
0.0
1001
GRADIENTCOLOR1ACI
1070
     5
1001
GRADIENTCOLOR2ACI
1070
     2
1001
ACAD
1010
0.0
1020
0.0
1030
0.0
1001
ACDBBLOCKREPETAG
1070
     1
1071
      475
1005
1211A5
  0
LINE
  5
1211A6
  8
SLIM
 10
7980.2000585426395
 20
-282.6617343048456
 30
0.0
 11
7986.971940633035
 21
-275.88985221444773
 31
0.0
1001
GRADIENTCOLOR1ACI
1070
     5
1001
GRADIENTCOLOR2ACI
1070
     2
1001
ACAD
1010
0.0
1020
0.0
1030
0.0
1001
ACDBBLOCKREPETAG
1070
     1
1071
      476
1005
1211A6
  0
LINE
  5
1211A7
  8
SLIM
 10
7987.732021589426
 20
-284.11002737912702
 30
0.0
 11
7995.0042797457209
 21
-276.83776922282988
 31
0.0
1001
GRADIENTCOLOR1ACI
1070
     5
1001
GRADIENTCOLOR2ACI
1070
     2
1001
ACAD
1010
0.0
1020
0.0
1030
0.0
1001
ACDBBLOCKREPETAG
1070
     1
1071
      477
1005
1211A7
  0
LINE
  5
1211A8
  8
SLIM
 10
7995.9202686470962
 20
-284.9020364425258
 30
0.0
 11
8000.0
 21
-280.82230508962152
 31
0.0
1001
GRADIENTCOLOR1ACI
1070
     5
1001
GRADIENTCOLOR2ACI
1070
     2
1001
ACAD
1010
0.0
1020
0.0
1030
0.0
1001
ACDBBLOCKREPETAG
1070
     1
1071
      478
1005
1211A8
  0
LINE
  5
1211A9
  8
SLIM
 10
8000.0
 20
-280.82230508962152
 30
0.0
 11
8003.9222672507931
 21
-276.90003783882821
 31
0.0
1001
GRADIENTCOLOR1ACI
1070
     5
1001
GRADIENTCOLOR2ACI
1070
     2
1001
ACAD
1010
0.0
1020
0.0
1030
0.0
1001
ACDBBLOCKREPETAG
1070
     1
1071
      479
1005
1211A9
  0
LINE
  5
1211AA
  8
SLIM
 10
8004.9466187997441
 20
-284.85594241094651
 30
0.0
 11
8014.1055828538756
 21
-275.6969783568166
 31
0.0
1001
GRADIENTCOLOR1ACI
1070
     5
1001
GRADIENTCOLOR2ACI
1070
     2
1001
ACAD
1010
0.0
1020
0.0
1030
0.0
1001
ACDBBLOCKREPETAG
1070
     1
1071
      480
1005
1211AA
  0
LINE
  5
1211AB
  8
SLIM
 10
8015.1424853251401
 20
-283.64033200662118
 30
0.0
 11
8026.478775687543
 21
-272.30404164421702
 31
0.0
1001
GRADIENTCOLOR1ACI
1070
     5
1001
GRADIENTCOLOR2ACI
1070
     2
1001
ACAD
1010
0.0
1020
0.0
1030
0.0
1001
ACDBBLOCKREPETAG
1070
     1
1071
      481
1005
1211AB
  0
LINE
  5
1211AC
  8
SLIM
 10
8027.2492255236657
 20
-280.51384792916173
 30
0.0
 11
8045.7630734528302
 21
-261.99999999999909
 31
0.0
1001
GRADIENTCOLOR1ACI
1070
     5
1001
GRADIENTCOLOR2ACI
1070
     2
1001
ACAD
1010
0.0
1020
0.0
1030
0.0
1001
ACDBBLOCKREPETAG
1070
     1
1071
      482
1005
1211AC
  0
LINE
  5
1211AD
  8
SLIM
 10
8044.045159630421
 20
-272.69816994347582
 30
0.0
 11
8054.7433295739002
 21
-261.99999999999909
 31
0.0
1001
GRADIENTCOLOR1ACI
1070
     5
1001
GRADIENTCOLOR2ACI
1070
     2
1001
ACAD
1010
0.0
1020
0.0
1030
0.0
1001
ACDBBLOCKREPETAG
1070
     1
1071
      483
1005
1211AD
  0
LINE
  5
1211AE
  8
CENTER
 10
8080.0
 20
-199.99999999999909
 30
0.0
 11
7900.0
 21
-199.99999999999909
 31
0.0
1001
ACDBBLOCKREPETAG
1070
     1
1071
      187
1005
1211AE
  0
LINE
  5
1211AF
  8
CENTER
 10
8000.0
 20
-299.99999999999898
 30
0.0
 11
8000.0
 21
-99.999999999999091
 31
0.0
1001
ACDBBLOCKREPETAG
1070
     1
1071
      188
1005
1211AF
  0
CIRCLE
  5
1211B0
  8
OBJECT
 10
8000.0
 20
-199.99999999999909
 30
0.0
 40
70.0
1001
ACDBBLOCKREPETAG
1070
     1
1071
      189
1005
1211B0
  0
CIRCLE
  5
1211B1
  8
OBJECT
 10
8000.0
 20
-199.99999999999909
 30
0.0
 40
77.0
1001
ACDBBLOCKREPETAG
1070
     1
1071
      190
1005
1211B1
  0
LINE
  5
1211B2
  8
OBJECT
 10
8045.6618002273271
 20
-137.99999999999909
 30
0.0
 11
8080.0
 21
-137.99999999999909
 31
0.0
1001
ACDBBLOCKREPETAG
1070
     1
1071
      192
1005
1211B2
  0
LINE
  5
1211B3
  8
OBJECT
 10
8045.6618002273271
 20
-261.99999999999909
 30
0.0
 11
8080.0
 21
-261.99999999999909
 31
0.0
1001
ACDBBLOCKREPETAG
1070
     1
1071
      193
1005
1211B3
  0
ARC
  5
1211B4
  8
OBJECT
 10
8000.0
 20
-199.99999999999909
 30
0.0
 40
85.0
 50
46.83710285981514
 51
313.16289714018478
1001
ACDBBLOCKREPETAG
1070
     1
1071
      202
1005
1211B4
  0
LINE
  5
1211B5
  8
OBJECT
 10
8024.1029330933006
 20
-243.80694712371681
 30
0.0
 11
8020.6596569999974
 21
-232.55462199999889
 31
0.0
1001
ACDBBLOCKREPETAG
1070
     1
1071
      321
1005
1211B5
  0
LINE
  5
1211B6
  8
OBJECT
 10
7986.7927499013749
 20
-218.22553374208019
 30
0.0
 11
8020.6596569999974
 21
-232.5546219999969
 31
0.0
1001
ACDBBLOCKREPETAG
1070
     1
1071
      323
1005
1211B6
  0
ARC
  5
1211B7
  8
OBJECT
 10
7982.8961697618997
 20
-227.4351299990567
 30
0.0
 40
10.0
 50
67.066778292911366
 51
154.0147343702935
1001
ACDBBLOCKREPETAG
1070
     1
1071
      324
1005
1211B7
  0
ARC
  5
1211B8
  8
OBJECT
 10
7986.1488390381273
 20
-225.55386256729159
 30
0.0
 40
7.0
 50
67.066778292911366
 51
154.0147337749826
1001
ACDBBLOCKREPETAG
1070
     1
1071
      325
1005
1211B8
  0
LINE
  5
1211B9
  8
OBJECT
 10
7969.4199755553009
 20
-243.89888500818171
 30
0.0
 11
7979.8564918232369
 21
-222.48688253356801
 31
0.0
1001
ACDBBLOCKREPETAG
1070
     1
1071
      353
1005
1211B9
  0
LINE
  5
1211BA
  8
OBJECT
 10
7965.2972169006098
 20
-240.71813901882729
 30
0.0
 11
7973.9071022665084
 21
-223.05373004430751
 31
0.0
1001
ACDBBLOCKREPETAG
1070
     1
1071
      354
1005
1211BA
  0
ARC
  5
1211BB
  8
OBJECT
 10
7976.5796953073141
 20
-207.1289369828437
 30
0.0
 40
60.031113246032611
 50
314.07020130418567
 51
322.33936106089681
1001
ACDBBLOCKREPETAG
1070
     1
1071
      355
1005
1211BB
  0
CIRCLE
  5
1211BC
  8
OBJECT
 10
8000.0
 20
-199.99999999999909
 30
0.0
 40
53.5
1001
ACDBBLOCKREPETAG
1070
     1
1071
      356
1005
1211BC
  0
POINT
  5
1211BD
  8
DOTS
 10
8000.0
 20
-199.99999999999909
 30
0.0
 50
270.0
1001
ACDBBLOCKREPETAG
1070
     1
1071
      365
1005
1211BD
  0
LINE
  5
1211BE
  8
OBJECT
 10
8083.0
 20
-534.0
 30
0.0
 11
8080.0
 21
-534.0
 31
0.0
1001
ACDBBLOCKREPETAG
1070
     1
1071
        1
1005
1211BE
  0
ARC
  5
1211BF
  8
OBJECT
 10
8083.0
 20
-537.0
 30
0.0
 40
3.0
 50
0.0
 51
90.0
1001
ACDBBLOCKREPETAG
1070
     1
1071
        2
1005
1211BF
  0
LINE
  5
1211C0
  8
OBJECT
 10
8080.0
 20
-658.0
 30
0.0
 11
8083.0
 21
-658.0
 31
0.0
1001
ACDBBLOCKREPETAG
1070
     1
1071
        3
1005
1211C0
  0
ARC
  5
1211C1
  8
OBJECT
 10
8083.0
 20
-655.0
 30
0.0
 40
3.0
 50
270.0
 51
0.0
1001
ACDBBLOCKREPETAG
1070
     1
1071
        4
1005
1211C1
  0
LINE
  5
1211C2
  8
OBJECT
 10
8086.0
 20
-655.0
 30
0.0
 11
8086.0
 21
-537.0
 31
0.0
1001
ACDBBLOCKREPETAG
1070
     1
1071
        5
1005
1211C2
  0
LINE
  5
1211C3
  8
CENTER
 10
8101.0
 20
-199.99999999999909
 30
0.0
 11
8080.0
 21
-199.99999999999909
 31
0.0
1001
ACDBBLOCKREPETAG
1070
     1
1071
        0
1005
1211C3
  0
LINE
  5
1211C4
  8
OBJECT
 10
8083.0
 20
-137.99999999999909
 30
0.0
 11
8080.0
 21
-137.99999999999909
 31
0.0
1001
ACDBBLOCKREPETAG
1070
     1
1071
        1
1005
1211C4
  0
ARC
  5
1211C5
  8
OBJECT
 10
8083.0
 20
-140.99999999999909
 30
0.0
 40
3.0
 50
0.0
 51
90.0
1001
ACDBBLOCKREPETAG
1070
     1
1071
        2
1005
1211C5
  0
LINE
  5
1211C6
  8
OBJECT
 10
8080.0
 20
-261.99999999999909
 30
0.0
 11
8083.0
 21
-261.99999999999909
 31
0.0
1001
ACDBBLOCKREPETAG
1070
     1
1071
        3
1005
1211C6
  0
ARC
  5
1211C7
  8
OBJECT
 10
8083.0
 20
-258.99999999999909
 30
0.0
 40
3.0
 50
270.0
 51
0.0
1001
ACDBBLOCKREPETAG
1070
     1
1071
        4
1005
1211C7
  0
LINE
  5
1211C8
  8
OBJECT
 10
8086.0
 20
-258.99999999999909
 30
0.0
 11
8086.0
 21
-140.99999999999909
 31
0.0
1001
ACDBBLOCKREPETAG
1070
     1
1071
        5
1005
1211C8
  0
LINE
  5
1211C9
  8
OBJECT
 10
6024.1029330933034
 20
-243.80694712371681
 30
0.0
 11
6020.6596569999956
 21
-232.55462199999889
 31
0.0
1001
ACDBBLOCKREPETAG
1070
     1
1071
      300
1005
1211C9
  0
LINE
  5
1211CA
  8
OBJECT
 10
5986.7927499013749
 20
-218.22553374208019
 30
0.0
 11
6020.6596569999956
 21
-232.5546219999969
 31
0.0
1001
ACDBBLOCKREPETAG
1070
     1
1071
      302
1005
1211CA
  0
ARC
  5
1211CB
  8
OBJECT
 10
5982.8961697618997
 20
-227.4351299990567
 30
0.0
 40
10.0
 50
67.066778292911366
 51
154.0147343702935
1001
ACDBBLOCKREPETAG
1070
     1
1071
      303
1005
1211CB
  0
ARC
  5
1211CC
  8
OBJECT
 10
5986.1488390381273
 20
-225.55386256729159
 30
0.0
 40
7.0
 50
67.066778292911366
 51
154.0147337749826
1001
ACDBBLOCKREPETAG
1070
     1
1071
      304
1005
1211CC
  0
LINE
  5
1211CD
  8
OBJECT
 10
5969.4199755553018
 20
-243.89888500818171
 30
0.0
 11
5979.8564918232369
 21
-222.48688253356801
 31
0.0
1001
ACDBBLOCKREPETAG
1070
     1
1071
      341
1005
1211CD
  0
LINE
  5
1211CE
  8
OBJECT
 10
5965.2972169006089
 20
-240.71813901882729
 30
0.0
 11
5973.9071022665084
 21
-223.05373004430751
 31
0.0
1001
ACDBBLOCKREPETAG
1070
     1
1071
      342
1005
1211CE
  0
ARC
  5
1211CF
  8
OBJECT
 10
5976.5796953073141
 20
-207.1289369828437
 30
0.0
 40
60.031113246032611
 50
314.07020130418567
 51
322.33936106089681
1001
ACDBBLOCKREPETAG
1070
     1
1071
      343
1005
1211CF
  0
CIRCLE
  5
1211D0
  8
OBJECT
 10
6000.0
 20
-199.99999999999909
 30
0.0
 40
53.5
1001
ACDBBLOCKREPETAG
1070
     1
1071
      344
1005
1211D0
  0
POINT
  5
1211D1
  8
DOTS
 10
6000.0
 20
-199.99999999999909
 30
0.0
 50
270.0
1001
ACDBBLOCKREPETAG
1070
     1
1071
      362
1005
1211D1
  0
ARC
  5
1211D2
  8
OBJECT
 10
6000.0
 20
-199.99999999999909
 30
0.0
 40
50.0
 50
298.81994300000417
 51
228.52376955965491
1001
ACDBBLOCKREPETAG
1070
     1
1071
        7
1005
1211D2
  0
LINE
  5
1211D3
  8
CENTER
 10
6080.0
 20
-199.99999999999909
 30
0.0
 11
5905.0
 21
-199.99999999999909
 31
0.0
1001
ACDBBLOCKREPETAG
1070
     1
1071
       14
1005
1211D3
  0
LINE
  5
1211D4
  8
CENTER
 10
6000.0
 20
-294.99999999999898
 30
0.0
 11
6000.0
 21
-104.9999999999991
 31
0.0
1001
ACDBBLOCKREPETAG
1070
     1
1071
       15
1005
1211D4
  0
CIRCLE
  5
1211D5
  8
OBJECT
 10
6000.0
 20
-199.99999999999909
 30
0.0
 40
70.0
1001
ACDBBLOCKREPETAG
1070
     1
1071
       16
1005
1211D5
  0
CIRCLE
  5
1211D6
  8
OBJECT
 10
6000.0
 20
-199.99999999999909
 30
0.0
 40
77.0
1001
ACDBBLOCKREPETAG
1070
     1
1071
       17
1005
1211D6
  0
ARC
  5
1211D7
  8
OBJECT
 10
6000.0
 20
-199.99999999999909
 30
0.0
 40
80.0
 50
50.80503257388439
 51
309.19496742611562
1001
ACDBBLOCKREPETAG
1070
     1
1071
       18
1005
1211D7
  0
LINE
  5
1211D8
  8
OBJECT
 10
6045.6618002273253
 20
-137.99999999999909
 30
0.0
 11
6080.0
 21
-137.99999999999909
 31
0.0
1001
ACDBBLOCKREPETAG
1070
     1
1071
       19
1005
1211D8
  0
LINE
  5
1211D9
  8
OBJECT
 10
6045.6618002273253
 20
-261.99999999999909
 30
0.0
 11
6080.0
 21
-261.99999999999909
 31
0.0
1001
ACDBBLOCKREPETAG
1070
     1
1071
       20
1005
1211D9
  0
LINE
  5
1211DA
  8
OBJECT
 10
6083.0
 20
-534.0
 30
0.0
 11
6080.0
 21
-534.0
 31
0.0
1001
ACDBBLOCKREPETAG
1070
     1
1071
        1
1005
1211DA
  0
ARC
  5
1211DB
  8
OBJECT
 10
6083.0
 20
-537.0
 30
0.0
 40
3.0
 50
0.0
 51
90.0
1001
ACDBBLOCKREPETAG
1070
     1
1071
        2
1005
1211DB
  0
LINE
  5
1211DC
  8
OBJECT
 10
6080.0
 20
-658.0
 30
0.0
 11
6083.0
 21
-658.0
 31
0.0
1001
ACDBBLOCKREPETAG
1070
     1
1071
        3
1005
1211DC
  0
ARC
  5
1211DD
  8
OBJECT
 10
6083.0
 20
-655.0
 30
0.0
 40
3.0
 50
270.0
 51
0.0
1001
ACDBBLOCKREPETAG
1070
     1
1071
        4
1005
1211DD
  0
LINE
  5
1211DE
  8
OBJECT
 10
6086.0
 20
-655.0
 30
0.0
 11
6086.0
 21
-537.0
 31
0.0
1001
ACDBBLOCKREPETAG
1070
     1
1071
        5
1005
1211DE
  0
LINE
  5
1211DF
  8
CENTER
 10
6101.0
 20
-199.99999999999909
 30
0.0
 11
6080.0
 21
-199.99999999999909
 31
0.0
1001
ACDBBLOCKREPETAG
1070
     1
1071
        0
1005
1211DF
  0
LINE
  5
1211E0
  8
OBJECT
 10
6083.0
 20
-137.99999999999909
 30
0.0
 11
6080.0
 21
-137.99999999999909
 31
0.0
1001
ACDBBLOCKREPETAG
1070
     1
1071
        1
1005
1211E0
  0
ARC
  5
1211E1
  8
OBJECT
 10
6083.0
 20
-140.99999999999909
 30
0.0
 40
3.0
 50
0.0
 51
90.0
1001
ACDBBLOCKREPETAG
1070
     1
1071
        2
1005
1211E1
  0
LINE
  5
1211E2
  8
OBJECT
 10
6080.0
 20
-261.99999999999909
 30
0.0
 11
6083.0
 21
-261.99999999999909
 31
0.0
1001
ACDBBLOCKREPETAG
1070
     1
1071
        3
1005
1211E2
  0
ARC
  5
1211E3
  8
OBJECT
 10
6083.0
 20
-258.99999999999909
 30
0.0
 40
3.0
 50
270.0
 51
0.0
1001
ACDBBLOCKREPETAG
1070
     1
1071
        4
1005
1211E3
  0
LINE
  5
1211E4
  8
OBJECT
 10
6086.0
 20
-258.99999999999909
 30
0.0
 11
6086.0
 21
-140.99999999999909
 31
0.0
1001
ACDBBLOCKREPETAG
1070
     1
1071
        5
1005
1211E4
  0
LINE
  5
1211E5
  8
OBJECT
 10
4024.102933093302
 20
-243.80694712371681
 30
0.0
 11
4020.6596569999951
 21
-232.55462199999889
 31
0.0
1001
ACDBBLOCKREPETAG
1070
     1
1071
      300
1005
1211E5
  0
LINE
  5
1211E6
  8
OBJECT
 10
3986.7927499013749
 20
-218.22553374208019
 30
0.0
 11
4020.6596569999951
 21
-232.5546219999969
 31
0.0
1001
ACDBBLOCKREPETAG
1070
     1
1071
      302
1005
1211E6
  0
ARC
  5
1211E7
  8
OBJECT
 10
3982.896169761902
 20
-227.4351299990567
 30
0.0
 40
10.0
 50
67.066778292911366
 51
154.0147343702935
1001
ACDBBLOCKREPETAG
1070
     1
1071
      303
1005
1211E7
  0
ARC
  5
1211E8
  8
OBJECT
 10
3986.1488390381278
 20
-225.55386256729159
 30
0.0
 40
7.0
 50
67.066778292911366
 51
154.01473377497121
1001
ACDBBLOCKREPETAG
1070
     1
1071
      304
1005
1211E8
  0
LINE
  5
1211E9
  8
OBJECT
 10
3969.4199755553018
 20
-243.89888500818171
 30
0.0
 11
3979.8564918232369
 21
-222.48688253356801
 31
0.0
1001
ACDBBLOCKREPETAG
1070
     1
1071
      341
1005
1211E9
  0
LINE
  5
1211EA
  8
OBJECT
 10
3965.2972169006089
 20
-240.71813901882729
 30
0.0
 11
3973.9071022665089
 21
-223.05373004430751
 31
0.0
1001
ACDBBLOCKREPETAG
1070
     1
1071
      342
1005
1211EA
  0
ARC
  5
1211EB
  8
OBJECT
 10
3976.579695307315
 20
-207.1289369828437
 30
0.0
 40
60.031113246032611
 50
314.07020130418567
 51
322.33936106091278
1001
ACDBBLOCKREPETAG
1070
     1
1071
      343
1005
1211EB
  0
CIRCLE
  5
1211EC
  8
OBJECT
 10
4000.0
 20
-199.99999999999909
 30
0.0
 40
53.5
1001
ACDBBLOCKREPETAG
1070
     1
1071
      344
1005
1211EC
  0
POINT
  5
1211ED
  8
DOTS
 10
4000.0
 20
-199.99999999999909
 30
0.0
 50
270.0
1001
ACDBBLOCKREPETAG
1070
     1
1071
      362
1005
1211ED
  0
ARC
  5
1211EE
  8
OBJECT
 10
4000.0
 20
-199.99999999999909
 30
0.0
 40
50.0
 50
298.81994300000417
 51
228.52376955967449
1001
ACDBBLOCKREPETAG
1070
     1
1071
        7
1005
1211EE
  0
LINE
  5
1211EF
  8
CENTER
 10
4080.0
 20
-199.99999999999909
 30
0.0
 11
3905.0
 21
-199.99999999999909
 31
0.0
1001
ACDBBLOCKREPETAG
1070
     1
1071
       14
1005
1211EF
  0
LINE
  5
1211F0
  8
CENTER
 10
4000.0
 20
-294.99999999999898
 30
0.0
 11
4000.0
 21
-104.9999999999991
 31
0.0
1001
ACDBBLOCKREPETAG
1070
     1
1071
       15
1005
1211F0
  0
CIRCLE
  5
1211F1
  8
OBJECT
 10
4000.0
 20
-199.99999999999909
 30
0.0
 40
70.0
1001
ACDBBLOCKREPETAG
1070
     1
1071
       16
1005
1211F1
  0
CIRCLE
  5
1211F2
  8
OBJECT
 10
4000.0
 20
-199.99999999999909
 30
0.0
 40
77.0
1001
ACDBBLOCKREPETAG
1070
     1
1071
       17
1005
1211F2
  0
ARC
  5
1211F3
  8
OBJECT
 10
4000.0
 20
-199.99999999999909
 30
0.0
 40
80.0
 50
50.805032573864182
 51
309.1949674261358
1001
ACDBBLOCKREPETAG
1070
     1
1071
       18
1005
1211F3
  0
LINE
  5
1211F4
  8
OBJECT
 10
4045.661800227324
 20
-137.99999999999909
 30
0.0
 11
4080.0
 21
-137.99999999999909
 31
0.0
1001
ACDBBLOCKREPETAG
1070
     1
1071
       19
1005
1211F4
  0
LINE
  5
1211F5
  8
OBJECT
 10
4045.661800227324
 20
-261.99999999999909
 30
0.0
 11
4080.0
 21
-261.99999999999909
 31
0.0
1001
ACDBBLOCKREPETAG
1070
     1
1071
       20
1005
1211F5
  0
LINE
  5
1211F6
  8
OBJECT
 10
4083.0
 20
-534.0
 30
0.0
 11
4080.0
 21
-534.0
 31
0.0
1001
ACDBBLOCKREPETAG
1070
     1
1071
        1
1005
1211F6
  0
ARC
  5
1211F7
  8
OBJECT
 10
4083.0
 20
-537.0
 30
0.0
 40
3.0
 50
0.0
 51
90.0
1001
ACDBBLOCKREPETAG
1070
     1
1071
        2
1005
1211F7
  0
LINE
  5
1211F8
  8
OBJECT
 10
4080.0
 20
-658.0
 30
0.0
 11
4083.0
 21
-658.0
 31
0.0
1001
ACDBBLOCKREPETAG
1070
     1
1071
        3
1005
1211F8
  0
ARC
  5
1211F9
  8
OBJECT
 10
4083.0
 20
-655.0
 30
0.0
 40
3.0
 50
270.0
 51
0.0
1001
ACDBBLOCKREPETAG
1070
     1
1071
        4
1005
1211F9
  0
LINE
  5
1211FA
  8
OBJECT
 10
4086.0
 20
-655.0
 30
0.0
 11
4086.0
 21
-537.0
 31
0.0
1001
ACDBBLOCKREPETAG
1070
     1
1071
        5
1005
1211FA
  0
LINE
  5
1211FB
  8
CENTER
 10
4101.0
 20
-199.99999999999909
 30
0.0
 11
4080.0
 21
-199.99999999999909
 31
0.0
1001
ACDBBLOCKREPETAG
1070
     1
1071
        0
1005
1211FB
  0
LINE
  5
1211FC
  8
OBJECT
 10
4083.0
 20
-137.99999999999909
 30
0.0
 11
4080.0
 21
-137.99999999999909
 31
0.0
1001
ACDBBLOCKREPETAG
1070
     1
1071
        1
1005
1211FC
  0
ARC
  5
1211FD
  8
OBJECT
 10
4083.0
 20
-140.99999999999909
 30
0.0
 40
3.0
 50
0.0
 51
90.0
1001
ACDBBLOCKREPETAG
1070
     1
1071
        2
1005
1211FD
  0
LINE
  5
1211FE
  8
OBJECT
 10
4080.0
 20
-261.99999999999909
 30
0.0
 11
4083.0
 21
-261.99999999999909
 31
0.0
1001
ACDBBLOCKREPETAG
1070
     1
1071
        3
1005
1211FE
  0
ARC
  5
1211FF
  8
OBJECT
 10
4083.0
 20
-258.99999999999909
 30
0.0
 40
3.0
 50
270.0
 51
0.0
1001
ACDBBLOCKREPETAG
1070
     1
1071
        4
1005
1211FF
  0
LINE
  5
121200
  8
OBJECT
 10
4086.0
 20
-258.99999999999909
 30
0.0
 11
4086.0
 21
-140.99999999999909
 31
0.0
1001
ACDBBLOCKREPETAG
1070
     1
1071
        5
1005
121200
  0
LINE
  5
121201
  8
OBJECT
 10
11923.0
 20
-470.99999999999937
 30
0.0
 11
11923.0
 21
-449.99999999999937
 31
0.0
1001
ACDBBLOCKREPETAG
1070
     1
1071
        0
1005
121201
  0
LINE
  5
121202
  8
OBJECT
 10
11923.0
 20
-449.99999999999937
 30
0.0
 11
12077.0
 21
-449.99999999999937
 31
0.0
1001
ACDBBLOCKREPETAG
1070
     1
1071
        1
1005
121202
  0
LINE
  5
121203
  8
HIDDEN
 10
11943.0
 20
-519.99999999999955
 30
0.0
 11
12057.0
 21
-519.99999999999955
 31
0.0
1001
ACDBBLOCKREPETAG
1070
     1
1071
        2
1005
121203
  0
LINE
  5
121204
  8
OBJECT
 10
12077.0
 20
-449.99999999999937
 30
0.0
 11
12077.0
 21
-470.99999999999937
 31
0.0
1001
ACDBBLOCKREPETAG
1070
     1
1071
        3
1005
121204
  0
LINE
  5
121205
  8
OBJECT
 10
12077.0
 20
-470.99999999999937
 30
0.0
 11
11923.0
 21
-470.99999999999937
 31
0.0
1001
ACDBBLOCKREPETAG
1070
     1
1071
        4
1005
121205
  0
LINE
  5
121206
  8
CENTER
 10
12000.0
 20
-434.99999999999949
 30
0.0
 11
12000.0
 21
-789.99999999999955
 31
0.0
1001
ACDBBLOCKREPETAG
1070
     1
1071
        5
1005
121206
  0
LINE
  5
121207
  8
OBJECT
 10
11925.0
 20
-533.99999999999955
 30
0.0
 11
11925.0
 21
-777.99999999999955
 31
0.0
1001
ACDBBLOCKREPETAG
1070
     1
1071
        6
1005
121207
  0
LINE
  5
121208
  8
OBJECT
 10
11928.0
 20
-470.99999999999937
 30
0.0
 11
11928.0
 21
-533.99999999999955
 31
0.0
1001
ACDBBLOCKREPETAG
1070
     1
1071
        7
1005
121208
  0
LINE
  5
121209
  8
OBJECT
 10
12072.0
 20
-533.99999999999955
 30
0.0
 11
12072.0
 21
-470.99999999999937
 31
0.0
1001
ACDBBLOCKREPETAG
1070
     1
1071
        8
1005
121209
  0
LINE
  5
12120A
  8
OBJECT
 10
11920.0
 20
-777.99999999999955
 30
0.0
 11
12080.0
 21
-777.99999999999955
 31
0.0
1001
ACDBBLOCKREPETAG
1070
     1
1071
        9
1005
12120A
  0
LINE
  5
12120B
  8
OBJECT
 10
12080.0
 20
-533.99999999999955
 30
0.0
 11
11925.0
 21
-533.99999999999955
 31
0.0
1001
ACDBBLOCKREPETAG
1070
     1
1071
       10
1005
12120B
  0
LINE
  5
12120C
  8
OBJECT
 10
11920.0
 20
-777.99999999999955
 30
0.0
 11
11920.0
 21
-789.99999999999955
 31
0.0
1001
ACDBBLOCKREPETAG
1070
     1
1071
       11
1005
12120C
  0
LINE
  5
12120D
  8
OBJECT
 10
11920.0
 20
-789.99999999999955
 30
0.0
 11
12080.0
 21
-789.99999999999955
 31
0.0
1001
ACDBBLOCKREPETAG
1070
     1
1071
       12
1005
12120D
  0
LINE
  5
12120E
  8
OBJECT
 10
12080.0
 20
-789.99999999999955
 30
0.0
 11
12080.0
 21
-777.99999999999955
 31
0.0
1001
ACDBBLOCKREPETAG
1070
     1
1071
       13
1005
12120E
  0
LINE
  5
12120F
  8
OBJECT
 10
12074.99999999986
 20
-657.99999999985039
 30
0.0
 11
12075.0
 21
-777.99999999999955
 31
0.0
1001
ACDBBLOCKREPETAG
1070
     1
1071
       15
1005
12120F
  0
LINE
  5
121210
  8
OBJECT
 10
12074.99999080298
 20
-657.99998602702135
 30
0.0
 11
12080.0
 21
-657.99998602702135
 31
0.0
1001
ACDBBLOCKREPETAG
1070
     1
1071
       16
1005
121210
  0
ARC
  5
121211
  8
OBJECT
 10
12200.687274671671
 20
-649.40809941010718
 30
0.0
 40
170.6350503965856
 50
137.44134459184301
 51
149.91949581337221
1001
ACDBBLOCKREPETAG
1070
     1
1071
       17
1005
121211
  0
ARC
  5
121212
  8
OBJECT
 10
12118.845598704051
 20
-605.88272669536445
 30
0.0
 40
78.072222021763665
 50
147.4551531038623
 51
164.6636599771729
1001
ACDBBLOCKREPETAG
1070
     1
1071
       18
1005
121212
  0
ARC
  5
121213
  8
OBJECT
 10
12085.755434960871
 20
-595.99999999999955
 30
0.0
 40
43.55353926885617
 50
165.688452300753
 51
194.3115476992468
1001
ACDBBLOCKREPETAG
1070
     1
1071
       19
1005
121213
  0
ARC
  5
121214
  8
OBJECT
 10
12200.687274671671
 20
-542.59190058989179
 30
0.0
 40
170.6350503965856
 50
210.08050418662771
 51
222.55865540815699
1001
ACDBBLOCKREPETAG
1070
     1
1071
       20
1005
121214
  0
ARC
  5
121215
  8
OBJECT
 10
12118.845598704051
 20
-586.11727330463452
 30
0.0
 40
78.072222021763665
 50
195.3363400228271
 51
212.5448468961377
1001
ACDBBLOCKREPETAG
1070
     1
1071
       21
1005
121215
  0
POINT
  5
121216
  8
DOTS
 10
12000.0
 20
-654.99999999999966
 30
0.0
1001
ACDBBLOCKREPETAG
1070
     1
1071
      187
1005
121216
  0
LINE
  5
121217
  8
OBJECT
 10
9923.0
 20
-470.99999999999937
 30
0.0
 11
9923.0
 21
-449.99999999999937
 31
0.0
1001
ACDBBLOCKREPETAG
1070
     1
1071
        0
1005
121217
  0
LINE
  5
121218
  8
OBJECT
 10
9923.0
 20
-449.99999999999937
 30
0.0
 11
10077.0
 21
-449.99999999999937
 31
0.0
1001
ACDBBLOCKREPETAG
1070
     1
1071
        1
1005
121218
  0
LINE
  5
121219
  8
HIDDEN
 10
9943.0
 20
-519.99999999999955
 30
0.0
 11
10057.0
 21
-519.99999999999955
 31
0.0
1001
ACDBBLOCKREPETAG
1070
     1
1071
        2
1005
121219
  0
LINE
  5
12121A
  8
OBJECT
 10
10077.0
 20
-449.99999999999937
 30
0.0
 11
10077.0
 21
-470.99999999999937
 31
0.0
1001
ACDBBLOCKREPETAG
1070
     1
1071
        3
1005
12121A
  0
LINE
  5
12121B
  8
OBJECT
 10
10077.0
 20
-470.99999999999937
 30
0.0
 11
9923.0
 21
-470.99999999999937
 31
0.0
1001
ACDBBLOCKREPETAG
1070
     1
1071
        4
1005
12121B
  0
LINE
  5
12121C
  8
CENTER
 10
10000.0
 20
-434.99999999999949
 30
0.0
 11
10000.0
 21
-789.99999999999955
 31
0.0
1001
ACDBBLOCKREPETAG
1070
     1
1071
        5
1005
12121C
  0
LINE
  5
12121D
  8
OBJECT
 10
9925.0
 20
-533.99999999999955
 30
0.0
 11
9925.0
 21
-777.99999999999955
 31
0.0
1001
ACDBBLOCKREPETAG
1070
     1
1071
        6
1005
12121D
  0
LINE
  5
12121E
  8
OBJECT
 10
9928.0
 20
-470.99999999999937
 30
0.0
 11
9928.0
 21
-533.99999999999955
 31
0.0
1001
ACDBBLOCKREPETAG
1070
     1
1071
        7
1005
12121E
  0
LINE
  5
12121F
  8
OBJECT
 10
10072.0
 20
-533.99999999999955
 30
0.0
 11
10072.0
 21
-470.99999999999937
 31
0.0
1001
ACDBBLOCKREPETAG
1070
     1
1071
        8
1005
12121F
  0
LINE
  5
121220
  8
OBJECT
 10
9920.0
 20
-777.99999999999955
 30
0.0
 11
10080.0
 21
-777.99999999999955
 31
0.0
1001
ACDBBLOCKREPETAG
1070
     1
1071
        9
1005
121220
  0
LINE
  5
121221
  8
OBJECT
 10
10080.0
 20
-533.99999999999955
 30
0.0
 11
9925.0
 21
-533.99999999999955
 31
0.0
1001
ACDBBLOCKREPETAG
1070
     1
1071
       10
1005
121221
  0
LINE
  5
121222
  8
OBJECT
 10
9920.0
 20
-777.99999999999955
 30
0.0
 11
9920.0
 21
-789.99999999999955
 31
0.0
1001
ACDBBLOCKREPETAG
1070
     1
1071
       11
1005
121222
  0
LINE
  5
121223
  8
OBJECT
 10
9920.0
 20
-789.99999999999955
 30
0.0
 11
10080.0
 21
-789.99999999999955
 31
0.0
1001
ACDBBLOCKREPETAG
1070
     1
1071
       12
1005
121223
  0
LINE
  5
121224
  8
OBJECT
 10
10080.0
 20
-789.99999999999955
 30
0.0
 11
10080.0
 21
-777.99999999999955
 31
0.0
1001
ACDBBLOCKREPETAG
1070
     1
1071
       13
1005
121224
  0
LINE
  5
121225
  8
OBJECT
 10
10074.99999999986
 20
-657.99999999985039
 30
0.0
 11
10075.0
 21
-777.99999999999955
 31
0.0
1001
ACDBBLOCKREPETAG
1070
     1
1071
       15
1005
121225
  0
LINE
  5
121226
  8
OBJECT
 10
10074.99999080298
 20
-657.99998602702135
 30
0.0
 11
10080.0
 21
-657.99998602702135
 31
0.0
1001
ACDBBLOCKREPETAG
1070
     1
1071
       16
1005
121226
  0
ARC
  5
121227
  8
OBJECT
 10
10200.687274671671
 20
-649.40809941010718
 30
0.0
 40
170.6350503965856
 50
137.44134459184301
 51
149.91949581337221
1001
ACDBBLOCKREPETAG
1070
     1
1071
       17
1005
121227
  0
ARC
  5
121228
  8
OBJECT
 10
10118.845598704051
 20
-605.88272669536445
 30
0.0
 40
78.072222021763665
 50
147.4551531038623
 51
164.6636599771729
1001
ACDBBLOCKREPETAG
1070
     1
1071
       18
1005
121228
  0
ARC
  5
121229
  8
OBJECT
 10
10085.755434960871
 20
-595.99999999999955
 30
0.0
 40
43.55353926885617
 50
165.688452300753
 51
194.3115476992468
1001
ACDBBLOCKREPETAG
1070
     1
1071
       19
1005
121229
  0
ARC
  5
12122A
  8
OBJECT
 10
10200.687274671671
 20
-542.59190058989179
 30
0.0
 40
170.6350503965856
 50
210.08050418662771
 51
222.55865540815699
1001
ACDBBLOCKREPETAG
1070
     1
1071
       20
1005
12122A
  0
ARC
  5
12122B
  8
OBJECT
 10
10118.845598704051
 20
-586.11727330463452
 30
0.0
 40
78.072222021763665
 50
195.3363400228271
 51
212.5448468961377
1001
ACDBBLOCKREPETAG
1070
     1
1071
       21
1005
12122B
  0
POINT
  5
12122C
  8
DOTS
 10
10000.0
 20
-654.99999999999966
 30
0.0
1001
ACDBBLOCKREPETAG
1070
     1
1071
      187
1005
12122C
  0
LINE
  5
12122D
  8
OBJECT
 10
7923.0
 20
-470.99999999999937
 30
0.0
 11
7923.0
 21
-449.99999999999937
 31
0.0
1001
ACDBBLOCKREPETAG
1070
     1
1071
        0
1005
12122D
  0
LINE
  5
12122E
  8
OBJECT
 10
7923.0
 20
-449.99999999999937
 30
0.0
 11
8077.0
 21
-449.99999999999937
 31
0.0
1001
ACDBBLOCKREPETAG
1070
     1
1071
        1
1005
12122E
  0
LINE
  5
12122F
  8
HIDDEN
 10
7943.0
 20
-519.99999999999955
 30
0.0
 11
8057.0
 21
-519.99999999999955
 31
0.0
1001
ACDBBLOCKREPETAG
1070
     1
1071
        2
1005
12122F
  0
LINE
  5
121230
  8
OBJECT
 10
8077.0
 20
-449.99999999999937
 30
0.0
 11
8077.0
 21
-470.99999999999937
 31
0.0
1001
ACDBBLOCKREPETAG
1070
     1
1071
        3
1005
121230
  0
LINE
  5
121231
  8
OBJECT
 10
8077.0
 20
-470.99999999999937
 30
0.0
 11
7923.0
 21
-470.99999999999937
 31
0.0
1001
ACDBBLOCKREPETAG
1070
     1
1071
        4
1005
121231
  0
LINE
  5
121232
  8
CENTER
 10
8000.0
 20
-434.99999999999949
 30
0.0
 11
8000.0
 21
-789.99999999999955
 31
0.0
1001
ACDBBLOCKREPETAG
1070
     1
1071
        5
1005
121232
  0
LINE
  5
121233
  8
OBJECT
 10
7925.0
 20
-533.99999999999955
 30
0.0
 11
7925.0
 21
-777.99999999999955
 31
0.0
1001
ACDBBLOCKREPETAG
1070
     1
1071
        6
1005
121233
  0
LINE
  5
121234
  8
OBJECT
 10
7928.0
 20
-470.99999999999937
 30
0.0
 11
7928.0
 21
-533.99999999999955
 31
0.0
1001
ACDBBLOCKREPETAG
1070
     1
1071
        7
1005
121234
  0
LINE
  5
121235
  8
OBJECT
 10
8072.0
 20
-533.99999999999955
 30
0.0
 11
8072.0
 21
-470.99999999999937
 31
0.0
1001
ACDBBLOCKREPETAG
1070
     1
1071
        8
1005
121235
  0
LINE
  5
121236
  8
OBJECT
 10
7920.0
 20
-777.99999999999955
 30
0.0
 11
8080.0
 21
-777.99999999999955
 31
0.0
1001
ACDBBLOCKREPETAG
1070
     1
1071
        9
1005
121236
  0
LINE
  5
121237
  8
OBJECT
 10
8080.0
 20
-533.99999999999955
 30
0.0
 11
7925.0
 21
-533.99999999999955
 31
0.0
1001
ACDBBLOCKREPETAG
1070
     1
1071
       10
1005
121237
  0
LINE
  5
121238
  8
OBJECT
 10
7920.0
 20
-777.99999999999955
 30
0.0
 11
7920.0
 21
-789.99999999999955
 31
0.0
1001
ACDBBLOCKREPETAG
1070
     1
1071
       11
1005
121238
  0
LINE
  5
121239
  8
OBJECT
 10
7920.0
 20
-789.99999999999955
 30
0.0
 11
8080.0
 21
-789.99999999999955
 31
0.0
1001
ACDBBLOCKREPETAG
1070
     1
1071
       12
1005
121239
  0
LINE
  5
12123A
  8
OBJECT
 10
8080.0
 20
-789.99999999999955
 30
0.0
 11
8080.0
 21
-777.99999999999955
 31
0.0
1001
ACDBBLOCKREPETAG
1070
     1
1071
       13
1005
12123A
  0
LINE
  5
12123B
  8
OBJECT
 10
8074.9999999998618
 20
-657.99999999985039
 30
0.0
 11
8075.0
 21
-777.99999999999955
 31
0.0
1001
ACDBBLOCKREPETAG
1070
     1
1071
       15
1005
12123B
  0
LINE
  5
12123C
  8
OBJECT
 10
8074.9999908029858
 20
-657.99998602702135
 30
0.0
 11
8080.0
 21
-657.99998602702135
 31
0.0
1001
ACDBBLOCKREPETAG
1070
     1
1071
       16
1005
12123C
  0
ARC
  5
12123D
  8
OBJECT
 10
8200.6872746716726
 20
-649.40809941010718
 30
0.0
 40
170.6350503965856
 50
137.44134459184301
 51
149.91949581337221
1001
ACDBBLOCKREPETAG
1070
     1
1071
       17
1005
12123D
  0
ARC
  5
12123E
  8
OBJECT
 10
8118.8455987040506
 20
-605.88272669536445
 30
0.0
 40
78.072222021763665
 50
147.4551531038623
 51
164.66365997718671
1001
ACDBBLOCKREPETAG
1070
     1
1071
       18
1005
12123E
  0
ARC
  5
12123F
  8
OBJECT
 10
8085.7554349608708
 20
-595.99999999999955
 30
0.0
 40
43.55353926885617
 50
165.688452300753
 51
194.3115476992468
1001
ACDBBLOCKREPETAG
1070
     1
1071
       19
1005
12123F
  0
ARC
  5
121240
  8
OBJECT
 10
8200.6872746716726
 20
-542.59190058989179
 30
0.0
 40
170.6350503965856
 50
210.08050418662771
 51
222.55865540815699
1001
ACDBBLOCKREPETAG
1070
     1
1071
       20
1005
121240
  0
ARC
  5
121241
  8
OBJECT
 10
8118.8455987040506
 20
-586.11727330463452
 30
0.0
 40
78.072222021763665
 50
195.3363400228132
 51
212.5448468961377
1001
ACDBBLOCKREPETAG
1070
     1
1071
       21
1005
121241
  0
POINT
  5
121242
  8
DOTS
 10
8000.0
 20
-654.99999999999966
 30
0.0
1001
ACDBBLOCKREPETAG
1070
     1
1071
      187
1005
121242
  0
LINE
  5
121243
  8
OBJECT
 10
5923.0
 20
-470.99999999999937
 30
0.0
 11
5923.0
 21
-449.99999999999937
 31
0.0
1001
ACDBBLOCKREPETAG
1070
     1
1071
        0
1005
121243
  0
LINE
  5
121244
  8
OBJECT
 10
5923.0
 20
-449.99999999999937
 30
0.0
 11
6077.0
 21
-449.99999999999937
 31
0.0
1001
ACDBBLOCKREPETAG
1070
     1
1071
        1
1005
121244
  0
LINE
  5
121245
  8
HIDDEN
 10
5943.0
 20
-519.99999999999955
 30
0.0
 11
6057.0
 21
-519.99999999999955
 31
0.0
1001
ACDBBLOCKREPETAG
1070
     1
1071
        2
1005
121245
  0
LINE
  5
121246
  8
OBJECT
 10
6077.0
 20
-449.99999999999937
 30
0.0
 11
6077.0
 21
-470.99999999999937
 31
0.0
1001
ACDBBLOCKREPETAG
1070
     1
1071
        3
1005
121246
  0
LINE
  5
121247
  8
OBJECT
 10
6077.0
 20
-470.99999999999937
 30
0.0
 11
5923.0
 21
-470.99999999999937
 31
0.0
1001
ACDBBLOCKREPETAG
1070
     1
1071
        4
1005
121247
  0
LINE
  5
121248
  8
CENTER
 10
6000.0
 20
-434.99999999999949
 30
0.0
 11
6000.0
 21
-789.99999999999955
 31
0.0
1001
ACDBBLOCKREPETAG
1070
     1
1071
        5
1005
121248
  0
LINE
  5
121249
  8
OBJECT
 10
5925.0
 20
-533.99999999999955
 30
0.0
 11
5925.0
 21
-777.99999999999955
 31
0.0
1001
ACDBBLOCKREPETAG
1070
     1
1071
        6
1005
121249
  0
LINE
  5
12124A
  8
OBJECT
 10
5928.0
 20
-470.99999999999937
 30
0.0
 11
5928.0
 21
-533.99999999999955
 31
0.0
1001
ACDBBLOCKREPETAG
1070
     1
1071
        7
1005
12124A
  0
LINE
  5
12124B
  8
OBJECT
 10
6072.0
 20
-533.99999999999955
 30
0.0
 11
6072.0
 21
-470.99999999999937
 31
0.0
1001
ACDBBLOCKREPETAG
1070
     1
1071
        8
1005
12124B
  0
LINE
  5
12124C
  8
OBJECT
 10
5920.0
 20
-777.99999999999955
 30
0.0
 11
6080.0
 21
-777.99999999999955
 31
0.0
1001
ACDBBLOCKREPETAG
1070
     1
1071
        9
1005
12124C
  0
LINE
  5
12124D
  8
OBJECT
 10
6080.0
 20
-533.99999999999955
 30
0.0
 11
5925.0
 21
-533.99999999999955
 31
0.0
1001
ACDBBLOCKREPETAG
1070
     1
1071
       10
1005
12124D
  0
LINE
  5
12124E
  8
OBJECT
 10
5920.0
 20
-777.99999999999955
 30
0.0
 11
5920.0
 21
-789.99999999999955
 31
0.0
1001
ACDBBLOCKREPETAG
1070
     1
1071
       11
1005
12124E
  0
LINE
  5
12124F
  8
OBJECT
 10
5920.0
 20
-789.99999999999955
 30
0.0
 11
6080.0
 21
-789.99999999999955
 31
0.0
1001
ACDBBLOCKREPETAG
1070
     1
1071
       12
1005
12124F
  0
LINE
  5
121250
  8
OBJECT
 10
6080.0
 20
-789.99999999999955
 30
0.0
 11
6080.0
 21
-777.99999999999955
 31
0.0
1001
ACDBBLOCKREPETAG
1070
     1
1071
       13
1005
121250
  0
LINE
  5
121251
  8
OBJECT
 10
6074.9999999998618
 20
-657.99999999985039
 30
0.0
 11
6075.0
 21
-777.99999999999955
 31
0.0
1001
ACDBBLOCKREPETAG
1070
     1
1071
       15
1005
121251
  0
LINE
  5
121252
  8
OBJECT
 10
6074.9999908029858
 20
-657.99998602702135
 30
0.0
 11
6080.0
 21
-657.99998602702135
 31
0.0
1001
ACDBBLOCKREPETAG
1070
     1
1071
       16
1005
121252
  0
ARC
  5
121253
  8
OBJECT
 10
6200.6872746716735
 20
-649.40809941010718
 30
0.0
 40
170.6350503965856
 50
137.44134459184301
 51
149.91949581337221
1001
ACDBBLOCKREPETAG
1070
     1
1071
       17
1005
121253
  0
ARC
  5
121254
  8
OBJECT
 10
6118.8455987040506
 20
-605.88272669536445
 30
0.0
 40
78.072222021763665
 50
147.4551531038623
 51
164.66365997718671
1001
ACDBBLOCKREPETAG
1070
     1
1071
       18
1005
121254
  0
ARC
  5
121255
  8
OBJECT
 10
6085.7554349608727
 20
-595.99999999999955
 30
0.0
 40
43.55353926885617
 50
165.688452300753
 51
194.3115476992468
1001
ACDBBLOCKREPETAG
1070
     1
1071
       19
1005
121255
  0
ARC
  5
121256
  8
OBJECT
 10
6200.6872746716735
 20
-542.59190058989179
 30
0.0
 40
170.6350503965856
 50
210.08050418662771
 51
222.55865540815699
1001
ACDBBLOCKREPETAG
1070
     1
1071
       20
1005
121256
  0
ARC
  5
121257
  8
OBJECT
 10
6118.8455987040506
 20
-586.11727330463452
 30
0.0
 40
78.072222021763665
 50
195.3363400228132
 51
212.5448468961377
1001
ACDBBLOCKREPETAG
1070
     1
1071
       21
1005
121257
  0
POINT
  5
121258
  8
DOTS
 10
6000.0
 20
-654.99999999999966
 30
0.0
1001
ACDBBLOCKREPETAG
1070
     1
1071
      187
1005
121258
  0
LINE
  5
121259
  8
OBJECT
 10
3923.0
 20
-470.99999999999937
 30
0.0
 11
3923.0
 21
-449.99999999999937
 31
0.0
1001
ACDBBLOCKREPETAG
1070
     1
1071
        0
1005
121259
  0
LINE
  5
12125A
  8
OBJECT
 10
3923.0
 20
-449.99999999999937
 30
0.0
 11
4077.0
 21
-449.99999999999937
 31
0.0
1001
ACDBBLOCKREPETAG
1070
     1
1071
        1
1005
12125A
  0
LINE
  5
12125B
  8
HIDDEN
 10
3943.0
 20
-519.99999999999955
 30
0.0
 11
4057.0
 21
-519.99999999999955
 31
0.0
1001
ACDBBLOCKREPETAG
1070
     1
1071
        2
1005
12125B
  0
LINE
  5
12125C
  8
OBJECT
 10
4077.0
 20
-449.99999999999937
 30
0.0
 11
4077.0
 21
-470.99999999999937
 31
0.0
1001
ACDBBLOCKREPETAG
1070
     1
1071
        3
1005
12125C
  0
LINE
  5
12125D
  8
OBJECT
 10
4077.0
 20
-470.99999999999937
 30
0.0
 11
3923.0
 21
-470.99999999999937
 31
0.0
1001
ACDBBLOCKREPETAG
1070
     1
1071
        4
1005
12125D
  0
LINE
  5
12125E
  8
CENTER
 10
4000.0
 20
-434.99999999999949
 30
0.0
 11
4000.0
 21
-789.99999999999955
 31
0.0
1001
ACDBBLOCKREPETAG
1070
     1
1071
        5
1005
12125E
  0
LINE
  5
12125F
  8
OBJECT
 10
3925.0
 20
-533.99999999999955
 30
0.0
 11
3925.0
 21
-777.99999999999955
 31
0.0
1001
ACDBBLOCKREPETAG
1070
     1
1071
        6
1005
12125F
  0
LINE
  5
121260
  8
OBJECT
 10
3928.0
 20
-470.99999999999937
 30
0.0
 11
3928.0
 21
-533.99999999999955
 31
0.0
1001
ACDBBLOCKREPETAG
1070
     1
1071
        7
1005
121260
  0
LINE
  5
121261
  8
OBJECT
 10
4072.0
 20
-533.99999999999955
 30
0.0
 11
4072.0
 21
-470.99999999999937
 31
0.0
1001
ACDBBLOCKREPETAG
1070
     1
1071
        8
1005
121261
  0
LINE
  5
121262
  8
OBJECT
 10
3920.0
 20
-777.99999999999955
 30
0.0
 11
4080.0
 21
-777.99999999999955
 31
0.0
1001
ACDBBLOCKREPETAG
1070
     1
1071
        9
1005
121262
  0
LINE
  5
121263
  8
OBJECT
 10
4080.0
 20
-533.99999999999955
 30
0.0
 11
3925.0
 21
-533.99999999999955
 31
0.0
1001
ACDBBLOCKREPETAG
1070
     1
1071
       10
1005
121263
  0
LINE
  5
121264
  8
OBJECT
 10
3920.0
 20
-777.99999999999955
 30
0.0
 11
3920.0
 21
-789.99999999999955
 31
0.0
1001
ACDBBLOCKREPETAG
1070
     1
1071
       11
1005
121264
  0
LINE
  5
121265
  8
OBJECT
 10
3920.0
 20
-789.99999999999955
 30
0.0
 11
4080.0
 21
-789.99999999999955
 31
0.0
1001
ACDBBLOCKREPETAG
1070
     1
1071
       12
1005
121265
  0
LINE
  5
121266
  8
OBJECT
 10
4080.0
 20
-789.99999999999955
 30
0.0
 11
4080.0
 21
-777.99999999999955
 31
0.0
1001
ACDBBLOCKREPETAG
1070
     1
1071
       13
1005
121266
  0
LINE
  5
121267
  8
OBJECT
 10
4074.9999999998631
 20
-657.99999999985039
 30
0.0
 11
4075.0
 21
-777.99999999999955
 31
0.0
1001
ACDBBLOCKREPETAG
1070
     1
1071
       15
1005
121267
  0
LINE
  5
121268
  8
OBJECT
 10
4074.9999908029849
 20
-657.99998602702135
 30
0.0
 11
4080.0
 21
-657.99998602702135
 31
0.0
1001
ACDBBLOCKREPETAG
1070
     1
1071
       16
1005
121268
  0
ARC
  5
121269
  8
OBJECT
 10
4200.6872746716726
 20
-649.40809941010718
 30
0.0
 40
170.6350503965856
 50
137.44134459184301
 51
149.91949581337221
1001
ACDBBLOCKREPETAG
1070
     1
1071
       17
1005
121269
  0
ARC
  5
12126A
  8
OBJECT
 10
4118.8455987040506
 20
-605.88272669536445
 30
0.0
 40
78.072222021763665
 50
147.4551531038623
 51
164.6636599771798
1001
ACDBBLOCKREPETAG
1070
     1
1071
       18
1005
12126A
  0
ARC
  5
12126B
  8
OBJECT
 10
4085.7554349608722
 20
-595.99999999999955
 30
0.0
 40
43.55353926885617
 50
165.6884523007466
 51
194.3115476992534
1001
ACDBBLOCKREPETAG
1070
     1
1071
       19
1005
12126B
  0
ARC
  5
12126C
  8
OBJECT
 10
4200.6872746716726
 20
-542.59190058989179
 30
0.0
 40
170.6350503965856
 50
210.08050418662771
 51
222.55865540815699
1001
ACDBBLOCKREPETAG
1070
     1
1071
       20
1005
12126C
  0
ARC
  5
12126D
  8
OBJECT
 10
4118.8455987040506
 20
-586.11727330463452
 30
0.0
 40
78.072222021763665
 50
195.3363400228202
 51
212.5448468961377
1001
ACDBBLOCKREPETAG
1070
     1
1071
       21
1005
12126D
  0
POINT
  5
12126E
  8
DOTS
 10
4000.0
 20
-654.99999999999966
 30
0.0
1001
ACDBBLOCKREPETAG
1070
     1
1071
      187
1005
12126E
  0
LINE
  5
12126F
  8
OBJECT
 10
1923.0
 20
-470.99999999999937
 30
0.0
 11
1923.0
 21
-449.99999999999937
 31
0.0
1001
ACDBBLOCKREPETAG
1070
     1
1071
        0
1005
12126F
  0
LINE
  5
121270
  8
OBJECT
 10
1923.0
 20
-449.99999999999937
 30
0.0
 11
2077.0
 21
-449.99999999999937
 31
0.0
1001
ACDBBLOCKREPETAG
1070
     1
1071
        1
1005
121270
  0
LINE
  5
121271
  8
HIDDEN
 10
1943.0
 20
-519.99999999999955
 30
0.0
 11
2057.0
 21
-519.99999999999955
 31
0.0
1001
ACDBBLOCKREPETAG
1070
     1
1071
        2
1005
121271
  0
LINE
  5
121272
  8
OBJECT
 10
2077.0
 20
-449.99999999999937
 30
0.0
 11
2077.0
 21
-470.99999999999937
 31
0.0
1001
ACDBBLOCKREPETAG
1070
     1
1071
        3
1005
121272
  0
LINE
  5
121273
  8
OBJECT
 10
2077.0
 20
-470.99999999999937
 30
0.0
 11
1923.0
 21
-470.99999999999937
 31
0.0
1001
ACDBBLOCKREPETAG
1070
     1
1071
        4
1005
121273
  0
LINE
  5
121274
  8
CENTER
 10
2000.0
 20
-434.99999999999949
 30
0.0
 11
2000.0
 21
-789.99999999999955
 31
0.0
1001
ACDBBLOCKREPETAG
1070
     1
1071
        5
1005
121274
  0
LINE
  5
121275
  8
OBJECT
 10
1925.0
 20
-533.99999999999955
 30
0.0
 11
1925.0
 21
-777.99999999999955
 31
0.0
1001
ACDBBLOCKREPETAG
1070
     1
1071
        6
1005
121275
  0
LINE
  5
121276
  8
OBJECT
 10
1928.0
 20
-470.99999999999937
 30
0.0
 11
1928.0
 21
-533.99999999999955
 31
0.0
1001
ACDBBLOCKREPETAG
1070
     1
1071
        7
1005
121276
  0
LINE
  5
121277
  8
OBJECT
 10
2072.0
 20
-533.99999999999955
 30
0.0
 11
2072.0
 21
-470.99999999999937
 31
0.0
1001
ACDBBLOCKREPETAG
1070
     1
1071
        8
1005
121277
  0
LINE
  5
121278
  8
OBJECT
 10
1920.0
 20
-777.99999999999955
 30
0.0
 11
2080.0
 21
-777.99999999999955
 31
0.0
1001
ACDBBLOCKREPETAG
1070
     1
1071
        9
1005
121278
  0
LINE
  5
121279
  8
OBJECT
 10
2080.0
 20
-533.99999999999955
 30
0.0
 11
1925.0
 21
-533.99999999999955
 31
0.0
1001
ACDBBLOCKREPETAG
1070
     1
1071
       10
1005
121279
  0
LINE
  5
12127A
  8
OBJECT
 10
1920.0
 20
-777.99999999999955
 30
0.0
 11
1920.0
 21
-789.99999999999955
 31
0.0
1001
ACDBBLOCKREPETAG
1070
     1
1071
       11
1005
12127A
  0
LINE
  5
12127B
  8
OBJECT
 10
1920.0
 20
-789.99999999999955
 30
0.0
 11
2080.0
 21
-789.99999999999955
 31
0.0
1001
ACDBBLOCKREPETAG
1070
     1
1071
       12
1005
12127B
  0
LINE
  5
12127C
  8
OBJECT
 10
2080.0
 20
-789.99999999999955
 30
0.0
 11
2080.0
 21
-777.99999999999955
 31
0.0
1001
ACDBBLOCKREPETAG
1070
     1
1071
       13
1005
12127C
  0
LINE
  5
12127D
  8
OBJECT
 10
2074.9999999998622
 20
-657.99999999985039
 30
0.0
 11
2075.0
 21
-777.99999999999955
 31
0.0
1001
ACDBBLOCKREPETAG
1070
     1
1071
       15
1005
12127D
  0
LINE
  5
12127E
  8
OBJECT
 10
2074.9999908029849
 20
-657.99998602702135
 30
0.0
 11
2080.0
 21
-657.99998602702135
 31
0.0
1001
ACDBBLOCKREPETAG
1070
     1
1071
       16
1005
12127E
  0
ARC
  5
12127F
  8
OBJECT
 10
2200.6872746716731
 20
-649.40809941010718
 30
0.0
 40
170.6350503965856
 50
137.44134459184301
 51
149.91949581336559
1001
ACDBBLOCKREPETAG
1070
     1
1071
       17
1005
12127F
  0
ARC
  5
121280
  8
OBJECT
 10
2118.8455987040511
 20
-605.88272669536445
 30
0.0
 40
78.072222021763665
 50
147.4551531038623
 51
164.6636599771798
1001
ACDBBLOCKREPETAG
1070
     1
1071
       18
1005
121280
  0
ARC
  5
121281
  8
OBJECT
 10
2085.7554349608731
 20
-595.99999999999955
 30
0.0
 40
43.55353926885617
 50
165.6884523007466
 51
194.3115476992534
1001
ACDBBLOCKREPETAG
1070
     1
1071
       19
1005
121281
  0
ARC
  5
121282
  8
OBJECT
 10
2200.6872746716731
 20
-542.59190058989179
 30
0.0
 40
170.6350503965856
 50
210.0805041866343
 51
222.55865540815699
1001
ACDBBLOCKREPETAG
1070
     1
1071
       20
1005
121282
  0
ARC
  5
121283
  8
OBJECT
 10
2118.8455987040511
 20
-586.11727330463452
 30
0.0
 40
78.072222021763665
 50
195.3363400228202
 51
212.5448468961377
1001
ACDBBLOCKREPETAG
1070
     1
1071
       21
1005
121283
  0
POINT
  5
121284
  8
DOTS
 10
2000.0
 20
-654.99999999999966
 30
0.0
1001
ACDBBLOCKREPETAG
1070
     1
1071
      187
1005
121284
  0
LINE
  5
121285
  8
OBJECT
 10
2024.102933093302
 20
-243.80694712371681
 30
0.0
 11
2020.659656999997
 21
-232.55462199999889
 31
0.0
1001
ACDBBLOCKREPETAG
1070
     1
1071
      300
1005
121285
  0
LINE
  5
121286
  8
OBJECT
 10
1986.7927499013749
 20
-218.22553374208019
 30
0.0
 11
2020.659656999997
 21
-232.5546219999969
 31
0.0
1001
ACDBBLOCKREPETAG
1070
     1
1071
      302
1005
121286
  0
ARC
  5
121287
  8
OBJECT
 10
1982.8961697619
 20
-227.4351299990567
 30
0.0
 40
10.0
 50
67.066778292923374
 51
154.0147343702935
1001
ACDBBLOCKREPETAG
1070
     1
1071
      303
1005
121287
  0
ARC
  5
121288
  8
OBJECT
 10
1986.1488390381271
 20
-225.55386256729159
 30
0.0
 40
7.0
 50
67.066778292923374
 51
154.01473377497121
1001
ACDBBLOCKREPETAG
1070
     1
1071
      304
1005
121288
  0
LINE
  5
121289
  8
OBJECT
 10
1969.4199755553
 20
-243.89888500818171
 30
0.0
 11
1979.856491823236
 21
-222.48688253356801
 31
0.0
1001
ACDBBLOCKREPETAG
1070
     1
1071
      341
1005
121289
  0
LINE
  5
12128A
  8
OBJECT
 10
1965.2972169006091
 20
-240.71813901882729
 30
0.0
 11
1973.907102266508
 21
-223.05373004430751
 31
0.0
1001
ACDBBLOCKREPETAG
1070
     1
1071
      342
1005
12128A
  0
ARC
  5
12128B
  8
OBJECT
 10
1976.579695307315
 20
-207.1289369828437
 30
0.0
 40
60.031113246032611
 50
314.07020130418567
 51
322.33936106091278
1001
ACDBBLOCKREPETAG
1070
     1
1071
      343
1005
12128B
  0
CIRCLE
  5
12128C
  8
OBJECT
 10
2000.0
 20
-199.99999999999909
 30
0.0
 40
53.5
1001
ACDBBLOCKREPETAG
1070
     1
1071
      344
1005
12128C
  0
POINT
  5
12128D
  8
DOTS
 10
2000.0
 20
-199.99999999999909
 30
0.0
 50
270.0
1001
ACDBBLOCKREPETAG
1070
     1
1071
      362
1005
12128D
  0
ARC
  5
12128E
  8
OBJECT
 10
2000.0
 20
-199.99999999999909
 30
0.0
 40
50.0
 50
298.81994300000417
 51
228.52376955967449
1001
ACDBBLOCKREPETAG
1070
     1
1071
        7
1005
12128E
  0
LINE
  5
12128F
  8
CENTER
 10
2080.0
 20
-199.99999999999909
 30
0.0
 11
1905.0
 21
-199.99999999999909
 31
0.0
1001
ACDBBLOCKREPETAG
1070
     1
1071
       14
1005
12128F
  0
LINE
  5
121290
  8
CENTER
 10
2000.0
 20
-294.99999999999898
 30
0.0
 11
2000.0
 21
-104.9999999999991
 31
0.0
1001
ACDBBLOCKREPETAG
1070
     1
1071
       15
1005
121290
  0
CIRCLE
  5
121291
  8
OBJECT
 10
2000.0
 20
-199.99999999999909
 30
0.0
 40
70.0
1001
ACDBBLOCKREPETAG
1070
     1
1071
       16
1005
121291
  0
CIRCLE
  5
121292
  8
OBJECT
 10
2000.0
 20
-199.99999999999909
 30
0.0
 40
77.0
1001
ACDBBLOCKREPETAG
1070
     1
1071
       17
1005
121292
  0
ARC
  5
121293
  8
OBJECT
 10
2000.0
 20
-199.99999999999909
 30
0.0
 40
80.0
 50
50.805032573864182
 51
309.1949674261358
1001
ACDBBLOCKREPETAG
1070
     1
1071
       18
1005
121293
  0
LINE
  5
121294
  8
OBJECT
 10
2045.6618002273251
 20
-137.99999999999909
 30
0.0
 11
2080.0
 21
-137.99999999999909
 31
0.0
1001
ACDBBLOCKREPETAG
1070
     1
1071
       19
1005
121294
  0
LINE
  5
121295
  8
OBJECT
 10
2045.6618002273251
 20
-261.99999999999909
 30
0.0
 11
2080.0
 21
-261.99999999999909
 31
0.0
1001
ACDBBLOCKREPETAG
1070
     1
1071
       20
1005
121295
  0
LINE
  5
121296
  8
OBJECT
 10
12085.999999999991
 20
-1123.9999999999991
 30
0.0
 11
12085.999999999991
 21
-1133.9999999999991
 31
0.0
1001
ACDBBLOCKREPETAG
1070
     1
1071
      121
1005
121296
  0
LINE
  5
121297
  8
OBJECT
 10
12069.999999999991
 20
-1123.9999999999991
 30
0.0
 11
12069.999999999991
 21
-1133.9999999999991
 31
0.0
1001
ACDBBLOCKREPETAG
1070
     1
1071
      122
1005
121297
  0
LINE
  5
121298
  8
OBJECT
 10
12085.999999999991
 20
-1133.9999999999991
 30
0.0
 11
12069.999999999991
 21
-1133.9999999999991
 31
0.0
1001
ACDBBLOCKREPETAG
1070
     1
1071
      123
1005
121298
  0
LINE
  5
121299
  8
OBJECT
 10
12090.0
 20
-1084.9999999999959
 30
0.0
 11
11924.0
 21
-1084.9999999999959
 31
0.0
1001
ACDBBLOCKREPETAG
1070
     1
1071
      124
1005
121299
  0
LINE
  5
12129A
  8
OBJECT
 10
12090.0
 20
-1099.9999999999991
 30
0.0
 11
12090.0
 21
-1084.9999999999959
 31
0.0
1001
ACDBBLOCKREPETAG
1070
     1
1071
      125
1005
12129A
  0
LINE
  5
12129B
  8
OBJECT
 10
11924.0
 20
-1099.9999999999991
 30
0.0
 11
12090.0
 21
-1099.9999999999991
 31
0.0
1001
ACDBBLOCKREPETAG
1070
     1
1071
      126
1005
12129B
  0
LINE
  5
12129C
  8
OBJECT
 10
12067.49999999998
 20
-1099.9999999999991
 30
0.0
 11
12067.49999999998
 21
-1109.9999999999991
 31
0.0
1001
ACDBBLOCKREPETAG
1070
     1
1071
      127
1005
12129C
  0
LINE
  5
12129D
  8
OBJECT
 10
12072.999999999991
 20
-1109.9999999999991
 30
0.0
 11
12072.999999999991
 21
-1099.9999999999991
 31
0.0
1001
ACDBBLOCKREPETAG
1070
     1
1071
      128
1005
12129D
  0
LINE
  5
12129E
  8
OBJECT
 10
12082.999999999991
 20
-1109.9999999999991
 30
0.0
 11
12082.999999999991
 21
-1099.9999999999991
 31
0.0
1001
ACDBBLOCKREPETAG
1070
     1
1071
      129
1005
12129E
  0
LINE
  5
12129F
  8
OBJECT
 10
11924.0
 20
-1109.9999999999991
 30
0.0
 11
11924.0
 21
-1123.9999999999959
 31
0.0
1001
ACDBBLOCKREPETAG
1070
     1
1071
      130
1005
12129F
  0
LINE
  5
1212A0
  8
OBJECT
 10
12090.0
 20
-1109.9999999999991
 30
0.0
 11
12090.0
 21
-1123.9999999999959
 31
0.0
1001
ACDBBLOCKREPETAG
1070
     1
1071
      131
1005
1212A0
  0
LINE
  5
1212A1
  8
OBJECT
 10
11924.0
 20
-1123.9999999999959
 30
0.0
 11
12090.0
 21
-1123.9999999999959
 31
0.0
1001
ACDBBLOCKREPETAG
1070
     1
1071
      132
1005
1212A1
  0
LINE
  5
1212A2
  8
OBJECT
 10
11924.0
 20
-1109.9999999999991
 30
0.0
 11
12090.0
 21
-1109.9999999999991
 31
0.0
1001
ACDBBLOCKREPETAG
1070
     1
1071
      133
1005
1212A2
  0
LINE
  5
1212A3
  8
OBJECT
 10
11932.49999999998
 20
-1099.9999999999991
 30
0.0
 11
11932.49999999998
 21
-1109.9999999999991
 31
0.0
1001
ACDBBLOCKREPETAG
1070
     1
1071
      134
1005
1212A3
  0
LINE
  5
1212A4
  8
OBJECT
 10
11934.0
 20
-1048.9999999999959
 30
0.0
 11
12065.999999999991
 21
-1048.9999999999959
 31
0.0
1001
ACDBBLOCKREPETAG
1070
     1
1071
      135
1005
1212A4
  0
LINE
  5
1212A5
  8
OBJECT
 10
11924.0
 20
-1099.9999999999991
 30
0.0
 11
11924.0
 21
-1084.9999999999959
 31
0.0
1001
ACDBBLOCKREPETAG
1070
     1
1071
      136
1005
1212A5
  0
LINE
  5
1212A6
  8
HIDDEN
 10
11943.0
 20
-1059.9999999999991
 30
0.0
 11
12057.0
 21
-1059.9999999999991
 31
0.0
1001
ACDBBLOCKREPETAG
1070
     1
1071
      137
1005
1212A6
  0
LINE
  5
1212A7
  8
OBJECT
 10
12086.999999999991
 20
-1083.2
 30
0.0
 11
12086.999999999991
 21
-1084.9999999999991
 31
0.0
1001
ACDBBLOCKREPETAG
1070
     1
1071
      138
1005
1212A7
  0
LINE
  5
1212A8
  8
OBJECT
 10
12068.999999999991
 20
-1083.2
 30
0.0
 11
12068.999999999991
 21
-1084.9999999999991
 31
0.0
1001
ACDBBLOCKREPETAG
1070
     1
1071
      139
1005
1212A8
  0
LINE
  5
1212A9
  8
OBJECT
 10
12072.249999999991
 20
-1073.4999999999991
 30
0.0
 11
12083.749999999991
 21
-1073.4999999999991
 31
0.0
1001
ACDBBLOCKREPETAG
1070
     1
1071
      140
1005
1212A9
  0
LINE
  5
1212AA
  8
OBJECT
 10
12072.249999999991
 20
-1073.4999999999991
 30
0.0
 11
12072.249999999991
 21
-1083.2
 31
0.0
1001
ACDBBLOCKREPETAG
1070
     1
1071
      141
1005
1212AA
  0
LINE
  5
1212AB
  8
OBJECT
 10
12083.749999999991
 20
-1073.4999999999991
 30
0.0
 11
12083.749999999991
 21
-1083.2
 31
0.0
1001
ACDBBLOCKREPETAG
1070
     1
1071
      142
1005
1212AB
  0
LINE
  5
1212AC
  8
OBJECT
 10
11931.99999999998
 20
-1164.9999999999991
 30
0.0
 11
12067.99999999998
 21
-1164.9999999999991
 31
0.0
1001
ACDBBLOCKREPETAG
1070
     1
1071
      143
1005
1212AC
  0
LINE
  5
1212AD
  8
OBJECT
 10
11931.99999999998
 20
-1164.9999999999991
 30
0.0
 11
11931.99999999998
 21
-1123.9999999999991
 31
0.0
1001
ACDBBLOCKREPETAG
1070
     1
1071
      144
1005
1212AD
  0
LINE
  5
1212AE
  8
OBJECT
 10
12067.99999999998
 20
-1164.9999999999991
 30
0.0
 11
12067.99999999998
 21
-1123.9999999999991
 31
0.0
1001
ACDBBLOCKREPETAG
1070
     1
1071
      145
1005
1212AE
  0
LINE
  5
1212AF
  8
OBJECT
 10
12086.999999999991
 20
-1083.2
 30
0.0
 11
12068.999999999991
 21
-1083.2
 31
0.0
1001
ACDBBLOCKREPETAG
1070
     1
1071
      146
1005
1212AF
  0
LINE
  5
1212B0
  8
CENTER
 10
12000.0
 20
-789.99999999999955
 30
0.0
 11
12000.0
 21
-1179.9999999999991
 31
0.0
1001
ACDBBLOCKREPETAG
1070
     1
1071
      147
1005
1212B0
  0
LINE
  5
1212B1
  8
OBJECT
 10
11925.0
 20
-789.99999999999955
 30
0.0
 11
11925.0
 21
-871.99999999999591
 31
0.0
1001
ACDBBLOCKREPETAG
1070
     1
1071
      148
1005
1212B1
  0
LINE
  5
1212B2
  8
OBJECT
 10
12075.0
 20
-789.99999999999955
 30
0.0
 11
12075.0
 21
-871.99999999999204
 31
0.0
1001
ACDBBLOCKREPETAG
1070
     1
1071
      149
1005
1212B2
  0
LINE
  5
1212B3
  8
OBJECT
 10
11925.0
 20
-871.99999999999591
 30
0.0
 11
12075.0
 21
-871.99999999999204
 31
0.0
1001
ACDBBLOCKREPETAG
1070
     1
1071
      150
1005
1212B3
  0
LINE
  5
1212B4
  8
OBJECT
 10
11943.0
 20
-1048.9999999999959
 30
0.0
 11
11943.0
 21
-999.99999999999204
 31
0.0
1001
ACDBBLOCKREPETAG
1070
     1
1071
      151
1005
1212B4
  0
LINE
  5
1212B5
  8
OBJECT
 10
12057.0
 20
-999.99999999999204
 30
0.0
 11
11943.0
 21
-999.99999999999204
 31
0.0
1001
ACDBBLOCKREPETAG
1070
     1
1071
      152
1005
1212B5
  0
LINE
  5
1212B6
  8
OBJECT
 10
12057.0
 20
-999.99999999999204
 30
0.0
 11
12057.0
 21
-1048.9999999999959
 31
0.0
1001
ACDBBLOCKREPETAG
1070
     1
1071
      153
1005
1212B6
  0
LINE
  5
1212B7
  8
OBJECT
 10
11925.0
 20
-871.99999999999591
 30
0.0
 11
11943.0
 21
-999.99999999999204
 31
0.0
1001
ACDBBLOCKREPETAG
1070
     1
1071
      154
1005
1212B7
  0
LINE
  5
1212B8
  8
OBJECT
 10
12057.0
 20
-999.99999999999204
 30
0.0
 11
12075.0
 21
-871.99999999999204
 31
0.0
1001
ACDBBLOCKREPETAG
1070
     1
1071
      155
1005
1212B8
  0
LINE
  5
1212B9
  8
OBJECT
 10
11934.0
 20
-1084.9999999999959
 30
0.0
 11
11934.0
 21
-1048.9999999999959
 31
0.0
1001
ACDBBLOCKREPETAG
1070
     1
1071
      156
1005
1212B9
  0
LINE
  5
1212BA
  8
OBJECT
 10
12066.0
 20
-1084.9999999999959
 30
0.0
 11
12065.999999999991
 21
-1048.9999999999959
 31
0.0
1001
ACDBBLOCKREPETAG
1070
     1
1071
      157
1005
1212BA
  0
LINE
  5
1212BB
  8
OBJECT
 10
11954.75
 20
-1074.699999999993
 30
0.0
 11
11967.25
 21
-1074.699999999993
 31
0.0
1001
ACDBBLOCKREPETAG
1070
     1
1071
      158
1005
1212BB
  0
LINE
  5
1212BC
  8
OBJECT
 10
11946.0
 20
-1084.9999999999959
 30
0.0
 11
11946.0
 21
-1082.699999999996
 31
0.0
1001
ACDBBLOCKREPETAG
1070
     1
1071
      159
1005
1212BC
  0
LINE
  5
1212BD
  8
OBJECT
 10
11976.0
 20
-1084.9999999999959
 30
0.0
 11
11976.0
 21
-1082.699999999996
 31
0.0
1001
ACDBBLOCKREPETAG
1070
     1
1071
      160
1005
1212BD
  0
LINE
  5
1212BE
  8
OBJECT
 10
11954.75
 20
-1074.699999999993
 30
0.0
 11
11954.75
 21
-1082.699999999996
 31
0.0
1001
ACDBBLOCKREPETAG
1070
     1
1071
      161
1005
1212BE
  0
LINE
  5
1212BF
  8
OBJECT
 10
11967.25
 20
-1074.699999999993
 30
0.0
 11
11967.25
 21
-1082.699999999996
 31
0.0
1001
ACDBBLOCKREPETAG
1070
     1
1071
      162
1005
1212BF
  0
LINE
  5
1212C0
  8
OBJECT
 10
11946.0
 20
-1082.699999999996
 30
0.0
 11
11976.0
 21
-1082.699999999996
 31
0.0
1001
ACDBBLOCKREPETAG
1070
     1
1071
      163
1005
1212C0
  0
LINE
  5
1212C1
  8
OBJECT
 10
11953.0
 20
-1123.9999999999959
 30
0.0
 11
11953.0
 21
-1133.9999999999959
 31
0.0
1001
ACDBBLOCKREPETAG
1070
     1
1071
      164
1005
1212C1
  0
LINE
  5
1212C2
  8
OBJECT
 10
11969.0
 20
-1123.9999999999959
 30
0.0
 11
11969.0
 21
-1133.9999999999959
 31
0.0
1001
ACDBBLOCKREPETAG
1070
     1
1071
      165
1005
1212C2
  0
LINE
  5
1212C3
  8
OBJECT
 10
11953.0
 20
-1133.9999999999959
 30
0.0
 11
11969.0
 21
-1133.9999999999959
 31
0.0
1001
ACDBBLOCKREPETAG
1070
     1
1071
      166
1005
1212C3
  0
LINE
  5
1212C4
  8
OBJECT
 10
11966.0
 20
-1109.9999999999959
 30
0.0
 11
11966.0
 21
-1099.9999999999959
 31
0.0
1001
ACDBBLOCKREPETAG
1070
     1
1071
      167
1005
1212C4
  0
LINE
  5
1212C5
  8
OBJECT
 10
11956.0
 20
-1109.9999999999959
 30
0.0
 11
11956.0
 21
-1099.9999999999959
 31
0.0
1001
ACDBBLOCKREPETAG
1070
     1
1071
      168
1005
1212C5
  0
LINE
  5
1212C6
  8
OBJECT
 10
10090.0
 20
-1084.9999999999959
 30
0.0
 11
9924.0
 21
-1084.9999999999959
 31
0.0
1001
ACDBBLOCKREPETAG
1070
     1
1071
       12
1005
1212C6
  0
LINE
  5
1212C7
  8
OBJECT
 10
10066.0
 20
-1048.9999999999959
 30
0.0
 11
9934.0
 21
-1048.9999999999959
 31
0.0
1001
ACDBBLOCKREPETAG
1070
     1
1071
       13
1005
1212C7
  0
LINE
  5
1212C8
  8
OBJECT
 10
10090.0
 20
-1099.9999999999991
 30
0.0
 11
10090.0
 21
-1084.9999999999959
 31
0.0
1001
ACDBBLOCKREPETAG
1070
     1
1071
       14
1005
1212C8
  0
LINE
  5
1212C9
  8
OBJECT
 10
9924.0
 20
-1099.9999999999991
 30
0.0
 11
10090.0
 21
-1099.9999999999991
 31
0.0
1001
ACDBBLOCKREPETAG
1070
     1
1071
       15
1005
1212C9
  0
LINE
  5
1212CA
  8
OBJECT
 10
10067.49999999998
 20
-1099.9999999999991
 30
0.0
 11
10067.49999999998
 21
-1109.9999999999991
 31
0.0
1001
ACDBBLOCKREPETAG
1070
     1
1071
       16
1005
1212CA
  0
LINE
  5
1212CB
  8
OBJECT
 10
9924.0
 20
-1109.9999999999991
 30
0.0
 11
9924.0
 21
-1123.9999999999959
 31
0.0
1001
ACDBBLOCKREPETAG
1070
     1
1071
       17
1005
1212CB
  0
LINE
  5
1212CC
  8
OBJECT
 10
10090.0
 20
-1109.9999999999991
 30
0.0
 11
10090.0
 21
-1123.9999999999959
 31
0.0
1001
ACDBBLOCKREPETAG
1070
     1
1071
       18
1005
1212CC
  0
LINE
  5
1212CD
  8
OBJECT
 10
9924.0
 20
-1123.9999999999959
 30
0.0
 11
10090.0
 21
-1123.9999999999959
 31
0.0
1001
ACDBBLOCKREPETAG
1070
     1
1071
       19
1005
1212CD
  0
LINE
  5
1212CE
  8
OBJECT
 10
9924.0
 20
-1109.9999999999991
 30
0.0
 11
10090.0
 21
-1109.9999999999991
 31
0.0
1001
ACDBBLOCKREPETAG
1070
     1
1071
       20
1005
1212CE
  0
LINE
  5
1212CF
  8
OBJECT
 10
9932.4999999999836
 20
-1099.9999999999991
 30
0.0
 11
9932.4999999999836
 21
-1109.9999999999991
 31
0.0
1001
ACDBBLOCKREPETAG
1070
     1
1071
       21
1005
1212CF
  0
LINE
  5
1212D0
  8
OBJECT
 10
9924.0
 20
-1099.9999999999991
 30
0.0
 11
9924.0
 21
-1084.9999999999959
 31
0.0
1001
ACDBBLOCKREPETAG
1070
     1
1071
       22
1005
1212D0
  0
LINE
  5
1212D1
  8
HIDDEN
 10
9943.0
 20
-1059.9999999999991
 30
0.0
 11
10057.0
 21
-1059.9999999999991
 31
0.0
1001
ACDBBLOCKREPETAG
1070
     1
1071
       23
1005
1212D1
  0
LINE
  5
1212D2
  8
CENTER
 10
10000.0
 20
-789.99999999999955
 30
0.0
 11
10000.0
 21
-1138.9999999999959
 31
0.0
1001
ACDBBLOCKREPETAG
1070
     1
1071
       24
1005
1212D2
  0
LINE
  5
1212D3
  8
OBJECT
 10
9925.0
 20
-789.99999999999955
 30
0.0
 11
9925.0
 21
-871.99999999999591
 31
0.0
1001
ACDBBLOCKREPETAG
1070
     1
1071
       25
1005
1212D3
  0
LINE
  5
1212D4
  8
OBJECT
 10
10075.0
 20
-789.99999999999955
 30
0.0
 11
10075.0
 21
-871.99999999999204
 31
0.0
1001
ACDBBLOCKREPETAG
1070
     1
1071
       26
1005
1212D4
  0
LINE
  5
1212D5
  8
OBJECT
 10
9925.0
 20
-871.99999999999591
 30
0.0
 11
10075.0
 21
-871.99999999999204
 31
0.0
1001
ACDBBLOCKREPETAG
1070
     1
1071
       27
1005
1212D5
  0
LINE
  5
1212D6
  8
OBJECT
 10
10057.0
 20
-1048.9999999999959
 30
0.0
 11
10057.0
 21
-999.99999999999204
 31
0.0
1001
ACDBBLOCKREPETAG
1070
     1
1071
       28
1005
1212D6
  0
LINE
  5
1212D7
  8
OBJECT
 10
9943.0
 20
-1048.9999999999959
 30
0.0
 11
9943.0
 21
-999.99999999999204
 31
0.0
1001
ACDBBLOCKREPETAG
1070
     1
1071
       29
1005
1212D7
  0
LINE
  5
1212D8
  8
OBJECT
 10
10057.0
 20
-999.99999999999204
 30
0.0
 11
9943.0
 21
-999.99999999999204
 31
0.0
1001
ACDBBLOCKREPETAG
1070
     1
1071
       30
1005
1212D8
  0
LINE
  5
1212D9
  8
OBJECT
 10
9925.0
 20
-871.99999999999591
 30
0.0
 11
9943.0
 21
-999.99999999999204
 31
0.0
1001
ACDBBLOCKREPETAG
1070
     1
1071
       31
1005
1212D9
  0
LINE
  5
1212DA
  8
OBJECT
 10
10057.0
 20
-999.99999999999204
 30
0.0
 11
10075.0
 21
-871.99999999999204
 31
0.0
1001
ACDBBLOCKREPETAG
1070
     1
1071
       32
1005
1212DA
  0
LINE
  5
1212DB
  8
OBJECT
 10
9934.0
 20
-1048.9999999999959
 30
0.0
 11
9934.0
 21
-1084.9999999999959
 31
0.0
1001
ACDBBLOCKREPETAG
1070
     1
1071
       33
1005
1212DB
  0
LINE
  5
1212DC
  8
OBJECT
 10
10066.0
 20
-1048.9999999999959
 30
0.0
 11
10066.0
 21
-1084.9999999999959
 31
0.0
1001
ACDBBLOCKREPETAG
1070
     1
1071
       34
1005
1212DC
  0
LINE
  5
1212DD
  8
OBJECT
 10
10082.999999999991
 20
-1109.9999999999959
 30
0.0
 11
10082.999999999991
 21
-1099.9999999999959
 31
0.0
1001
ACDBBLOCKREPETAG
1070
     1
1071
       35
1005
1212DD
  0
LINE
  5
1212DE
  8
OBJECT
 10
10072.999999999991
 20
-1109.9999999999959
 30
0.0
 11
10072.999999999991
 21
-1099.9999999999959
 31
0.0
1001
ACDBBLOCKREPETAG
1070
     1
1071
       36
1005
1212DE
  0
LINE
  5
1212DF
  8
OBJECT
 10
10068.99999999998
 20
-1079.9999999999959
 30
0.0
 11
10068.99999999998
 21
-1084.9999999999959
 31
0.0
1001
ACDBBLOCKREPETAG
1070
     1
1071
       37
1005
1212DF
  0
LINE
  5
1212E0
  8
OBJECT
 10
10087.0
 20
-1079.9999999999959
 30
0.0
 11
10087.0
 21
-1084.9999999999959
 31
0.0
1001
ACDBBLOCKREPETAG
1070
     1
1071
       38
1005
1212E0
  0
LINE
  5
1212E1
  8
OBJECT
 10
10087.0
 20
-1079.9999999999959
 30
0.0
 11
10068.99999999998
 21
-1079.9999999999959
 31
0.0
1001
ACDBBLOCKREPETAG
1070
     1
1071
       39
1005
1212E1
  0
LINE
  5
1212E2
  8
OBJECT
 10
10073.0
 20
-1131.9999999999959
 30
0.0
 11
10073.0
 21
-1134.9999999999959
 31
0.0
1001
ACDBBLOCKREPETAG
1070
     1
1071
       40
1005
1212E2
  0
LINE
  5
1212E3
  8
OBJECT
 10
10073.0
 20
-1134.9999999999959
 30
0.0
 11
10083.0
 21
-1134.9999999999959
 31
0.0
1001
ACDBBLOCKREPETAG
1070
     1
1071
       41
1005
1212E3
  0
LINE
  5
1212E4
  8
OBJECT
 10
10068.18504542377
 20
-1131.9999999999959
 30
0.0
 11
10087.814954576221
 21
-1131.9999999999959
 31
0.0
1001
ACDBBLOCKREPETAG
1070
     1
1071
       42
1005
1212E4
  0
LINE
  5
1212E5
  8
OBJECT
 10
10083.0
 20
-1134.9999999999959
 30
0.0
 11
10083.0
 21
-1131.9999999999959
 31
0.0
1001
ACDBBLOCKREPETAG
1070
     1
1071
       43
1005
1212E5
  0
LINE
  5
1212E6
  8
OBJECT
 10
10068.18503599129
 20
-1123.9999868402549
 30
0.0
 11
10068.18503599129
 21
-1131.9999868402549
 31
0.0
1001
ACDBBLOCKREPETAG
1070
     1
1071
       44
1005
1212E6
  0
LINE
  5
1212E7
  8
OBJECT
 10
10073.0925013592
 20
-1123.9999868402549
 30
0.0
 11
10073.0925013592
 21
-1131.9999868402549
 31
0.0
1001
ACDBBLOCKREPETAG
1070
     1
1071
       45
1005
1212E7
  0
LINE
  5
1212E8
  8
OBJECT
 10
10082.90743209502
 20
-1123.9999868402549
 30
0.0
 11
10082.90743209502
 21
-1131.9999868402549
 31
0.0
1001
ACDBBLOCKREPETAG
1070
     1
1071
       46
1005
1212E8
  0
LINE
  5
1212E9
  8
OBJECT
 10
10087.81499155279
 20
-1123.9999868402549
 30
0.0
 11
10087.81499155279
 21
-1131.9999868402549
 31
0.0
1001
ACDBBLOCKREPETAG
1070
     1
1071
       47
1005
1212E9
  0
LINE
  5
1212EA
  8
OBJECT
 10
9968.5
 20
-1079.9999999999959
 30
0.0
 11
9951.9999999999909
 21
-1079.9999999999959
 31
0.0
1001
ACDBBLOCKREPETAG
1070
     1
1071
       48
1005
1212EA
  0
LINE
  5
1212EB
  8
OBJECT
 10
9976.0
 20
-1084.9999999999959
 30
0.0
 11
9976.0
 21
-1082.9999999999959
 31
0.0
1001
ACDBBLOCKREPETAG
1070
     1
1071
       49
1005
1212EB
  0
LINE
  5
1212EC
  8
OBJECT
 10
9966.0
 20
-1109.9999999999959
 30
0.0
 11
9966.0
 21
-1099.9999999999959
 31
0.0
1001
ACDBBLOCKREPETAG
1070
     1
1071
       50
1005
1212EC
  0
LINE
  5
1212ED
  8
OBJECT
 10
9956.0
 20
-1109.9999999999959
 30
0.0
 11
9956.0
 21
-1099.9999999999959
 31
0.0
1001
ACDBBLOCKREPETAG
1070
     1
1071
       51
1005
1212ED
  0
LINE
  5
1212EE
  8
OBJECT
 10
9951.9999999999909
 20
-1079.9999999999959
 30
0.0
 11
9951.9999999999909
 21
-1084.9999999999959
 31
0.0
1001
ACDBBLOCKREPETAG
1070
     1
1071
       52
1005
1212EE
  0
LINE
  5
1212EF
  8
OBJECT
 10
9956.0
 20
-1131.9999999999959
 30
0.0
 11
9956.0
 21
-1134.9999999999959
 31
0.0
1001
ACDBBLOCKREPETAG
1070
     1
1071
       53
1005
1212EF
  0
LINE
  5
1212F0
  8
OBJECT
 10
9956.0
 20
-1134.9999999999959
 30
0.0
 11
9966.0
 21
-1134.9999999999959
 31
0.0
1001
ACDBBLOCKREPETAG
1070
     1
1071
       54
1005
1212F0
  0
LINE
  5
1212F1
  8
OBJECT
 10
9951.185045423772
 20
-1131.9999999999959
 30
0.0
 11
9970.814954576219
 21
-1131.9999999999959
 31
0.0
1001
ACDBBLOCKREPETAG
1070
     1
1071
       55
1005
1212F1
  0
LINE
  5
1212F2
  8
OBJECT
 10
9966.0
 20
-1134.9999999999959
 30
0.0
 11
9966.0
 21
-1131.9999999999959
 31
0.0
1001
ACDBBLOCKREPETAG
1070
     1
1071
       56
1005
1212F2
  0
LINE
  5
1212F3
  8
OBJECT
 10
9976.0
 20
-1082.9999999999959
 30
0.0
 11
9968.5
 21
-1079.9999999999959
 31
0.0
1001
ACDBBLOCKREPETAG
1070
     1
1071
       57
1005
1212F3
  0
LINE
  5
1212F4
  8
OBJECT
 10
9951.1850359912914
 20
-1123.9999868402549
 30
0.0
 11
9951.1850359912914
 21
-1131.9999868402549
 31
0.0
1001
ACDBBLOCKREPETAG
1070
     1
1071
       58
1005
1212F4
  0
LINE
  5
1212F5
  8
OBJECT
 10
9956.0925013591986
 20
-1123.9999868402549
 30
0.0
 11
9956.0925013591986
 21
-1131.9999868402549
 31
0.0
1001
ACDBBLOCKREPETAG
1070
     1
1071
       59
1005
1212F5
  0
LINE
  5
1212F6
  8
OBJECT
 10
9965.907432095024
 20
-1123.9999868402549
 30
0.0
 11
9965.907432095024
 21
-1131.9999868402549
 31
0.0
1001
ACDBBLOCKREPETAG
1070
     1
1071
       60
1005
1212F6
  0
LINE
  5
1212F7
  8
OBJECT
 10
9970.8149915528011
 20
-1123.9999868402549
 30
0.0
 11
9970.8149915528011
 21
-1131.9999868402549
 31
0.0
1001
ACDBBLOCKREPETAG
1070
     1
1071
       61
1005
1212F7
  0
LINE
  5
1212F8
  8
OBJECT
 10
7943.0
 20
-1099.9999999999959
 30
0.0
 11
8057.0
 21
-1099.9999999999959
 31
0.0
1001
ACDBBLOCKREPETAG
1070
     1
1071
        0
1005
1212F8
  0
LINE
  5
1212F9
  8
OBJECT
 10
7943.0
 20
-1099.9999999999959
 30
0.0
 11
7943.0
 21
-999.99999999999602
 31
0.0
1001
ACDBBLOCKREPETAG
1070
     1
1071
        1
1005
1212F9
  0
LINE
  5
1212FA
  8
OBJECT
 10
8057.0
 20
-1099.9999999999959
 30
0.0
 11
8057.0
 21
-999.99999999999602
 31
0.0
1001
ACDBBLOCKREPETAG
1070
     1
1071
        2
1005
1212FA
  0
LINE
  5
1212FB
  8
OBJECT
 10
7943.0
 20
-999.99999999999602
 30
0.0
 11
8057.0
 21
-999.99999999999602
 31
0.0
1001
ACDBBLOCKREPETAG
1070
     1
1071
        3
1005
1212FB
  0
LINE
  5
1212FC
  8
HIDDEN
 10
7950.0
 20
-999.99999999999602
 30
0.0
 11
7950.0
 21
-1099.9999999999959
 31
0.0
1001
ACDBBLOCKREPETAG
1070
     1
1071
        4
1005
1212FC
  0
LINE
  5
1212FD
  8
HIDDEN
 10
8050.0
 20
-999.99999999999602
 30
0.0
 11
8050.0
 21
-1099.9999999999959
 31
0.0
1001
ACDBBLOCKREPETAG
1070
     1
1071
        5
1005
1212FD
  0
LINE
  5
1212FE
  8
CENTER
 10
8000.0
 20
-789.99999999999955
 30
0.0
 11
8000.0
 21
-1114.9999999999959
 31
0.0
1001
ACDBBLOCKREPETAG
1070
     1
1071
        6
1005
1212FE
  0
LINE
  5
1212FF
  8
OBJECT
 10
7925.0
 20
-789.99999999999955
 30
0.0
 11
7925.0
 21
-871.99999999999591
 31
0.0
1001
ACDBBLOCKREPETAG
1070
     1
1071
        7
1005
1212FF
  0
LINE
  5
121300
  8
OBJECT
 10
8075.0
 20
-789.99999999999955
 30
0.0
 11
8075.0
 21
-871.99999999999591
 31
0.0
1001
ACDBBLOCKREPETAG
1070
     1
1071
        8
1005
121300
  0
LINE
  5
121301
  8
OBJECT
 10
7925.0
 20
-871.99999999999591
 30
0.0
 11
8075.0
 21
-871.99999999999591
 31
0.0
1001
ACDBBLOCKREPETAG
1070
     1
1071
        9
1005
121301
  0
LINE
  5
121302
  8
OBJECT
 10
7925.0
 20
-871.99999999999591
 30
0.0
 11
7943.0
 21
-999.99999999999602
 31
0.0
1001
ACDBBLOCKREPETAG
1070
     1
1071
       10
1005
121302
  0
LINE
  5
121303
  8
OBJECT
 10
8057.0
 20
-999.99999999999602
 30
0.0
 11
8075.0
 21
-871.99999999999591
 31
0.0
1001
ACDBBLOCKREPETAG
1070
     1
1071
       11
1005
121303
  0
LINE
  5
121304
  8
OBJECT
 10
6085.9999999999927
 20
-1123.9999999999991
 30
0.0
 11
6085.9999999999927
 21
-1133.9999999999991
 31
0.0
1001
ACDBBLOCKREPETAG
1070
     1
1071
      121
1005
121304
  0
LINE
  5
121305
  8
OBJECT
 10
6069.9999999999927
 20
-1123.9999999999991
 30
0.0
 11
6069.9999999999927
 21
-1133.9999999999991
 31
0.0
1001
ACDBBLOCKREPETAG
1070
     1
1071
      122
1005
121305
  0
LINE
  5
121306
  8
OBJECT
 10
6085.9999999999927
 20
-1133.9999999999991
 30
0.0
 11
6069.9999999999927
 21
-1133.9999999999991
 31
0.0
1001
ACDBBLOCKREPETAG
1070
     1
1071
      123
1005
121306
  0
LINE
  5
121307
  8
OBJECT
 10
6090.0
 20
-1084.9999999999959
 30
0.0
 11
5924.0
 21
-1084.9999999999959
 31
0.0
1001
ACDBBLOCKREPETAG
1070
     1
1071
      124
1005
121307
  0
LINE
  5
121308
  8
OBJECT
 10
6090.0
 20
-1099.9999999999991
 30
0.0
 11
6090.0
 21
-1084.9999999999959
 31
0.0
1001
ACDBBLOCKREPETAG
1070
     1
1071
      125
1005
121308
  0
LINE
  5
121309
  8
OBJECT
 10
5924.0
 20
-1099.9999999999991
 30
0.0
 11
6090.0
 21
-1099.9999999999991
 31
0.0
1001
ACDBBLOCKREPETAG
1070
     1
1071
      126
1005
121309
  0
LINE
  5
12130A
  8
OBJECT
 10
6067.4999999999864
 20
-1099.9999999999991
 30
0.0
 11
6067.4999999999864
 21
-1109.9999999999991
 31
0.0
1001
ACDBBLOCKREPETAG
1070
     1
1071
      127
1005
12130A
  0
LINE
  5
12130B
  8
OBJECT
 10
6072.9999999999927
 20
-1109.9999999999991
 30
0.0
 11
6072.9999999999927
 21
-1099.9999999999991
 31
0.0
1001
ACDBBLOCKREPETAG
1070
     1
1071
      128
1005
12130B
  0
LINE
  5
12130C
  8
OBJECT
 10
6082.9999999999927
 20
-1109.9999999999991
 30
0.0
 11
6082.9999999999927
 21
-1099.9999999999991
 31
0.0
1001
ACDBBLOCKREPETAG
1070
     1
1071
      129
1005
12130C
  0
LINE
  5
12130D
  8
OBJECT
 10
5924.0
 20
-1109.9999999999991
 30
0.0
 11
5924.0
 21
-1123.9999999999959
 31
0.0
1001
ACDBBLOCKREPETAG
1070
     1
1071
      130
1005
12130D
  0
LINE
  5
12130E
  8
OBJECT
 10
6090.0
 20
-1109.9999999999991
 30
0.0
 11
6090.0
 21
-1123.9999999999959
 31
0.0
1001
ACDBBLOCKREPETAG
1070
     1
1071
      131
1005
12130E
  0
LINE
  5
12130F
  8
OBJECT
 10
5924.0
 20
-1123.9999999999959
 30
0.0
 11
6090.0
 21
-1123.9999999999959
 31
0.0
1001
ACDBBLOCKREPETAG
1070
     1
1071
      132
1005
12130F
  0
LINE
  5
121310
  8
OBJECT
 10
5924.0
 20
-1109.9999999999991
 30
0.0
 11
6090.0
 21
-1109.9999999999991
 31
0.0
1001
ACDBBLOCKREPETAG
1070
     1
1071
      133
1005
121310
  0
LINE
  5
121311
  8
OBJECT
 10
5932.4999999999864
 20
-1099.9999999999991
 30
0.0
 11
5932.4999999999864
 21
-1109.9999999999991
 31
0.0
1001
ACDBBLOCKREPETAG
1070
     1
1071
      134
1005
121311
  0
LINE
  5
121312
  8
OBJECT
 10
5934.0
 20
-1048.9999999999959
 30
0.0
 11
6065.9999999999909
 21
-1048.9999999999959
 31
0.0
1001
ACDBBLOCKREPETAG
1070
     1
1071
      135
1005
121312
  0
LINE
  5
121313
  8
OBJECT
 10
5924.0
 20
-1099.9999999999991
 30
0.0
 11
5924.0
 21
-1084.9999999999959
 31
0.0
1001
ACDBBLOCKREPETAG
1070
     1
1071
      136
1005
121313
  0
LINE
  5
121314
  8
HIDDEN
 10
5943.0
 20
-1059.9999999999991
 30
0.0
 11
6057.0
 21
-1059.9999999999991
 31
0.0
1001
ACDBBLOCKREPETAG
1070
     1
1071
      137
1005
121314
  0
LINE
  5
121315
  8
OBJECT
 10
6086.9999999999918
 20
-1083.2
 30
0.0
 11
6086.9999999999918
 21
-1084.9999999999991
 31
0.0
1001
ACDBBLOCKREPETAG
1070
     1
1071
      138
1005
121315
  0
LINE
  5
121316
  8
OBJECT
 10
6068.9999999999909
 20
-1083.2
 30
0.0
 11
6068.9999999999909
 21
-1084.9999999999991
 31
0.0
1001
ACDBBLOCKREPETAG
1070
     1
1071
      139
1005
121316
  0
LINE
  5
121317
  8
OBJECT
 10
6072.2499999999927
 20
-1073.4999999999991
 30
0.0
 11
6083.7499999999927
 21
-1073.4999999999991
 31
0.0
1001
ACDBBLOCKREPETAG
1070
     1
1071
      140
1005
121317
  0
LINE
  5
121318
  8
OBJECT
 10
6072.2499999999927
 20
-1073.4999999999991
 30
0.0
 11
6072.2499999999927
 21
-1083.2
 31
0.0
1001
ACDBBLOCKREPETAG
1070
     1
1071
      141
1005
121318
  0
LINE
  5
121319
  8
OBJECT
 10
6083.7499999999927
 20
-1073.4999999999991
 30
0.0
 11
6083.7499999999927
 21
-1083.2
 31
0.0
1001
ACDBBLOCKREPETAG
1070
     1
1071
      142
1005
121319
  0
LINE
  5
12131A
  8
OBJECT
 10
5931.9999999999873
 20
-1164.9999999999991
 30
0.0
 11
6067.9999999999873
 21
-1164.9999999999991
 31
0.0
1001
ACDBBLOCKREPETAG
1070
     1
1071
      143
1005
12131A
  0
LINE
  5
12131B
  8
OBJECT
 10
5931.9999999999873
 20
-1164.9999999999991
 30
0.0
 11
5931.9999999999873
 21
-1123.9999999999991
 31
0.0
1001
ACDBBLOCKREPETAG
1070
     1
1071
      144
1005
12131B
  0
LINE
  5
12131C
  8
OBJECT
 10
6067.9999999999873
 20
-1164.9999999999991
 30
0.0
 11
6067.9999999999873
 21
-1123.9999999999991
 31
0.0
1001
ACDBBLOCKREPETAG
1070
     1
1071
      145
1005
12131C
  0
LINE
  5
12131D
  8
OBJECT
 10
6086.9999999999918
 20
-1083.2
 30
0.0
 11
6068.9999999999909
 21
-1083.2
 31
0.0
1001
ACDBBLOCKREPETAG
1070
     1
1071
      146
1005
12131D
  0
LINE
  5
12131E
  8
CENTER
 10
6000.0
 20
-789.99999999999955
 30
0.0
 11
6000.0
 21
-1179.9999999999991
 31
0.0
1001
ACDBBLOCKREPETAG
1070
     1
1071
      147
1005
12131E
  0
LINE
  5
12131F
  8
OBJECT
 10
5925.0
 20
-789.99999999999955
 30
0.0
 11
5925.0
 21
-871.99999999999591
 31
0.0
1001
ACDBBLOCKREPETAG
1070
     1
1071
      148
1005
12131F
  0
LINE
  5
121320
  8
OBJECT
 10
6075.0
 20
-789.99999999999955
 30
0.0
 11
6075.0
 21
-871.99999999999204
 31
0.0
1001
ACDBBLOCKREPETAG
1070
     1
1071
      149
1005
121320
  0
LINE
  5
121321
  8
OBJECT
 10
5925.0
 20
-871.99999999999591
 30
0.0
 11
6075.0
 21
-871.99999999999204
 31
0.0
1001
ACDBBLOCKREPETAG
1070
     1
1071
      150
1005
121321
  0
LINE
  5
121322
  8
OBJECT
 10
5943.0
 20
-1048.9999999999959
 30
0.0
 11
5943.0
 21
-999.99999999999204
 31
0.0
1001
ACDBBLOCKREPETAG
1070
     1
1071
      151
1005
121322
  0
LINE
  5
121323
  8
OBJECT
 10
6057.0
 20
-999.99999999999204
 30
0.0
 11
5943.0
 21
-999.99999999999204
 31
0.0
1001
ACDBBLOCKREPETAG
1070
     1
1071
      152
1005
121323
  0
LINE
  5
121324
  8
OBJECT
 10
6057.0
 20
-999.99999999999204
 30
0.0
 11
6057.0
 21
-1048.9999999999959
 31
0.0
1001
ACDBBLOCKREPETAG
1070
     1
1071
      153
1005
121324
  0
LINE
  5
121325
  8
OBJECT
 10
5925.0
 20
-871.99999999999591
 30
0.0
 11
5943.0
 21
-999.99999999999204
 31
0.0
1001
ACDBBLOCKREPETAG
1070
     1
1071
      154
1005
121325
  0
LINE
  5
121326
  8
OBJECT
 10
6057.0
 20
-999.99999999999204
 30
0.0
 11
6075.0
 21
-871.99999999999204
 31
0.0
1001
ACDBBLOCKREPETAG
1070
     1
1071
      155
1005
121326
  0
LINE
  5
121327
  8
OBJECT
 10
5934.0
 20
-1084.9999999999959
 30
0.0
 11
5934.0
 21
-1048.9999999999959
 31
0.0
1001
ACDBBLOCKREPETAG
1070
     1
1071
      156
1005
121327
  0
LINE
  5
121328
  8
OBJECT
 10
6066.0
 20
-1084.9999999999959
 30
0.0
 11
6065.9999999999909
 21
-1048.9999999999959
 31
0.0
1001
ACDBBLOCKREPETAG
1070
     1
1071
      157
1005
121328
  0
LINE
  5
121329
  8
OBJECT
 10
5954.75
 20
-1074.699999999993
 30
0.0
 11
5967.2499999999991
 21
-1074.699999999993
 31
0.0
1001
ACDBBLOCKREPETAG
1070
     1
1071
      158
1005
121329
  0
LINE
  5
12132A
  8
OBJECT
 10
5946.0
 20
-1084.9999999999959
 30
0.0
 11
5946.0
 21
-1082.699999999996
 31
0.0
1001
ACDBBLOCKREPETAG
1070
     1
1071
      159
1005
12132A
  0
LINE
  5
12132B
  8
OBJECT
 10
5976.0
 20
-1084.9999999999959
 30
0.0
 11
5976.0
 21
-1082.699999999996
 31
0.0
1001
ACDBBLOCKREPETAG
1070
     1
1071
      160
1005
12132B
  0
LINE
  5
12132C
  8
OBJECT
 10
5954.75
 20
-1074.699999999993
 30
0.0
 11
5954.75
 21
-1082.699999999996
 31
0.0
1001
ACDBBLOCKREPETAG
1070
     1
1071
      161
1005
12132C
  0
LINE
  5
12132D
  8
OBJECT
 10
5967.2499999999991
 20
-1074.699999999993
 30
0.0
 11
5967.2499999999991
 21
-1082.699999999996
 31
0.0
1001
ACDBBLOCKREPETAG
1070
     1
1071
      162
1005
12132D
  0
LINE
  5
12132E
  8
OBJECT
 10
5946.0
 20
-1082.699999999996
 30
0.0
 11
5976.0
 21
-1082.699999999996
 31
0.0
1001
ACDBBLOCKREPETAG
1070
     1
1071
      163
1005
12132E
  0
LINE
  5
12132F
  8
OBJECT
 10
5953.0
 20
-1123.9999999999959
 30
0.0
 11
5953.0
 21
-1133.9999999999959
 31
0.0
1001
ACDBBLOCKREPETAG
1070
     1
1071
      164
1005
12132F
  0
LINE
  5
121330
  8
OBJECT
 10
5969.0
 20
-1123.9999999999959
 30
0.0
 11
5969.0
 21
-1133.9999999999959
 31
0.0
1001
ACDBBLOCKREPETAG
1070
     1
1071
      165
1005
121330
  0
LINE
  5
121331
  8
OBJECT
 10
5953.0
 20
-1133.9999999999959
 30
0.0
 11
5969.0
 21
-1133.9999999999959
 31
0.0
1001
ACDBBLOCKREPETAG
1070
     1
1071
      166
1005
121331
  0
LINE
  5
121332
  8
OBJECT
 10
5966.0
 20
-1109.9999999999959
 30
0.0
 11
5966.0
 21
-1099.9999999999959
 31
0.0
1001
ACDBBLOCKREPETAG
1070
     1
1071
      167
1005
121332
  0
LINE
  5
121333
  8
OBJECT
 10
5956.0
 20
-1109.9999999999959
 30
0.0
 11
5956.0
 21
-1099.9999999999959
 31
0.0
1001
ACDBBLOCKREPETAG
1070
     1
1071
      168
1005
121333
  0
LINE
  5
121334
  8
OBJECT
 10
4090.0
 20
-1084.9999999999959
 30
0.0
 11
3924.0
 21
-1084.9999999999959
 31
0.0
1001
ACDBBLOCKREPETAG
1070
     1
1071
       12
1005
121334
  0
LINE
  5
121335
  8
OBJECT
 10
4066.0
 20
-1048.9999999999959
 30
0.0
 11
3934.0
 21
-1048.9999999999959
 31
0.0
1001
ACDBBLOCKREPETAG
1070
     1
1071
       13
1005
121335
  0
LINE
  5
121336
  8
OBJECT
 10
4090.0
 20
-1099.9999999999991
 30
0.0
 11
4090.0
 21
-1084.9999999999959
 31
0.0
1001
ACDBBLOCKREPETAG
1070
     1
1071
       14
1005
121336
  0
LINE
  5
121337
  8
OBJECT
 10
3924.0
 20
-1099.9999999999991
 30
0.0
 11
4090.0
 21
-1099.9999999999991
 31
0.0
1001
ACDBBLOCKREPETAG
1070
     1
1071
       15
1005
121337
  0
LINE
  5
121338
  8
OBJECT
 10
4067.4999999999841
 20
-1099.9999999999991
 30
0.0
 11
4067.4999999999841
 21
-1109.9999999999991
 31
0.0
1001
ACDBBLOCKREPETAG
1070
     1
1071
       16
1005
121338
  0
LINE
  5
121339
  8
OBJECT
 10
3924.0
 20
-1109.9999999999991
 30
0.0
 11
3924.0
 21
-1123.9999999999959
 31
0.0
1001
ACDBBLOCKREPETAG
1070
     1
1071
       17
1005
121339
  0
LINE
  5
12133A
  8
OBJECT
 10
4090.0
 20
-1109.9999999999991
 30
0.0
 11
4090.0
 21
-1123.9999999999959
 31
0.0
1001
ACDBBLOCKREPETAG
1070
     1
1071
       18
1005
12133A
  0
LINE
  5
12133B
  8
OBJECT
 10
3924.0
 20
-1123.9999999999959
 30
0.0
 11
4090.0
 21
-1123.9999999999959
 31
0.0
1001
ACDBBLOCKREPETAG
1070
     1
1071
       19
1005
12133B
  0
LINE
  5
12133C
  8
OBJECT
 10
3924.0
 20
-1109.9999999999991
 30
0.0
 11
4090.0
 21
-1109.9999999999991
 31
0.0
1001
ACDBBLOCKREPETAG
1070
     1
1071
       20
1005
12133C
  0
LINE
  5
12133D
  8
OBJECT
 10
3932.499999999985
 20
-1099.9999999999991
 30
0.0
 11
3932.499999999985
 21
-1109.9999999999991
 31
0.0
1001
ACDBBLOCKREPETAG
1070
     1
1071
       21
1005
12133D
  0
LINE
  5
12133E
  8
OBJECT
 10
3924.0
 20
-1099.9999999999991
 30
0.0
 11
3924.0
 21
-1084.9999999999959
 31
0.0
1001
ACDBBLOCKREPETAG
1070
     1
1071
       22
1005
12133E
  0
LINE
  5
12133F
  8
HIDDEN
 10
3943.0
 20
-1059.9999999999991
 30
0.0
 11
4057.0
 21
-1059.9999999999991
 31
0.0
1001
ACDBBLOCKREPETAG
1070
     1
1071
       23
1005
12133F
  0
LINE
  5
121340
  8
CENTER
 10
4000.0
 20
-789.99999999999955
 30
0.0
 11
4000.0
 21
-1138.9999999999959
 31
0.0
1001
ACDBBLOCKREPETAG
1070
     1
1071
       24
1005
121340
  0
LINE
  5
121341
  8
OBJECT
 10
3925.0
 20
-789.99999999999955
 30
0.0
 11
3925.0
 21
-871.99999999999591
 31
0.0
1001
ACDBBLOCKREPETAG
1070
     1
1071
       25
1005
121341
  0
LINE
  5
121342
  8
OBJECT
 10
4075.0
 20
-789.99999999999955
 30
0.0
 11
4075.0
 21
-871.99999999999204
 31
0.0
1001
ACDBBLOCKREPETAG
1070
     1
1071
       26
1005
121342
  0
LINE
  5
121343
  8
OBJECT
 10
3925.0
 20
-871.99999999999591
 30
0.0
 11
4075.0
 21
-871.99999999999204
 31
0.0
1001
ACDBBLOCKREPETAG
1070
     1
1071
       27
1005
121343
  0
LINE
  5
121344
  8
OBJECT
 10
4057.0
 20
-1048.9999999999959
 30
0.0
 11
4057.0
 21
-999.99999999999204
 31
0.0
1001
ACDBBLOCKREPETAG
1070
     1
1071
       28
1005
121344
  0
LINE
  5
121345
  8
OBJECT
 10
3943.0
 20
-1048.9999999999959
 30
0.0
 11
3943.0
 21
-999.99999999999204
 31
0.0
1001
ACDBBLOCKREPETAG
1070
     1
1071
       29
1005
121345
  0
LINE
  5
121346
  8
OBJECT
 10
4057.0
 20
-999.99999999999204
 30
0.0
 11
3943.0
 21
-999.99999999999204
 31
0.0
1001
ACDBBLOCKREPETAG
1070
     1
1071
       30
1005
121346
  0
LINE
  5
121347
  8
OBJECT
 10
3925.0
 20
-871.99999999999591
 30
0.0
 11
3943.0
 21
-999.99999999999204
 31
0.0
1001
ACDBBLOCKREPETAG
1070
     1
1071
       31
1005
121347
  0
LINE
  5
121348
  8
OBJECT
 10
4057.0
 20
-999.99999999999204
 30
0.0
 11
4075.0
 21
-871.99999999999204
 31
0.0
1001
ACDBBLOCKREPETAG
1070
     1
1071
       32
1005
121348
  0
LINE
  5
121349
  8
OBJECT
 10
3934.0
 20
-1048.9999999999959
 30
0.0
 11
3934.0
 21
-1084.9999999999959
 31
0.0
1001
ACDBBLOCKREPETAG
1070
     1
1071
       33
1005
121349
  0
LINE
  5
12134A
  8
OBJECT
 10
4066.0
 20
-1048.9999999999959
 30
0.0
 11
4066.0
 21
-1084.9999999999959
 31
0.0
1001
ACDBBLOCKREPETAG
1070
     1
1071
       34
1005
12134A
  0
LINE
  5
12134B
  8
OBJECT
 10
4082.9999999999932
 20
-1109.9999999999959
 30
0.0
 11
4082.9999999999932
 21
-1099.9999999999959
 31
0.0
1001
ACDBBLOCKREPETAG
1070
     1
1071
       35
1005
12134B
  0
LINE
  5
12134C
  8
OBJECT
 10
4072.9999999999918
 20
-1109.9999999999959
 30
0.0
 11
4072.9999999999918
 21
-1099.9999999999959
 31
0.0
1001
ACDBBLOCKREPETAG
1070
     1
1071
       36
1005
12134C
  0
LINE
  5
12134D
  8
OBJECT
 10
4068.9999999999841
 20
-1079.9999999999959
 30
0.0
 11
4068.9999999999841
 21
-1084.9999999999959
 31
0.0
1001
ACDBBLOCKREPETAG
1070
     1
1071
       37
1005
12134D
  0
LINE
  5
12134E
  8
OBJECT
 10
4087.0
 20
-1079.9999999999959
 30
0.0
 11
4087.0
 21
-1084.9999999999959
 31
0.0
1001
ACDBBLOCKREPETAG
1070
     1
1071
       38
1005
12134E
  0
LINE
  5
12134F
  8
OBJECT
 10
4087.0
 20
-1079.9999999999959
 30
0.0
 11
4068.9999999999841
 21
-1079.9999999999959
 31
0.0
1001
ACDBBLOCKREPETAG
1070
     1
1071
       39
1005
12134F
  0
LINE
  5
121350
  8
OBJECT
 10
4073.0
 20
-1131.9999999999959
 30
0.0
 11
4073.0
 21
-1134.9999999999959
 31
0.0
1001
ACDBBLOCKREPETAG
1070
     1
1071
       40
1005
121350
  0
LINE
  5
121351
  8
OBJECT
 10
4073.0
 20
-1134.9999999999959
 30
0.0
 11
4083.0
 21
-1134.9999999999959
 31
0.0
1001
ACDBBLOCKREPETAG
1070
     1
1071
       41
1005
121351
  0
LINE
  5
121352
  8
OBJECT
 10
4068.185045423772
 20
-1131.9999999999959
 30
0.0
 11
4087.8149545762199
 21
-1131.9999999999959
 31
0.0
1001
ACDBBLOCKREPETAG
1070
     1
1071
       42
1005
121352
  0
LINE
  5
121353
  8
OBJECT
 10
4083.0
 20
-1134.9999999999959
 30
0.0
 11
4083.0
 21
-1131.9999999999959
 31
0.0
1001
ACDBBLOCKREPETAG
1070
     1
1071
       43
1005
121353
  0
LINE
  5
121354
  8
OBJECT
 10
4068.1850359912942
 20
-1123.9999868402549
 30
0.0
 11
4068.1850359912942
 21
-1131.9999868402549
 31
0.0
1001
ACDBBLOCKREPETAG
1070
     1
1071
       44
1005
121354
  0
LINE
  5
121355
  8
OBJECT
 10
4073.0925013591982
 20
-1123.9999868402549
 30
0.0
 11
4073.0925013591982
 21
-1131.9999868402549
 31
0.0
1001
ACDBBLOCKREPETAG
1070
     1
1071
       45
1005
121355
  0
LINE
  5
121356
  8
OBJECT
 10
4082.907432095024
 20
-1123.9999868402549
 30
0.0
 11
4082.907432095024
 21
-1131.9999868402549
 31
0.0
1001
ACDBBLOCKREPETAG
1070
     1
1071
       46
1005
121356
  0
LINE
  5
121357
  8
OBJECT
 10
4087.814991552797
 20
-1123.9999868402549
 30
0.0
 11
4087.814991552797
 21
-1131.9999868402549
 31
0.0
1001
ACDBBLOCKREPETAG
1070
     1
1071
       47
1005
121357
  0
LINE
  5
121358
  8
OBJECT
 10
3968.5
 20
-1079.9999999999959
 30
0.0
 11
3951.9999999999932
 21
-1079.9999999999959
 31
0.0
1001
ACDBBLOCKREPETAG
1070
     1
1071
       48
1005
121358
  0
LINE
  5
121359
  8
OBJECT
 10
3976.0
 20
-1084.9999999999959
 30
0.0
 11
3976.0
 21
-1082.9999999999959
 31
0.0
1001
ACDBBLOCKREPETAG
1070
     1
1071
       49
1005
121359
  0
LINE
  5
12135A
  8
OBJECT
 10
3966.0
 20
-1109.9999999999959
 30
0.0
 11
3966.0
 21
-1099.9999999999959
 31
0.0
1001
ACDBBLOCKREPETAG
1070
     1
1071
       50
1005
12135A
  0
LINE
  5
12135B
  8
OBJECT
 10
3956.0
 20
-1109.9999999999959
 30
0.0
 11
3956.0
 21
-1099.9999999999959
 31
0.0
1001
ACDBBLOCKREPETAG
1070
     1
1071
       51
1005
12135B
  0
LINE
  5
12135C
  8
OBJECT
 10
3951.9999999999932
 20
-1079.9999999999959
 30
0.0
 11
3951.9999999999932
 21
-1084.9999999999959
 31
0.0
1001
ACDBBLOCKREPETAG
1070
     1
1071
       52
1005
12135C
  0
LINE
  5
12135D
  8
OBJECT
 10
3956.0
 20
-1131.9999999999959
 30
0.0
 11
3956.0
 21
-1134.9999999999959
 31
0.0
1001
ACDBBLOCKREPETAG
1070
     1
1071
       53
1005
12135D
  0
LINE
  5
12135E
  8
OBJECT
 10
3956.0
 20
-1134.9999999999959
 30
0.0
 11
3966.0
 21
-1134.9999999999959
 31
0.0
1001
ACDBBLOCKREPETAG
1070
     1
1071
       54
1005
12135E
  0
LINE
  5
12135F
  8
OBJECT
 10
3951.185045423772
 20
-1131.9999999999959
 30
0.0
 11
3970.8149545762212
 21
-1131.9999999999959
 31
0.0
1001
ACDBBLOCKREPETAG
1070
     1
1071
       55
1005
12135F
  0
LINE
  5
121360
  8
OBJECT
 10
3966.0
 20
-1134.9999999999959
 30
0.0
 11
3966.0
 21
-1131.9999999999959
 31
0.0
1001
ACDBBLOCKREPETAG
1070
     1
1071
       56
1005
121360
  0
LINE
  5
121361
  8
OBJECT
 10
3976.0
 20
-1082.9999999999959
 30
0.0
 11
3968.5
 21
-1079.9999999999959
 31
0.0
1001
ACDBBLOCKREPETAG
1070
     1
1071
       57
1005
121361
  0
LINE
  5
121362
  8
OBJECT
 10
3951.1850359912951
 20
-1123.9999868402549
 30
0.0
 11
3951.1850359912951
 21
-1131.9999868402549
 31
0.0
1001
ACDBBLOCKREPETAG
1070
     1
1071
       58
1005
121362
  0
LINE
  5
121363
  8
OBJECT
 10
3956.0925013591991
 20
-1123.9999868402549
 30
0.0
 11
3956.0925013591991
 21
-1131.9999868402549
 31
0.0
1001
ACDBBLOCKREPETAG
1070
     1
1071
       59
1005
121363
  0
LINE
  5
121364
  8
OBJECT
 10
3965.907432095024
 20
-1123.9999868402549
 30
0.0
 11
3965.907432095024
 21
-1131.9999868402549
 31
0.0
1001
ACDBBLOCKREPETAG
1070
     1
1071
       60
1005
121364
  0
LINE
  5
121365
  8
OBJECT
 10
3970.8149915527979
 20
-1123.9999868402549
 30
0.0
 11
3970.8149915527979
 21
-1131.9999868402549
 31
0.0
1001
ACDBBLOCKREPETAG
1070
     1
1071
       61
1005
121365
  0
LINE
  5
121366
  8
OBJECT
 10
1943.0
 20
-1099.9999999999959
 30
0.0
 11
2057.0
 21
-1099.9999999999959
 31
0.0
1001
ACDBBLOCKREPETAG
1070
     1
1071
        0
1005
121366
  0
LINE
  5
121367
  8
OBJECT
 10
1943.0
 20
-1099.9999999999959
 30
0.0
 11
1943.0
 21
-999.99999999999602
 31
0.0
1001
ACDBBLOCKREPETAG
1070
     1
1071
        1
1005
121367
  0
LINE
  5
121368
  8
OBJECT
 10
2057.0
 20
-1099.9999999999959
 30
0.0
 11
2057.0
 21
-999.99999999999602
 31
0.0
1001
ACDBBLOCKREPETAG
1070
     1
1071
        2
1005
121368
  0
LINE
  5
121369
  8
OBJECT
 10
1943.0
 20
-999.99999999999602
 30
0.0
 11
2057.0
 21
-999.99999999999602
 31
0.0
1001
ACDBBLOCKREPETAG
1070
     1
1071
        3
1005
121369
  0
LINE
  5
12136A
  8
HIDDEN
 10
1950.0
 20
-999.99999999999602
 30
0.0
 11
1950.0
 21
-1099.9999999999959
 31
0.0
1001
ACDBBLOCKREPETAG
1070
     1
1071
        4
1005
12136A
  0
LINE
  5
12136B
  8
HIDDEN
 10
2050.0
 20
-999.99999999999602
 30
0.0
 11
2050.0
 21
-1099.9999999999959
 31
0.0
1001
ACDBBLOCKREPETAG
1070
     1
1071
        5
1005
12136B
  0
LINE
  5
12136C
  8
CENTER
 10
2000.0
 20
-789.99999999999955
 30
0.0
 11
2000.0
 21
-1114.9999999999959
 31
0.0
1001
ACDBBLOCKREPETAG
1070
     1
1071
        6
1005
12136C
  0
LINE
  5
12136D
  8
OBJECT
 10
1925.0
 20
-789.99999999999955
 30
0.0
 11
1925.0
 21
-871.99999999999591
 31
0.0
1001
ACDBBLOCKREPETAG
1070
     1
1071
        7
1005
12136D
  0
LINE
  5
12136E
  8
OBJECT
 10
2075.0
 20
-789.99999999999955
 30
0.0
 11
2075.0
 21
-871.99999999999591
 31
0.0
1001
ACDBBLOCKREPETAG
1070
     1
1071
        8
1005
12136E
  0
LINE
  5
12136F
  8
OBJECT
 10
1925.0
 20
-871.99999999999591
 30
0.0
 11
2075.0
 21
-871.99999999999591
 31
0.0
1001
ACDBBLOCKREPETAG
1070
     1
1071
        9
1005
12136F
  0
LINE
  5
121370
  8
OBJECT
 10
1925.0
 20
-871.99999999999591
 30
0.0
 11
1943.0
 21
-999.99999999999602
 31
0.0
1001
ACDBBLOCKREPETAG
1070
     1
1071
       10
1005
121370
  0
LINE
  5
121371
  8
OBJECT
 10
2057.0
 20
-999.99999999999602
 30
0.0
 11
2075.0
 21
-871.99999999999591
 31
0.0
1001
ACDBBLOCKREPETAG
1070
     1
1071
       11
1005
121371
  0
LINE
  5
121372
  8
OBJECT
 10
2083.0
 20
-534.0
 30
0.0
 11
2080.0
 21
-534.0
 31
0.0
1001
ACDBBLOCKREPETAG
1070
     1
1071
        1
1005
121372
  0
ARC
  5
121373
  8
OBJECT
 10
2083.0
 20
-537.0
 30
0.0
 40
3.0
 50
0.0
 51
90.0
1001
ACDBBLOCKREPETAG
1070
     1
1071
        2
1005
121373
  0
LINE
  5
121374
  8
OBJECT
 10
2080.0
 20
-658.0
 30
0.0
 11
2083.0
 21
-658.0
 31
0.0
1001
ACDBBLOCKREPETAG
1070
     1
1071
        3
1005
121374
  0
ARC
  5
121375
  8
OBJECT
 10
2083.0
 20
-655.0
 30
0.0
 40
3.0
 50
270.0
 51
0.0
1001
ACDBBLOCKREPETAG
1070
     1
1071
        4
1005
121375
  0
LINE
  5
121376
  8
OBJECT
 10
2086.0
 20
-655.0
 30
0.0
 11
2086.0
 21
-537.0
 31
0.0
1001
ACDBBLOCKREPETAG
1070
     1
1071
        5
1005
121376
  0
LINE
  5
121377
  8
CENTER
 10
2101.0
 20
-199.99999999999909
 30
0.0
 11
2080.0
 21
-199.99999999999909
 31
0.0
1001
ACDBBLOCKREPETAG
1070
     1
1071
        0
1005
121377
  0
LINE
  5
121378
  8
OBJECT
 10
2083.0
 20
-137.99999999999909
 30
0.0
 11
2080.0
 21
-137.99999999999909
 31
0.0
1001
ACDBBLOCKREPETAG
1070
     1
1071
        1
1005
121378
  0
ARC
  5
121379
  8
OBJECT
 10
2083.0
 20
-140.99999999999909
 30
0.0
 40
3.0
 50
0.0
 51
90.0
1001
ACDBBLOCKREPETAG
1070
     1
1071
        2
1005
121379
  0
LINE
  5
12137A
  8
OBJECT
 10
2080.0
 20
-261.99999999999909
 30
0.0
 11
2083.0
 21
-261.99999999999909
 31
0.0
1001
ACDBBLOCKREPETAG
1070
     1
1071
        3
1005
12137A
  0
ARC
  5
12137B
  8
OBJECT
 10
2083.0
 20
-258.99999999999909
 30
0.0
 40
3.0
 50
270.0
 51
0.0
1001
ACDBBLOCKREPETAG
1070
     1
1071
        4
1005
12137B
  0
LINE
  5
12137C
  8
OBJECT
 10
2086.0
 20
-258.99999999999909
 30
0.0
 11
2086.0
 21
-140.99999999999909
 31
0.0
1001
ACDBBLOCKREPETAG
1070
     1
1071
        5
1005
12137C
  0
TEXT
  5
12137D
  8
SLIM
 10
0.0
 20
670.0
 30
0.0
 40
100.0
  1
4SLT-0-S
 41
0.75
  0
TEXT
  5
12137E
  8
SLIM
 10
0.0
 20
520.0
 30
0.0
 40
100.0
  1
4SLT-0-W
 41
0.75
  0
LINE
  5
12137F
  8
CENTER
 10
11909.0
 20
-1373.9999999999959
 30
0.0
 11
12105.0
 21
-1373.9999999999959
 31
0.0
1001
ACDBBLOCKREPETAG
1070
     1
1071
       10
1005
12137F
  0
LINE
  5
121380
  8
CENTER
 10
12000.0
 20
-1282.725335570779
 30
0.0
 11
12000.0
 21
-1465.274664429212
 31
0.0
1001
ACDBBLOCKREPETAG
1070
     1
1071
       11
1005
121380
  0
CIRCLE
  5
121381
  8
OBJECT
 10
12000.0
 20
-1373.9999999999959
 30
0.0
 40
50.0
1001
ACDBBLOCKREPETAG
1070
     1
1071
       12
1005
121381
  0
CIRCLE
  5
121382
  8
OBJECT
 10
12000.0
 20
-1373.9999999999959
 30
0.0
 40
60.0
1001
ACDBBLOCKREPETAG
1070
     1
1071
       13
1005
121382
  0
CIRCLE
  5
121383
  8
OBJECT
 10
12000.0
 20
-1373.9999999999959
 30
0.0
 40
68.0
1001
ACDBBLOCKREPETAG
1070
     1
1071
       14
1005
121383
  0
ARC
  5
121384
  8
OBJECT
 10
12077.5
 20
-1373.9999999999959
 30
0.0
 40
12.0
 50
272.10542627221611
 51
87.894573727783893
1001
ACDBBLOCKREPETAG
1070
     1
1071
       15
1005
121384
  0
ARC
  5
121385
  8
OBJECT
 10
12078.49193548386
 20
-1347.0182271895239
 30
0.0
 40
15.0
 50
198.97051877965251
 51
267.89457372778372
1001
ACDBBLOCKREPETAG
1070
     1
1071
       16
1005
121385
  0
ARC
  5
121386
  8
OBJECT
 10
12078.49193548386
 20
-1400.981772810464
 30
0.0
 40
15.0
 50
92.105426272216135
 51
161.02948122034729
1001
ACDBBLOCKREPETAG
1070
     1
1071
       17
1005
121386
  0
CIRCLE
  5
121387
  8
SLIM
 10
12078.0
 20
-1373.9999999999959
 30
0.0
 40
8.0
1001
ACDBBLOCKREPETAG
1070
     1
1071
       18
1005
121387
  0
POLYLINE
  5
121388
  8
SLIM
 66
     1
 10
0.0
 20
0.0
 30
0.0
 70
     1
1001
ACDBBLOCKREPETAG
1070
     1
1071
       19
1005
121388
  0
VERTEX
  5
12220B
  8
SLIM
 10
12075.69059892322
 20
-1369.9999999999959
 30
0.0
  0
VERTEX
  5
12220C
  8
SLIM
 10
12073.38119784648
 20
-1373.9999999999959
 30
0.0
  0
VERTEX
  5
12220D
  8
SLIM
 10
12075.69059892322
 20
-1377.9999999999959
 30
0.0
  0
VERTEX
  5
12220E
  8
SLIM
 10
12080.309401076751
 20
-1377.9999999999959
 30
0.0
  0
VERTEX
  5
12220F
  8
SLIM
 10
12082.618802153511
 20
-1373.9999999999959
 30
0.0
  0
VERTEX
  5
122210
  8
SLIM
 10
12080.309401076751
 20
-1369.9999999999959
 30
0.0
  0
SEQEND
  5
122211
  8
SLIM
  0
ARC
  5
121389
  8
OBJECT
 10
11961.25
 20
-1306.8830312067
 30
0.0
 40
12.0
 50
32.105426272130188
 51
207.89457372768319
1001
ACDBBLOCKREPETAG
1070
     1
1071
       20
1005
121389
  0
ARC
  5
12138A
  8
OBJECT
 10
11937.38713156505
 20
-1319.5148762839881
 30
0.0
 40
15.0
 50
318.97051877944762
 51
27.89457372768311
1001
ACDBBLOCKREPETAG
1070
     1
1071
       21
1005
12138A
  0
ARC
  5
12138B
  8
OBJECT
 10
11984.120932951069
 20
-1292.533103473517
 30
0.0
 40
15.0
 50
212.10542627213019
 51
281.02948122044069
1001
ACDBBLOCKREPETAG
1070
     1
1071
       22
1005
12138B
  0
CIRCLE
  5
12138C
  8
SLIM
 10
11961.0
 20
-1306.4500185048089
 30
0.0
 40
7.9999999999999982
1001
ACDBBLOCKREPETAG
1070
     1
1071
       23
1005
12138C
  0
POLYLINE
  5
12138D
  8
SLIM
 66
     1
 10
0.0
 20
0.0
 30
0.0
 70
     1
1001
ACDBBLOCKREPETAG
1070
     1
1071
       24
1005
12138D
  0
VERTEX
  5
122212
  8
SLIM
 10
11958.69059892324
 20
-1310.450018504808
 30
0.0
  0
VERTEX
  5
122213
  8
SLIM
 10
11963.309401076751
 20
-1310.450018504808
 30
0.0
  0
VERTEX
  5
122214
  8
SLIM
 10
11965.618802153511
 20
-1306.4500185048089
 30
0.0
  0
VERTEX
  5
122215
  8
SLIM
 10
11963.309401076751
 20
-1302.450018504808
 30
0.0
  0
VERTEX
  5
122216
  8
SLIM
 10
11958.69059892324
 20
-1302.450018504808
 30
0.0
  0
VERTEX
  5
122217
  8
SLIM
 10
11956.38119784648
 20
-1306.4500185048089
 30
0.0
  0
SEQEND
  5
122218
  8
SLIM
  0
ARC
  5
12138E
  8
OBJECT
 10
11961.25
 20
-1441.1169687932879
 30
0.0
 40
12.0
 50
152.10542627231681
 51
327.89457372786978
1001
ACDBBLOCKREPETAG
1070
     1
1071
       25
1005
12138E
  0
ARC
  5
12138F
  8
OBJECT
 10
11984.120932951069
 20
-1455.4668965264709
 30
0.0
 40
15.0
 50
78.970518779559228
 51
147.89457372786981
1001
ACDBBLOCKREPETAG
1070
     1
1071
       26
1005
12138F
  0
ARC
  5
121390
  8
OBJECT
 10
11937.38713156505
 20
-1428.485123716003
 30
0.0
 40
15.0
 50
332.10542627231678
 51
41.029481220552412
1001
ACDBBLOCKREPETAG
1070
     1
1071
       27
1005
121390
  0
CIRCLE
  5
121391
  8
SLIM
 10
11961.0
 20
-1441.5499814951829
 30
0.0
 40
8.0
1001
ACDBBLOCKREPETAG
1070
     1
1071
       28
1005
121391
  0
POLYLINE
  5
121392
  8
SLIM
 66
     1
 10
0.0
 20
0.0
 30
0.0
 70
     1
1001
ACDBBLOCKREPETAG
1070
     1
1071
       29
1005
121392
  0
VERTEX
  5
122219
  8
SLIM
 10
11965.618802153511
 20
-1441.5499814951791
 30
0.0
  0
VERTEX
  5
12221A
  8
SLIM
 10
11963.309401076751
 20
-1437.549981495182
 30
0.0
  0
VERTEX
  5
12221B
  8
SLIM
 10
11958.69059892324
 20
-1437.5499814951791
 30
0.0
  0
VERTEX
  5
12221C
  8
SLIM
 10
11956.38119784648
 20
-1441.5499814951829
 30
0.0
  0
VERTEX
  5
12221D
  8
SLIM
 10
11958.69059892322
 20
-1445.5499814951791
 30
0.0
  0
VERTEX
  5
12221E
  8
SLIM
 10
11963.309401076751
 20
-1445.549981495182
 30
0.0
  0
SEQEND
  5
12221F
  8
SLIM
  0
ARC
  5
121393
  8
OBJECT
 10
12000.0
 20
-1373.9999999999959
 30
0.0
 40
76.0
 50
34.863837954171863
 51
85.136162045732945
1001
ACDBBLOCKREPETAG
1070
     1
1071
       42
1005
121393
  0
ARC
  5
121394
  8
OBJECT
 10
12000.0
 20
-1373.9999999999959
 30
0.0
 40
76.0
 50
154.86383795430939
 51
205.1361620456905
1001
ACDBBLOCKREPETAG
1070
     1
1071
       43
1005
121394
  0
ARC
  5
121395
  8
OBJECT
 10
12000.0
 20
-1373.9999999999959
 30
0.0
 40
76.0
 50
274.86383795426718
 51
325.13616204582797
1001
ACDBBLOCKREPETAG
1070
     1
1071
       44
1005
121395
  0
ARC
  5
121396
  8
OBJECT
 10
12078.0
 20
-1373.9999999999959
 30
0.0
 40
12.0
 50
325.13616204582797
 51
34.863837954171863
1001
ACDBBLOCKREPETAG
1070
     1
1071
       45
1005
121396
  0
LINE
  5
121397
  8
OBJECT
 10
12087.84615384616
 20
-1367.140462520133
 30
0.0
 11
12062.358974359049
 21
-1330.5562626275339
 31
0.0
1001
ACDBBLOCKREPETAG
1070
     1
1071
       46
1005
121397
  0
LINE
  5
121398
  8
OBJECT
 10
12087.846153846171
 20
-1380.859537479856
 30
0.0
 11
12062.358974359049
 21
-1417.4437373724591
 31
0.0
1001
ACDBBLOCKREPETAG
1070
     1
1071
       47
1005
121398
  0
ARC
  5
121399
  8
OBJECT
 10
11961.0
 20
-1306.45001850481
 30
0.0
 40
12.0
 50
85.136162045942811
 51
154.86383795410001
1001
ACDBBLOCKREPETAG
1070
     1
1071
       48
1005
121399
  0
LINE
  5
12139A
  8
OBJECT
 10
11950.13638936114
 20
-1301.3527678843909
 30
0.0
 11
11931.19713262058
 21
-1341.7174127373471
 31
0.0
1001
ACDBBLOCKREPETAG
1070
     1
1071
       49
1005
12139A
  0
LINE
  5
12139B
  8
OBJECT
 10
11962.017456792681
 20
-1294.493230404526
 30
0.0
 11
12006.443893020371
 21
-1298.273675364886
 31
0.0
1001
ACDBBLOCKREPETAG
1070
     1
1071
       50
1005
12139B
  0
ARC
  5
12139C
  8
OBJECT
 10
11961.0
 20
-1441.5499814951811
 30
0.0
 40
12.0
 50
205.13616204589991
 51
274.8638379540572
1001
ACDBBLOCKREPETAG
1070
     1
1071
       51
1005
12139C
  0
LINE
  5
12139D
  8
OBJECT
 10
11962.01745679269
 20
-1453.5067695954631
 30
0.0
 11
12006.44389302036
 21
-1449.726324635106
 31
0.0
1001
ACDBBLOCKREPETAG
1070
     1
1071
       52
1005
12139D
  0
LINE
  5
12139E
  8
OBJECT
 10
11950.13638936114
 20
-1446.6472321156041
 30
0.0
 11
11931.19713262058
 21
-1406.2825872626429
 31
0.0
1001
ACDBBLOCKREPETAG
1070
     1
1071
       53
1005
12139E
  0
LINE
  5
12139F
  8
CENTER
 10
9909.0
 20
-1373.9999999999959
 30
0.0
 11
10105.0
 21
-1373.9999999999959
 31
0.0
1001
ACDBBLOCKREPETAG
1070
     1
1071
        0
1005
12139F
  0
LINE
  5
1213A0
  8
CENTER
 10
10000.0
 20
-1282.725335570779
 30
0.0
 11
10000.0
 21
-1465.274664429212
 31
0.0
1001
ACDBBLOCKREPETAG
1070
     1
1071
        1
1005
1213A0
  0
CIRCLE
  5
1213A1
  8
OBJECT
 10
10000.0
 20
-1373.9999999999959
 30
0.0
 40
50.0
1001
ACDBBLOCKREPETAG
1070
     1
1071
        2
1005
1213A1
  0
CIRCLE
  5
1213A2
  8
OBJECT
 10
10000.0
 20
-1373.9999999999959
 30
0.0
 40
62.0
1001
ACDBBLOCKREPETAG
1070
     1
1071
        3
1005
1213A2
  0
CIRCLE
  5
1213A3
  8
SLIM
 10
10078.0
 20
-1373.9999999999959
 30
0.0
 40
5.0
1001
ACDBBLOCKREPETAG
1070
     1
1071
        4
1005
1213A3
  0
POLYLINE
  5
1213A4
  8
SLIM
 66
     1
 10
0.0
 20
0.0
 30
0.0
 70
     1
1001
ACDBBLOCKREPETAG
1070
     1
1071
        5
1005
1213A4
  0
VERTEX
  5
122220
  8
SLIM
 10
10073.092522711881
 20
-1365.4999999999959
 30
0.0
  0
VERTEX
  5
122221
  8
SLIM
 10
10068.18504542377
 20
-1373.9999999999959
 30
0.0
  0
VERTEX
  5
122222
  8
SLIM
 10
10073.092522711881
 20
-1382.4999999999959
 30
0.0
  0
VERTEX
  5
122223
  8
SLIM
 10
10082.907477288099
 20
-1382.4999999999959
 30
0.0
  0
VERTEX
  5
122224
  8
SLIM
 10
10087.814954576221
 20
-1373.9999999999959
 30
0.0
  0
VERTEX
  5
122225
  8
SLIM
 10
10082.907477288099
 20
-1365.4999999999959
 30
0.0
  0
SEQEND
  5
122226
  8
SLIM
  0
CIRCLE
  5
1213A5
  8
SLIM
 10
9961.0
 20
-1306.4500185048089
 30
0.0
 40
4.9999999999999991
1001
ACDBBLOCKREPETAG
1070
     1
1071
        6
1005
1213A5
  0
POLYLINE
  5
1213A6
  8
SLIM
 66
     1
 10
0.0
 20
0.0
 30
0.0
 70
     1
1001
ACDBBLOCKREPETAG
1070
     1
1071
        7
1005
1213A6
  0
VERTEX
  5
122227
  8
SLIM
 10
9956.092522711886
 20
-1314.9500185048089
 30
0.0
  0
VERTEX
  5
122228
  8
SLIM
 10
9965.907477288114
 20
-1314.9500185048089
 30
0.0
  0
VERTEX
  5
122229
  8
SLIM
 10
9970.814954576219
 20
-1306.4500185048089
 30
0.0
  0
VERTEX
  5
12222A
  8
SLIM
 10
9965.907477288114
 20
-1297.950018504808
 30
0.0
  0
VERTEX
  5
12222B
  8
SLIM
 10
9956.092522711886
 20
-1297.950018504808
 30
0.0
  0
VERTEX
  5
12222C
  8
SLIM
 10
9951.185045423772
 20
-1306.4500185048089
 30
0.0
  0
SEQEND
  5
12222D
  8
SLIM
  0
CIRCLE
  5
1213A7
  8
SLIM
 10
9961.0
 20
-1441.5499814951829
 30
0.0
 40
5.0
1001
ACDBBLOCKREPETAG
1070
     1
1071
        8
1005
1213A7
  0
POLYLINE
  5
1213A8
  8
SLIM
 66
     1
 10
0.0
 20
0.0
 30
0.0
 70
     1
1001
ACDBBLOCKREPETAG
1070
     1
1071
        9
1005
1213A8
  0
VERTEX
  5
12222E
  8
SLIM
 10
9970.814954576219
 20
-1441.5499814951829
 30
0.0
  0
VERTEX
  5
12222F
  8
SLIM
 10
9965.9074772881049
 20
-1433.0499814951791
 30
0.0
  0
VERTEX
  5
122230
  8
SLIM
 10
9956.092522711886
 20
-1433.049981495182
 30
0.0
  0
VERTEX
  5
122231
  8
SLIM
 10
9951.185045423772
 20
-1441.5499814951791
 30
0.0
  0
VERTEX
  5
122232
  8
SLIM
 10
9956.092522711886
 20
-1450.0499814951829
 30
0.0
  0
VERTEX
  5
122233
  8
SLIM
 10
9965.907477288114
 20
-1450.0499814951791
 30
0.0
  0
SEQEND
  5
122234
  8
SLIM
  0
ARC
  5
1213A9
  8
OBJECT
 10
10000.0
 20
-1373.9999999999959
 30
0.0
 40
76.0
 50
34.863837954171863
 51
85.136162045732945
1001
ACDBBLOCKREPETAG
1070
     1
1071
       30
1005
1213A9
  0
ARC
  5
1213AA
  8
OBJECT
 10
10000.0
 20
-1373.9999999999959
 30
0.0
 40
76.0
 50
154.86383795430939
 51
205.1361620456905
1001
ACDBBLOCKREPETAG
1070
     1
1071
       31
1005
1213AA
  0
ARC
  5
1213AB
  8
OBJECT
 10
10000.0
 20
-1373.9999999999959
 30
0.0
 40
76.0
 50
274.86383795426718
 51
325.13616204582797
1001
ACDBBLOCKREPETAG
1070
     1
1071
       32
1005
1213AB
  0
ARC
  5
1213AC
  8
OBJECT
 10
10078.0
 20
-1373.9999999999959
 30
0.0
 40
12.0
 50
325.13616204582797
 51
34.863837954171863
1001
ACDBBLOCKREPETAG
1070
     1
1071
       33
1005
1213AC
  0
LINE
  5
1213AD
  8
OBJECT
 10
10087.84615384616
 20
-1367.140462520133
 30
0.0
 11
10062.35897435904
 21
-1330.5562626275339
 31
0.0
1001
ACDBBLOCKREPETAG
1070
     1
1071
       34
1005
1213AD
  0
LINE
  5
1213AE
  8
OBJECT
 10
10087.846153846171
 20
-1380.859537479856
 30
0.0
 11
10062.35897435904
 21
-1417.4437373724591
 31
0.0
1001
ACDBBLOCKREPETAG
1070
     1
1071
       35
1005
1213AE
  0
ARC
  5
1213AF
  8
OBJECT
 10
9961.0
 20
-1306.45001850481
 30
0.0
 40
12.0
 50
85.136162045942811
 51
154.86383795410001
1001
ACDBBLOCKREPETAG
1070
     1
1071
       36
1005
1213AF
  0
LINE
  5
1213B0
  8
OBJECT
 10
9950.1363893611433
 20
-1301.3527678843909
 30
0.0
 11
9931.1971326205894
 21
-1341.7174127373471
 31
0.0
1001
ACDBBLOCKREPETAG
1070
     1
1071
       37
1005
1213B0
  0
LINE
  5
1213B1
  8
OBJECT
 10
9962.0174567926842
 20
-1294.493230404526
 30
0.0
 11
10006.443893020371
 21
-1298.273675364886
 31
0.0
1001
ACDBBLOCKREPETAG
1070
     1
1071
       38
1005
1213B1
  0
ARC
  5
1213B2
  8
OBJECT
 10
9961.0
 20
-1441.5499814951811
 30
0.0
 40
12.0
 50
205.13616204589991
 51
274.8638379540572
1001
ACDBBLOCKREPETAG
1070
     1
1071
       39
1005
1213B2
  0
LINE
  5
1213B3
  8
OBJECT
 10
9962.0174567926897
 20
-1453.5067695954631
 30
0.0
 11
10006.44389302036
 21
-1449.726324635106
 31
0.0
1001
ACDBBLOCKREPETAG
1070
     1
1071
       40
1005
1213B3
  0
LINE
  5
1213B4
  8
OBJECT
 10
9950.1363893611433
 20
-1446.6472321156041
 30
0.0
 11
9931.1971326205821
 21
-1406.2825872626429
 31
0.0
1001
ACDBBLOCKREPETAG
1070
     1
1071
       41
1005
1213B4
  0
LINE
  5
1213B5
  8
CENTER
 10
5909.0
 20
-1414.9999999999991
 30
0.0
 11
6105.0
 21
-1414.9999999999991
 31
0.0
1001
ACDBBLOCKREPETAG
1070
     1
1071
       10
1005
1213B5
  0
LINE
  5
1213B6
  8
CENTER
 10
6000.0
 20
-1323.7253355707819
 30
0.0
 11
6000.0
 21
-1506.2746644292149
 31
0.0
1001
ACDBBLOCKREPETAG
1070
     1
1071
       11
1005
1213B6
  0
CIRCLE
  5
1213B7
  8
OBJECT
 10
6000.0
 20
-1414.9999999999991
 30
0.0
 40
50.0
1001
ACDBBLOCKREPETAG
1070
     1
1071
       12
1005
1213B7
  0
CIRCLE
  5
1213B8
  8
OBJECT
 10
6000.0
 20
-1414.9999999999991
 30
0.0
 40
60.0
1001
ACDBBLOCKREPETAG
1070
     1
1071
       13
1005
1213B8
  0
CIRCLE
  5
1213B9
  8
OBJECT
 10
6000.0
 20
-1414.9999999999991
 30
0.0
 40
68.0
1001
ACDBBLOCKREPETAG
1070
     1
1071
       14
1005
1213B9
  0
ARC
  5
1213BA
  8
OBJECT
 10
6077.5
 20
-1414.9999999999991
 30
0.0
 40
12.0
 50
272.10542627221611
 51
87.894573727783893
1001
ACDBBLOCKREPETAG
1070
     1
1071
       15
1005
1213BA
  0
ARC
  5
1213BB
  8
OBJECT
 10
6078.4919354838639
 20
-1388.018227189526
 30
0.0
 40
15.0
 50
198.9705187796356
 51
267.89457372778372
1001
ACDBBLOCKREPETAG
1070
     1
1071
       16
1005
1213BB
  0
ARC
  5
1213BC
  8
OBJECT
 10
6078.4919354838639
 20
-1441.981772810467
 30
0.0
 40
15.0
 50
92.105426272216135
 51
161.02948122036429
1001
ACDBBLOCKREPETAG
1070
     1
1071
       17
1005
1213BC
  0
CIRCLE
  5
1213BD
  8
SLIM
 10
6078.0
 20
-1414.9999999999991
 30
0.0
 40
8.0
1001
ACDBBLOCKREPETAG
1070
     1
1071
       18
1005
1213BD
  0
POLYLINE
  5
1213BE
  8
SLIM
 66
     1
 10
0.0
 20
0.0
 30
0.0
 70
     1
1001
ACDBBLOCKREPETAG
1070
     1
1071
       19
1005
1213BE
  0
VERTEX
  5
122235
  8
SLIM
 10
6075.6905989232328
 20
-1410.9999999999991
 30
0.0
  0
VERTEX
  5
122236
  8
SLIM
 10
6073.3811978464801
 20
-1414.9999999999991
 30
0.0
  0
VERTEX
  5
122237
  8
SLIM
 10
6075.6905989232328
 20
-1418.9999999999991
 30
0.0
  0
VERTEX
  5
122238
  8
SLIM
 10
6080.3094010767527
 20
-1418.9999999999991
 30
0.0
  0
VERTEX
  5
122239
  8
SLIM
 10
6082.6188021535136
 20
-1414.9999999999991
 30
0.0
  0
VERTEX
  5
12223A
  8
SLIM
 10
6080.3094010767527
 20
-1410.9999999999991
 30
0.0
  0
SEQEND
  5
12223B
  8
SLIM
  0
ARC
  5
1213BF
  8
OBJECT
 10
5961.25
 20
-1347.883031206703
 30
0.0
 40
12.0
 50
32.105426272157878
 51
207.89457372770741
1001
ACDBBLOCKREPETAG
1070
     1
1071
       20
1005
1213BF
  0
ARC
  5
1213C0
  8
OBJECT
 10
5937.387131565054
 20
-1360.514876283992
 30
0.0
 40
15.0
 50
318.97051877944762
 51
27.894573727707481
1001
ACDBBLOCKREPETAG
1070
     1
1071
       21
1005
1213C0
  0
ARC
  5
1213C1
  8
OBJECT
 10
5984.1209329510702
 20
-1333.53310347352
 30
0.0
 40
15.0
 50
212.1054262721579
 51
281.02948122044069
1001
ACDBBLOCKREPETAG
1070
     1
1071
       22
1005
1213C1
  0
CIRCLE
  5
1213C2
  8
SLIM
 10
5961.0
 20
-1347.4500185048121
 30
0.0
 40
7.9999999999999982
1001
ACDBBLOCKREPETAG
1070
     1
1071
       23
1005
1213C2
  0
POLYLINE
  5
1213C3
  8
SLIM
 66
     1
 10
0.0
 20
0.0
 30
0.0
 70
     1
1001
ACDBBLOCKREPETAG
1070
     1
1071
       24
1005
1213C3
  0
VERTEX
  5
12223C
  8
SLIM
 10
5958.69059892324
 20
-1351.4500185048121
 30
0.0
  0
VERTEX
  5
12223D
  8
SLIM
 10
5963.3094010767518
 20
-1351.4500185048121
 30
0.0
  0
VERTEX
  5
12223E
  8
SLIM
 10
5965.6188021535136
 20
-1347.4500185048121
 30
0.0
  0
VERTEX
  5
12223F
  8
SLIM
 10
5963.3094010767518
 20
-1343.4500185048121
 30
0.0
  0
VERTEX
  5
122240
  8
SLIM
 10
5958.69059892324
 20
-1343.4500185048121
 30
0.0
  0
VERTEX
  5
122241
  8
SLIM
 10
5956.3811978464792
 20
-1347.4500185048121
 30
0.0
  0
SEQEND
  5
122242
  8
SLIM
  0
ARC
  5
1213C4
  8
OBJECT
 10
5961.25
 20
-1482.1169687932911
 30
0.0
 40
12.0
 50
152.1054262722925
 51
327.89457372784221
1001
ACDBBLOCKREPETAG
1070
     1
1071
       25
1005
1213C4
  0
ARC
  5
1213C5
  8
OBJECT
 10
5984.1209329510702
 20
-1496.4668965264741
 30
0.0
 40
15.0
 50
78.970518779559228
 51
147.8945737278421
1001
ACDBBLOCKREPETAG
1070
     1
1071
       26
1005
1213C5
  0
ARC
  5
1213C6
  8
OBJECT
 10
5937.387131565054
 20
-1469.485123716006
 30
0.0
 40
15.0
 50
332.1054262722925
 51
41.029481220552412
1001
ACDBBLOCKREPETAG
1070
     1
1071
       27
1005
1213C6
  0
CIRCLE
  5
1213C7
  8
SLIM
 10
5961.0
 20
-1482.5499814951861
 30
0.0
 40
8.0
1001
ACDBBLOCKREPETAG
1070
     1
1071
       28
1005
1213C7
  0
POLYLINE
  5
1213C8
  8
SLIM
 66
     1
 10
0.0
 20
0.0
 30
0.0
 70
     1
1001
ACDBBLOCKREPETAG
1070
     1
1071
       29
1005
1213C8
  0
VERTEX
  5
122243
  8
SLIM
 10
5965.6188021535136
 20
-1482.5499814951829
 30
0.0
  0
VERTEX
  5
122244
  8
SLIM
 10
5963.3094010767518
 20
-1478.5499814951861
 30
0.0
  0
VERTEX
  5
122245
  8
SLIM
 10
5958.69059892324
 20
-1478.5499814951829
 30
0.0
  0
VERTEX
  5
122246
  8
SLIM
 10
5956.3811978464792
 20
-1482.5499814951861
 30
0.0
  0
VERTEX
  5
122247
  8
SLIM
 10
5958.6905989232328
 20
-1486.5499814951829
 30
0.0
  0
VERTEX
  5
122248
  8
SLIM
 10
5963.3094010767518
 20
-1486.5499814951861
 30
0.0
  0
SEQEND
  5
122249
  8
SLIM
  0
ARC
  5
1213C9
  8
OBJECT
 10
6000.0
 20
-1414.9999999999991
 30
0.0
 40
76.0
 50
34.863837954142063
 51
85.136162045732945
1001
ACDBBLOCKREPETAG
1070
     1
1071
       42
1005
1213C9
  0
ARC
  5
1213CA
  8
OBJECT
 10
6000.0
 20
-1414.9999999999991
 30
0.0
 40
76.0
 50
154.86383795430939
 51
205.1361620456905
1001
ACDBBLOCKREPETAG
1070
     1
1071
       43
1005
1213CA
  0
ARC
  5
1213CB
  8
OBJECT
 10
6000.0
 20
-1414.9999999999991
 30
0.0
 40
76.0
 50
274.86383795426718
 51
325.13616204585799
1001
ACDBBLOCKREPETAG
1070
     1
1071
       44
1005
1213CB
  0
ARC
  5
1213CC
  8
OBJECT
 10
6078.0
 20
-1414.9999999999991
 30
0.0
 40
12.0
 50
325.13616204585799
 51
34.863837954142063
1001
ACDBBLOCKREPETAG
1070
     1
1071
       45
1005
1213CC
  0
LINE
  5
1213CD
  8
OBJECT
 10
6087.846153846167
 20
-1408.1404625201369
 30
0.0
 11
6062.3589743590501
 21
-1371.556262627538
 31
0.0
1001
ACDBBLOCKREPETAG
1070
     1
1071
       46
1005
1213CD
  0
LINE
  5
1213CE
  8
OBJECT
 10
6087.8461538461697
 20
-1421.859537479859
 30
0.0
 11
6062.3589743590501
 21
-1458.443737372462
 31
0.0
1001
ACDBBLOCKREPETAG
1070
     1
1071
       47
1005
1213CE
  0
ARC
  5
1213CF
  8
OBJECT
 10
5961.0
 20
-1347.4500185048139
 30
0.0
 40
12.0
 50
85.136162045942811
 51
154.86383795410001
1001
ACDBBLOCKREPETAG
1070
     1
1071
       48
1005
1213CF
  0
LINE
  5
1213D0
  8
OBJECT
 10
5950.1363893611451
 20
-1342.3527678843941
 30
0.0
 11
5931.1971326205849
 21
-1382.7174127373501
 31
0.0
1001
ACDBBLOCKREPETAG
1070
     1
1071
       49
1005
1213D0
  0
LINE
  5
1213D1
  8
OBJECT
 10
5962.0174567926842
 20
-1335.493230404529
 30
0.0
 11
6006.4438930203669
 21
-1339.273675364889
 31
0.0
1001
ACDBBLOCKREPETAG
1070
     1
1071
       50
1005
1213D1
  0
ARC
  5
1213D2
  8
OBJECT
 10
5961.0
 20
-1482.5499814951841
 30
0.0
 40
12.0
 50
205.13616204589991
 51
274.8638379540572
1001
ACDBBLOCKREPETAG
1070
     1
1071
       51
1005
1213D2
  0
LINE
  5
1213D3
  8
OBJECT
 10
5962.0174567926879
 20
-1494.506769595466
 30
0.0
 11
6006.4438930203651
 21
-1490.726324635109
 31
0.0
1001
ACDBBLOCKREPETAG
1070
     1
1071
       52
1005
1213D3
  0
LINE
  5
1213D4
  8
OBJECT
 10
5950.1363893611451
 20
-1487.6472321156079
 30
0.0
 11
5931.1971326205821
 21
-1447.2825872626461
 31
0.0
1001
ACDBBLOCKREPETAG
1070
     1
1071
       53
1005
1213D4
  0
LINE
  5
1213D5
  8
CENTER
 10
3909.0
 20
-1373.9999999999959
 30
0.0
 11
4105.0
 21
-1373.9999999999959
 31
0.0
1001
ACDBBLOCKREPETAG
1070
     1
1071
        0
1005
1213D5
  0
LINE
  5
1213D6
  8
CENTER
 10
4000.0
 20
-1282.725335570779
 30
0.0
 11
4000.0
 21
-1465.274664429212
 31
0.0
1001
ACDBBLOCKREPETAG
1070
     1
1071
        1
1005
1213D6
  0
CIRCLE
  5
1213D7
  8
OBJECT
 10
4000.0
 20
-1373.9999999999959
 30
0.0
 40
50.0
1001
ACDBBLOCKREPETAG
1070
     1
1071
        2
1005
1213D7
  0
CIRCLE
  5
1213D8
  8
OBJECT
 10
4000.0
 20
-1373.9999999999959
 30
0.0
 40
62.0
1001
ACDBBLOCKREPETAG
1070
     1
1071
        3
1005
1213D8
  0
CIRCLE
  5
1213D9
  8
SLIM
 10
4078.0
 20
-1373.9999999999959
 30
0.0
 40
5.0
1001
ACDBBLOCKREPETAG
1070
     1
1071
        4
1005
1213D9
  0
POLYLINE
  5
1213DA
  8
SLIM
 66
     1
 10
0.0
 20
0.0
 30
0.0
 70
     1
1001
ACDBBLOCKREPETAG
1070
     1
1071
        5
1005
1213DA
  0
VERTEX
  5
12224A
  8
SLIM
 10
4073.092522711886
 20
-1365.4999999999959
 30
0.0
  0
VERTEX
  5
12224B
  8
SLIM
 10
4068.185045423772
 20
-1373.9999999999959
 30
0.0
  0
VERTEX
  5
12224C
  8
SLIM
 10
4073.092522711886
 20
-1382.4999999999959
 30
0.0
  0
VERTEX
  5
12224D
  8
SLIM
 10
4082.9074772881072
 20
-1382.4999999999959
 30
0.0
  0
VERTEX
  5
12224E
  8
SLIM
 10
4087.8149545762199
 20
-1373.9999999999959
 30
0.0
  0
VERTEX
  5
12224F
  8
SLIM
 10
4082.9074772881072
 20
-1365.4999999999959
 30
0.0
  0
SEQEND
  5
122250
  8
SLIM
  0
CIRCLE
  5
1213DB
  8
SLIM
 10
3961.0
 20
-1306.4500185048089
 30
0.0
 40
4.9999999999999991
1001
ACDBBLOCKREPETAG
1070
     1
1071
        6
1005
1213DB
  0
POLYLINE
  5
1213DC
  8
SLIM
 66
     1
 10
0.0
 20
0.0
 30
0.0
 70
     1
1001
ACDBBLOCKREPETAG
1070
     1
1071
        7
1005
1213DC
  0
VERTEX
  5
122251
  8
SLIM
 10
3956.092522711886
 20
-1314.9500185048089
 30
0.0
  0
VERTEX
  5
122252
  8
SLIM
 10
3965.907477288114
 20
-1314.9500185048089
 30
0.0
  0
VERTEX
  5
122253
  8
SLIM
 10
3970.8149545762212
 20
-1306.4500185048089
 30
0.0
  0
VERTEX
  5
122254
  8
SLIM
 10
3965.907477288114
 20
-1297.950018504808
 30
0.0
  0
VERTEX
  5
122255
  8
SLIM
 10
3956.092522711886
 20
-1297.950018504808
 30
0.0
  0
VERTEX
  5
122256
  8
SLIM
 10
3951.185045423772
 20
-1306.4500185048089
 30
0.0
  0
SEQEND
  5
122257
  8
SLIM
  0
CIRCLE
  5
1213DD
  8
SLIM
 10
3961.0
 20
-1441.5499814951829
 30
0.0
 40
5.0
1001
ACDBBLOCKREPETAG
1070
     1
1071
        8
1005
1213DD
  0
POLYLINE
  5
1213DE
  8
SLIM
 66
     1
 10
0.0
 20
0.0
 30
0.0
 70
     1
1001
ACDBBLOCKREPETAG
1070
     1
1071
        9
1005
1213DE
  0
VERTEX
  5
122258
  8
SLIM
 10
3970.8149545762212
 20
-1441.5499814951829
 30
0.0
  0
VERTEX
  5
122259
  8
SLIM
 10
3965.9074772881072
 20
-1433.0499814951791
 30
0.0
  0
VERTEX
  5
12225A
  8
SLIM
 10
3956.092522711886
 20
-1433.049981495182
 30
0.0
  0
VERTEX
  5
12225B
  8
SLIM
 10
3951.185045423772
 20
-1441.5499814951791
 30
0.0
  0
VERTEX
  5
12225C
  8
SLIM
 10
3956.092522711886
 20
-1450.0499814951829
 30
0.0
  0
VERTEX
  5
12225D
  8
SLIM
 10
3965.907477288114
 20
-1450.0499814951791
 30
0.0
  0
SEQEND
  5
12225E
  8
SLIM
  0
ARC
  5
1213DF
  8
OBJECT
 10
4000.0
 20
-1373.9999999999959
 30
0.0
 40
76.0
 50
34.863837954142063
 51
85.136162045732945
1001
ACDBBLOCKREPETAG
1070
     1
1071
       30
1005
1213DF
  0
ARC
  5
1213E0
  8
OBJECT
 10
4000.0
 20
-1373.9999999999959
 30
0.0
 40
76.0
 50
154.86383795430939
 51
205.1361620456905
1001
ACDBBLOCKREPETAG
1070
     1
1071
       31
1005
1213E0
  0
ARC
  5
1213E1
  8
OBJECT
 10
4000.0
 20
-1373.9999999999959
 30
0.0
 40
76.0
 50
274.86383795426718
 51
325.13616204585799
1001
ACDBBLOCKREPETAG
1070
     1
1071
       32
1005
1213E1
  0
ARC
  5
1213E2
  8
OBJECT
 10
4078.0
 20
-1373.9999999999959
 30
0.0
 40
12.0
 50
325.13616204585799
 51
34.863837954142063
1001
ACDBBLOCKREPETAG
1070
     1
1071
       33
1005
1213E2
  0
LINE
  5
1213E3
  8
OBJECT
 10
4087.846153846167
 20
-1367.140462520133
 30
0.0
 11
4062.3589743590492
 21
-1330.5562626275339
 31
0.0
1001
ACDBBLOCKREPETAG
1070
     1
1071
       34
1005
1213E3
  0
LINE
  5
1213E4
  8
OBJECT
 10
4087.8461538461711
 20
-1380.859537479856
 30
0.0
 11
4062.3589743590492
 21
-1417.4437373724591
 31
0.0
1001
ACDBBLOCKREPETAG
1070
     1
1071
       35
1005
1213E4
  0
ARC
  5
1213E5
  8
OBJECT
 10
3961.0
 20
-1306.45001850481
 30
0.0
 40
12.0
 50
85.136162045942811
 51
154.86383795411109
1001
ACDBBLOCKREPETAG
1070
     1
1071
       36
1005
1213E5
  0
LINE
  5
1213E6
  8
OBJECT
 10
3950.136389361146
 20
-1301.3527678843909
 30
0.0
 11
3931.1971326205862
 21
-1341.7174127373471
 31
0.0
1001
ACDBBLOCKREPETAG
1070
     1
1071
       37
1005
1213E6
  0
LINE
  5
1213E7
  8
OBJECT
 10
3962.0174567926852
 20
-1294.493230404526
 30
0.0
 11
4006.4438930203678
 21
-1298.273675364886
 31
0.0
1001
ACDBBLOCKREPETAG
1070
     1
1071
       38
1005
1213E7
  0
ARC
  5
1213E8
  8
OBJECT
 10
3961.0
 20
-1441.5499814951811
 30
0.0
 40
12.0
 50
205.13616204588891
 51
274.8638379540572
1001
ACDBBLOCKREPETAG
1070
     1
1071
       39
1005
1213E8
  0
LINE
  5
1213E9
  8
OBJECT
 10
3962.0174567926879
 20
-1453.5067695954631
 30
0.0
 11
4006.4438930203651
 21
-1449.726324635106
 31
0.0
1001
ACDBBLOCKREPETAG
1070
     1
1071
       40
1005
1213E9
  0
LINE
  5
1213EA
  8
OBJECT
 10
3950.136389361146
 20
-1446.6472321156041
 30
0.0
 11
3931.1971326205821
 21
-1406.2825872626429
 31
0.0
1001
ACDBBLOCKREPETAG
1070
     1
1071
       41
1005
1213EA
  0
TEXT
  5
1213EB
  8
SLIM
 10
3853.75
 20
-1641.4999999999959
 30
0.0
 40
35.0
  1
両受けスタイル（W）
 41
0.75
  0
TEXT
  5
1213EC
  8
SLIM
 10
5811.8000000000002
 20
-1738.9999999999991
 30
0.0
 40
28.0
  1
※ 対応スラブ厚　150mm以上
 41
0.75
  0
TEXT
  5
1213ED
  8
SLIM
 10
5611.5
 20
-1832.3333333333319
 30
0.0
 40
28.0
  1
国土交通大臣認定・（財）日本消防設備安全センター性能評定取得品
 41
0.75
  0
TEXT
  5
1213EE
  8
SLIM
 10
5631.1000000000004
 20
-1878.9999999999991
 30
0.0
 40
28.0
  1
注）ご採用にあたり、認定書及び評定書の内容をご確認ください。
 41
0.75
  0
TEXT
  5
1213EF
  8
SLIM
 10
11824.6
 20
-1697.9999999999959
 30
0.0
 40
28.0
  1
※ 対応スラブ厚　150～380
 41
0.75
  0
TEXT
  5
1213F0
  8
SLIM
 10
11611.5
 20
-1791.3333333333289
 30
0.0
 40
28.0
  1
国土交通大臣認定・（財）日本消防設備安全センター性能評定取得品
 41
0.75
  0
TEXT
  5
1213F1
  8
SLIM
 10
11631.1
 20
-1837.9999999999959
 30
0.0
 40
28.0
  1
注）ご採用にあたり、認定書及び評定書の内容をご確認ください。
 41
0.75
  0
TEXT
  5
1213F2
  8
SLIM
 10
9824.6000000000004
 20
-1697.9999999999959
 30
0.0
 40
28.0
  1
※ 対応スラブ厚　180～380
 41
0.75
  0
TEXT
  5
1213F3
  8
SLIM
 10
9611.5000000000018
 20
-1791.3333333333289
 30
0.0
 40
28.0
  1
国土交通大臣認定・（財）日本消防設備安全センター性能評定取得品
 41
0.75
  0
TEXT
  5
1213F4
  8
SLIM
 10
9631.1000000000004
 20
-1837.9999999999959
 30
0.0
 40
28.0
  1
注）ご採用にあたり、認定書及び評定書の内容をご確認ください。
 41
0.75
  0
TEXT
  5
1213F5
  8
SLIM
 10
7771.3999999999987
 20
-1430.666666666664
 30
0.0
 40
28.0
  1
※ 対応スラブ厚　180｛150｝～340
 41
0.75
  0
TEXT
  5
1213F6
  8
SLIM
 10
7733.2999999999975
 20
-1477.333333333331
 30
0.0
 40
28.0
  1
｛｝内はカンペイ立て管との組み合わせの場合
 41
0.75
  0
TEXT
  5
1213F7
  8
SLIM
 10
7611.4999999999982
 20
-1570.6666666666649
 30
0.0
 40
28.0
  1
国土交通大臣認定・（財）日本消防設備安全センター性能評定取得品
 41
0.75
  0
TEXT
  5
1213F8
  8
SLIM
 10
7631.1000000000004
 20
-1617.333333333331
 30
0.0
 40
28.0
  1
注）ご採用にあたり、認定書及び評定書の内容をご確認ください。
 41
0.75
  0
TEXT
  5
1213F9
  8
SLIM
 10
9739.1250000000018
 20
-1641.4999999999959
 30
0.0
 40
35.0
  1
両受けスタイル（W）＋シンドカット
 41
0.75
  0
TEXT
  5
1213FA
  8
SLIM
 10
11743.5
 20
-1641.4999999999959
 30
0.0
 40
35.0
  1
カンペイ君（WKP）＋シンドカット
 41
0.75
  0
TEXT
  5
1213FB
  8
SLIM
 10
7741.625
 20
-1367.499999999998
 30
0.0
 40
35.0
  1
片受けスタイル（S）＋シンドカット
 41
0.75
  0
TEXT
  5
1213FC
  8
SLIM
 10
5858.1250000000009
 20
-1682.4999999999991
 30
0.0
 40
35.0
  1
カンペイ君（WKP）
 41
0.75
  0
TEXT
  5
1213FD
  8
SLIM
 10
1856.25
 20
-1367.499999999998
 30
0.0
 40
35.0
  1
片受けスタイル（S）
 41
0.75
  0
TEXT
  5
1213FE
  8
SLIM
 10
0.0
 20
370.0
 30
0.0
 40
100.0
  1
4SLT-0-WKP
 41
0.75
  0
VIEWPORT
  5
F6BA7
 67
     1
  8
0
 10
163.0024027789494
 20
101.8328354358673
 30
0.0
 40
369.34663245053321
 41
222.19657968139651
 68
     1
 69
     1
1001
ACAD
1000
MVIEW
1002
{
1070
    16
1010
0.0
1020
0.0
1030
0.0
1010
0.0
1020
0.0
1030
1.0
1040
0.0
1040
222.19657968139651
1040
163.0024027789494
1040
101.8328354358673
1040
50.0
1040
0.0
1040
0.0
1070
     0
1070
     0
1070
     1
1070
     1
1070
     0
1070
     0
1070
     0
1070
     0
1040
0.0
1040
0.0
1040
0.0
1040
10.0
1040
10.0
1040
10.0
1040
10.0
1070
     0
1002
{
1002
}
1002
}
  0
VIEWPORT
  5
F6BA9
 67
     1
  8
OBJECT
 10
145.3303314447403
 20
101.8328338861465
 30
0.0
 40
232.5285303115844
 41
162.93253421783439
 68
     2
 69
     2
1001
ACAD
1000
MVIEW
1002
{
1070
    16
1010
0.0
1020
0.0
1030
0.0
1010
0.0
1020
0.0
1030
1.0
1040
0.0
1040
25942.55904403147
1040
2377.604457077377
1040
-7591.5176687056619
1040
50.0
1040
0.0
1040
0.0
1070
     0
1070
   600
1070
     1
1070
     1
1070
     0
1070
     0
1070
     0
1070
     0
1040
0.0
1040
0.0
1040
0.0
1040
1.0
1040
1.0
1040
0.0
1040
0.0
1070
     0
1002
{
1002
}
1002
}
  0
ENDSEC
  0
EOF
