  0
SECTION
  2
HEADER
  9
$ACADVER
  1
AC1009
  9
$INSBASE
 10
0.0
 20
0.0
 30
0.0
  9
$EXTMIN
 10
0.0
 20
-1978.9999999999991
 30
0.0
  9
$EXTMAX
 10
12387.100000000009
 20
770.0
 30
0.0
  9
$LIMMIN
 10
0.0
 20
0.0
  9
$LIMMAX
 10
210.0
 20
297.0
  9
$ORTHOMODE
 70
     0
  9
$REGENMODE
 70
     1
  9
$FILLMODE
 70
     1
  9
$QTEXTMODE
 70
     0
  9
$MIRRTEXT
 70
     0
  9
$DRAGMODE
 70
     2
  9
$LTSCALE
 40
1.0
  9
$OSMODE
 70
   109
  9
$ATTMODE
 70
     1
  9
$TEXTSIZE
 40
4.0
  9
$TRACEWID
 40
0.05
  9
$TEXTSTYLE
  7
STANDARD
  9
$CLAYER
  8
OBJECT
  9
$CELTYPE
  6
BYLAYER
  9
$CECOLOR
 62
   256
  9
$DIMSCALE
 40
10.0
  9
$DIMASZ
 40
2.0
  9
$DIMEXO
 40
1.0
  9
$DIMDLI
 40
10.0
  9
$DIMRND
 40
0.0
  9
$DIMDLE
 40
0.0
  9
$DIMEXE
 40
1.0
  9
$DIMTP
 40
0.0
  9
$DIMTM
 40
0.0
  9
$DIMTXT
 40
3.2000000000000002
  9
$DIMCEN
 40
0.0
  9
$DIMTSZ
 40
0.0
  9
$DIMTOL
 70
     0
  9
$DIMLIM
 70
     0
  9
$DIMTIH
 70
     0
  9
$DIMTOH
 70
     0
  9
$DIMSE1
 70
     0
  9
$DIMSE2
 70
     0
  9
$DIMTAD
 70
     1
  9
$DIMZIN
 70
     8
  9
$DIMBLK
  1
OPEN30
  9
$DIMASO
 70
     1
  9
$DIMSHO
 70
     1
  9
$DIMPOST
  1

  9
$DIMAPOST
  1

  9
$DIMALT
 70
     0
  9
$DIMALTD
 70
     2
  9
$DIMALTF
 40
25.399999999999999
  9
$DIMLFAC
 40
1.0
  9
$DIMTOFL
 70
     1
  9
$DIMTVP
 40
0.0
  9
$DIMTIX
 70
     0
  9
$DIMSOXD
 70
     0
  9
$DIMSAH
 70
     0
  9
$DIMBLK1
  1

  9
$DIMBLK2
  1

  9
$DIMSTYLE
  2
S10
  9
$DIMCLRD
 70
   256
  9
$DIMCLRE
 70
   256
  9
$DIMCLRT
 70
   256
  9
$DIMTFAC
 40
1.0
  9
$DIMGAP
 40
0.9
  9
$LUNITS
 70
     2
  9
$LUPREC
 70
     2
  9
$SKETCHINC
 40
0.1
  9
$FILLETRAD
 40
0.0
  9
$AUNITS
 70
     0
  9
$AUPREC
 70
     2
  9
$MENU
  1
ACAD
  9
$ELEVATION
 40
0.0
  9
$PELEVATION
 40
0.0
  9
$THICKNESS
 40
0.0
  9
$LIMCHECK
 70
     0
  9
$BLIPMODE
 70
     0
  9
$CHAMFERA
 40
2.0
  9
$CHAMFERB
 40
2.0
  9
$SKPOLY
 70
     0
  9
$TDCREATE
 40
2453095.4929404748
  9
$TDUPDATE
 40
2456734.557289815
  9
$TDINDWG
 40
18.341139791700002
  9
$TDUSRTIMER
 40
18.341139247699999
  9
$USRTIMER
 70
     1
  9
$ANGBASE
 50
0.0
  9
$ANGDIR
 70
     0
  9
$PDMODE
 70
    35
  9
$PDSIZE
 40
2.0
  9
$PLINEWID
 40
0.0
  9
$COORDS
 70
     1
  9
$SPLFRAME
 70
     0
  9
$SPLINETYPE
 70
     6
  9
$SPLINESEGS
 70
     8
  9
$ATTDIA
 70
     0
  9
$ATTREQ
 70
     1
  9
$HANDLING
 70
     1
  9
$HANDSEED
  5
13AD43
  9
$SURFTAB1
 70
     6
  9
$SURFTAB2
 70
     6
  9
$SURFTYPE
 70
     6
  9
$SURFU
 70
     6
  9
$SURFV
 70
     6
  9
$UCSNAME
  2

  9
$UCSORG
 10
0.0
 20
0.0
 30
0.0
  9
$UCSXDIR
 10
1.0
 20
0.0
 30
0.0
  9
$UCSYDIR
 10
0.0
 20
1.0
 30
0.0
  9
$PUCSNAME
  2

  9
$PUCSORG
 10
0.0
 20
0.0
 30
0.0
  9
$PUCSXDIR
 10
1.0
 20
0.0
 30
0.0
  9
$PUCSYDIR
 10
0.0
 20
1.0
 30
0.0
  9
$USERI1
 70
     0
  9
$USERI2
 70
     0
  9
$USERI3
 70
     0
  9
$USERI4
 70
     0
  9
$USERI5
 70
     0
  9
$USERR1
 40
0.0
  9
$USERR2
 40
0.0
  9
$USERR3
 40
0.0
  9
$USERR4
 40
0.0
  9
$USERR5
 40
0.0
  9
$WORLDVIEW
 70
     1
  9
$SHADEDGE
 70
     3
  9
$SHADEDIF
 70
    70
  9
$TILEMODE
 70
     1
  9
$MAXACTVP
 70
    64
  9
$PLIMCHECK
 70
     0
  9
$PEXTMIN
 10
29.066066288948051
 20
20.366566777229309
 30
0.0
  9
$PEXTMAX
 10
261.5945966005325
 20
183.29910099506381
 30
0.0
  9
$PLIMMIN
 10
-3.17498779296875
 20
-3.1749999523162842
  9
$PLIMMAX
 10
293.83566284179687
 20
206.8406708240509
  9
$UNITMODE
 70
     0
  9
$VISRETAIN
 70
     1
  9
$PLINEGEN
 70
     0
  9
$PSLTSCALE
 70
     1
  0
ENDSEC
  0
SECTION
  2
TABLES
  0
TABLE
  2
VPORT
 70
     1
  0
VPORT
  2
*ACTIVE
 70
     0
 10
0.0
 20
0.0
 11
1.0
 21
1.0
 12
6568.2683767510034
 22
8.9218274269323956
 13
0.0
 23
0.0
 14
1.0
 24
1.0
 15
0.0
 25
0.0
 16
0.0
 26
0.0
 36
1.0
 17
0.0
 27
0.0
 37
0.0
 40
8155.5713938575327
 41
1.6494178525226391
 42
50.0
 43
0.0
 44
0.0
 50
0.0
 51
0.0
 71
     0
 72
   600
 73
     1
 74
     1
 75
     0
 76
     0
 77
     0
 78
     0
  0
ENDTAB
  0
TABLE
  2
LTYPE
 70
     4
  0
LTYPE
  2
CONTINUOUS
 70
     0
  3
Solid line
 72
    65
 73
     0
 40
0.0
  0
LTYPE
  2
PHANTOM2
 70
     0
  3
___ _ _ ___ _ _ ___ _ _ ___ _ _
 72
    65
 73
     6
 40
1.25
 49
0.625
 49
-0.125
 49
0.125
 49
-0.125
 49
0.125
 49
-0.125
  0
LTYPE
  2
ACAD_ISO08W100
 70
     0
  3
ISO long-dash short-dash ____ __ ____ __ ____ _
 72
    65
 73
     4
 40
36.0
 49
24.0
 49
-3.0
 49
6.0
 49
-3.0
  0
LTYPE
  2
ACAD_ISO02W100
 70
     0
  3
ISO dash __ __ __ __ __ __ __ __ __ __ __ __ __
 72
    65
 73
     2
 40
15.0
 49
12.0
 49
-3.0
  0
ENDTAB
  0
TABLE
  2
LAYER
 70
     7
  0
LAYER
  2
0
 70
     0
 62
     7
  6
CONTINUOUS
  0
LAYER
  2
OBJECT
 70
     0
 62
     4
  6
CONTINUOUS
  0
LAYER
  2
DEFPOINTS
 70
     0
 62
     7
  6
CONTINUOUS
  0
LAYER
  2
HIDDEN
 70
     0
 62
     2
  6
ACAD_ISO02W100
  0
LAYER
  2
CENTER
 70
     0
 62
     2
  6
ACAD_ISO08W100
  0
LAYER
  2
DOTS
 70
     0
 62
     1
  6
CONTINUOUS
  0
LAYER
  2
SLIM
 70
     0
 62
     2
  6
CONTINUOUS
  0
ENDTAB
  0
TABLE
  2
STYLE
 70
     2
  0
STYLE
  2
STANDARD
 70
     0
 40
0.0
 41
0.75
 50
0.0
 71
     0
 42
4.0
  3
simplex.shx
  4
bigfont.shx
  0
ENDTAB
  0
TABLE
  2
VIEW
 70
     0
  0
ENDTAB
  0
TABLE
  2
UCS
 70
     0
  0
ENDTAB
  0
TABLE
  2
APPID
 70
    18
  0
APPID
  2
ACAD
 70
     0
  0
APPID
  2
ACADANNOTATIVE
 70
     0
  0
APPID
  2
ACAD_PSEXT
 70
     0
  0
APPID
  2
ACAD_EXEMPT_FROM_CAD_STANDARDS
 70
     0
  0
APPID
  2
ACAECLAYERSTANDARD
 70
     0
  0
APPID
  2
ACAUTHENVIRON
 70
     0
  0
APPID
  2
ACDBDYNAMICBLOCKTRUENAME
 70
     0
  0
APPID
  2
ACDBDYNAMICBLOCKGUID
 70
     0
  0
APPID
  2
ACDBBLOCKREPETAG
 70
     0
  0
APPID
  2
ACDBBLOCKREPBTAG
 70
     0
  0
APPID
  2
ACAD_NAV_VCDISPLAY
 70
     0
  0
APPID
  2
ACAD_DSTYLE_DIMRADIAL_EXTENSION
 70
     0
  0
APPID
  2
ACAD_DSTYLE_DIMJAG
 70
     0
  0
APPID
  2
ACAD_DSTYLE_DIMTALN
 70
     0
  0
APPID
  2
ACADANNOPO
 70
     0
  0
APPID
  2
GRADIENTCOLOR1ACI
 70
     0
  0
APPID
  2
GRADIENTCOLOR2ACI
 70
     0
  0
APPID
  2
ACAD_MLEADERVER
 70
     0
  0
ENDTAB
  0
TABLE
  2
DIMSTYLE
 70
     3
  0
DIMSTYLE
  2
STANDARD
 70
     0
  3

  4

  5

  6

  7

 40
1.0
 41
0.18
 42
0.0625
 43
0.38
 44
0.18
 45
0.0
 46
0.0
 47
0.0
 48
0.0
140
0.18
141
0.09
142
0.0
143
25.399999999999999
144
1.0
145
0.0
146
1.0
147
0.09
 71
     0
 72
     0
 73
     1
 74
     1
 75
     0
 76
     0
 77
     0
 78
     0
170
     0
171
     2
172
     0
173
     0
174
     0
175
     0
176
     0
177
     0
178
     0
  0
DIMSTYLE
  2
S10
 70
     0
  3

  4

  5

  6

  7

 40
10.0
 41
2.0
 42
1.0
 43
10.0
 44
1.0
 45
0.0
 46
0.0
 47
0.0
 48
0.0
140
3.2000000000000002
141
0.0
142
0.0
143
25.399999999999999
144
1.0
145
0.0
146
1.0
147
0.9
 71
     0
 72
     0
 73
     0
 74
     0
 75
     0
 76
     0
 77
     1
 78
     8
170
     0
171
     2
172
     1
173
     0
174
     0
175
     0
176
   256
177
   256
178
   256
  0
ENDTAB
  0
ENDSEC
  0
SECTION
  2
BLOCKS
  0
BLOCK
  8
0
  2
$MODEL_SPACE
 70
     0
 10
0.0
 20
0.0
 30
0.0
  3
$MODEL_SPACE
  1

  0
ENDBLK
  5
13AADA
  8
0
  0
BLOCK
 67
     1
  8
0
  2
$PAPER_SPACE
 70
     0
 10
0.0
 20
0.0
 30
0.0
  3
$PAPER_SPACE
  1

  0
ENDBLK
  5
13AAD6
 67
     1
  8
0
  0
BLOCK
  8
0
  2
_OPEN30
 70
     0
 10
0.0
 20
0.0
 30
0.0
  3
_OPEN30
  1

  0
LINE
  5
202
  8
0
  6
BYBLOCK
 62
     0
 10
-1.0
 20
0.26794919
 30
0.0
 11
0.0
 21
0.0
 31
0.0
  0
LINE
  5
203
  8
0
  6
BYBLOCK
 62
     0
 10
0.0
 20
0.0
 30
0.0
 11
-1.0
 21
-0.26794919
 31
0.0
  0
LINE
  5
204
  8
0
  6
BYBLOCK
 62
     0
 10
0.0
 20
0.0
 30
0.0
 11
-1.0
 21
0.0
 31
0.0
  0
ENDBLK
  5
206
  8
0
  0
ENDSEC
  0
SECTION
  2
ENTITIES
  0
LINE
  5
13A07A
  8
OBJECT
 10
11923.0
 20
-571.0
 30
0.0
 11
11923.0
 21
-550.0
 31
0.0
1001
ACDBBLOCKREPETAG
1070
     1
1071
       38
1005
13A07A
  0
LINE
  5
13A07B
  8
OBJECT
 10
11923.0
 20
-550.0
 30
0.0
 11
12077.0
 21
-550.0
 31
0.0
1001
ACDBBLOCKREPETAG
1070
     1
1071
       39
1005
13A07B
  0
LINE
  5
13A07C
  8
HIDDEN
 10
11943.0
 20
-620.0
 30
0.0
 11
12057.0
 21
-620.0
 31
0.0
1001
ACDBBLOCKREPETAG
1070
     1
1071
       40
1005
13A07C
  0
LINE
  5
13A07D
  8
OBJECT
 10
12077.0
 20
-550.0
 30
0.0
 11
12077.0
 21
-571.0
 31
0.0
1001
ACDBBLOCKREPETAG
1070
     1
1071
       41
1005
13A07D
  0
LINE
  5
13A07E
  8
OBJECT
 10
12077.0
 20
-571.0
 30
0.0
 11
11923.0
 21
-571.0
 31
0.0
1001
ACDBBLOCKREPETAG
1070
     1
1071
       42
1005
13A07E
  0
LINE
  5
13A07F
  8
CENTER
 10
12000.0
 20
-535.0
 30
0.0
 11
12000.0
 21
-890.0
 31
0.0
1001
ACDBBLOCKREPETAG
1070
     1
1071
       43
1005
13A07F
  0
LINE
  5
13A080
  8
OBJECT
 10
11928.0
 20
-571.0
 30
0.0
 11
11928.0
 21
-634.0
 31
0.0
1001
ACDBBLOCKREPETAG
1070
     1
1071
       44
1005
13A080
  0
LINE
  5
13A081
  8
OBJECT
 10
12072.0
 20
-634.0
 30
0.0
 11
12072.0
 21
-571.0
 31
0.0
1001
ACDBBLOCKREPETAG
1070
     1
1071
       45
1005
13A081
  0
LINE
  5
13A082
  8
OBJECT
 10
11920.0
 20
-878.0
 30
0.0
 11
12080.0
 21
-878.0
 31
0.0
1001
ACDBBLOCKREPETAG
1070
     1
1071
       46
1005
13A082
  0
LINE
  5
13A083
  8
OBJECT
 10
12080.0
 20
-634.0
 30
0.0
 11
11920.0
 21
-634.0
 31
0.0
1001
ACDBBLOCKREPETAG
1070
     1
1071
       47
1005
13A083
  0
LINE
  5
13A084
  8
OBJECT
 10
11920.0
 20
-878.0
 30
0.0
 11
11920.0
 21
-890.0
 31
0.0
1001
ACDBBLOCKREPETAG
1070
     1
1071
       48
1005
13A084
  0
LINE
  5
13A085
  8
OBJECT
 10
11920.0
 20
-890.0
 30
0.0
 11
12080.0
 21
-890.0
 31
0.0
1001
ACDBBLOCKREPETAG
1070
     1
1071
       49
1005
13A085
  0
LINE
  5
13A086
  8
OBJECT
 10
12080.0
 20
-890.0
 30
0.0
 11
12080.0
 21
-878.0
 31
0.0
1001
ACDBBLOCKREPETAG
1070
     1
1071
       50
1005
13A086
  0
LINE
  5
13A087
  8
OBJECT
 10
12074.99999999986
 20
-757.99999999985096
 30
0.0
 11
12075.0
 21
-878.0
 31
0.0
1001
ACDBBLOCKREPETAG
1070
     1
1071
       54
1005
13A087
  0
LINE
  5
13A088
  8
OBJECT
 10
12074.99999080298
 20
-757.99998602702181
 30
0.0
 11
12080.0
 21
-757.99998602702181
 31
0.0
1001
ACDBBLOCKREPETAG
1070
     1
1071
       55
1005
13A088
  0
LINE
  5
13A089
  8
OBJECT
 10
11925.00000000014
 20
-757.99999999985096
 30
0.0
 11
11925.0
 21
-878.0
 31
0.0
1001
ACDBBLOCKREPETAG
1070
     1
1071
       56
1005
13A089
  0
LINE
  5
13A08A
  8
OBJECT
 10
11925.000009197011
 20
-757.99998602702181
 30
0.0
 11
11920.0
 21
-757.99998602702181
 31
0.0
1001
ACDBBLOCKREPETAG
1070
     1
1071
       57
1005
13A08A
  0
ARC
  5
13A08B
  8
OBJECT
 10
12200.687274671671
 20
-749.40809941010752
 30
0.0
 40
170.6350503965856
 50
137.44134459184301
 51
149.91949581337221
1001
ACDBBLOCKREPETAG
1070
     1
1071
       58
1005
13A08B
  0
ARC
  5
13A08C
  8
OBJECT
 10
12200.687274671671
 20
-642.59190058989225
 30
0.0
 40
170.6350503965856
 50
210.08050418662771
 51
222.55865540815699
1001
ACDBBLOCKREPETAG
1070
     1
1071
       59
1005
13A08C
  0
ARC
  5
13A08D
  8
OBJECT
 10
11799.312725328329
 20
-749.40809941010752
 30
0.0
 40
170.6350503965856
 50
30.080504186787142
 51
42.558655408347391
1001
ACDBBLOCKREPETAG
1070
     1
1071
       60
1005
13A08D
  0
ARC
  5
13A08E
  8
OBJECT
 10
11799.312725328329
 20
-642.59190058989225
 30
0.0
 40
170.6350503965856
 50
317.44134459165258
 51
329.9194958132129
1001
ACDBBLOCKREPETAG
1070
     1
1071
       61
1005
13A08E
  0
POINT
  5
13A08F
  8
DOTS
 10
12000.0
 20
-755.0
 30
0.0
1001
ACDBBLOCKREPETAG
1070
     1
1071
      185
1005
13A08F
  0
LINE
  5
13A090
  8
OBJECT
 10
9923.0
 20
-571.0
 30
0.0
 11
9923.0
 21
-550.0
 31
0.0
1001
ACDBBLOCKREPETAG
1070
     1
1071
       38
1005
13A090
  0
LINE
  5
13A091
  8
OBJECT
 10
9923.0
 20
-550.0
 30
0.0
 11
10077.0
 21
-550.0
 31
0.0
1001
ACDBBLOCKREPETAG
1070
     1
1071
       39
1005
13A091
  0
LINE
  5
13A092
  8
HIDDEN
 10
9943.0
 20
-620.0
 30
0.0
 11
10057.0
 21
-620.0
 31
0.0
1001
ACDBBLOCKREPETAG
1070
     1
1071
       40
1005
13A092
  0
LINE
  5
13A093
  8
OBJECT
 10
10077.0
 20
-550.0
 30
0.0
 11
10077.0
 21
-571.0
 31
0.0
1001
ACDBBLOCKREPETAG
1070
     1
1071
       41
1005
13A093
  0
LINE
  5
13A094
  8
OBJECT
 10
10077.0
 20
-571.0
 30
0.0
 11
9923.0
 21
-571.0
 31
0.0
1001
ACDBBLOCKREPETAG
1070
     1
1071
       42
1005
13A094
  0
LINE
  5
13A095
  8
CENTER
 10
10000.0
 20
-535.0
 30
0.0
 11
10000.0
 21
-890.0
 31
0.0
1001
ACDBBLOCKREPETAG
1070
     1
1071
       43
1005
13A095
  0
LINE
  5
13A096
  8
OBJECT
 10
9928.0
 20
-571.0
 30
0.0
 11
9928.0
 21
-634.0
 31
0.0
1001
ACDBBLOCKREPETAG
1070
     1
1071
       44
1005
13A096
  0
LINE
  5
13A097
  8
OBJECT
 10
10072.0
 20
-634.0
 30
0.0
 11
10072.0
 21
-571.0
 31
0.0
1001
ACDBBLOCKREPETAG
1070
     1
1071
       45
1005
13A097
  0
LINE
  5
13A098
  8
OBJECT
 10
9920.0
 20
-878.0
 30
0.0
 11
10080.0
 21
-878.0
 31
0.0
1001
ACDBBLOCKREPETAG
1070
     1
1071
       46
1005
13A098
  0
LINE
  5
13A099
  8
OBJECT
 10
10080.0
 20
-634.0
 30
0.0
 11
9920.0
 21
-634.0
 31
0.0
1001
ACDBBLOCKREPETAG
1070
     1
1071
       47
1005
13A099
  0
LINE
  5
13A09A
  8
OBJECT
 10
9920.0
 20
-878.0
 30
0.0
 11
9920.0
 21
-890.0
 31
0.0
1001
ACDBBLOCKREPETAG
1070
     1
1071
       48
1005
13A09A
  0
LINE
  5
13A09B
  8
OBJECT
 10
9920.0
 20
-890.0
 30
0.0
 11
10080.0
 21
-890.0
 31
0.0
1001
ACDBBLOCKREPETAG
1070
     1
1071
       49
1005
13A09B
  0
LINE
  5
13A09C
  8
OBJECT
 10
10080.0
 20
-890.0
 30
0.0
 11
10080.0
 21
-878.0
 31
0.0
1001
ACDBBLOCKREPETAG
1070
     1
1071
       50
1005
13A09C
  0
LINE
  5
13A09D
  8
OBJECT
 10
10074.99999999986
 20
-757.99999999985096
 30
0.0
 11
10075.0
 21
-878.0
 31
0.0
1001
ACDBBLOCKREPETAG
1070
     1
1071
       54
1005
13A09D
  0
LINE
  5
13A09E
  8
OBJECT
 10
10074.99999080298
 20
-757.99998602702181
 30
0.0
 11
10080.0
 21
-757.99998602702181
 31
0.0
1001
ACDBBLOCKREPETAG
1070
     1
1071
       55
1005
13A09E
  0
LINE
  5
13A09F
  8
OBJECT
 10
9925.0000000001382
 20
-757.99999999985096
 30
0.0
 11
9925.0
 21
-878.0
 31
0.0
1001
ACDBBLOCKREPETAG
1070
     1
1071
       56
1005
13A09F
  0
LINE
  5
13A0A0
  8
OBJECT
 10
9925.0000091970142
 20
-757.99998602702181
 30
0.0
 11
9920.0
 21
-757.99998602702181
 31
0.0
1001
ACDBBLOCKREPETAG
1070
     1
1071
       57
1005
13A0A0
  0
ARC
  5
13A0A1
  8
OBJECT
 10
10200.687274671671
 20
-749.40809941010752
 30
0.0
 40
170.6350503965856
 50
137.44134459184301
 51
149.91949581337221
1001
ACDBBLOCKREPETAG
1070
     1
1071
       58
1005
13A0A1
  0
ARC
  5
13A0A2
  8
OBJECT
 10
10200.687274671671
 20
-642.59190058989225
 30
0.0
 40
170.6350503965856
 50
210.08050418662771
 51
222.55865540815699
1001
ACDBBLOCKREPETAG
1070
     1
1071
       59
1005
13A0A2
  0
ARC
  5
13A0A3
  8
OBJECT
 10
9799.3127253283274
 20
-749.40809941010752
 30
0.0
 40
170.6350503965856
 50
30.080504186787142
 51
42.558655408347391
1001
ACDBBLOCKREPETAG
1070
     1
1071
       60
1005
13A0A3
  0
ARC
  5
13A0A4
  8
OBJECT
 10
9799.3127253283274
 20
-642.59190058989225
 30
0.0
 40
170.6350503965856
 50
317.44134459165258
 51
329.9194958132129
1001
ACDBBLOCKREPETAG
1070
     1
1071
       61
1005
13A0A4
  0
POINT
  5
13A0A5
  8
DOTS
 10
10000.0
 20
-755.0
 30
0.0
1001
ACDBBLOCKREPETAG
1070
     1
1071
      185
1005
13A0A5
  0
LINE
  5
13A0A6
  8
SLIM
 10
11945.256670426101
 20
-137.99999999999909
 30
0.0
 11
11955.954840369581
 21
-127.30183005652231
 31
0.0
1001
GRADIENTCOLOR1ACI
1070
     5
1001
GRADIENTCOLOR2ACI
1070
     2
1001
ACAD
1010
0.0
1020
0.0
1030
0.0
1001
ACDBBLOCKREPETAG
1070
     1
1071
      428
1005
13A0A6
  0
LINE
  5
13A0A7
  8
SLIM
 10
11954.23692654717
 20
-137.99999999999909
 30
0.0
 11
11972.75077447633
 21
-119.4861520708364
 31
0.0
1001
GRADIENTCOLOR1ACI
1070
     5
1001
GRADIENTCOLOR2ACI
1070
     2
1001
ACAD
1010
0.0
1020
0.0
1030
0.0
1001
ACDBBLOCKREPETAG
1070
     1
1071
      429
1005
13A0A7
  0
LINE
  5
13A0A8
  8
SLIM
 10
11973.521224312461
 20
-127.6959583557812
 30
0.0
 11
11984.857514674861
 21
-116.359667993377
 31
0.0
1001
GRADIENTCOLOR1ACI
1070
     5
1001
GRADIENTCOLOR2ACI
1070
     2
1001
ACAD
1010
0.0
1020
0.0
1030
0.0
1001
ACDBBLOCKREPETAG
1070
     1
1071
      430
1005
13A0A8
  0
LINE
  5
13A0A9
  8
SLIM
 10
11985.894417146121
 20
-124.30302164318159
 30
0.0
 11
11995.05338120025
 21
-115.1440575890517
 31
0.0
1001
GRADIENTCOLOR1ACI
1070
     5
1001
GRADIENTCOLOR2ACI
1070
     2
1001
ACAD
1010
0.0
1020
0.0
1030
0.0
1001
ACDBBLOCKREPETAG
1070
     1
1071
      431
1005
13A0A9
  0
LINE
  5
13A0AA
  8
SLIM
 10
11996.077732749211
 20
-123.0999621611699
 30
0.0
 11
12000.0
 21
-119.1776949103767
 31
0.0
1001
GRADIENTCOLOR1ACI
1070
     5
1001
GRADIENTCOLOR2ACI
1070
     2
1001
ACAD
1010
0.0
1020
0.0
1030
0.0
1001
ACDBBLOCKREPETAG
1070
     1
1071
      432
1005
13A0AA
  0
LINE
  5
13A0AB
  8
SLIM
 10
12000.0
 20
-119.1776949103767
 30
0.0
 11
12004.0797313529
 21
-115.0979635574724
 31
0.0
1001
GRADIENTCOLOR1ACI
1070
     5
1001
GRADIENTCOLOR2ACI
1070
     2
1001
ACAD
1010
0.0
1020
0.0
1030
0.0
1001
ACDBBLOCKREPETAG
1070
     1
1071
      433
1005
13A0AB
  0
LINE
  5
13A0AC
  8
SLIM
 10
12004.995720254279
 20
-123.1622307771683
 30
0.0
 11
12012.267978410569
 21
-115.88997262087101
 31
0.0
1001
GRADIENTCOLOR1ACI
1070
     5
1001
GRADIENTCOLOR2ACI
1070
     2
1001
ACAD
1010
0.0
1020
0.0
1030
0.0
1001
ACDBBLOCKREPETAG
1070
     1
1071
      434
1005
13A0AC
  0
LINE
  5
13A0AD
  8
SLIM
 10
12013.028059366959
 20
-124.1101477855505
 30
0.0
 11
12019.799941457361
 21
-117.3382656951526
 31
0.0
1001
GRADIENTCOLOR1ACI
1070
     5
1001
GRADIENTCOLOR2ACI
1070
     2
1001
ACAD
1010
0.0
1020
0.0
1030
0.0
1001
ACDBBLOCKREPETAG
1070
     1
1071
      435
1005
13A0AD
  0
LINE
  5
13A0AE
  8
SLIM
 10
12020.374081314239
 20
-125.7443819593383
 30
0.0
 11
12026.787203867279
 21
-119.3312594063044
 31
0.0
1001
GRADIENTCOLOR1ACI
1070
     5
1001
GRADIENTCOLOR2ACI
1070
     2
1001
ACAD
1010
0.0
1020
0.0
1030
0.0
1001
ACDBBLOCKREPETAG
1070
     1
1071
      436
1005
13A0AE
  0
LINE
  5
13A0AF
  8
SLIM
 10
12027.15247199887
 20
-127.946247395778
 30
0.0
 11
12033.303003076029
 21
-121.7957163186195
 31
0.0
1001
GRADIENTCOLOR1ACI
1070
     5
1001
GRADIENTCOLOR2ACI
1070
     2
1001
ACAD
1010
0.0
1020
0.0
1030
0.0
1001
ACDBBLOCKREPETAG
1070
     1
1071
      437
1005
13A0AF
  0
LINE
  5
13A0B0
  8
SLIM
 10
12033.43909865133
 20
-130.63987686439191
 30
0.0
 11
12039.397311984379
 21
-124.6816635313439
 31
0.0
1001
GRADIENTCOLOR1ACI
1070
     5
1001
GRADIENTCOLOR2ACI
1070
     2
1001
ACAD
1010
0.0
1020
0.0
1030
0.0
1001
ACDBBLOCKREPETAG
1070
     1
1071
      438
1005
13A0B0
  0
LINE
  5
13A0B1
  8
SLIM
 10
12039.284224621801
 20
-133.77500701499321
 30
0.0
 11
12045.10477053437
 21
-127.95446110242381
 31
0.0
1001
GRADIENTCOLOR1ACI
1070
     5
1001
GRADIENTCOLOR2ACI
1070
     2
1001
ACAD
1010
0.0
1020
0.0
1030
0.0
1001
ACDBBLOCKREPETAG
1070
     1
1071
      439
1005
13A0B1
  0
LINE
  5
13A0B2
  8
SLIM
 10
12044.721280169801
 20
-137.31820758805651
 30
0.0
 11
12050.449155789191
 21
-131.59033196866449
 31
0.0
1001
GRADIENTCOLOR1ACI
1070
     5
1001
GRADIENTCOLOR2ACI
1070
     2
1001
ACAD
1010
0.0
1020
0.0
1030
0.0
1001
ACDBBLOCKREPETAG
1070
     1
1071
      440
1005
13A0B2
  0
LINE
  5
13A0B3
  8
SLIM
 10
12053.01974387892
 20
-137.99999999999909
 30
0.0
 11
12055.445994186401
 21
-135.57374969252561
 31
0.0
1001
GRADIENTCOLOR1ACI
1070
     5
1001
GRADIENTCOLOR2ACI
1070
     2
1001
ACAD
1010
0.0
1020
0.0
1030
0.0
1001
ACDBBLOCKREPETAG
1070
     1
1071
      441
1005
13A0B3
  0
LINE
  5
13A0B4
  8
CENTER
 10
12000.0
 20
-279.99999999999909
 30
0.0
 11
12000.0
 21
-99.999999999999091
 31
0.0
1001
ACDBBLOCKREPETAG
1070
     1
1071
      160
1005
13A0B4
  0
CIRCLE
  5
13A0B5
  8
OBJECT
 10
12000.0
 20
-199.99999999999909
 30
0.0
 40
70.0
1001
ACDBBLOCKREPETAG
1070
     1
1071
      161
1005
13A0B5
  0
CIRCLE
  5
13A0B6
  8
OBJECT
 10
12000.0
 20
-199.99999999999909
 30
0.0
 40
77.0
1001
ACDBBLOCKREPETAG
1070
     1
1071
      162
1005
13A0B6
  0
LINE
  5
13A0B7
  8
OBJECT
 10
12045.661800227321
 20
-137.99999999999909
 30
0.0
 11
12080.0
 21
-137.99999999999909
 31
0.0
1001
ACDBBLOCKREPETAG
1070
     1
1071
      164
1005
13A0B7
  0
LINE
  5
13A0B8
  8
OBJECT
 10
12062.0
 20
-261.99999999999909
 30
0.0
 11
12080.0
 21
-261.99999999999909
 31
0.0
1001
ACDBBLOCKREPETAG
1070
     1
1071
      165
1005
13A0B8
  0
LINE
  5
13A0B9
  8
OBJECT
 10
12062.0
 20
-261.99999999999909
 30
0.0
 11
12062.0
 21
-279.99999999999909
 31
0.0
1001
ACDBBLOCKREPETAG
1070
     1
1071
      167
1005
13A0B9
  0
LINE
  5
13A0BA
  8
OBJECT
 10
11938.0
 20
-261.99999999999909
 30
0.0
 11
11938.0
 21
-279.99999999999909
 31
0.0
1001
ACDBBLOCKREPETAG
1070
     1
1071
      168
1005
13A0BA
  0
LINE
  5
13A0BB
  8
OBJECT
 10
11938.0
 20
-261.99999999999909
 30
0.0
 11
11920.0
 21
-261.99999999999909
 31
0.0
1001
ACDBBLOCKREPETAG
1070
     1
1071
      170
1005
13A0BB
  0
LINE
  5
13A0BC
  8
OBJECT
 10
11954.33819977267
 20
-137.99999999999909
 30
0.0
 11
11920.0
 21
-137.99999999999909
 31
0.0
1001
ACDBBLOCKREPETAG
1070
     1
1071
      171
1005
13A0BC
  0
LINE
  5
13A0BD
  8
OBJECT
 10
11945.55277784863
 20
-254.44722215136329
 30
0.0
 11
11938.0
 21
-261.99999999999909
 31
0.0
1001
ACDBBLOCKREPETAG
1070
     1
1071
      180
1005
13A0BD
  0
LINE
  5
13A0BE
  8
OBJECT
 10
12054.447222151361
 20
-254.44722215136329
 30
0.0
 11
12062.0
 21
-261.99999999999909
 31
0.0
1001
ACDBBLOCKREPETAG
1070
     1
1071
      181
1005
13A0BE
  0
ARC
  5
13A0BF
  8
OBJECT
 10
12000.0
 20
-199.99999999999909
 30
0.0
 40
85.0
 50
46.837102859844251
 51
133.16289714015571
1001
ACDBBLOCKREPETAG
1070
     1
1071
      183
1005
13A0BF
  0
LINE
  5
13A0C0
  8
OBJECT
 10
12024.1029330933
 20
-243.80694712371681
 30
0.0
 11
12020.659656999989
 21
-232.55462199999889
 31
0.0
1001
ACDBBLOCKREPETAG
1070
     1
1071
      314
1005
13A0C0
  0
LINE
  5
13A0C1
  8
OBJECT
 10
11986.79274990136
 20
-218.22553374208019
 30
0.0
 11
12020.659656999989
 21
-232.5546219999969
 31
0.0
1001
ACDBBLOCKREPETAG
1070
     1
1071
      316
1005
13A0C1
  0
ARC
  5
13A0C2
  8
OBJECT
 10
11982.8961697619
 20
-227.4351299990567
 30
0.0
 40
10.0
 50
67.066778292911366
 51
154.01473437031629
1001
ACDBBLOCKREPETAG
1070
     1
1071
      317
1005
13A0C2
  0
ARC
  5
13A0C3
  8
OBJECT
 10
11986.148839038129
 20
-225.55386256729159
 30
0.0
 40
7.0
 50
67.066778292911366
 51
154.0147337749826
1001
ACDBBLOCKREPETAG
1070
     1
1071
      318
1005
13A0C3
  0
LINE
  5
13A0C4
  8
OBJECT
 10
11969.4199755553
 20
-243.89888500818171
 30
0.0
 11
11979.85649182323
 21
-222.48688253356801
 31
0.0
1001
ACDBBLOCKREPETAG
1070
     1
1071
      349
1005
13A0C4
  0
LINE
  5
13A0C5
  8
OBJECT
 10
11965.29721690061
 20
-240.71813901882729
 30
0.0
 11
11973.90710226651
 21
-223.05373004430751
 31
0.0
1001
ACDBBLOCKREPETAG
1070
     1
1071
      350
1005
13A0C5
  0
ARC
  5
13A0C6
  8
OBJECT
 10
11976.57969530731
 20
-207.1289369828437
 30
0.0
 40
60.031113246032611
 50
314.07020130422319
 51
322.33936106089681
1001
ACDBBLOCKREPETAG
1070
     1
1071
      351
1005
13A0C6
  0
CIRCLE
  5
13A0C7
  8
OBJECT
 10
12000.0
 20
-199.99999999999909
 30
0.0
 40
53.5
1001
ACDBBLOCKREPETAG
1070
     1
1071
      352
1005
13A0C7
  0
POINT
  5
13A0C8
  8
DOTS
 10
12000.0
 20
-199.99999999999909
 30
0.0
 50
270.0
1001
ACDBBLOCKREPETAG
1070
     1
1071
      364
1005
13A0C8
  0
ARC
  5
13A0C9
  8
OBJECT
 10
12000.0
 20
-199.99999999999909
 30
0.0
 40
50.0
 50
298.81994300000417
 51
228.5237695596397
1001
ACDBBLOCKREPETAG
1070
     1
1071
      157
1005
13A0C9
  0
LINE
  5
13A0CA
  8
CENTER
 10
12080.0
 20
-199.99999999999909
 30
0.0
 11
11920.0
 21
-199.99999999999909
 31
0.0
1001
ACDBBLOCKREPETAG
1070
     1
1071
      158
1005
13A0CA
  0
LINE
  5
13A0CB
  8
OBJECT
 10
11797.000000000009
 20
-261.99999999999909
 30
0.0
 11
11790.0
 21
-261.99999999999909
 31
0.0
1001
ACDBBLOCKREPETAG
1070
     1
1071
       85
1005
13A0CB
  0
LINE
  5
13A0CC
  8
OBJECT
 10
11790.0
 20
-261.99999999999909
 30
0.0
 11
11790.0
 21
-137.99999999999909
 31
0.0
1001
ACDBBLOCKREPETAG
1070
     1
1071
       86
1005
13A0CC
  0
LINE
  5
13A0CD
  8
OBJECT
 10
11790.0
 20
-137.99999999999909
 30
0.0
 11
11797.000000000009
 21
-137.99999999999909
 31
0.0
1001
ACDBBLOCKREPETAG
1070
     1
1071
       87
1005
13A0CD
  0
LINE
  5
13A0CE
  8
OBJECT
 10
11797.000000000009
 20
-137.99999999999909
 30
0.0
 11
11797.000000000009
 21
-261.99999999999909
 31
0.0
1001
ACDBBLOCKREPETAG
1070
     1
1071
       88
1005
13A0CE
  0
LINE
  5
13A0CF
  8
CENTER
 10
11775.000000000009
 20
-199.99999999999909
 30
0.0
 11
11920.0
 21
-199.99999999999909
 31
0.0
1001
ACDBBLOCKREPETAG
1070
     1
1071
       89
1005
13A0CF
  0
LINE
  5
13A0D0
  8
OBJECT
 10
11850.00002503581
 20
-154.9999999999954
 30
0.0
 11
11914.0
 21
-154.99999999999909
 31
0.0
1001
ACDBBLOCKREPETAG
1070
     1
1071
       90
1005
13A0D0
  0
LINE
  5
13A0D1
  8
OBJECT
 10
11850.00002503581
 20
-244.99999999999909
 30
0.0
 11
11914.0
 21
-244.99999999999909
 31
0.0
1001
ACDBBLOCKREPETAG
1070
     1
1071
       91
1005
13A0D1
  0
LINE
  5
13A0D2
  8
OBJECT
 10
11797.000000000009
 20
-258.99999999999909
 30
0.0
 11
11833.0
 21
-258.99999999999909
 31
0.0
1001
ACDBBLOCKREPETAG
1070
     1
1071
       92
1005
13A0D2
  0
LINE
  5
13A0D3
  8
OBJECT
 10
11833.0
 20
-258.99999999999909
 30
0.0
 11
11833.0
 21
-140.99999999999909
 31
0.0
1001
ACDBBLOCKREPETAG
1070
     1
1071
       93
1005
13A0D3
  0
LINE
  5
13A0D4
  8
OBJECT
 10
11833.0
 20
-140.99999999999909
 30
0.0
 11
11797.000000000009
 21
-140.99999999999909
 31
0.0
1001
ACDBBLOCKREPETAG
1070
     1
1071
       94
1005
13A0D4
  0
LINE
  5
13A0D5
  8
OBJECT
 10
11837.000000000009
 20
-254.49999999999909
 30
0.0
 11
11850.0
 21
-254.49999999999909
 31
0.0
1001
ACDBBLOCKREPETAG
1070
     1
1071
       95
1005
13A0D5
  0
LINE
  5
13A0D6
  8
OBJECT
 10
11850.0
 20
-145.49999999999909
 30
0.0
 11
11837.000000000009
 21
-145.49999999999909
 31
0.0
1001
ACDBBLOCKREPETAG
1070
     1
1071
       96
1005
13A0D6
  0
LINE
  5
13A0D7
  8
OBJECT
 10
11837.000000000009
 20
-145.49999999999909
 30
0.0
 11
11837.000000000009
 21
-254.49999999999909
 31
0.0
1001
ACDBBLOCKREPETAG
1070
     1
1071
       97
1005
13A0D7
  0
LINE
  5
13A0D8
  8
OBJECT
 10
11833.0
 20
-258.99999999999909
 30
0.0
 11
11837.000000000009
 21
-254.49999999999909
 31
0.0
1001
ACDBBLOCKREPETAG
1070
     1
1071
       98
1005
13A0D8
  0
LINE
  5
13A0D9
  8
OBJECT
 10
11833.0
 20
-140.99999999999909
 30
0.0
 11
11837.000000000009
 21
-145.49999999999909
 31
0.0
1001
ACDBBLOCKREPETAG
1070
     1
1071
       99
1005
13A0D9
  0
LINE
  5
13A0DA
  8
OBJECT
 10
11917.0
 20
-261.99999999999909
 30
0.0
 11
11920.0
 21
-261.99999999999909
 31
0.0
1001
ACDBBLOCKREPETAG
1070
     1
1071
      100
1005
13A0DA
  0
ARC
  5
13A0DB
  8
OBJECT
 10
11917.0
 20
-258.99999999999909
 30
0.0
 40
3.0
 50
180.0
 51
270.0
1001
ACDBBLOCKREPETAG
1070
     1
1071
      101
1005
13A0DB
  0
LINE
  5
13A0DC
  8
OBJECT
 10
11920.0
 20
-137.99999999999909
 30
0.0
 11
11917.0
 21
-137.99999999999909
 31
0.0
1001
ACDBBLOCKREPETAG
1070
     1
1071
      102
1005
13A0DC
  0
ARC
  5
13A0DD
  8
OBJECT
 10
11917.0
 20
-140.99999999999909
 30
0.0
 40
3.0
 50
90.0
 51
180.0
1001
ACDBBLOCKREPETAG
1070
     1
1071
      103
1005
13A0DD
  0
LINE
  5
13A0DE
  8
OBJECT
 10
11914.0
 20
-140.99999999999909
 30
0.0
 11
11914.0
 21
-189.6772096796403
 31
0.0
1001
ACDBBLOCKREPETAG
1070
     1
1071
      104
1005
13A0DE
  0
LINE
  5
13A0DF
  8
OBJECT
 10
11914.0
 20
-210.3227903203578
 30
0.0
 11
11914.0
 21
-258.99999999999909
 31
0.0
1001
ACDBBLOCKREPETAG
1070
     1
1071
      105
1005
13A0DF
  0
LINE
  5
13A0E0
  8
HIDDEN
 10
11842.000000000009
 20
-244.49999999999909
 30
0.0
 11
11842.000000000009
 21
-155.49999999999909
 31
0.0
1001
ACDBBLOCKREPETAG
1070
     1
1071
      106
1005
13A0E0
  0
LINE
  5
13A0E1
  8
OBJECT
 10
11850.00002503581
 20
-145.50004907618759
 30
0.0
 11
11850.00002503581
 21
-254.50004907618771
 31
0.0
1001
ACDBBLOCKREPETAG
1070
     1
1071
      108
1005
13A0E1
  0
ARC
  5
13A0E2
  8
OBJECT
 10
11870.19999999997
 20
-199.99999999999909
 30
0.0
 40
45.000000000000547
 50
270.0
 51
90.0
1001
ACDBBLOCKREPETAG
1070
     1
1071
      109
1005
13A0E2
  0
LINE
  5
13A0E3
  8
CENTER
 10
12000.0
 20
-300.99999999999898
 30
0.0
 11
12000.0
 21
-279.99999999999909
 31
0.0
1001
ACDBBLOCKREPETAG
1070
     1
1071
        0
1005
13A0E3
  0
LINE
  5
13A0E4
  8
OBJECT
 10
12062.0
 20
-283.0
 30
0.0
 11
12062.0
 21
-279.99999999999909
 31
0.0
1001
ACDBBLOCKREPETAG
1070
     1
1071
        1
1005
13A0E4
  0
ARC
  5
13A0E5
  8
OBJECT
 10
12059.0
 20
-283.0
 30
0.0
 40
3.0
 50
270.0
 51
0.0
1001
ACDBBLOCKREPETAG
1070
     1
1071
        2
1005
13A0E5
  0
LINE
  5
13A0E6
  8
OBJECT
 10
11938.0
 20
-279.99999999999909
 30
0.0
 11
11938.0
 21
-282.99999999999818
 31
0.0
1001
ACDBBLOCKREPETAG
1070
     1
1071
        3
1005
13A0E6
  0
ARC
  5
13A0E7
  8
OBJECT
 10
11941.0
 20
-282.99999999999818
 30
0.0
 40
3.0
 50
180.0
 51
270.0
1001
ACDBBLOCKREPETAG
1070
     1
1071
        4
1005
13A0E7
  0
LINE
  5
13A0E8
  8
OBJECT
 10
11941.0
 20
-285.99999999999818
 30
0.0
 11
12059.0
 21
-286.0
 31
0.0
1001
ACDBBLOCKREPETAG
1070
     1
1071
        5
1005
13A0E8
  0
LINE
  5
13A0E9
  8
OBJECT
 10
12202.99999999998
 20
-137.99999999999909
 30
0.0
 11
12209.99999999998
 21
-137.99999999999909
 31
0.0
1001
ACDBBLOCKREPETAG
1070
     1
1071
       85
1005
13A0E9
  0
LINE
  5
13A0EA
  8
OBJECT
 10
12209.99999999998
 20
-137.99999999999909
 30
0.0
 11
12209.99999999998
 21
-261.99999999999909
 31
0.0
1001
ACDBBLOCKREPETAG
1070
     1
1071
       86
1005
13A0EA
  0
LINE
  5
13A0EB
  8
OBJECT
 10
12209.99999999998
 20
-261.99999999999909
 30
0.0
 11
12202.99999999998
 21
-261.99999999999909
 31
0.0
1001
ACDBBLOCKREPETAG
1070
     1
1071
       87
1005
13A0EB
  0
LINE
  5
13A0EC
  8
OBJECT
 10
12202.99999999998
 20
-261.99999999999909
 30
0.0
 11
12202.99999999998
 21
-137.99999999999909
 31
0.0
1001
ACDBBLOCKREPETAG
1070
     1
1071
       88
1005
13A0EC
  0
LINE
  5
13A0ED
  8
CENTER
 10
12224.99999999998
 20
-199.99999999999909
 30
0.0
 11
12080.0
 21
-199.99999999999909
 31
0.0
1001
ACDBBLOCKREPETAG
1070
     1
1071
       89
1005
13A0ED
  0
LINE
  5
13A0EE
  8
OBJECT
 10
12149.999974964179
 20
-245.0000000000027
 30
0.0
 11
12086.0
 21
-244.99999999999909
 31
0.0
1001
ACDBBLOCKREPETAG
1070
     1
1071
       90
1005
13A0EE
  0
LINE
  5
13A0EF
  8
OBJECT
 10
12149.999974964179
 20
-154.99999999999909
 30
0.0
 11
12086.0
 21
-154.99999999999909
 31
0.0
1001
ACDBBLOCKREPETAG
1070
     1
1071
       91
1005
13A0EF
  0
LINE
  5
13A0F0
  8
OBJECT
 10
12202.99999999998
 20
-140.99999999999909
 30
0.0
 11
12166.99999999998
 21
-140.99999999999909
 31
0.0
1001
ACDBBLOCKREPETAG
1070
     1
1071
       92
1005
13A0F0
  0
LINE
  5
13A0F1
  8
OBJECT
 10
12166.99999999998
 20
-140.99999999999909
 30
0.0
 11
12166.99999999998
 21
-258.99999999999909
 31
0.0
1001
ACDBBLOCKREPETAG
1070
     1
1071
       93
1005
13A0F1
  0
LINE
  5
13A0F2
  8
OBJECT
 10
12166.99999999998
 20
-258.99999999999909
 30
0.0
 11
12202.99999999998
 21
-258.99999999999909
 31
0.0
1001
ACDBBLOCKREPETAG
1070
     1
1071
       94
1005
13A0F2
  0
LINE
  5
13A0F3
  8
OBJECT
 10
12162.99999999998
 20
-145.49999999999909
 30
0.0
 11
12149.99999999998
 21
-145.49999999999909
 31
0.0
1001
ACDBBLOCKREPETAG
1070
     1
1071
       95
1005
13A0F3
  0
LINE
  5
13A0F4
  8
OBJECT
 10
12149.99999999998
 20
-254.49999999999909
 30
0.0
 11
12162.99999999998
 21
-254.49999999999909
 31
0.0
1001
ACDBBLOCKREPETAG
1070
     1
1071
       96
1005
13A0F4
  0
LINE
  5
13A0F5
  8
OBJECT
 10
12162.99999999998
 20
-254.49999999999909
 30
0.0
 11
12162.99999999998
 21
-145.49999999999909
 31
0.0
1001
ACDBBLOCKREPETAG
1070
     1
1071
       97
1005
13A0F5
  0
LINE
  5
13A0F6
  8
OBJECT
 10
12166.99999999998
 20
-140.99999999999909
 30
0.0
 11
12162.99999999998
 21
-145.49999999999909
 31
0.0
1001
ACDBBLOCKREPETAG
1070
     1
1071
       98
1005
13A0F6
  0
LINE
  5
13A0F7
  8
OBJECT
 10
12166.99999999998
 20
-258.99999999999909
 30
0.0
 11
12162.99999999998
 21
-254.49999999999909
 31
0.0
1001
ACDBBLOCKREPETAG
1070
     1
1071
       99
1005
13A0F7
  0
LINE
  5
13A0F8
  8
OBJECT
 10
12083.0
 20
-137.99999999999909
 30
0.0
 11
12080.0
 21
-137.99999999999909
 31
0.0
1001
ACDBBLOCKREPETAG
1070
     1
1071
      100
1005
13A0F8
  0
ARC
  5
13A0F9
  8
OBJECT
 10
12083.0
 20
-140.99999999999909
 30
0.0
 40
3.0
 50
0.0
 51
90.0
1001
ACDBBLOCKREPETAG
1070
     1
1071
      101
1005
13A0F9
  0
LINE
  5
13A0FA
  8
OBJECT
 10
12080.0
 20
-261.99999999999909
 30
0.0
 11
12083.0
 21
-261.99999999999909
 31
0.0
1001
ACDBBLOCKREPETAG
1070
     1
1071
      102
1005
13A0FA
  0
ARC
  5
13A0FB
  8
OBJECT
 10
12083.0
 20
-258.99999999999909
 30
0.0
 40
3.0
 50
270.0
 51
0.0
1001
ACDBBLOCKREPETAG
1070
     1
1071
      103
1005
13A0FB
  0
LINE
  5
13A0FC
  8
OBJECT
 10
12086.0
 20
-258.99999999999909
 30
0.0
 11
12086.0
 21
-210.3227903203578
 31
0.0
1001
ACDBBLOCKREPETAG
1070
     1
1071
      104
1005
13A0FC
  0
LINE
  5
13A0FD
  8
OBJECT
 10
12086.0
 20
-189.6772096796403
 30
0.0
 11
12086.0
 21
-140.99999999999909
 31
0.0
1001
ACDBBLOCKREPETAG
1070
     1
1071
      105
1005
13A0FD
  0
LINE
  5
13A0FE
  8
HIDDEN
 10
12157.99999999998
 20
-155.49999999999909
 30
0.0
 11
12157.99999999998
 21
-244.49999999999909
 31
0.0
1001
ACDBBLOCKREPETAG
1070
     1
1071
      106
1005
13A0FE
  0
LINE
  5
13A0FF
  8
OBJECT
 10
12149.999974964179
 20
-254.4999509238105
 30
0.0
 11
12149.999974964179
 21
-145.4999509238105
 31
0.0
1001
ACDBBLOCKREPETAG
1070
     1
1071
      108
1005
13A0FF
  0
ARC
  5
13A100
  8
OBJECT
 10
12129.800000000019
 20
-199.99999999999909
 30
0.0
 40
45.000000000000547
 50
90.0
 51
270.0
1001
ACDBBLOCKREPETAG
1070
     1
1071
      109
1005
13A100
  0
LINE
  5
13A101
  8
OBJECT
 10
11797.000000000009
 20
-583.0
 30
0.0
 11
11790.0
 21
-583.0
 31
0.0
1001
ACDBBLOCKREPETAG
1070
     1
1071
       83
1005
13A101
  0
LINE
  5
13A102
  8
OBJECT
 10
11790.0
 20
-583.0
 30
0.0
 11
11790.0
 21
-707.0
 31
0.0
1001
ACDBBLOCKREPETAG
1070
     1
1071
       84
1005
13A102
  0
LINE
  5
13A103
  8
OBJECT
 10
11914.0
 20
-653.3502637757274
 30
0.0
 11
11914.0
 21
-755.00000000000102
 31
0.0
1001
ACDBBLOCKREPETAG
1070
     1
1071
       85
1005
13A103
  0
LINE
  5
13A104
  8
OBJECT
 10
11790.0
 20
-707.0
 30
0.0
 11
11797.000000000009
 21
-707.0
 31
0.0
1001
ACDBBLOCKREPETAG
1070
     1
1071
       86
1005
13A104
  0
LINE
  5
13A105
  8
OBJECT
 10
11797.000000000009
 20
-707.0
 30
0.0
 11
11797.000000000009
 21
-583.0
 31
0.0
1001
ACDBBLOCKREPETAG
1070
     1
1071
       87
1005
13A105
  0
LINE
  5
13A106
  8
CENTER
 10
11865.0
 20
-645.0000000000008
 30
0.0
 11
11775.000000000009
 21
-645.0
 31
0.0
1001
ACDBBLOCKREPETAG
1070
     1
1071
       88
1005
13A106
  0
LINE
  5
13A107
  8
OBJECT
 10
11920.00000000002
 20
-758.0
 30
0.0
 11
11917.000000000009
 21
-758.0000000000008
 31
0.0
1001
ACDBBLOCKREPETAG
1070
     1
1071
       89
1005
13A107
  0
ARC
  5
13A108
  8
OBJECT
 10
11917.000000000009
 20
-755.00000000000102
 30
0.0
 40
3.0
 50
180.0
 51
270.0
1001
ACDBBLOCKREPETAG
1070
     1
1071
       90
1005
13A108
  0
LINE
  5
13A109
  8
OBJECT
 10
11797.000000000009
 20
-586.0
 30
0.0
 11
11833.0
 21
-586.0000000000008
 31
0.0
1001
ACDBBLOCKREPETAG
1070
     1
1071
       91
1005
13A109
  0
LINE
  5
13A10A
  8
OBJECT
 10
11833.0
 20
-586.0000000000008
 30
0.0
 11
11833.0
 21
-704.0000000000008
 31
0.0
1001
ACDBBLOCKREPETAG
1070
     1
1071
       92
1005
13A10A
  0
LINE
  5
13A10B
  8
OBJECT
 10
11837.000000000009
 20
-590.5000000000008
 30
0.0
 11
11837.000000000009
 21
-699.5000000000008
 31
0.0
1001
ACDBBLOCKREPETAG
1070
     1
1071
       93
1005
13A10B
  0
LINE
  5
13A10C
  8
OBJECT
 10
11837.000000000009
 20
-590.5000000000008
 30
0.0
 11
11850.0
 21
-590.5000000000008
 31
0.0
1001
ACDBBLOCKREPETAG
1070
     1
1071
       94
1005
13A10C
  0
LINE
  5
13A10D
  8
OBJECT
 10
11833.0
 20
-704.0000000000008
 30
0.0
 11
11797.000000000009
 21
-704.0
 31
0.0
1001
ACDBBLOCKREPETAG
1070
     1
1071
       95
1005
13A10D
  0
LINE
  5
13A10E
  8
OBJECT
 10
11833.0
 20
-586.0000000000008
 30
0.0
 11
11837.000000000009
 21
-590.5000000000008
 31
0.0
1001
ACDBBLOCKREPETAG
1070
     1
1071
       96
1005
13A10E
  0
LINE
  5
13A10F
  8
OBJECT
 10
11850.0
 20
-590.5000000000008
 30
0.0
 11
11850.0
 21
-675.74491827928784
 31
0.0
1001
ACDBBLOCKREPETAG
1070
     1
1071
       97
1005
13A10F
  0
ARC
  5
13A110
  8
OBJECT
 10
11847.20000000001
 20
-685.0000000000008
 30
0.0
 40
85.0
 50
36.869897645906562
 51
88.112268108168848
1001
ACDBBLOCKREPETAG
1070
     1
1071
       98
1005
13A110
  0
LINE
  5
13A111
  8
HIDDEN
 10
11842.000000000009
 20
-600.50000000000068
 30
0.0
 11
11842.000000000009
 21
-689.50000000000091
 31
0.0
1001
ACDBBLOCKREPETAG
1070
     1
1071
      100
1005
13A111
  0
LINE
  5
13A112
  8
OBJECT
 10
11914.0
 20
-751.07945073181781
 30
0.0
 11
11843.36868007896
 21
-699.5000000000008
 31
0.0
1001
ACDBBLOCKREPETAG
1070
     1
1071
      101
1005
13A112
  0
LINE
  5
13A113
  8
OBJECT
 10
11920.00000000002
 20
-634.0
 30
0.0
 11
11915.20000000001
 21
-634.0
 31
0.0
1001
ACDBBLOCKREPETAG
1070
     1
1071
      102
1005
13A113
  0
LINE
  5
13A114
  8
OBJECT
 10
11914.0
 20
-653.35026377573013
 30
0.0
 11
11915.20000000001
 21
-634.0
 31
0.0
1001
ACDBBLOCKREPETAG
1070
     1
1071
      103
1005
13A114
  0
LINE
  5
13A115
  8
OBJECT
 10
11837.000000000009
 20
-699.5000000000008
 30
0.0
 11
11843.36868007896
 21
-699.5000000000008
 31
0.0
1001
ACDBBLOCKREPETAG
1070
     1
1071
      104
1005
13A115
  0
LINE
  5
13A116
  8
OBJECT
 10
11833.0
 20
-704.0000000000008
 30
0.0
 11
11837.000000000009
 21
-699.5000000000008
 31
0.0
1001
ACDBBLOCKREPETAG
1070
     1
1071
      105
1005
13A116
  0
CIRCLE
  5
13A117
  8
OBJECT
 10
12000.0
 20
-696.0
 30
0.0
 40
62.0
1001
ACDBBLOCKREPETAG
1070
     1
1071
        0
1005
13A117
  0
LINE
  5
13A118
  8
OBJECT
 10
12202.99999999998
 20
-583.0000000000008
 30
0.0
 11
12209.99999999998
 21
-583.0000000000008
 31
0.0
1001
ACDBBLOCKREPETAG
1070
     1
1071
       83
1005
13A118
  0
LINE
  5
13A119
  8
OBJECT
 10
12209.99999999998
 20
-583.0000000000008
 30
0.0
 11
12209.99999999998
 21
-707.00000000000091
 31
0.0
1001
ACDBBLOCKREPETAG
1070
     1
1071
       84
1005
13A119
  0
LINE
  5
13A11A
  8
OBJECT
 10
12085.99999999998
 20
-653.3502637757274
 30
0.0
 11
12085.99999999998
 21
-755.00000000000102
 31
0.0
1001
ACDBBLOCKREPETAG
1070
     1
1071
       85
1005
13A11A
  0
LINE
  5
13A11B
  8
OBJECT
 10
12209.99999999998
 20
-707.00000000000091
 30
0.0
 11
12202.99999999998
 21
-707.00000000000091
 31
0.0
1001
ACDBBLOCKREPETAG
1070
     1
1071
       86
1005
13A11B
  0
LINE
  5
13A11C
  8
OBJECT
 10
12202.99999999998
 20
-707.00000000000091
 30
0.0
 11
12202.99999999998
 21
-583.0000000000008
 31
0.0
1001
ACDBBLOCKREPETAG
1070
     1
1071
       87
1005
13A11C
  0
LINE
  5
13A11D
  8
CENTER
 10
12134.99999999998
 20
-645.0000000000008
 30
0.0
 11
12224.99999999998
 21
-645.0000000000008
 31
0.0
1001
ACDBBLOCKREPETAG
1070
     1
1071
       88
1005
13A11D
  0
LINE
  5
13A11E
  8
OBJECT
 10
12079.99999999998
 20
-758.0
 30
0.0
 11
12082.99999999998
 21
-758.0000000000008
 31
0.0
1001
ACDBBLOCKREPETAG
1070
     1
1071
       89
1005
13A11E
  0
ARC
  5
13A11F
  8
OBJECT
 10
12082.99999999998
 20
-755.00000000000102
 30
0.0
 40
3.0
 50
270.0
 51
0.0
1001
ACDBBLOCKREPETAG
1070
     1
1071
       90
1005
13A11F
  0
LINE
  5
13A120
  8
OBJECT
 10
12202.99999999998
 20
-586.0000000000008
 30
0.0
 11
12166.99999999998
 21
-586.0000000000008
 31
0.0
1001
ACDBBLOCKREPETAG
1070
     1
1071
       91
1005
13A120
  0
LINE
  5
13A121
  8
OBJECT
 10
12166.99999999998
 20
-586.0000000000008
 30
0.0
 11
12166.99999999998
 21
-704.0000000000008
 31
0.0
1001
ACDBBLOCKREPETAG
1070
     1
1071
       92
1005
13A121
  0
LINE
  5
13A122
  8
OBJECT
 10
12162.99999999998
 20
-590.5000000000008
 30
0.0
 11
12162.99999999998
 21
-699.5000000000008
 31
0.0
1001
ACDBBLOCKREPETAG
1070
     1
1071
       93
1005
13A122
  0
LINE
  5
13A123
  8
OBJECT
 10
12162.99999999998
 20
-590.5000000000008
 30
0.0
 11
12149.99999999998
 21
-590.5000000000008
 31
0.0
1001
ACDBBLOCKREPETAG
1070
     1
1071
       94
1005
13A123
  0
LINE
  5
13A124
  8
OBJECT
 10
12166.99999999998
 20
-704.0000000000008
 30
0.0
 11
12202.99999999998
 21
-704.0000000000008
 31
0.0
1001
ACDBBLOCKREPETAG
1070
     1
1071
       95
1005
13A124
  0
LINE
  5
13A125
  8
OBJECT
 10
12166.99999999998
 20
-586.0000000000008
 30
0.0
 11
12162.99999999998
 21
-590.5000000000008
 31
0.0
1001
ACDBBLOCKREPETAG
1070
     1
1071
       96
1005
13A125
  0
LINE
  5
13A126
  8
OBJECT
 10
12149.99999999998
 20
-590.5000000000008
 30
0.0
 11
12149.99999999998
 21
-675.74491827928784
 31
0.0
1001
ACDBBLOCKREPETAG
1070
     1
1071
       97
1005
13A126
  0
ARC
  5
13A127
  8
OBJECT
 10
12152.799999999979
 20
-685.0000000000008
 30
0.0
 40
85.0
 50
91.887731891831123
 51
143.1301023540934
1001
ACDBBLOCKREPETAG
1070
     1
1071
       98
1005
13A127
  0
LINE
  5
13A128
  8
HIDDEN
 10
12157.99999999998
 20
-600.50000000000068
 30
0.0
 11
12157.99999999998
 21
-689.50000000000091
 31
0.0
1001
ACDBBLOCKREPETAG
1070
     1
1071
      100
1005
13A128
  0
LINE
  5
13A129
  8
OBJECT
 10
12085.99999999998
 20
-751.07945073181781
 30
0.0
 11
12156.631319921031
 21
-699.5000000000008
 31
0.0
1001
ACDBBLOCKREPETAG
1070
     1
1071
      101
1005
13A129
  0
LINE
  5
13A12A
  8
OBJECT
 10
12079.99999999998
 20
-634.0
 30
0.0
 11
12084.799999999979
 21
-634.0
 31
0.0
1001
ACDBBLOCKREPETAG
1070
     1
1071
      102
1005
13A12A
  0
LINE
  5
13A12B
  8
OBJECT
 10
12085.99999999998
 20
-653.35026377573013
 30
0.0
 11
12084.799999999979
 21
-634.0
 31
0.0
1001
ACDBBLOCKREPETAG
1070
     1
1071
      103
1005
13A12B
  0
LINE
  5
13A12C
  8
OBJECT
 10
12162.99999999998
 20
-699.5000000000008
 30
0.0
 11
12156.631319921031
 21
-699.5000000000008
 31
0.0
1001
ACDBBLOCKREPETAG
1070
     1
1071
      104
1005
13A12C
  0
LINE
  5
13A12D
  8
OBJECT
 10
12166.99999999998
 20
-704.0000000000008
 30
0.0
 11
12162.99999999998
 21
-699.5000000000008
 31
0.0
1001
ACDBBLOCKREPETAG
1070
     1
1071
      105
1005
13A12D
  0
LINE
  5
13A12E
  8
SLIM
 10
9945.2566704261044
 20
-137.99999999999909
 30
0.0
 11
9955.9548403695771
 21
-127.30183005652231
 31
0.0
1001
GRADIENTCOLOR1ACI
1070
     5
1001
GRADIENTCOLOR2ACI
1070
     2
1001
ACAD
1010
0.0
1020
0.0
1030
0.0
1001
ACDBBLOCKREPETAG
1070
     1
1071
      428
1005
13A12E
  0
LINE
  5
13A12F
  8
SLIM
 10
9954.2369265471734
 20
-137.99999999999909
 30
0.0
 11
9972.7507744763316
 21
-119.4861520708364
 31
0.0
1001
GRADIENTCOLOR1ACI
1070
     5
1001
GRADIENTCOLOR2ACI
1070
     2
1001
ACAD
1010
0.0
1020
0.0
1030
0.0
1001
ACDBBLOCKREPETAG
1070
     1
1071
      429
1005
13A12F
  0
LINE
  5
13A130
  8
SLIM
 10
9973.5212243124606
 20
-127.6959583557812
 30
0.0
 11
9984.8575146748644
 21
-116.359667993377
 31
0.0
1001
GRADIENTCOLOR1ACI
1070
     5
1001
GRADIENTCOLOR2ACI
1070
     2
1001
ACAD
1010
0.0
1020
0.0
1030
0.0
1001
ACDBBLOCKREPETAG
1070
     1
1071
      430
1005
13A130
  0
LINE
  5
13A131
  8
SLIM
 10
9985.8944171461262
 20
-124.30302164318159
 30
0.0
 11
9995.0533812002577
 21
-115.1440575890517
 31
0.0
1001
GRADIENTCOLOR1ACI
1070
     5
1001
GRADIENTCOLOR2ACI
1070
     2
1001
ACAD
1010
0.0
1020
0.0
1030
0.0
1001
ACDBBLOCKREPETAG
1070
     1
1071
      431
1005
13A131
  0
LINE
  5
13A132
  8
SLIM
 10
9996.0777327492033
 20
-123.0999621611699
 30
0.0
 11
10000.0
 21
-119.1776949103767
 31
0.0
1001
GRADIENTCOLOR1ACI
1070
     5
1001
GRADIENTCOLOR2ACI
1070
     2
1001
ACAD
1010
0.0
1020
0.0
1030
0.0
1001
ACDBBLOCKREPETAG
1070
     1
1071
      432
1005
13A132
  0
LINE
  5
13A133
  8
SLIM
 10
10000.0
 20
-119.1776949103767
 30
0.0
 11
10004.0797313529
 21
-115.0979635574724
 31
0.0
1001
GRADIENTCOLOR1ACI
1070
     5
1001
GRADIENTCOLOR2ACI
1070
     2
1001
ACAD
1010
0.0
1020
0.0
1030
0.0
1001
ACDBBLOCKREPETAG
1070
     1
1071
      433
1005
13A133
  0
LINE
  5
13A134
  8
SLIM
 10
10004.99572025427
 20
-123.1622307771683
 30
0.0
 11
10012.26797841056
 21
-115.88997262087101
 31
0.0
1001
GRADIENTCOLOR1ACI
1070
     5
1001
GRADIENTCOLOR2ACI
1070
     2
1001
ACAD
1010
0.0
1020
0.0
1030
0.0
1001
ACDBBLOCKREPETAG
1070
     1
1071
      434
1005
13A134
  0
LINE
  5
13A135
  8
SLIM
 10
10013.028059366959
 20
-124.1101477855505
 30
0.0
 11
10019.799941457361
 21
-117.3382656951526
 31
0.0
1001
GRADIENTCOLOR1ACI
1070
     5
1001
GRADIENTCOLOR2ACI
1070
     2
1001
ACAD
1010
0.0
1020
0.0
1030
0.0
1001
ACDBBLOCKREPETAG
1070
     1
1071
      435
1005
13A135
  0
LINE
  5
13A136
  8
SLIM
 10
10020.374081314239
 20
-125.7443819593383
 30
0.0
 11
10026.787203867279
 21
-119.3312594063044
 31
0.0
1001
GRADIENTCOLOR1ACI
1070
     5
1001
GRADIENTCOLOR2ACI
1070
     2
1001
ACAD
1010
0.0
1020
0.0
1030
0.0
1001
ACDBBLOCKREPETAG
1070
     1
1071
      436
1005
13A136
  0
LINE
  5
13A137
  8
SLIM
 10
10027.15247199887
 20
-127.946247395778
 30
0.0
 11
10033.303003076029
 21
-121.7957163186195
 31
0.0
1001
GRADIENTCOLOR1ACI
1070
     5
1001
GRADIENTCOLOR2ACI
1070
     2
1001
ACAD
1010
0.0
1020
0.0
1030
0.0
1001
ACDBBLOCKREPETAG
1070
     1
1071
      437
1005
13A137
  0
LINE
  5
13A138
  8
SLIM
 10
10033.43909865133
 20
-130.63987686439191
 30
0.0
 11
10039.39731198437
 21
-124.6816635313439
 31
0.0
1001
GRADIENTCOLOR1ACI
1070
     5
1001
GRADIENTCOLOR2ACI
1070
     2
1001
ACAD
1010
0.0
1020
0.0
1030
0.0
1001
ACDBBLOCKREPETAG
1070
     1
1071
      438
1005
13A138
  0
LINE
  5
13A139
  8
SLIM
 10
10039.284224621801
 20
-133.77500701499321
 30
0.0
 11
10045.104770534361
 21
-127.95446110242381
 31
0.0
1001
GRADIENTCOLOR1ACI
1070
     5
1001
GRADIENTCOLOR2ACI
1070
     2
1001
ACAD
1010
0.0
1020
0.0
1030
0.0
1001
ACDBBLOCKREPETAG
1070
     1
1071
      439
1005
13A139
  0
LINE
  5
13A13A
  8
SLIM
 10
10044.721280169801
 20
-137.31820758805651
 30
0.0
 11
10050.449155789191
 21
-131.59033196866449
 31
0.0
1001
GRADIENTCOLOR1ACI
1070
     5
1001
GRADIENTCOLOR2ACI
1070
     2
1001
ACAD
1010
0.0
1020
0.0
1030
0.0
1001
ACDBBLOCKREPETAG
1070
     1
1071
      440
1005
13A13A
  0
LINE
  5
13A13B
  8
SLIM
 10
10053.019743878929
 20
-137.99999999999909
 30
0.0
 11
10055.445994186401
 21
-135.57374969252561
 31
0.0
1001
GRADIENTCOLOR1ACI
1070
     5
1001
GRADIENTCOLOR2ACI
1070
     2
1001
ACAD
1010
0.0
1020
0.0
1030
0.0
1001
ACDBBLOCKREPETAG
1070
     1
1071
      441
1005
13A13B
  0
LINE
  5
13A13C
  8
CENTER
 10
10000.0
 20
-279.99999999999909
 30
0.0
 11
10000.0
 21
-99.999999999999091
 31
0.0
1001
ACDBBLOCKREPETAG
1070
     1
1071
      160
1005
13A13C
  0
CIRCLE
  5
13A13D
  8
OBJECT
 10
10000.0
 20
-199.99999999999909
 30
0.0
 40
70.0
1001
ACDBBLOCKREPETAG
1070
     1
1071
      161
1005
13A13D
  0
CIRCLE
  5
13A13E
  8
OBJECT
 10
10000.0
 20
-199.99999999999909
 30
0.0
 40
77.0
1001
ACDBBLOCKREPETAG
1070
     1
1071
      162
1005
13A13E
  0
LINE
  5
13A13F
  8
OBJECT
 10
10045.661800227321
 20
-137.99999999999909
 30
0.0
 11
10080.0
 21
-137.99999999999909
 31
0.0
1001
ACDBBLOCKREPETAG
1070
     1
1071
      164
1005
13A13F
  0
LINE
  5
13A140
  8
OBJECT
 10
10062.0
 20
-261.99999999999909
 30
0.0
 11
10080.0
 21
-261.99999999999909
 31
0.0
1001
ACDBBLOCKREPETAG
1070
     1
1071
      165
1005
13A140
  0
LINE
  5
13A141
  8
OBJECT
 10
10062.0
 20
-261.99999999999909
 30
0.0
 11
10062.0
 21
-279.99999999999909
 31
0.0
1001
ACDBBLOCKREPETAG
1070
     1
1071
      167
1005
13A141
  0
LINE
  5
13A142
  8
OBJECT
 10
9938.0
 20
-261.99999999999909
 30
0.0
 11
9938.0
 21
-279.99999999999909
 31
0.0
1001
ACDBBLOCKREPETAG
1070
     1
1071
      168
1005
13A142
  0
LINE
  5
13A143
  8
OBJECT
 10
9938.0
 20
-261.99999999999909
 30
0.0
 11
9920.0
 21
-261.99999999999909
 31
0.0
1001
ACDBBLOCKREPETAG
1070
     1
1071
      170
1005
13A143
  0
LINE
  5
13A144
  8
OBJECT
 10
9954.3381997726756
 20
-137.99999999999909
 30
0.0
 11
9920.0
 21
-137.99999999999909
 31
0.0
1001
ACDBBLOCKREPETAG
1070
     1
1071
      171
1005
13A144
  0
LINE
  5
13A145
  8
OBJECT
 10
9945.5527778486357
 20
-254.44722215136329
 30
0.0
 11
9938.0
 21
-261.99999999999909
 31
0.0
1001
ACDBBLOCKREPETAG
1070
     1
1071
      180
1005
13A145
  0
LINE
  5
13A146
  8
OBJECT
 10
10054.447222151361
 20
-254.44722215136329
 30
0.0
 11
10062.0
 21
-261.99999999999909
 31
0.0
1001
ACDBBLOCKREPETAG
1070
     1
1071
      181
1005
13A146
  0
ARC
  5
13A147
  8
OBJECT
 10
10000.0
 20
-199.99999999999909
 30
0.0
 40
85.0
 50
46.837102859844251
 51
133.16289714015571
1001
ACDBBLOCKREPETAG
1070
     1
1071
      183
1005
13A147
  0
LINE
  5
13A148
  8
OBJECT
 10
10024.1029330933
 20
-243.80694712371681
 30
0.0
 11
10020.659656999989
 21
-232.55462199999889
 31
0.0
1001
ACDBBLOCKREPETAG
1070
     1
1071
      314
1005
13A148
  0
LINE
  5
13A149
  8
OBJECT
 10
9986.7927499013749
 20
-218.22553374208019
 30
0.0
 11
10020.659656999989
 21
-232.5546219999969
 31
0.0
1001
ACDBBLOCKREPETAG
1070
     1
1071
      316
1005
13A149
  0
ARC
  5
13A14A
  8
OBJECT
 10
9982.8961697618997
 20
-227.4351299990567
 30
0.0
 40
10.0
 50
67.066778292911366
 51
154.01473437031629
1001
ACDBBLOCKREPETAG
1070
     1
1071
      317
1005
13A14A
  0
ARC
  5
13A14B
  8
OBJECT
 10
9986.1488390381292
 20
-225.55386256729159
 30
0.0
 40
7.0
 50
67.066778292911366
 51
154.0147337749826
1001
ACDBBLOCKREPETAG
1070
     1
1071
      318
1005
13A14B
  0
LINE
  5
13A14C
  8
OBJECT
 10
9969.4199755553
 20
-243.89888500818171
 30
0.0
 11
9979.8564918232369
 21
-222.48688253356801
 31
0.0
1001
ACDBBLOCKREPETAG
1070
     1
1071
      349
1005
13A14C
  0
LINE
  5
13A14D
  8
OBJECT
 10
9965.2972169006098
 20
-240.71813901882729
 30
0.0
 11
9973.9071022665084
 21
-223.05373004430751
 31
0.0
1001
ACDBBLOCKREPETAG
1070
     1
1071
      350
1005
13A14D
  0
ARC
  5
13A14E
  8
OBJECT
 10
9976.5796953073132
 20
-207.1289369828437
 30
0.0
 40
60.031113246032611
 50
314.07020130422319
 51
322.33936106089681
1001
ACDBBLOCKREPETAG
1070
     1
1071
      351
1005
13A14E
  0
CIRCLE
  5
13A14F
  8
OBJECT
 10
10000.0
 20
-199.99999999999909
 30
0.0
 40
53.5
1001
ACDBBLOCKREPETAG
1070
     1
1071
      352
1005
13A14F
  0
POINT
  5
13A150
  8
DOTS
 10
10000.0
 20
-199.99999999999909
 30
0.0
 50
270.0
1001
ACDBBLOCKREPETAG
1070
     1
1071
      364
1005
13A150
  0
ARC
  5
13A151
  8
OBJECT
 10
10000.0
 20
-199.99999999999909
 30
0.0
 40
50.0
 50
298.81994300000417
 51
228.5237695596397
1001
ACDBBLOCKREPETAG
1070
     1
1071
      157
1005
13A151
  0
LINE
  5
13A152
  8
CENTER
 10
10080.0
 20
-199.99999999999909
 30
0.0
 11
9920.0
 21
-199.99999999999909
 31
0.0
1001
ACDBBLOCKREPETAG
1070
     1
1071
      158
1005
13A152
  0
LINE
  5
13A153
  8
OBJECT
 10
9797.0000000000127
 20
-261.99999999999909
 30
0.0
 11
9790.0000000000127
 21
-261.99999999999909
 31
0.0
1001
ACDBBLOCKREPETAG
1070
     1
1071
       85
1005
13A153
  0
LINE
  5
13A154
  8
OBJECT
 10
9790.0000000000127
 20
-261.99999999999909
 30
0.0
 11
9790.0000000000127
 21
-137.99999999999909
 31
0.0
1001
ACDBBLOCKREPETAG
1070
     1
1071
       86
1005
13A154
  0
LINE
  5
13A155
  8
OBJECT
 10
9790.0000000000127
 20
-137.99999999999909
 30
0.0
 11
9797.0000000000127
 21
-137.99999999999909
 31
0.0
1001
ACDBBLOCKREPETAG
1070
     1
1071
       87
1005
13A155
  0
LINE
  5
13A156
  8
OBJECT
 10
9797.0000000000127
 20
-137.99999999999909
 30
0.0
 11
9797.0000000000127
 21
-261.99999999999909
 31
0.0
1001
ACDBBLOCKREPETAG
1070
     1
1071
       88
1005
13A156
  0
LINE
  5
13A157
  8
CENTER
 10
9775.0000000000127
 20
-199.99999999999909
 30
0.0
 11
9920.0
 21
-199.99999999999909
 31
0.0
1001
ACDBBLOCKREPETAG
1070
     1
1071
       89
1005
13A157
  0
LINE
  5
13A158
  8
OBJECT
 10
9850.0000250358116
 20
-154.9999999999954
 30
0.0
 11
9914.0
 21
-154.99999999999909
 31
0.0
1001
ACDBBLOCKREPETAG
1070
     1
1071
       90
1005
13A158
  0
LINE
  5
13A159
  8
OBJECT
 10
9850.0000250358116
 20
-244.99999999999909
 30
0.0
 11
9914.0
 21
-244.99999999999909
 31
0.0
1001
ACDBBLOCKREPETAG
1070
     1
1071
       91
1005
13A159
  0
LINE
  5
13A15A
  8
OBJECT
 10
9797.0000000000127
 20
-258.99999999999909
 30
0.0
 11
9833.0000000000164
 21
-258.99999999999909
 31
0.0
1001
ACDBBLOCKREPETAG
1070
     1
1071
       92
1005
13A15A
  0
LINE
  5
13A15B
  8
OBJECT
 10
9833.0000000000164
 20
-258.99999999999909
 30
0.0
 11
9833.0000000000164
 21
-140.99999999999909
 31
0.0
1001
ACDBBLOCKREPETAG
1070
     1
1071
       93
1005
13A15B
  0
LINE
  5
13A15C
  8
OBJECT
 10
9833.0000000000164
 20
-140.99999999999909
 30
0.0
 11
9797.0000000000127
 21
-140.99999999999909
 31
0.0
1001
ACDBBLOCKREPETAG
1070
     1
1071
       94
1005
13A15C
  0
LINE
  5
13A15D
  8
OBJECT
 10
9837.0000000000127
 20
-254.49999999999909
 30
0.0
 11
9850.0000000000127
 21
-254.49999999999909
 31
0.0
1001
ACDBBLOCKREPETAG
1070
     1
1071
       95
1005
13A15D
  0
LINE
  5
13A15E
  8
OBJECT
 10
9850.0000000000127
 20
-145.49999999999909
 30
0.0
 11
9837.0000000000127
 21
-145.49999999999909
 31
0.0
1001
ACDBBLOCKREPETAG
1070
     1
1071
       96
1005
13A15E
  0
LINE
  5
13A15F
  8
OBJECT
 10
9837.0000000000127
 20
-145.49999999999909
 30
0.0
 11
9837.0000000000127
 21
-254.49999999999909
 31
0.0
1001
ACDBBLOCKREPETAG
1070
     1
1071
       97
1005
13A15F
  0
LINE
  5
13A160
  8
OBJECT
 10
9833.0000000000164
 20
-258.99999999999909
 30
0.0
 11
9837.0000000000127
 21
-254.49999999999909
 31
0.0
1001
ACDBBLOCKREPETAG
1070
     1
1071
       98
1005
13A160
  0
LINE
  5
13A161
  8
OBJECT
 10
9833.0000000000164
 20
-140.99999999999909
 30
0.0
 11
9837.0000000000127
 21
-145.49999999999909
 31
0.0
1001
ACDBBLOCKREPETAG
1070
     1
1071
       99
1005
13A161
  0
LINE
  5
13A162
  8
OBJECT
 10
9917.0
 20
-261.99999999999909
 30
0.0
 11
9920.0
 21
-261.99999999999909
 31
0.0
1001
ACDBBLOCKREPETAG
1070
     1
1071
      100
1005
13A162
  0
ARC
  5
13A163
  8
OBJECT
 10
9917.0
 20
-258.99999999999909
 30
0.0
 40
3.0
 50
180.0
 51
270.0
1001
ACDBBLOCKREPETAG
1070
     1
1071
      101
1005
13A163
  0
LINE
  5
13A164
  8
OBJECT
 10
9920.0
 20
-137.99999999999909
 30
0.0
 11
9917.0
 21
-137.99999999999909
 31
0.0
1001
ACDBBLOCKREPETAG
1070
     1
1071
      102
1005
13A164
  0
ARC
  5
13A165
  8
OBJECT
 10
9917.0
 20
-140.99999999999909
 30
0.0
 40
3.0
 50
90.0
 51
180.0
1001
ACDBBLOCKREPETAG
1070
     1
1071
      103
1005
13A165
  0
LINE
  5
13A166
  8
OBJECT
 10
9914.0
 20
-140.99999999999909
 30
0.0
 11
9914.0
 21
-189.6772096796403
 31
0.0
1001
ACDBBLOCKREPETAG
1070
     1
1071
      104
1005
13A166
  0
LINE
  5
13A167
  8
OBJECT
 10
9914.0
 20
-210.3227903203578
 30
0.0
 11
9914.0
 21
-258.99999999999909
 31
0.0
1001
ACDBBLOCKREPETAG
1070
     1
1071
      105
1005
13A167
  0
LINE
  5
13A168
  8
HIDDEN
 10
9842.0000000000127
 20
-244.49999999999909
 30
0.0
 11
9842.0000000000127
 21
-155.49999999999909
 31
0.0
1001
ACDBBLOCKREPETAG
1070
     1
1071
      106
1005
13A168
  0
LINE
  5
13A169
  8
OBJECT
 10
9850.0000250358116
 20
-145.50004907618759
 30
0.0
 11
9850.0000250358116
 21
-254.50004907618771
 31
0.0
1001
ACDBBLOCKREPETAG
1070
     1
1071
      108
1005
13A169
  0
ARC
  5
13A16A
  8
OBJECT
 10
9870.1999999999753
 20
-199.99999999999909
 30
0.0
 40
45.000000000000547
 50
270.0
 51
90.0
1001
ACDBBLOCKREPETAG
1070
     1
1071
      109
1005
13A16A
  0
LINE
  5
13A16B
  8
CENTER
 10
10000.0
 20
-300.99999999999898
 30
0.0
 11
10000.0
 21
-279.99999999999909
 31
0.0
1001
ACDBBLOCKREPETAG
1070
     1
1071
        0
1005
13A16B
  0
LINE
  5
13A16C
  8
OBJECT
 10
10062.0
 20
-283.0
 30
0.0
 11
10062.0
 21
-279.99999999999909
 31
0.0
1001
ACDBBLOCKREPETAG
1070
     1
1071
        1
1005
13A16C
  0
ARC
  5
13A16D
  8
OBJECT
 10
10059.0
 20
-283.0
 30
0.0
 40
3.0
 50
270.0
 51
0.0
1001
ACDBBLOCKREPETAG
1070
     1
1071
        2
1005
13A16D
  0
LINE
  5
13A16E
  8
OBJECT
 10
9938.0
 20
-279.99999999999909
 30
0.0
 11
9938.0
 21
-282.99999999999818
 31
0.0
1001
ACDBBLOCKREPETAG
1070
     1
1071
        3
1005
13A16E
  0
ARC
  5
13A16F
  8
OBJECT
 10
9941.0
 20
-282.99999999999818
 30
0.0
 40
3.0
 50
180.0
 51
270.0
1001
ACDBBLOCKREPETAG
1070
     1
1071
        4
1005
13A16F
  0
LINE
  5
13A170
  8
OBJECT
 10
9941.0
 20
-285.99999999999818
 30
0.0
 11
10059.0
 21
-286.0
 31
0.0
1001
ACDBBLOCKREPETAG
1070
     1
1071
        5
1005
13A170
  0
LINE
  5
13A171
  8
OBJECT
 10
10202.99999999998
 20
-137.99999999999909
 30
0.0
 11
10209.99999999998
 21
-137.99999999999909
 31
0.0
1001
ACDBBLOCKREPETAG
1070
     1
1071
       85
1005
13A171
  0
LINE
  5
13A172
  8
OBJECT
 10
10209.99999999998
 20
-137.99999999999909
 30
0.0
 11
10209.99999999998
 21
-261.99999999999909
 31
0.0
1001
ACDBBLOCKREPETAG
1070
     1
1071
       86
1005
13A172
  0
LINE
  5
13A173
  8
OBJECT
 10
10209.99999999998
 20
-261.99999999999909
 30
0.0
 11
10202.99999999998
 21
-261.99999999999909
 31
0.0
1001
ACDBBLOCKREPETAG
1070
     1
1071
       87
1005
13A173
  0
LINE
  5
13A174
  8
OBJECT
 10
10202.99999999998
 20
-261.99999999999909
 30
0.0
 11
10202.99999999998
 21
-137.99999999999909
 31
0.0
1001
ACDBBLOCKREPETAG
1070
     1
1071
       88
1005
13A174
  0
LINE
  5
13A175
  8
CENTER
 10
10224.99999999998
 20
-199.99999999999909
 30
0.0
 11
10080.0
 21
-199.99999999999909
 31
0.0
1001
ACDBBLOCKREPETAG
1070
     1
1071
       89
1005
13A175
  0
LINE
  5
13A176
  8
OBJECT
 10
10149.99997496419
 20
-245.0000000000027
 30
0.0
 11
10086.0
 21
-244.99999999999909
 31
0.0
1001
ACDBBLOCKREPETAG
1070
     1
1071
       90
1005
13A176
  0
LINE
  5
13A177
  8
OBJECT
 10
10149.99997496419
 20
-154.99999999999909
 30
0.0
 11
10086.0
 21
-154.99999999999909
 31
0.0
1001
ACDBBLOCKREPETAG
1070
     1
1071
       91
1005
13A177
  0
LINE
  5
13A178
  8
OBJECT
 10
10202.99999999998
 20
-140.99999999999909
 30
0.0
 11
10166.99999999998
 21
-140.99999999999909
 31
0.0
1001
ACDBBLOCKREPETAG
1070
     1
1071
       92
1005
13A178
  0
LINE
  5
13A179
  8
OBJECT
 10
10166.99999999998
 20
-140.99999999999909
 30
0.0
 11
10166.99999999998
 21
-258.99999999999909
 31
0.0
1001
ACDBBLOCKREPETAG
1070
     1
1071
       93
1005
13A179
  0
LINE
  5
13A17A
  8
OBJECT
 10
10166.99999999998
 20
-258.99999999999909
 30
0.0
 11
10202.99999999998
 21
-258.99999999999909
 31
0.0
1001
ACDBBLOCKREPETAG
1070
     1
1071
       94
1005
13A17A
  0
LINE
  5
13A17B
  8
OBJECT
 10
10162.99999999998
 20
-145.49999999999909
 30
0.0
 11
10149.99999999998
 21
-145.49999999999909
 31
0.0
1001
ACDBBLOCKREPETAG
1070
     1
1071
       95
1005
13A17B
  0
LINE
  5
13A17C
  8
OBJECT
 10
10149.99999999998
 20
-254.49999999999909
 30
0.0
 11
10162.99999999998
 21
-254.49999999999909
 31
0.0
1001
ACDBBLOCKREPETAG
1070
     1
1071
       96
1005
13A17C
  0
LINE
  5
13A17D
  8
OBJECT
 10
10162.99999999998
 20
-254.49999999999909
 30
0.0
 11
10162.99999999998
 21
-145.49999999999909
 31
0.0
1001
ACDBBLOCKREPETAG
1070
     1
1071
       97
1005
13A17D
  0
LINE
  5
13A17E
  8
OBJECT
 10
10166.99999999998
 20
-140.99999999999909
 30
0.0
 11
10162.99999999998
 21
-145.49999999999909
 31
0.0
1001
ACDBBLOCKREPETAG
1070
     1
1071
       98
1005
13A17E
  0
LINE
  5
13A17F
  8
OBJECT
 10
10166.99999999998
 20
-258.99999999999909
 30
0.0
 11
10162.99999999998
 21
-254.49999999999909
 31
0.0
1001
ACDBBLOCKREPETAG
1070
     1
1071
       99
1005
13A17F
  0
LINE
  5
13A180
  8
OBJECT
 10
10083.0
 20
-137.99999999999909
 30
0.0
 11
10080.0
 21
-137.99999999999909
 31
0.0
1001
ACDBBLOCKREPETAG
1070
     1
1071
      100
1005
13A180
  0
ARC
  5
13A181
  8
OBJECT
 10
10083.0
 20
-140.99999999999909
 30
0.0
 40
3.0
 50
0.0
 51
90.0
1001
ACDBBLOCKREPETAG
1070
     1
1071
      101
1005
13A181
  0
LINE
  5
13A182
  8
OBJECT
 10
10080.0
 20
-261.99999999999909
 30
0.0
 11
10083.0
 21
-261.99999999999909
 31
0.0
1001
ACDBBLOCKREPETAG
1070
     1
1071
      102
1005
13A182
  0
ARC
  5
13A183
  8
OBJECT
 10
10083.0
 20
-258.99999999999909
 30
0.0
 40
3.0
 50
270.0
 51
0.0
1001
ACDBBLOCKREPETAG
1070
     1
1071
      103
1005
13A183
  0
LINE
  5
13A184
  8
OBJECT
 10
10086.0
 20
-258.99999999999909
 30
0.0
 11
10086.0
 21
-210.3227903203578
 31
0.0
1001
ACDBBLOCKREPETAG
1070
     1
1071
      104
1005
13A184
  0
LINE
  5
13A185
  8
OBJECT
 10
10086.0
 20
-189.6772096796403
 30
0.0
 11
10086.0
 21
-140.99999999999909
 31
0.0
1001
ACDBBLOCKREPETAG
1070
     1
1071
      105
1005
13A185
  0
LINE
  5
13A186
  8
HIDDEN
 10
10157.99999999998
 20
-155.49999999999909
 30
0.0
 11
10157.99999999998
 21
-244.49999999999909
 31
0.0
1001
ACDBBLOCKREPETAG
1070
     1
1071
      106
1005
13A186
  0
LINE
  5
13A187
  8
OBJECT
 10
10149.99997496419
 20
-254.4999509238105
 30
0.0
 11
10149.99997496419
 21
-145.4999509238105
 31
0.0
1001
ACDBBLOCKREPETAG
1070
     1
1071
      108
1005
13A187
  0
ARC
  5
13A188
  8
OBJECT
 10
10129.800000000019
 20
-199.99999999999909
 30
0.0
 40
45.000000000000547
 50
90.0
 51
270.0
1001
ACDBBLOCKREPETAG
1070
     1
1071
      109
1005
13A188
  0
LINE
  5
13A189
  8
OBJECT
 10
9797.0000000000127
 20
-583.0
 30
0.0
 11
9790.0000000000127
 21
-583.0
 31
0.0
1001
ACDBBLOCKREPETAG
1070
     1
1071
       83
1005
13A189
  0
LINE
  5
13A18A
  8
OBJECT
 10
9790.0000000000127
 20
-583.0
 30
0.0
 11
9790.0000000000127
 21
-707.0
 31
0.0
1001
ACDBBLOCKREPETAG
1070
     1
1071
       84
1005
13A18A
  0
LINE
  5
13A18B
  8
OBJECT
 10
9914.0000000000127
 20
-653.3502637757274
 30
0.0
 11
9914.0000000000127
 21
-755.00000000000102
 31
0.0
1001
ACDBBLOCKREPETAG
1070
     1
1071
       85
1005
13A18B
  0
LINE
  5
13A18C
  8
OBJECT
 10
9790.0000000000127
 20
-707.0
 30
0.0
 11
9797.0000000000127
 21
-707.0
 31
0.0
1001
ACDBBLOCKREPETAG
1070
     1
1071
       86
1005
13A18C
  0
LINE
  5
13A18D
  8
OBJECT
 10
9797.0000000000127
 20
-707.0
 30
0.0
 11
9797.0000000000127
 21
-583.0
 31
0.0
1001
ACDBBLOCKREPETAG
1070
     1
1071
       87
1005
13A18D
  0
LINE
  5
13A18E
  8
CENTER
 10
9865.0000000000164
 20
-645.0000000000008
 30
0.0
 11
9775.0000000000127
 21
-645.0
 31
0.0
1001
ACDBBLOCKREPETAG
1070
     1
1071
       88
1005
13A18E
  0
LINE
  5
13A18F
  8
OBJECT
 10
9920.0000000000182
 20
-758.0
 30
0.0
 11
9917.0000000000146
 21
-758.0000000000008
 31
0.0
1001
ACDBBLOCKREPETAG
1070
     1
1071
       89
1005
13A18F
  0
ARC
  5
13A190
  8
OBJECT
 10
9917.0000000000146
 20
-755.00000000000102
 30
0.0
 40
3.0
 50
180.0
 51
270.0
1001
ACDBBLOCKREPETAG
1070
     1
1071
       90
1005
13A190
  0
LINE
  5
13A191
  8
OBJECT
 10
9797.0000000000127
 20
-586.0
 30
0.0
 11
9833.0000000000164
 21
-586.0000000000008
 31
0.0
1001
ACDBBLOCKREPETAG
1070
     1
1071
       91
1005
13A191
  0
LINE
  5
13A192
  8
OBJECT
 10
9833.0000000000164
 20
-586.0000000000008
 30
0.0
 11
9833.0000000000164
 21
-704.0000000000008
 31
0.0
1001
ACDBBLOCKREPETAG
1070
     1
1071
       92
1005
13A192
  0
LINE
  5
13A193
  8
OBJECT
 10
9837.0000000000127
 20
-590.5000000000008
 30
0.0
 11
9837.0000000000127
 21
-699.5000000000008
 31
0.0
1001
ACDBBLOCKREPETAG
1070
     1
1071
       93
1005
13A193
  0
LINE
  5
13A194
  8
OBJECT
 10
9837.0000000000127
 20
-590.5000000000008
 30
0.0
 11
9850.0000000000127
 21
-590.5000000000008
 31
0.0
1001
ACDBBLOCKREPETAG
1070
     1
1071
       94
1005
13A194
  0
LINE
  5
13A195
  8
OBJECT
 10
9833.0000000000164
 20
-704.0000000000008
 30
0.0
 11
9797.0000000000127
 21
-704.0
 31
0.0
1001
ACDBBLOCKREPETAG
1070
     1
1071
       95
1005
13A195
  0
LINE
  5
13A196
  8
OBJECT
 10
9833.0000000000164
 20
-586.0000000000008
 30
0.0
 11
9837.0000000000127
 21
-590.5000000000008
 31
0.0
1001
ACDBBLOCKREPETAG
1070
     1
1071
       96
1005
13A196
  0
LINE
  5
13A197
  8
OBJECT
 10
9850.0000000000127
 20
-590.5000000000008
 30
0.0
 11
9850.0000000000127
 21
-675.74491827928784
 31
0.0
1001
ACDBBLOCKREPETAG
1070
     1
1071
       97
1005
13A197
  0
ARC
  5
13A198
  8
OBJECT
 10
9847.2000000000153
 20
-685.0000000000008
 30
0.0
 40
85.0
 50
36.869897645906562
 51
88.112268108168848
1001
ACDBBLOCKREPETAG
1070
     1
1071
       98
1005
13A198
  0
LINE
  5
13A199
  8
HIDDEN
 10
9842.0000000000127
 20
-600.50000000000068
 30
0.0
 11
9842.0000000000127
 21
-689.50000000000091
 31
0.0
1001
ACDBBLOCKREPETAG
1070
     1
1071
      100
1005
13A199
  0
LINE
  5
13A19A
  8
OBJECT
 10
9914.0000000000127
 20
-751.07945073181781
 30
0.0
 11
9843.3686800789692
 21
-699.5000000000008
 31
0.0
1001
ACDBBLOCKREPETAG
1070
     1
1071
      101
1005
13A19A
  0
LINE
  5
13A19B
  8
OBJECT
 10
9920.0000000000182
 20
-634.0
 30
0.0
 11
9915.2000000000153
 21
-634.0
 31
0.0
1001
ACDBBLOCKREPETAG
1070
     1
1071
      102
1005
13A19B
  0
LINE
  5
13A19C
  8
OBJECT
 10
9914.0000000000127
 20
-653.35026377573013
 30
0.0
 11
9915.2000000000153
 21
-634.0
 31
0.0
1001
ACDBBLOCKREPETAG
1070
     1
1071
      103
1005
13A19C
  0
LINE
  5
13A19D
  8
OBJECT
 10
9837.0000000000127
 20
-699.5000000000008
 30
0.0
 11
9843.3686800789692
 21
-699.5000000000008
 31
0.0
1001
ACDBBLOCKREPETAG
1070
     1
1071
      104
1005
13A19D
  0
LINE
  5
13A19E
  8
OBJECT
 10
9833.0000000000164
 20
-704.0000000000008
 30
0.0
 11
9837.0000000000127
 21
-699.5000000000008
 31
0.0
1001
ACDBBLOCKREPETAG
1070
     1
1071
      105
1005
13A19E
  0
CIRCLE
  5
13A19F
  8
OBJECT
 10
10000.0
 20
-696.0
 30
0.0
 40
62.0
1001
ACDBBLOCKREPETAG
1070
     1
1071
        0
1005
13A19F
  0
LINE
  5
13A1A0
  8
OBJECT
 10
10202.99999999998
 20
-583.0000000000008
 30
0.0
 11
10209.99999999998
 21
-583.0000000000008
 31
0.0
1001
ACDBBLOCKREPETAG
1070
     1
1071
       83
1005
13A1A0
  0
LINE
  5
13A1A1
  8
OBJECT
 10
10209.99999999998
 20
-583.0000000000008
 30
0.0
 11
10209.99999999998
 21
-707.00000000000091
 31
0.0
1001
ACDBBLOCKREPETAG
1070
     1
1071
       84
1005
13A1A1
  0
LINE
  5
13A1A2
  8
OBJECT
 10
10085.99999999998
 20
-653.3502637757274
 30
0.0
 11
10085.99999999998
 21
-755.00000000000102
 31
0.0
1001
ACDBBLOCKREPETAG
1070
     1
1071
       85
1005
13A1A2
  0
LINE
  5
13A1A3
  8
OBJECT
 10
10209.99999999998
 20
-707.00000000000091
 30
0.0
 11
10202.99999999998
 21
-707.00000000000091
 31
0.0
1001
ACDBBLOCKREPETAG
1070
     1
1071
       86
1005
13A1A3
  0
LINE
  5
13A1A4
  8
OBJECT
 10
10202.99999999998
 20
-707.00000000000091
 30
0.0
 11
10202.99999999998
 21
-583.0000000000008
 31
0.0
1001
ACDBBLOCKREPETAG
1070
     1
1071
       87
1005
13A1A4
  0
LINE
  5
13A1A5
  8
CENTER
 10
10134.99999999998
 20
-645.0000000000008
 30
0.0
 11
10224.99999999998
 21
-645.0000000000008
 31
0.0
1001
ACDBBLOCKREPETAG
1070
     1
1071
       88
1005
13A1A5
  0
LINE
  5
13A1A6
  8
OBJECT
 10
10079.99999999998
 20
-758.0
 30
0.0
 11
10082.99999999998
 21
-758.0000000000008
 31
0.0
1001
ACDBBLOCKREPETAG
1070
     1
1071
       89
1005
13A1A6
  0
ARC
  5
13A1A7
  8
OBJECT
 10
10082.99999999998
 20
-755.00000000000102
 30
0.0
 40
3.0
 50
270.0
 51
0.0
1001
ACDBBLOCKREPETAG
1070
     1
1071
       90
1005
13A1A7
  0
LINE
  5
13A1A8
  8
OBJECT
 10
10202.99999999998
 20
-586.0000000000008
 30
0.0
 11
10166.99999999998
 21
-586.0000000000008
 31
0.0
1001
ACDBBLOCKREPETAG
1070
     1
1071
       91
1005
13A1A8
  0
LINE
  5
13A1A9
  8
OBJECT
 10
10166.99999999998
 20
-586.0000000000008
 30
0.0
 11
10166.99999999998
 21
-704.0000000000008
 31
0.0
1001
ACDBBLOCKREPETAG
1070
     1
1071
       92
1005
13A1A9
  0
LINE
  5
13A1AA
  8
OBJECT
 10
10162.99999999998
 20
-590.5000000000008
 30
0.0
 11
10162.99999999998
 21
-699.5000000000008
 31
0.0
1001
ACDBBLOCKREPETAG
1070
     1
1071
       93
1005
13A1AA
  0
LINE
  5
13A1AB
  8
OBJECT
 10
10162.99999999998
 20
-590.5000000000008
 30
0.0
 11
10149.99999999998
 21
-590.5000000000008
 31
0.0
1001
ACDBBLOCKREPETAG
1070
     1
1071
       94
1005
13A1AB
  0
LINE
  5
13A1AC
  8
OBJECT
 10
10166.99999999998
 20
-704.0000000000008
 30
0.0
 11
10202.99999999998
 21
-704.0000000000008
 31
0.0
1001
ACDBBLOCKREPETAG
1070
     1
1071
       95
1005
13A1AC
  0
LINE
  5
13A1AD
  8
OBJECT
 10
10166.99999999998
 20
-586.0000000000008
 30
0.0
 11
10162.99999999998
 21
-590.5000000000008
 31
0.0
1001
ACDBBLOCKREPETAG
1070
     1
1071
       96
1005
13A1AD
  0
LINE
  5
13A1AE
  8
OBJECT
 10
10149.99999999998
 20
-590.5000000000008
 30
0.0
 11
10149.99999999998
 21
-675.74491827928784
 31
0.0
1001
ACDBBLOCKREPETAG
1070
     1
1071
       97
1005
13A1AE
  0
ARC
  5
13A1AF
  8
OBJECT
 10
10152.799999999979
 20
-685.0000000000008
 30
0.0
 40
85.0
 50
91.887731891831123
 51
143.1301023540934
1001
ACDBBLOCKREPETAG
1070
     1
1071
       98
1005
13A1AF
  0
LINE
  5
13A1B0
  8
HIDDEN
 10
10157.99999999998
 20
-600.50000000000068
 30
0.0
 11
10157.99999999998
 21
-689.50000000000091
 31
0.0
1001
ACDBBLOCKREPETAG
1070
     1
1071
      100
1005
13A1B0
  0
LINE
  5
13A1B1
  8
OBJECT
 10
10085.99999999998
 20
-751.07945073181781
 30
0.0
 11
10156.631319921031
 21
-699.5000000000008
 31
0.0
1001
ACDBBLOCKREPETAG
1070
     1
1071
      101
1005
13A1B1
  0
LINE
  5
13A1B2
  8
OBJECT
 10
10079.99999999998
 20
-634.0
 30
0.0
 11
10084.799999999979
 21
-634.0
 31
0.0
1001
ACDBBLOCKREPETAG
1070
     1
1071
      102
1005
13A1B2
  0
LINE
  5
13A1B3
  8
OBJECT
 10
10085.99999999998
 20
-653.35026377573013
 30
0.0
 11
10084.799999999979
 21
-634.0
 31
0.0
1001
ACDBBLOCKREPETAG
1070
     1
1071
      103
1005
13A1B3
  0
LINE
  5
13A1B4
  8
OBJECT
 10
10162.99999999998
 20
-699.5000000000008
 30
0.0
 11
10156.631319921031
 21
-699.5000000000008
 31
0.0
1001
ACDBBLOCKREPETAG
1070
     1
1071
      104
1005
13A1B4
  0
LINE
  5
13A1B5
  8
OBJECT
 10
10166.99999999998
 20
-704.0000000000008
 30
0.0
 11
10162.99999999998
 21
-699.5000000000008
 31
0.0
1001
ACDBBLOCKREPETAG
1070
     1
1071
      105
1005
13A1B5
  0
LINE
  5
13A1B6
  8
SLIM
 10
7945.2566704260989
 20
-137.99999999999909
 30
0.0
 11
7955.9548403695781
 21
-127.30183005652231
 31
0.0
1001
GRADIENTCOLOR1ACI
1070
     5
1001
GRADIENTCOLOR2ACI
1070
     2
1001
ACAD
1010
0.0
1020
0.0
1030
0.0
1001
ACDBBLOCKREPETAG
1070
     1
1071
      428
1005
13A1B6
  0
LINE
  5
13A1B7
  8
SLIM
 10
7954.2369265471707
 20
-137.99999999999909
 30
0.0
 11
7972.7507744763334
 21
-119.4861520708364
 31
0.0
1001
GRADIENTCOLOR1ACI
1070
     5
1001
GRADIENTCOLOR2ACI
1070
     2
1001
ACAD
1010
0.0
1020
0.0
1030
0.0
1001
ACDBBLOCKREPETAG
1070
     1
1071
      429
1005
13A1B7
  0
LINE
  5
13A1B8
  8
SLIM
 10
7973.5212243124561
 20
-127.6959583557812
 30
0.0
 11
7984.8575146748608
 21
-116.359667993377
 31
0.0
1001
GRADIENTCOLOR1ACI
1070
     5
1001
GRADIENTCOLOR2ACI
1070
     2
1001
ACAD
1010
0.0
1020
0.0
1030
0.0
1001
ACDBBLOCKREPETAG
1070
     1
1071
      430
1005
13A1B8
  0
LINE
  5
13A1B9
  8
SLIM
 10
7985.8944171461262
 20
-124.30302164318159
 30
0.0
 11
7995.0533812002559
 21
-115.1440575890517
 31
0.0
1001
GRADIENTCOLOR1ACI
1070
     5
1001
GRADIENTCOLOR2ACI
1070
     2
1001
ACAD
1010
0.0
1020
0.0
1030
0.0
1001
ACDBBLOCKREPETAG
1070
     1
1071
      431
1005
13A1B9
  0
LINE
  5
13A1BA
  8
SLIM
 10
7996.077732749206
 20
-123.0999621611699
 30
0.0
 11
8000.0
 21
-119.1776949103767
 31
0.0
1001
GRADIENTCOLOR1ACI
1070
     5
1001
GRADIENTCOLOR2ACI
1070
     2
1001
ACAD
1010
0.0
1020
0.0
1030
0.0
1001
ACDBBLOCKREPETAG
1070
     1
1071
      432
1005
13A1BA
  0
LINE
  5
13A1BB
  8
SLIM
 10
8000.0
 20
-119.1776949103767
 30
0.0
 11
8004.0797313529074
 21
-115.0979635574724
 31
0.0
1001
GRADIENTCOLOR1ACI
1070
     5
1001
GRADIENTCOLOR2ACI
1070
     2
1001
ACAD
1010
0.0
1020
0.0
1030
0.0
1001
ACDBBLOCKREPETAG
1070
     1
1071
      433
1005
13A1BB
  0
LINE
  5
13A1BC
  8
SLIM
 10
8004.9957202542737
 20
-123.1622307771683
 30
0.0
 11
8012.2679784105749
 21
-115.88997262087101
 31
0.0
1001
GRADIENTCOLOR1ACI
1070
     5
1001
GRADIENTCOLOR2ACI
1070
     2
1001
ACAD
1010
0.0
1020
0.0
1030
0.0
1001
ACDBBLOCKREPETAG
1070
     1
1071
      434
1005
13A1BC
  0
LINE
  5
13A1BD
  8
SLIM
 10
8013.028059366964
 20
-124.1101477855505
 30
0.0
 11
8019.7999414573624
 21
-117.3382656951526
 31
0.0
1001
GRADIENTCOLOR1ACI
1070
     5
1001
GRADIENTCOLOR2ACI
1070
     2
1001
ACAD
1010
0.0
1020
0.0
1030
0.0
1001
ACDBBLOCKREPETAG
1070
     1
1071
      435
1005
13A1BD
  0
LINE
  5
13A1BE
  8
SLIM
 10
8020.3740813142458
 20
-125.7443819593383
 30
0.0
 11
8026.7872038672767
 21
-119.3312594063044
 31
0.0
1001
GRADIENTCOLOR1ACI
1070
     5
1001
GRADIENTCOLOR2ACI
1070
     2
1001
ACAD
1010
0.0
1020
0.0
1030
0.0
1001
ACDBBLOCKREPETAG
1070
     1
1071
      436
1005
13A1BE
  0
LINE
  5
13A1BF
  8
SLIM
 10
8027.1524719988738
 20
-127.946247395778
 30
0.0
 11
8033.3030030760328
 21
-121.7957163186195
 31
0.0
1001
GRADIENTCOLOR1ACI
1070
     5
1001
GRADIENTCOLOR2ACI
1070
     2
1001
ACAD
1010
0.0
1020
0.0
1030
0.0
1001
ACDBBLOCKREPETAG
1070
     1
1071
      437
1005
13A1BF
  0
LINE
  5
13A1C0
  8
SLIM
 10
8033.4390986513308
 20
-130.63987686439191
 30
0.0
 11
8039.3973119843777
 21
-124.6816635313439
 31
0.0
1001
GRADIENTCOLOR1ACI
1070
     5
1001
GRADIENTCOLOR2ACI
1070
     2
1001
ACAD
1010
0.0
1020
0.0
1030
0.0
1001
ACDBBLOCKREPETAG
1070
     1
1071
      438
1005
13A1C0
  0
LINE
  5
13A1C1
  8
SLIM
 10
8039.2842246217979
 20
-133.77500701499321
 30
0.0
 11
8045.1047705343699
 21
-127.95446110242381
 31
0.0
1001
GRADIENTCOLOR1ACI
1070
     5
1001
GRADIENTCOLOR2ACI
1070
     2
1001
ACAD
1010
0.0
1020
0.0
1030
0.0
1001
ACDBBLOCKREPETAG
1070
     1
1071
      439
1005
13A1C1
  0
LINE
  5
13A1C2
  8
SLIM
 10
8044.7212801698061
 20
-137.31820758805651
 30
0.0
 11
8050.449155789197
 21
-131.59033196866449
 31
0.0
1001
GRADIENTCOLOR1ACI
1070
     5
1001
GRADIENTCOLOR2ACI
1070
     2
1001
ACAD
1010
0.0
1020
0.0
1030
0.0
1001
ACDBBLOCKREPETAG
1070
     1
1071
      440
1005
13A1C2
  0
LINE
  5
13A1C3
  8
SLIM
 10
8053.0197438789319
 20
-137.99999999999909
 30
0.0
 11
8055.4459941864034
 21
-135.57374969252561
 31
0.0
1001
GRADIENTCOLOR1ACI
1070
     5
1001
GRADIENTCOLOR2ACI
1070
     2
1001
ACAD
1010
0.0
1020
0.0
1030
0.0
1001
ACDBBLOCKREPETAG
1070
     1
1071
      441
1005
13A1C3
  0
LINE
  5
13A1C4
  8
CENTER
 10
8000.0
 20
-279.99999999999909
 30
0.0
 11
8000.0
 21
-99.999999999999091
 31
0.0
1001
ACDBBLOCKREPETAG
1070
     1
1071
      160
1005
13A1C4
  0
CIRCLE
  5
13A1C5
  8
OBJECT
 10
8000.0
 20
-199.99999999999909
 30
0.0
 40
70.0
1001
ACDBBLOCKREPETAG
1070
     1
1071
      161
1005
13A1C5
  0
CIRCLE
  5
13A1C6
  8
OBJECT
 10
8000.0
 20
-199.99999999999909
 30
0.0
 40
77.0
1001
ACDBBLOCKREPETAG
1070
     1
1071
      162
1005
13A1C6
  0
LINE
  5
13A1C7
  8
OBJECT
 10
8045.6618002273271
 20
-137.99999999999909
 30
0.0
 11
8080.0
 21
-137.99999999999909
 31
0.0
1001
ACDBBLOCKREPETAG
1070
     1
1071
      164
1005
13A1C7
  0
LINE
  5
13A1C8
  8
OBJECT
 10
8062.0
 20
-261.99999999999909
 30
0.0
 11
8080.0
 21
-261.99999999999909
 31
0.0
1001
ACDBBLOCKREPETAG
1070
     1
1071
      165
1005
13A1C8
  0
LINE
  5
13A1C9
  8
OBJECT
 10
8062.0
 20
-261.99999999999909
 30
0.0
 11
8062.0
 21
-279.99999999999909
 31
0.0
1001
ACDBBLOCKREPETAG
1070
     1
1071
      167
1005
13A1C9
  0
LINE
  5
13A1CA
  8
OBJECT
 10
7938.0
 20
-261.99999999999909
 30
0.0
 11
7938.0
 21
-279.99999999999909
 31
0.0
1001
ACDBBLOCKREPETAG
1070
     1
1071
      168
1005
13A1CA
  0
LINE
  5
13A1CB
  8
OBJECT
 10
7938.0
 20
-261.99999999999909
 30
0.0
 11
7920.0
 21
-261.99999999999909
 31
0.0
1001
ACDBBLOCKREPETAG
1070
     1
1071
      170
1005
13A1CB
  0
LINE
  5
13A1CC
  8
OBJECT
 10
7954.3381997726747
 20
-137.99999999999909
 30
0.0
 11
7920.0
 21
-137.99999999999909
 31
0.0
1001
ACDBBLOCKREPETAG
1070
     1
1071
      171
1005
13A1CC
  0
LINE
  5
13A1CD
  8
OBJECT
 10
7945.5527778486357
 20
-254.44722215136329
 30
0.0
 11
7938.0
 21
-261.99999999999909
 31
0.0
1001
ACDBBLOCKREPETAG
1070
     1
1071
      180
1005
13A1CD
  0
LINE
  5
13A1CE
  8
OBJECT
 10
8054.4472221513652
 20
-254.44722215136329
 30
0.0
 11
8062.0
 21
-261.99999999999909
 31
0.0
1001
ACDBBLOCKREPETAG
1070
     1
1071
      181
1005
13A1CE
  0
ARC
  5
13A1CF
  8
OBJECT
 10
8000.0
 20
-199.99999999999909
 30
0.0
 40
85.0
 50
46.837102859806208
 51
133.16289714019371
1001
ACDBBLOCKREPETAG
1070
     1
1071
      183
1005
13A1CF
  0
LINE
  5
13A1D0
  8
OBJECT
 10
8024.1029330933006
 20
-243.80694712371681
 30
0.0
 11
8020.6596569999974
 21
-232.55462199999889
 31
0.0
1001
ACDBBLOCKREPETAG
1070
     1
1071
      314
1005
13A1D0
  0
LINE
  5
13A1D1
  8
OBJECT
 10
7986.7927499013749
 20
-218.22553374208019
 30
0.0
 11
8020.6596569999974
 21
-232.5546219999969
 31
0.0
1001
ACDBBLOCKREPETAG
1070
     1
1071
      316
1005
13A1D1
  0
ARC
  5
13A1D2
  8
OBJECT
 10
7982.8961697618997
 20
-227.4351299990567
 30
0.0
 40
10.0
 50
67.066778292911366
 51
154.0147343702935
1001
ACDBBLOCKREPETAG
1070
     1
1071
      317
1005
13A1D2
  0
ARC
  5
13A1D3
  8
OBJECT
 10
7986.1488390381273
 20
-225.55386256729159
 30
0.0
 40
7.0
 50
67.066778292911366
 51
154.0147337749826
1001
ACDBBLOCKREPETAG
1070
     1
1071
      318
1005
13A1D3
  0
LINE
  5
13A1D4
  8
OBJECT
 10
7969.4199755553009
 20
-243.89888500818171
 30
0.0
 11
7979.8564918232369
 21
-222.48688253356801
 31
0.0
1001
ACDBBLOCKREPETAG
1070
     1
1071
      349
1005
13A1D4
  0
LINE
  5
13A1D5
  8
OBJECT
 10
7965.2972169006098
 20
-240.71813901882729
 30
0.0
 11
7973.9071022665084
 21
-223.05373004430751
 31
0.0
1001
ACDBBLOCKREPETAG
1070
     1
1071
      350
1005
13A1D5
  0
ARC
  5
13A1D6
  8
OBJECT
 10
7976.5796953073141
 20
-207.1289369828437
 30
0.0
 40
60.031113246032611
 50
314.07020130418567
 51
322.33936106089681
1001
ACDBBLOCKREPETAG
1070
     1
1071
      351
1005
13A1D6
  0
CIRCLE
  5
13A1D7
  8
OBJECT
 10
8000.0
 20
-199.99999999999909
 30
0.0
 40
53.5
1001
ACDBBLOCKREPETAG
1070
     1
1071
      352
1005
13A1D7
  0
POINT
  5
13A1D8
  8
DOTS
 10
8000.0
 20
-199.99999999999909
 30
0.0
 50
270.0
1001
ACDBBLOCKREPETAG
1070
     1
1071
      364
1005
13A1D8
  0
ARC
  5
13A1D9
  8
OBJECT
 10
8000.0
 20
-199.99999999999909
 30
0.0
 40
50.0
 50
298.81994300000417
 51
228.5237695596397
1001
ACDBBLOCKREPETAG
1070
     1
1071
      157
1005
13A1D9
  0
LINE
  5
13A1DA
  8
CENTER
 10
8080.0
 20
-199.99999999999909
 30
0.0
 11
7920.0
 21
-199.99999999999909
 31
0.0
1001
ACDBBLOCKREPETAG
1070
     1
1071
      158
1005
13A1DA
  0
LINE
  5
13A1DB
  8
OBJECT
 10
7797.0000000000136
 20
-261.99999999999909
 30
0.0
 11
7790.0000000000127
 21
-261.99999999999909
 31
0.0
1001
ACDBBLOCKREPETAG
1070
     1
1071
       85
1005
13A1DB
  0
LINE
  5
13A1DC
  8
OBJECT
 10
7790.0000000000127
 20
-261.99999999999909
 30
0.0
 11
7790.0000000000127
 21
-137.99999999999909
 31
0.0
1001
ACDBBLOCKREPETAG
1070
     1
1071
       86
1005
13A1DC
  0
LINE
  5
13A1DD
  8
OBJECT
 10
7790.0000000000127
 20
-137.99999999999909
 30
0.0
 11
7797.0000000000136
 21
-137.99999999999909
 31
0.0
1001
ACDBBLOCKREPETAG
1070
     1
1071
       87
1005
13A1DD
  0
LINE
  5
13A1DE
  8
OBJECT
 10
7797.0000000000136
 20
-137.99999999999909
 30
0.0
 11
7797.0000000000136
 21
-261.99999999999909
 31
0.0
1001
ACDBBLOCKREPETAG
1070
     1
1071
       88
1005
13A1DE
  0
LINE
  5
13A1DF
  8
CENTER
 10
7775.0000000000136
 20
-199.99999999999909
 30
0.0
 11
7920.0
 21
-199.99999999999909
 31
0.0
1001
ACDBBLOCKREPETAG
1070
     1
1071
       89
1005
13A1DF
  0
LINE
  5
13A1E0
  8
OBJECT
 10
7850.0000250358144
 20
-154.9999999999954
 30
0.0
 11
7914.0
 21
-154.99999999999909
 31
0.0
1001
ACDBBLOCKREPETAG
1070
     1
1071
       90
1005
13A1E0
  0
LINE
  5
13A1E1
  8
OBJECT
 10
7850.0000250358144
 20
-244.99999999999909
 30
0.0
 11
7914.0
 21
-244.99999999999909
 31
0.0
1001
ACDBBLOCKREPETAG
1070
     1
1071
       91
1005
13A1E1
  0
LINE
  5
13A1E2
  8
OBJECT
 10
7797.0000000000136
 20
-258.99999999999909
 30
0.0
 11
7833.0000000000136
 21
-258.99999999999909
 31
0.0
1001
ACDBBLOCKREPETAG
1070
     1
1071
       92
1005
13A1E2
  0
LINE
  5
13A1E3
  8
OBJECT
 10
7833.0000000000136
 20
-258.99999999999909
 30
0.0
 11
7833.0000000000136
 21
-140.99999999999909
 31
0.0
1001
ACDBBLOCKREPETAG
1070
     1
1071
       93
1005
13A1E3
  0
LINE
  5
13A1E4
  8
OBJECT
 10
7833.0000000000136
 20
-140.99999999999909
 30
0.0
 11
7797.0000000000136
 21
-140.99999999999909
 31
0.0
1001
ACDBBLOCKREPETAG
1070
     1
1071
       94
1005
13A1E4
  0
LINE
  5
13A1E5
  8
OBJECT
 10
7837.0000000000127
 20
-254.49999999999909
 30
0.0
 11
7850.0000000000136
 21
-254.49999999999909
 31
0.0
1001
ACDBBLOCKREPETAG
1070
     1
1071
       95
1005
13A1E5
  0
LINE
  5
13A1E6
  8
OBJECT
 10
7850.0000000000136
 20
-145.49999999999909
 30
0.0
 11
7837.0000000000127
 21
-145.49999999999909
 31
0.0
1001
ACDBBLOCKREPETAG
1070
     1
1071
       96
1005
13A1E6
  0
LINE
  5
13A1E7
  8
OBJECT
 10
7837.0000000000127
 20
-145.49999999999909
 30
0.0
 11
7837.0000000000127
 21
-254.49999999999909
 31
0.0
1001
ACDBBLOCKREPETAG
1070
     1
1071
       97
1005
13A1E7
  0
LINE
  5
13A1E8
  8
OBJECT
 10
7833.0000000000136
 20
-258.99999999999909
 30
0.0
 11
7837.0000000000127
 21
-254.49999999999909
 31
0.0
1001
ACDBBLOCKREPETAG
1070
     1
1071
       98
1005
13A1E8
  0
LINE
  5
13A1E9
  8
OBJECT
 10
7833.0000000000136
 20
-140.99999999999909
 30
0.0
 11
7837.0000000000127
 21
-145.49999999999909
 31
0.0
1001
ACDBBLOCKREPETAG
1070
     1
1071
       99
1005
13A1E9
  0
LINE
  5
13A1EA
  8
OBJECT
 10
7917.0
 20
-261.99999999999909
 30
0.0
 11
7920.0
 21
-261.99999999999909
 31
0.0
1001
ACDBBLOCKREPETAG
1070
     1
1071
      100
1005
13A1EA
  0
ARC
  5
13A1EB
  8
OBJECT
 10
7917.0
 20
-258.99999999999909
 30
0.0
 40
3.0
 50
180.0
 51
270.0
1001
ACDBBLOCKREPETAG
1070
     1
1071
      101
1005
13A1EB
  0
LINE
  5
13A1EC
  8
OBJECT
 10
7920.0
 20
-137.99999999999909
 30
0.0
 11
7917.0
 21
-137.99999999999909
 31
0.0
1001
ACDBBLOCKREPETAG
1070
     1
1071
      102
1005
13A1EC
  0
ARC
  5
13A1ED
  8
OBJECT
 10
7917.0
 20
-140.99999999999909
 30
0.0
 40
3.0
 50
90.0
 51
180.0
1001
ACDBBLOCKREPETAG
1070
     1
1071
      103
1005
13A1ED
  0
LINE
  5
13A1EE
  8
OBJECT
 10
7914.0
 20
-140.99999999999909
 30
0.0
 11
7914.0
 21
-189.6772096796403
 31
0.0
1001
ACDBBLOCKREPETAG
1070
     1
1071
      104
1005
13A1EE
  0
LINE
  5
13A1EF
  8
OBJECT
 10
7914.0
 20
-210.3227903203578
 30
0.0
 11
7914.0
 21
-258.99999999999909
 31
0.0
1001
ACDBBLOCKREPETAG
1070
     1
1071
      105
1005
13A1EF
  0
LINE
  5
13A1F0
  8
HIDDEN
 10
7842.0000000000136
 20
-244.49999999999909
 30
0.0
 11
7842.0000000000136
 21
-155.49999999999909
 31
0.0
1001
ACDBBLOCKREPETAG
1070
     1
1071
      106
1005
13A1F0
  0
LINE
  5
13A1F1
  8
OBJECT
 10
7850.0000250358144
 20
-145.50004907618759
 30
0.0
 11
7850.0000250358144
 21
-254.50004907618771
 31
0.0
1001
ACDBBLOCKREPETAG
1070
     1
1071
      108
1005
13A1F1
  0
ARC
  5
13A1F2
  8
OBJECT
 10
7870.1999999999744
 20
-199.99999999999909
 30
0.0
 40
45.000000000000547
 50
270.0
 51
90.0
1001
ACDBBLOCKREPETAG
1070
     1
1071
      109
1005
13A1F2
  0
LINE
  5
13A1F3
  8
CENTER
 10
8000.0
 20
-300.99999999999898
 30
0.0
 11
8000.0
 21
-279.99999999999909
 31
0.0
1001
ACDBBLOCKREPETAG
1070
     1
1071
        0
1005
13A1F3
  0
LINE
  5
13A1F4
  8
OBJECT
 10
8062.0
 20
-283.0
 30
0.0
 11
8062.0
 21
-279.99999999999909
 31
0.0
1001
ACDBBLOCKREPETAG
1070
     1
1071
        1
1005
13A1F4
  0
ARC
  5
13A1F5
  8
OBJECT
 10
8059.0
 20
-283.0
 30
0.0
 40
3.0
 50
270.0
 51
0.0
1001
ACDBBLOCKREPETAG
1070
     1
1071
        2
1005
13A1F5
  0
LINE
  5
13A1F6
  8
OBJECT
 10
7938.0
 20
-279.99999999999909
 30
0.0
 11
7938.0
 21
-282.99999999999818
 31
0.0
1001
ACDBBLOCKREPETAG
1070
     1
1071
        3
1005
13A1F6
  0
ARC
  5
13A1F7
  8
OBJECT
 10
7941.0
 20
-282.99999999999818
 30
0.0
 40
3.0
 50
180.0
 51
270.0
1001
ACDBBLOCKREPETAG
1070
     1
1071
        4
1005
13A1F7
  0
LINE
  5
13A1F8
  8
OBJECT
 10
7941.0
 20
-285.99999999999818
 30
0.0
 11
8059.0
 21
-286.0
 31
0.0
1001
ACDBBLOCKREPETAG
1070
     1
1071
        5
1005
13A1F8
  0
LINE
  5
13A1F9
  8
OBJECT
 10
8202.9999999999854
 20
-137.99999999999909
 30
0.0
 11
8209.9999999999836
 21
-137.99999999999909
 31
0.0
1001
ACDBBLOCKREPETAG
1070
     1
1071
       85
1005
13A1F9
  0
LINE
  5
13A1FA
  8
OBJECT
 10
8209.9999999999836
 20
-137.99999999999909
 30
0.0
 11
8209.9999999999836
 21
-261.99999999999909
 31
0.0
1001
ACDBBLOCKREPETAG
1070
     1
1071
       86
1005
13A1FA
  0
LINE
  5
13A1FB
  8
OBJECT
 10
8209.9999999999836
 20
-261.99999999999909
 30
0.0
 11
8202.9999999999854
 21
-261.99999999999909
 31
0.0
1001
ACDBBLOCKREPETAG
1070
     1
1071
       87
1005
13A1FB
  0
LINE
  5
13A1FC
  8
OBJECT
 10
8202.9999999999854
 20
-261.99999999999909
 30
0.0
 11
8202.9999999999854
 21
-137.99999999999909
 31
0.0
1001
ACDBBLOCKREPETAG
1070
     1
1071
       88
1005
13A1FC
  0
LINE
  5
13A1FD
  8
CENTER
 10
8224.9999999999873
 20
-199.99999999999909
 30
0.0
 11
8080.0
 21
-199.99999999999909
 31
0.0
1001
ACDBBLOCKREPETAG
1070
     1
1071
       89
1005
13A1FD
  0
LINE
  5
13A1FE
  8
OBJECT
 10
8149.9999749641856
 20
-245.0000000000027
 30
0.0
 11
8086.0
 21
-244.99999999999909
 31
0.0
1001
ACDBBLOCKREPETAG
1070
     1
1071
       90
1005
13A1FE
  0
LINE
  5
13A1FF
  8
OBJECT
 10
8149.9999749641856
 20
-154.99999999999909
 30
0.0
 11
8086.0
 21
-154.99999999999909
 31
0.0
1001
ACDBBLOCKREPETAG
1070
     1
1071
       91
1005
13A1FF
  0
LINE
  5
13A200
  8
OBJECT
 10
8202.9999999999854
 20
-140.99999999999909
 30
0.0
 11
8166.9999999999854
 21
-140.99999999999909
 31
0.0
1001
ACDBBLOCKREPETAG
1070
     1
1071
       92
1005
13A200
  0
LINE
  5
13A201
  8
OBJECT
 10
8166.9999999999854
 20
-140.99999999999909
 30
0.0
 11
8166.9999999999854
 21
-258.99999999999909
 31
0.0
1001
ACDBBLOCKREPETAG
1070
     1
1071
       93
1005
13A201
  0
LINE
  5
13A202
  8
OBJECT
 10
8166.9999999999854
 20
-258.99999999999909
 30
0.0
 11
8202.9999999999854
 21
-258.99999999999909
 31
0.0
1001
ACDBBLOCKREPETAG
1070
     1
1071
       94
1005
13A202
  0
LINE
  5
13A203
  8
OBJECT
 10
8162.9999999999873
 20
-145.49999999999909
 30
0.0
 11
8149.9999999999873
 21
-145.49999999999909
 31
0.0
1001
ACDBBLOCKREPETAG
1070
     1
1071
       95
1005
13A203
  0
LINE
  5
13A204
  8
OBJECT
 10
8149.9999999999873
 20
-254.49999999999909
 30
0.0
 11
8162.9999999999873
 21
-254.49999999999909
 31
0.0
1001
ACDBBLOCKREPETAG
1070
     1
1071
       96
1005
13A204
  0
LINE
  5
13A205
  8
OBJECT
 10
8162.9999999999873
 20
-254.49999999999909
 30
0.0
 11
8162.9999999999873
 21
-145.49999999999909
 31
0.0
1001
ACDBBLOCKREPETAG
1070
     1
1071
       97
1005
13A205
  0
LINE
  5
13A206
  8
OBJECT
 10
8166.9999999999854
 20
-140.99999999999909
 30
0.0
 11
8162.9999999999873
 21
-145.49999999999909
 31
0.0
1001
ACDBBLOCKREPETAG
1070
     1
1071
       98
1005
13A206
  0
LINE
  5
13A207
  8
OBJECT
 10
8166.9999999999854
 20
-258.99999999999909
 30
0.0
 11
8162.9999999999873
 21
-254.49999999999909
 31
0.0
1001
ACDBBLOCKREPETAG
1070
     1
1071
       99
1005
13A207
  0
LINE
  5
13A208
  8
OBJECT
 10
8083.0
 20
-137.99999999999909
 30
0.0
 11
8080.0
 21
-137.99999999999909
 31
0.0
1001
ACDBBLOCKREPETAG
1070
     1
1071
      100
1005
13A208
  0
ARC
  5
13A209
  8
OBJECT
 10
8083.0
 20
-140.99999999999909
 30
0.0
 40
3.0
 50
0.0
 51
90.0
1001
ACDBBLOCKREPETAG
1070
     1
1071
      101
1005
13A209
  0
LINE
  5
13A20A
  8
OBJECT
 10
8080.0
 20
-261.99999999999909
 30
0.0
 11
8083.0
 21
-261.99999999999909
 31
0.0
1001
ACDBBLOCKREPETAG
1070
     1
1071
      102
1005
13A20A
  0
ARC
  5
13A20B
  8
OBJECT
 10
8083.0
 20
-258.99999999999909
 30
0.0
 40
3.0
 50
270.0
 51
0.0
1001
ACDBBLOCKREPETAG
1070
     1
1071
      103
1005
13A20B
  0
LINE
  5
13A20C
  8
OBJECT
 10
8086.0
 20
-258.99999999999909
 30
0.0
 11
8086.0
 21
-210.3227903203578
 31
0.0
1001
ACDBBLOCKREPETAG
1070
     1
1071
      104
1005
13A20C
  0
LINE
  5
13A20D
  8
OBJECT
 10
8086.0
 20
-189.6772096796403
 30
0.0
 11
8086.0
 21
-140.99999999999909
 31
0.0
1001
ACDBBLOCKREPETAG
1070
     1
1071
      105
1005
13A20D
  0
LINE
  5
13A20E
  8
HIDDEN
 10
8157.9999999999873
 20
-155.49999999999909
 30
0.0
 11
8157.9999999999873
 21
-244.49999999999909
 31
0.0
1001
ACDBBLOCKREPETAG
1070
     1
1071
      106
1005
13A20E
  0
LINE
  5
13A20F
  8
OBJECT
 10
8149.9999749641856
 20
-254.4999509238105
 30
0.0
 11
8149.9999749641856
 21
-145.4999509238105
 31
0.0
1001
ACDBBLOCKREPETAG
1070
     1
1071
      108
1005
13A20F
  0
ARC
  5
13A210
  8
OBJECT
 10
8129.800000000022
 20
-199.99999999999909
 30
0.0
 40
45.000000000000547
 50
90.0
 51
270.0
1001
ACDBBLOCKREPETAG
1070
     1
1071
      109
1005
13A210
  0
LINE
  5
13A211
  8
OBJECT
 10
7797.0000000000136
 20
-583.0
 30
0.0
 11
7790.0000000000127
 21
-583.0
 31
0.0
1001
ACDBBLOCKREPETAG
1070
     1
1071
       83
1005
13A211
  0
LINE
  5
13A212
  8
OBJECT
 10
7790.0000000000127
 20
-583.0
 30
0.0
 11
7790.0000000000127
 21
-707.0
 31
0.0
1001
ACDBBLOCKREPETAG
1070
     1
1071
       84
1005
13A212
  0
LINE
  5
13A213
  8
OBJECT
 10
7914.0000000000136
 20
-653.3502637757274
 30
0.0
 11
7914.0000000000136
 21
-755.00000000000102
 31
0.0
1001
ACDBBLOCKREPETAG
1070
     1
1071
       85
1005
13A213
  0
LINE
  5
13A214
  8
OBJECT
 10
7790.0000000000127
 20
-707.0
 30
0.0
 11
7797.0000000000136
 21
-707.0
 31
0.0
1001
ACDBBLOCKREPETAG
1070
     1
1071
       86
1005
13A214
  0
LINE
  5
13A215
  8
OBJECT
 10
7797.0000000000136
 20
-707.0
 30
0.0
 11
7797.0000000000136
 21
-583.0
 31
0.0
1001
ACDBBLOCKREPETAG
1070
     1
1071
       87
1005
13A215
  0
LINE
  5
13A216
  8
CENTER
 10
7865.0000000000127
 20
-645.0000000000008
 30
0.0
 11
7775.0000000000136
 21
-645.0
 31
0.0
1001
ACDBBLOCKREPETAG
1070
     1
1071
       88
1005
13A216
  0
LINE
  5
13A217
  8
OBJECT
 10
7920.0000000000191
 20
-758.0
 30
0.0
 11
7917.0000000000136
 21
-758.0000000000008
 31
0.0
1001
ACDBBLOCKREPETAG
1070
     1
1071
       89
1005
13A217
  0
ARC
  5
13A218
  8
OBJECT
 10
7917.0000000000136
 20
-755.00000000000102
 30
0.0
 40
3.0
 50
180.0
 51
270.0
1001
ACDBBLOCKREPETAG
1070
     1
1071
       90
1005
13A218
  0
LINE
  5
13A219
  8
OBJECT
 10
7797.0000000000136
 20
-586.0
 30
0.0
 11
7833.0000000000136
 21
-586.0000000000008
 31
0.0
1001
ACDBBLOCKREPETAG
1070
     1
1071
       91
1005
13A219
  0
LINE
  5
13A21A
  8
OBJECT
 10
7833.0000000000136
 20
-586.0000000000008
 30
0.0
 11
7833.0000000000136
 21
-704.0000000000008
 31
0.0
1001
ACDBBLOCKREPETAG
1070
     1
1071
       92
1005
13A21A
  0
LINE
  5
13A21B
  8
OBJECT
 10
7837.0000000000127
 20
-590.5000000000008
 30
0.0
 11
7837.0000000000127
 21
-699.5000000000008
 31
0.0
1001
ACDBBLOCKREPETAG
1070
     1
1071
       93
1005
13A21B
  0
LINE
  5
13A21C
  8
OBJECT
 10
7837.0000000000127
 20
-590.5000000000008
 30
0.0
 11
7850.0000000000136
 21
-590.5000000000008
 31
0.0
1001
ACDBBLOCKREPETAG
1070
     1
1071
       94
1005
13A21C
  0
LINE
  5
13A21D
  8
OBJECT
 10
7833.0000000000136
 20
-704.0000000000008
 30
0.0
 11
7797.0000000000136
 21
-704.0
 31
0.0
1001
ACDBBLOCKREPETAG
1070
     1
1071
       95
1005
13A21D
  0
LINE
  5
13A21E
  8
OBJECT
 10
7833.0000000000136
 20
-586.0000000000008
 30
0.0
 11
7837.0000000000127
 21
-590.5000000000008
 31
0.0
1001
ACDBBLOCKREPETAG
1070
     1
1071
       96
1005
13A21E
  0
LINE
  5
13A21F
  8
OBJECT
 10
7850.0000000000136
 20
-590.5000000000008
 30
0.0
 11
7850.0000000000136
 21
-675.74491827928784
 31
0.0
1001
ACDBBLOCKREPETAG
1070
     1
1071
       97
1005
13A21F
  0
ARC
  5
13A220
  8
OBJECT
 10
7847.2000000000144
 20
-685.0000000000008
 30
0.0
 40
85.0
 50
36.869897645906562
 51
88.112268108168848
1001
ACDBBLOCKREPETAG
1070
     1
1071
       98
1005
13A220
  0
LINE
  5
13A221
  8
HIDDEN
 10
7842.0000000000136
 20
-600.50000000000068
 30
0.0
 11
7842.0000000000136
 21
-689.50000000000091
 31
0.0
1001
ACDBBLOCKREPETAG
1070
     1
1071
      100
1005
13A221
  0
LINE
  5
13A222
  8
OBJECT
 10
7914.0000000000136
 20
-751.07945073181781
 30
0.0
 11
7843.3686800789701
 21
-699.5000000000008
 31
0.0
1001
ACDBBLOCKREPETAG
1070
     1
1071
      101
1005
13A222
  0
LINE
  5
13A223
  8
OBJECT
 10
7920.0000000000191
 20
-634.0
 30
0.0
 11
7915.2000000000162
 21
-634.0
 31
0.0
1001
ACDBBLOCKREPETAG
1070
     1
1071
      102
1005
13A223
  0
LINE
  5
13A224
  8
OBJECT
 10
7914.0000000000136
 20
-653.35026377573013
 30
0.0
 11
7915.2000000000162
 21
-634.0
 31
0.0
1001
ACDBBLOCKREPETAG
1070
     1
1071
      103
1005
13A224
  0
LINE
  5
13A225
  8
OBJECT
 10
7837.0000000000127
 20
-699.5000000000008
 30
0.0
 11
7843.3686800789701
 21
-699.5000000000008
 31
0.0
1001
ACDBBLOCKREPETAG
1070
     1
1071
      104
1005
13A225
  0
LINE
  5
13A226
  8
OBJECT
 10
7833.0000000000136
 20
-704.0000000000008
 30
0.0
 11
7837.0000000000127
 21
-699.5000000000008
 31
0.0
1001
ACDBBLOCKREPETAG
1070
     1
1071
      105
1005
13A226
  0
CIRCLE
  5
13A227
  8
OBJECT
 10
8000.0
 20
-696.0
 30
0.0
 40
62.0
1001
ACDBBLOCKREPETAG
1070
     1
1071
        0
1005
13A227
  0
LINE
  5
13A228
  8
OBJECT
 10
8202.9999999999854
 20
-583.0000000000008
 30
0.0
 11
8209.9999999999836
 21
-583.0000000000008
 31
0.0
1001
ACDBBLOCKREPETAG
1070
     1
1071
       83
1005
13A228
  0
LINE
  5
13A229
  8
OBJECT
 10
8209.9999999999836
 20
-583.0000000000008
 30
0.0
 11
8209.9999999999836
 21
-707.00000000000091
 31
0.0
1001
ACDBBLOCKREPETAG
1070
     1
1071
       84
1005
13A229
  0
LINE
  5
13A22A
  8
OBJECT
 10
8085.9999999999873
 20
-653.3502637757274
 30
0.0
 11
8085.9999999999873
 21
-755.00000000000102
 31
0.0
1001
ACDBBLOCKREPETAG
1070
     1
1071
       85
1005
13A22A
  0
LINE
  5
13A22B
  8
OBJECT
 10
8209.9999999999836
 20
-707.00000000000091
 30
0.0
 11
8202.9999999999854
 21
-707.00000000000091
 31
0.0
1001
ACDBBLOCKREPETAG
1070
     1
1071
       86
1005
13A22B
  0
LINE
  5
13A22C
  8
OBJECT
 10
8202.9999999999854
 20
-707.00000000000091
 30
0.0
 11
8202.9999999999854
 21
-583.0000000000008
 31
0.0
1001
ACDBBLOCKREPETAG
1070
     1
1071
       87
1005
13A22C
  0
LINE
  5
13A22D
  8
CENTER
 10
8134.9999999999873
 20
-645.0000000000008
 30
0.0
 11
8224.9999999999873
 21
-645.0000000000008
 31
0.0
1001
ACDBBLOCKREPETAG
1070
     1
1071
       88
1005
13A22D
  0
LINE
  5
13A22E
  8
OBJECT
 10
8079.9999999999818
 20
-758.0
 30
0.0
 11
8082.9999999999873
 21
-758.0000000000008
 31
0.0
1001
ACDBBLOCKREPETAG
1070
     1
1071
       89
1005
13A22E
  0
ARC
  5
13A22F
  8
OBJECT
 10
8082.9999999999873
 20
-755.00000000000102
 30
0.0
 40
3.0
 50
270.0
 51
0.0
1001
ACDBBLOCKREPETAG
1070
     1
1071
       90
1005
13A22F
  0
LINE
  5
13A230
  8
OBJECT
 10
8202.9999999999854
 20
-586.0000000000008
 30
0.0
 11
8166.9999999999854
 21
-586.0000000000008
 31
0.0
1001
ACDBBLOCKREPETAG
1070
     1
1071
       91
1005
13A230
  0
LINE
  5
13A231
  8
OBJECT
 10
8166.9999999999854
 20
-586.0000000000008
 30
0.0
 11
8166.9999999999854
 21
-704.0000000000008
 31
0.0
1001
ACDBBLOCKREPETAG
1070
     1
1071
       92
1005
13A231
  0
LINE
  5
13A232
  8
OBJECT
 10
8162.9999999999873
 20
-590.5000000000008
 30
0.0
 11
8162.9999999999873
 21
-699.5000000000008
 31
0.0
1001
ACDBBLOCKREPETAG
1070
     1
1071
       93
1005
13A232
  0
LINE
  5
13A233
  8
OBJECT
 10
8162.9999999999873
 20
-590.5000000000008
 30
0.0
 11
8149.9999999999873
 21
-590.5000000000008
 31
0.0
1001
ACDBBLOCKREPETAG
1070
     1
1071
       94
1005
13A233
  0
LINE
  5
13A234
  8
OBJECT
 10
8166.9999999999854
 20
-704.0000000000008
 30
0.0
 11
8202.9999999999854
 21
-704.0000000000008
 31
0.0
1001
ACDBBLOCKREPETAG
1070
     1
1071
       95
1005
13A234
  0
LINE
  5
13A235
  8
OBJECT
 10
8166.9999999999854
 20
-586.0000000000008
 30
0.0
 11
8162.9999999999873
 21
-590.5000000000008
 31
0.0
1001
ACDBBLOCKREPETAG
1070
     1
1071
       96
1005
13A235
  0
LINE
  5
13A236
  8
OBJECT
 10
8149.9999999999873
 20
-590.5000000000008
 30
0.0
 11
8149.9999999999873
 21
-675.74491827928784
 31
0.0
1001
ACDBBLOCKREPETAG
1070
     1
1071
       97
1005
13A236
  0
ARC
  5
13A237
  8
OBJECT
 10
8152.7999999999829
 20
-685.0000000000008
 30
0.0
 40
85.0
 50
91.887731891831123
 51
143.1301023540934
1001
ACDBBLOCKREPETAG
1070
     1
1071
       98
1005
13A237
  0
LINE
  5
13A238
  8
HIDDEN
 10
8157.9999999999873
 20
-600.50000000000068
 30
0.0
 11
8157.9999999999873
 21
-689.50000000000091
 31
0.0
1001
ACDBBLOCKREPETAG
1070
     1
1071
      100
1005
13A238
  0
LINE
  5
13A239
  8
OBJECT
 10
8085.9999999999873
 20
-751.07945073181781
 30
0.0
 11
8156.6313199210299
 21
-699.5000000000008
 31
0.0
1001
ACDBBLOCKREPETAG
1070
     1
1071
      101
1005
13A239
  0
LINE
  5
13A23A
  8
OBJECT
 10
8079.9999999999818
 20
-634.0
 30
0.0
 11
8084.7999999999847
 21
-634.0
 31
0.0
1001
ACDBBLOCKREPETAG
1070
     1
1071
      102
1005
13A23A
  0
LINE
  5
13A23B
  8
OBJECT
 10
8085.9999999999873
 20
-653.35026377573013
 30
0.0
 11
8084.7999999999847
 21
-634.0
 31
0.0
1001
ACDBBLOCKREPETAG
1070
     1
1071
      103
1005
13A23B
  0
LINE
  5
13A23C
  8
OBJECT
 10
8162.9999999999873
 20
-699.5000000000008
 30
0.0
 11
8156.6313199210299
 21
-699.5000000000008
 31
0.0
1001
ACDBBLOCKREPETAG
1070
     1
1071
      104
1005
13A23C
  0
LINE
  5
13A23D
  8
OBJECT
 10
8166.9999999999854
 20
-704.0000000000008
 30
0.0
 11
8162.9999999999873
 21
-699.5000000000008
 31
0.0
1001
ACDBBLOCKREPETAG
1070
     1
1071
      105
1005
13A23D
  0
LINE
  5
13A23E
  8
OBJECT
 10
7923.0
 20
-571.0
 30
0.0
 11
7923.0
 21
-550.0
 31
0.0
1001
ACDBBLOCKREPETAG
1070
     1
1071
       38
1005
13A23E
  0
LINE
  5
13A23F
  8
OBJECT
 10
7923.0
 20
-550.0
 30
0.0
 11
8077.0
 21
-550.0
 31
0.0
1001
ACDBBLOCKREPETAG
1070
     1
1071
       39
1005
13A23F
  0
LINE
  5
13A240
  8
HIDDEN
 10
7943.0
 20
-620.0
 30
0.0
 11
8057.0
 21
-620.0
 31
0.0
1001
ACDBBLOCKREPETAG
1070
     1
1071
       40
1005
13A240
  0
LINE
  5
13A241
  8
OBJECT
 10
8077.0
 20
-550.0
 30
0.0
 11
8077.0
 21
-571.0
 31
0.0
1001
ACDBBLOCKREPETAG
1070
     1
1071
       41
1005
13A241
  0
LINE
  5
13A242
  8
OBJECT
 10
8077.0
 20
-571.0
 30
0.0
 11
7923.0
 21
-571.0
 31
0.0
1001
ACDBBLOCKREPETAG
1070
     1
1071
       42
1005
13A242
  0
LINE
  5
13A243
  8
CENTER
 10
8000.0
 20
-535.0
 30
0.0
 11
8000.0
 21
-890.0
 31
0.0
1001
ACDBBLOCKREPETAG
1070
     1
1071
       43
1005
13A243
  0
LINE
  5
13A244
  8
OBJECT
 10
7928.0
 20
-571.0
 30
0.0
 11
7928.0
 21
-634.0
 31
0.0
1001
ACDBBLOCKREPETAG
1070
     1
1071
       44
1005
13A244
  0
LINE
  5
13A245
  8
OBJECT
 10
8072.0
 20
-634.0
 30
0.0
 11
8072.0
 21
-571.0
 31
0.0
1001
ACDBBLOCKREPETAG
1070
     1
1071
       45
1005
13A245
  0
LINE
  5
13A246
  8
OBJECT
 10
7920.0
 20
-878.0
 30
0.0
 11
8080.0
 21
-878.0
 31
0.0
1001
ACDBBLOCKREPETAG
1070
     1
1071
       46
1005
13A246
  0
LINE
  5
13A247
  8
OBJECT
 10
8080.0
 20
-634.0
 30
0.0
 11
7920.0
 21
-634.0
 31
0.0
1001
ACDBBLOCKREPETAG
1070
     1
1071
       47
1005
13A247
  0
LINE
  5
13A248
  8
OBJECT
 10
7920.0
 20
-878.0
 30
0.0
 11
7920.0
 21
-890.0
 31
0.0
1001
ACDBBLOCKREPETAG
1070
     1
1071
       48
1005
13A248
  0
LINE
  5
13A249
  8
OBJECT
 10
7920.0
 20
-890.0
 30
0.0
 11
8080.0
 21
-890.0
 31
0.0
1001
ACDBBLOCKREPETAG
1070
     1
1071
       49
1005
13A249
  0
LINE
  5
13A24A
  8
OBJECT
 10
8080.0
 20
-890.0
 30
0.0
 11
8080.0
 21
-878.0
 31
0.0
1001
ACDBBLOCKREPETAG
1070
     1
1071
       50
1005
13A24A
  0
LINE
  5
13A24B
  8
OBJECT
 10
8074.9999999998618
 20
-757.99999999985096
 30
0.0
 11
8075.0
 21
-878.0
 31
0.0
1001
ACDBBLOCKREPETAG
1070
     1
1071
       54
1005
13A24B
  0
LINE
  5
13A24C
  8
OBJECT
 10
8074.9999908029858
 20
-757.99998602702181
 30
0.0
 11
8080.0
 21
-757.99998602702181
 31
0.0
1001
ACDBBLOCKREPETAG
1070
     1
1071
       55
1005
13A24C
  0
LINE
  5
13A24D
  8
OBJECT
 10
7925.0000000001382
 20
-757.99999999985096
 30
0.0
 11
7925.0
 21
-878.0
 31
0.0
1001
ACDBBLOCKREPETAG
1070
     1
1071
       56
1005
13A24D
  0
LINE
  5
13A24E
  8
OBJECT
 10
7925.0000091970132
 20
-757.99998602702181
 30
0.0
 11
7920.0
 21
-757.99998602702181
 31
0.0
1001
ACDBBLOCKREPETAG
1070
     1
1071
       57
1005
13A24E
  0
ARC
  5
13A24F
  8
OBJECT
 10
8200.6872746716726
 20
-749.40809941010752
 30
0.0
 40
170.6350503965856
 50
137.44134459184301
 51
149.91949581337221
1001
ACDBBLOCKREPETAG
1070
     1
1071
       58
1005
13A24F
  0
ARC
  5
13A250
  8
OBJECT
 10
8200.6872746716726
 20
-642.59190058989225
 30
0.0
 40
170.6350503965856
 50
210.08050418662771
 51
222.55865540815699
1001
ACDBBLOCKREPETAG
1070
     1
1071
       59
1005
13A250
  0
ARC
  5
13A251
  8
OBJECT
 10
7799.3127253283265
 20
-749.40809941010752
 30
0.0
 40
170.6350503965856
 50
30.080504186787142
 51
42.558655408382641
1001
ACDBBLOCKREPETAG
1070
     1
1071
       60
1005
13A251
  0
ARC
  5
13A252
  8
OBJECT
 10
7799.3127253283265
 20
-642.59190058989225
 30
0.0
 40
170.6350503965856
 50
317.44134459161722
 51
329.9194958132129
1001
ACDBBLOCKREPETAG
1070
     1
1071
       61
1005
13A252
  0
POINT
  5
13A253
  8
DOTS
 10
8000.0
 20
-755.0
 30
0.0
1001
ACDBBLOCKREPETAG
1070
     1
1071
      185
1005
13A253
  0
LINE
  5
13A254
  8
OBJECT
 10
5969.4199755553018
 20
-243.89888500818171
 30
0.0
 11
5979.8564918232369
 21
-222.48688253356801
 31
0.0
1001
ACDBBLOCKREPETAG
1070
     1
1071
      305
1005
13A254
  0
LINE
  5
13A255
  8
OBJECT
 10
5965.2972169006089
 20
-240.71813901882729
 30
0.0
 11
5973.9071022665084
 21
-223.05373004430751
 31
0.0
1001
ACDBBLOCKREPETAG
1070
     1
1071
      306
1005
13A255
  0
LINE
  5
13A256
  8
OBJECT
 10
6024.1029330933034
 20
-243.80694712371681
 30
0.0
 11
6020.6596569999956
 21
-232.55462199999889
 31
0.0
1001
ACDBBLOCKREPETAG
1070
     1
1071
      307
1005
13A256
  0
ARC
  5
13A257
  8
OBJECT
 10
5976.5796953073141
 20
-207.1289369828437
 30
0.0
 40
60.031113246032611
 50
314.07020130418567
 51
322.33936106089681
1001
ACDBBLOCKREPETAG
1070
     1
1071
      308
1005
13A257
  0
LINE
  5
13A258
  8
OBJECT
 10
5986.7927499013749
 20
-218.22553374208019
 30
0.0
 11
6020.6596569999956
 21
-232.5546219999969
 31
0.0
1001
ACDBBLOCKREPETAG
1070
     1
1071
      309
1005
13A258
  0
ARC
  5
13A259
  8
OBJECT
 10
5982.8961697618997
 20
-227.4351299990567
 30
0.0
 40
10.0
 50
67.066778292911366
 51
154.0147343702935
1001
ACDBBLOCKREPETAG
1070
     1
1071
      310
1005
13A259
  0
ARC
  5
13A25A
  8
OBJECT
 10
5986.1488390381273
 20
-225.55386256729159
 30
0.0
 40
7.0
 50
67.066778292911366
 51
154.0147337749826
1001
ACDBBLOCKREPETAG
1070
     1
1071
      311
1005
13A25A
  0
CIRCLE
  5
13A25B
  8
OBJECT
 10
6000.0
 20
-199.99999999999909
 30
0.0
 40
53.5
1001
ACDBBLOCKREPETAG
1070
     1
1071
      340
1005
13A25B
  0
POINT
  5
13A25C
  8
DOTS
 10
6000.0
 20
-199.99999999999909
 30
0.0
 50
270.0
1001
ACDBBLOCKREPETAG
1070
     1
1071
      153
1005
13A25C
  0
ARC
  5
13A25D
  8
OBJECT
 10
6000.0
 20
-199.99999999999909
 30
0.0
 40
50.0
 50
298.81994300000417
 51
228.52376955965491
1001
ACDBBLOCKREPETAG
1070
     1
1071
       48
1005
13A25D
  0
LINE
  5
13A25E
  8
CENTER
 10
6080.0
 20
-199.99999999999909
 30
0.0
 11
5920.0
 21
-199.99999999999909
 31
0.0
1001
ACDBBLOCKREPETAG
1070
     1
1071
       49
1005
13A25E
  0
LINE
  5
13A25F
  8
CENTER
 10
6000.0
 20
-279.99999999999909
 30
0.0
 11
6000.0
 21
-104.9999999999991
 31
0.0
1001
ACDBBLOCKREPETAG
1070
     1
1071
       50
1005
13A25F
  0
CIRCLE
  5
13A260
  8
OBJECT
 10
6000.0
 20
-199.99999999999909
 30
0.0
 40
70.0
1001
ACDBBLOCKREPETAG
1070
     1
1071
       51
1005
13A260
  0
CIRCLE
  5
13A261
  8
OBJECT
 10
6000.0
 20
-199.99999999999909
 30
0.0
 40
77.0
1001
ACDBBLOCKREPETAG
1070
     1
1071
       52
1005
13A261
  0
ARC
  5
13A262
  8
OBJECT
 10
6000.0
 20
-199.99999999999909
 30
0.0
 40
80.0
 50
50.80503257388439
 51
129.1949674261156
1001
ACDBBLOCKREPETAG
1070
     1
1071
       53
1005
13A262
  0
LINE
  5
13A263
  8
OBJECT
 10
6045.6618002273253
 20
-137.99999999999909
 30
0.0
 11
6080.0
 21
-137.99999999999909
 31
0.0
1001
ACDBBLOCKREPETAG
1070
     1
1071
       54
1005
13A263
  0
LINE
  5
13A264
  8
OBJECT
 10
6062.0
 20
-261.99999999999909
 30
0.0
 11
6080.0
 21
-261.99999999999909
 31
0.0
1001
ACDBBLOCKREPETAG
1070
     1
1071
       55
1005
13A264
  0
LINE
  5
13A265
  8
OBJECT
 10
6062.0
 20
-261.99999999999909
 30
0.0
 11
6062.0
 21
-279.99999999999909
 31
0.0
1001
ACDBBLOCKREPETAG
1070
     1
1071
       57
1005
13A265
  0
LINE
  5
13A266
  8
OBJECT
 10
5938.0
 20
-261.99999999999909
 30
0.0
 11
5938.0
 21
-279.99999999999909
 31
0.0
1001
ACDBBLOCKREPETAG
1070
     1
1071
       58
1005
13A266
  0
LINE
  5
13A267
  8
OBJECT
 10
5938.0
 20
-261.99999999999909
 30
0.0
 11
5920.0
 21
-261.99999999999909
 31
0.0
1001
ACDBBLOCKREPETAG
1070
     1
1071
       60
1005
13A267
  0
LINE
  5
13A268
  8
OBJECT
 10
5954.3381997726738
 20
-137.99999999999909
 30
0.0
 11
5920.0
 21
-137.99999999999909
 31
0.0
1001
ACDBBLOCKREPETAG
1070
     1
1071
       61
1005
13A268
  0
LINE
  5
13A269
  8
OBJECT
 10
5945.5527778486367
 20
-254.44722215136329
 30
0.0
 11
5938.0
 21
-261.99999999999909
 31
0.0
1001
ACDBBLOCKREPETAG
1070
     1
1071
       42
1005
13A269
  0
LINE
  5
13A26A
  8
OBJECT
 10
6054.4472221513633
 20
-254.44722215136329
 30
0.0
 11
6062.0
 21
-261.99999999999909
 31
0.0
1001
ACDBBLOCKREPETAG
1070
     1
1071
       43
1005
13A26A
  0
LINE
  5
13A26B
  8
OBJECT
 10
5797.0000000000136
 20
-261.99999999999909
 30
0.0
 11
5790.0000000000146
 21
-261.99999999999909
 31
0.0
1001
ACDBBLOCKREPETAG
1070
     1
1071
       85
1005
13A26B
  0
LINE
  5
13A26C
  8
OBJECT
 10
5790.0000000000146
 20
-261.99999999999909
 30
0.0
 11
5790.0000000000146
 21
-137.99999999999909
 31
0.0
1001
ACDBBLOCKREPETAG
1070
     1
1071
       86
1005
13A26C
  0
LINE
  5
13A26D
  8
OBJECT
 10
5790.0000000000146
 20
-137.99999999999909
 30
0.0
 11
5797.0000000000136
 21
-137.99999999999909
 31
0.0
1001
ACDBBLOCKREPETAG
1070
     1
1071
       87
1005
13A26D
  0
LINE
  5
13A26E
  8
OBJECT
 10
5797.0000000000136
 20
-137.99999999999909
 30
0.0
 11
5797.0000000000136
 21
-261.99999999999909
 31
0.0
1001
ACDBBLOCKREPETAG
1070
     1
1071
       88
1005
13A26E
  0
LINE
  5
13A26F
  8
CENTER
 10
5775.0000000000146
 20
-199.99999999999909
 30
0.0
 11
5920.0
 21
-199.99999999999909
 31
0.0
1001
ACDBBLOCKREPETAG
1070
     1
1071
       89
1005
13A26F
  0
LINE
  5
13A270
  8
OBJECT
 10
5850.0000250358144
 20
-154.9999999999954
 30
0.0
 11
5914.0
 21
-154.99999999999909
 31
0.0
1001
ACDBBLOCKREPETAG
1070
     1
1071
       90
1005
13A270
  0
LINE
  5
13A271
  8
OBJECT
 10
5850.0000250358144
 20
-244.99999999999909
 30
0.0
 11
5914.0
 21
-244.99999999999909
 31
0.0
1001
ACDBBLOCKREPETAG
1070
     1
1071
       91
1005
13A271
  0
LINE
  5
13A272
  8
OBJECT
 10
5797.0000000000136
 20
-258.99999999999909
 30
0.0
 11
5833.0000000000146
 21
-258.99999999999909
 31
0.0
1001
ACDBBLOCKREPETAG
1070
     1
1071
       92
1005
13A272
  0
LINE
  5
13A273
  8
OBJECT
 10
5833.0000000000146
 20
-258.99999999999909
 30
0.0
 11
5833.0000000000146
 21
-140.99999999999909
 31
0.0
1001
ACDBBLOCKREPETAG
1070
     1
1071
       93
1005
13A273
  0
LINE
  5
13A274
  8
OBJECT
 10
5833.0000000000146
 20
-140.99999999999909
 30
0.0
 11
5797.0000000000136
 21
-140.99999999999909
 31
0.0
1001
ACDBBLOCKREPETAG
1070
     1
1071
       94
1005
13A274
  0
LINE
  5
13A275
  8
OBJECT
 10
5837.0000000000127
 20
-254.49999999999909
 30
0.0
 11
5850.0000000000146
 21
-254.49999999999909
 31
0.0
1001
ACDBBLOCKREPETAG
1070
     1
1071
       95
1005
13A275
  0
LINE
  5
13A276
  8
OBJECT
 10
5850.0000000000146
 20
-145.49999999999909
 30
0.0
 11
5837.0000000000127
 21
-145.49999999999909
 31
0.0
1001
ACDBBLOCKREPETAG
1070
     1
1071
       96
1005
13A276
  0
LINE
  5
13A277
  8
OBJECT
 10
5837.0000000000127
 20
-145.49999999999909
 30
0.0
 11
5837.0000000000127
 21
-254.49999999999909
 31
0.0
1001
ACDBBLOCKREPETAG
1070
     1
1071
       97
1005
13A277
  0
LINE
  5
13A278
  8
OBJECT
 10
5833.0000000000146
 20
-258.99999999999909
 30
0.0
 11
5837.0000000000127
 21
-254.49999999999909
 31
0.0
1001
ACDBBLOCKREPETAG
1070
     1
1071
       98
1005
13A278
  0
LINE
  5
13A279
  8
OBJECT
 10
5833.0000000000146
 20
-140.99999999999909
 30
0.0
 11
5837.0000000000127
 21
-145.49999999999909
 31
0.0
1001
ACDBBLOCKREPETAG
1070
     1
1071
       99
1005
13A279
  0
LINE
  5
13A27A
  8
OBJECT
 10
5917.0
 20
-261.99999999999909
 30
0.0
 11
5920.0
 21
-261.99999999999909
 31
0.0
1001
ACDBBLOCKREPETAG
1070
     1
1071
      100
1005
13A27A
  0
ARC
  5
13A27B
  8
OBJECT
 10
5917.0
 20
-258.99999999999909
 30
0.0
 40
3.0
 50
180.0
 51
270.0
1001
ACDBBLOCKREPETAG
1070
     1
1071
      101
1005
13A27B
  0
LINE
  5
13A27C
  8
OBJECT
 10
5920.0
 20
-137.99999999999909
 30
0.0
 11
5917.0
 21
-137.99999999999909
 31
0.0
1001
ACDBBLOCKREPETAG
1070
     1
1071
      102
1005
13A27C
  0
ARC
  5
13A27D
  8
OBJECT
 10
5917.0
 20
-140.99999999999909
 30
0.0
 40
3.0
 50
90.0
 51
180.0
1001
ACDBBLOCKREPETAG
1070
     1
1071
      103
1005
13A27D
  0
LINE
  5
13A27E
  8
OBJECT
 10
5914.0
 20
-140.99999999999909
 30
0.0
 11
5914.0
 21
-189.6772096796403
 31
0.0
1001
ACDBBLOCKREPETAG
1070
     1
1071
      104
1005
13A27E
  0
LINE
  5
13A27F
  8
OBJECT
 10
5914.0
 20
-210.3227903203578
 30
0.0
 11
5914.0
 21
-258.99999999999909
 31
0.0
1001
ACDBBLOCKREPETAG
1070
     1
1071
      105
1005
13A27F
  0
LINE
  5
13A280
  8
HIDDEN
 10
5842.0000000000127
 20
-244.49999999999909
 30
0.0
 11
5842.0000000000127
 21
-155.49999999999909
 31
0.0
1001
ACDBBLOCKREPETAG
1070
     1
1071
      106
1005
13A280
  0
LINE
  5
13A281
  8
OBJECT
 10
5850.0000250358144
 20
-145.50004907618759
 30
0.0
 11
5850.0000250358144
 21
-254.50004907618771
 31
0.0
1001
ACDBBLOCKREPETAG
1070
     1
1071
      108
1005
13A281
  0
ARC
  5
13A282
  8
OBJECT
 10
5870.1999999999753
 20
-199.99999999999909
 30
0.0
 40
45.000000000000547
 50
270.0
 51
90.0
1001
ACDBBLOCKREPETAG
1070
     1
1071
      109
1005
13A282
  0
LINE
  5
13A283
  8
CENTER
 10
6000.0
 20
-300.99999999999898
 30
0.0
 11
6000.0
 21
-279.99999999999909
 31
0.0
1001
ACDBBLOCKREPETAG
1070
     1
1071
        0
1005
13A283
  0
LINE
  5
13A284
  8
OBJECT
 10
6062.0
 20
-283.0
 30
0.0
 11
6062.0
 21
-279.99999999999909
 31
0.0
1001
ACDBBLOCKREPETAG
1070
     1
1071
        1
1005
13A284
  0
ARC
  5
13A285
  8
OBJECT
 10
6059.0
 20
-283.0
 30
0.0
 40
3.0
 50
270.0
 51
0.0
1001
ACDBBLOCKREPETAG
1070
     1
1071
        2
1005
13A285
  0
LINE
  5
13A286
  8
OBJECT
 10
5938.0
 20
-279.99999999999909
 30
0.0
 11
5938.0
 21
-282.99999999999818
 31
0.0
1001
ACDBBLOCKREPETAG
1070
     1
1071
        3
1005
13A286
  0
ARC
  5
13A287
  8
OBJECT
 10
5941.0
 20
-282.99999999999818
 30
0.0
 40
3.0
 50
180.0
 51
270.0
1001
ACDBBLOCKREPETAG
1070
     1
1071
        4
1005
13A287
  0
LINE
  5
13A288
  8
OBJECT
 10
5941.0
 20
-285.99999999999818
 30
0.0
 11
6059.0
 21
-286.0
 31
0.0
1001
ACDBBLOCKREPETAG
1070
     1
1071
        5
1005
13A288
  0
LINE
  5
13A289
  8
OBJECT
 10
6202.9999999999864
 20
-137.99999999999909
 30
0.0
 11
6209.9999999999864
 21
-137.99999999999909
 31
0.0
1001
ACDBBLOCKREPETAG
1070
     1
1071
       85
1005
13A289
  0
LINE
  5
13A28A
  8
OBJECT
 10
6209.9999999999864
 20
-137.99999999999909
 30
0.0
 11
6209.9999999999864
 21
-261.99999999999909
 31
0.0
1001
ACDBBLOCKREPETAG
1070
     1
1071
       86
1005
13A28A
  0
LINE
  5
13A28B
  8
OBJECT
 10
6209.9999999999864
 20
-261.99999999999909
 30
0.0
 11
6202.9999999999864
 21
-261.99999999999909
 31
0.0
1001
ACDBBLOCKREPETAG
1070
     1
1071
       87
1005
13A28B
  0
LINE
  5
13A28C
  8
OBJECT
 10
6202.9999999999864
 20
-261.99999999999909
 30
0.0
 11
6202.9999999999864
 21
-137.99999999999909
 31
0.0
1001
ACDBBLOCKREPETAG
1070
     1
1071
       88
1005
13A28C
  0
LINE
  5
13A28D
  8
CENTER
 10
6224.9999999999873
 20
-199.99999999999909
 30
0.0
 11
6080.0
 21
-199.99999999999909
 31
0.0
1001
ACDBBLOCKREPETAG
1070
     1
1071
       89
1005
13A28D
  0
LINE
  5
13A28E
  8
OBJECT
 10
6149.9999749641856
 20
-245.0000000000027
 30
0.0
 11
6086.0
 21
-244.99999999999909
 31
0.0
1001
ACDBBLOCKREPETAG
1070
     1
1071
       90
1005
13A28E
  0
LINE
  5
13A28F
  8
OBJECT
 10
6149.9999749641856
 20
-154.99999999999909
 30
0.0
 11
6086.0
 21
-154.99999999999909
 31
0.0
1001
ACDBBLOCKREPETAG
1070
     1
1071
       91
1005
13A28F
  0
LINE
  5
13A290
  8
OBJECT
 10
6202.9999999999864
 20
-140.99999999999909
 30
0.0
 11
6166.9999999999873
 21
-140.99999999999909
 31
0.0
1001
ACDBBLOCKREPETAG
1070
     1
1071
       92
1005
13A290
  0
LINE
  5
13A291
  8
OBJECT
 10
6166.9999999999873
 20
-140.99999999999909
 30
0.0
 11
6166.9999999999873
 21
-258.99999999999909
 31
0.0
1001
ACDBBLOCKREPETAG
1070
     1
1071
       93
1005
13A291
  0
LINE
  5
13A292
  8
OBJECT
 10
6166.9999999999873
 20
-258.99999999999909
 30
0.0
 11
6202.9999999999864
 21
-258.99999999999909
 31
0.0
1001
ACDBBLOCKREPETAG
1070
     1
1071
       94
1005
13A292
  0
LINE
  5
13A293
  8
OBJECT
 10
6162.9999999999864
 20
-145.49999999999909
 30
0.0
 11
6149.9999999999873
 21
-145.49999999999909
 31
0.0
1001
ACDBBLOCKREPETAG
1070
     1
1071
       95
1005
13A293
  0
LINE
  5
13A294
  8
OBJECT
 10
6149.9999999999873
 20
-254.49999999999909
 30
0.0
 11
6162.9999999999864
 21
-254.49999999999909
 31
0.0
1001
ACDBBLOCKREPETAG
1070
     1
1071
       96
1005
13A294
  0
LINE
  5
13A295
  8
OBJECT
 10
6162.9999999999864
 20
-254.49999999999909
 30
0.0
 11
6162.9999999999864
 21
-145.49999999999909
 31
0.0
1001
ACDBBLOCKREPETAG
1070
     1
1071
       97
1005
13A295
  0
LINE
  5
13A296
  8
OBJECT
 10
6166.9999999999873
 20
-140.99999999999909
 30
0.0
 11
6162.9999999999864
 21
-145.49999999999909
 31
0.0
1001
ACDBBLOCKREPETAG
1070
     1
1071
       98
1005
13A296
  0
LINE
  5
13A297
  8
OBJECT
 10
6166.9999999999873
 20
-258.99999999999909
 30
0.0
 11
6162.9999999999864
 21
-254.49999999999909
 31
0.0
1001
ACDBBLOCKREPETAG
1070
     1
1071
       99
1005
13A297
  0
LINE
  5
13A298
  8
OBJECT
 10
6083.0
 20
-137.99999999999909
 30
0.0
 11
6080.0
 21
-137.99999999999909
 31
0.0
1001
ACDBBLOCKREPETAG
1070
     1
1071
      100
1005
13A298
  0
ARC
  5
13A299
  8
OBJECT
 10
6083.0
 20
-140.99999999999909
 30
0.0
 40
3.0
 50
0.0
 51
90.0
1001
ACDBBLOCKREPETAG
1070
     1
1071
      101
1005
13A299
  0
LINE
  5
13A29A
  8
OBJECT
 10
6080.0
 20
-261.99999999999909
 30
0.0
 11
6083.0
 21
-261.99999999999909
 31
0.0
1001
ACDBBLOCKREPETAG
1070
     1
1071
      102
1005
13A29A
  0
ARC
  5
13A29B
  8
OBJECT
 10
6083.0
 20
-258.99999999999909
 30
0.0
 40
3.0
 50
270.0
 51
0.0
1001
ACDBBLOCKREPETAG
1070
     1
1071
      103
1005
13A29B
  0
LINE
  5
13A29C
  8
OBJECT
 10
6086.0
 20
-258.99999999999909
 30
0.0
 11
6086.0
 21
-210.3227903203578
 31
0.0
1001
ACDBBLOCKREPETAG
1070
     1
1071
      104
1005
13A29C
  0
LINE
  5
13A29D
  8
OBJECT
 10
6086.0
 20
-189.6772096796403
 30
0.0
 11
6086.0
 21
-140.99999999999909
 31
0.0
1001
ACDBBLOCKREPETAG
1070
     1
1071
      105
1005
13A29D
  0
LINE
  5
13A29E
  8
HIDDEN
 10
6157.9999999999873
 20
-155.49999999999909
 30
0.0
 11
6157.9999999999873
 21
-244.49999999999909
 31
0.0
1001
ACDBBLOCKREPETAG
1070
     1
1071
      106
1005
13A29E
  0
LINE
  5
13A29F
  8
OBJECT
 10
6149.9999749641856
 20
-254.4999509238105
 30
0.0
 11
6149.9999749641856
 21
-145.4999509238105
 31
0.0
1001
ACDBBLOCKREPETAG
1070
     1
1071
      108
1005
13A29F
  0
ARC
  5
13A2A0
  8
OBJECT
 10
6129.8000000000247
 20
-199.99999999999909
 30
0.0
 40
45.000000000000547
 50
90.0
 51
270.0
1001
ACDBBLOCKREPETAG
1070
     1
1071
      109
1005
13A2A0
  0
LINE
  5
13A2A1
  8
OBJECT
 10
5797.0000000000136
 20
-583.0
 30
0.0
 11
5790.0000000000146
 21
-583.0
 31
0.0
1001
ACDBBLOCKREPETAG
1070
     1
1071
       83
1005
13A2A1
  0
LINE
  5
13A2A2
  8
OBJECT
 10
5790.0000000000146
 20
-583.0
 30
0.0
 11
5790.0000000000146
 21
-707.0
 31
0.0
1001
ACDBBLOCKREPETAG
1070
     1
1071
       84
1005
13A2A2
  0
LINE
  5
13A2A3
  8
OBJECT
 10
5914.0000000000146
 20
-653.3502637757274
 30
0.0
 11
5914.0000000000146
 21
-755.00000000000102
 31
0.0
1001
ACDBBLOCKREPETAG
1070
     1
1071
       85
1005
13A2A3
  0
LINE
  5
13A2A4
  8
OBJECT
 10
5790.0000000000146
 20
-707.0
 30
0.0
 11
5797.0000000000136
 21
-707.0
 31
0.0
1001
ACDBBLOCKREPETAG
1070
     1
1071
       86
1005
13A2A4
  0
LINE
  5
13A2A5
  8
OBJECT
 10
5797.0000000000136
 20
-707.0
 30
0.0
 11
5797.0000000000136
 21
-583.0
 31
0.0
1001
ACDBBLOCKREPETAG
1070
     1
1071
       87
1005
13A2A5
  0
LINE
  5
13A2A6
  8
CENTER
 10
5865.0000000000146
 20
-645.0000000000008
 30
0.0
 11
5775.0000000000146
 21
-645.0
 31
0.0
1001
ACDBBLOCKREPETAG
1070
     1
1071
       88
1005
13A2A6
  0
LINE
  5
13A2A7
  8
OBJECT
 10
5920.0000000000182
 20
-758.0
 30
0.0
 11
5917.0000000000136
 21
-758.0000000000008
 31
0.0
1001
ACDBBLOCKREPETAG
1070
     1
1071
       89
1005
13A2A7
  0
ARC
  5
13A2A8
  8
OBJECT
 10
5917.0000000000136
 20
-755.00000000000102
 30
0.0
 40
3.0
 50
180.0
 51
270.0
1001
ACDBBLOCKREPETAG
1070
     1
1071
       90
1005
13A2A8
  0
LINE
  5
13A2A9
  8
OBJECT
 10
5797.0000000000136
 20
-586.0
 30
0.0
 11
5833.0000000000146
 21
-586.0000000000008
 31
0.0
1001
ACDBBLOCKREPETAG
1070
     1
1071
       91
1005
13A2A9
  0
LINE
  5
13A2AA
  8
OBJECT
 10
5833.0000000000146
 20
-586.0000000000008
 30
0.0
 11
5833.0000000000146
 21
-704.0000000000008
 31
0.0
1001
ACDBBLOCKREPETAG
1070
     1
1071
       92
1005
13A2AA
  0
LINE
  5
13A2AB
  8
OBJECT
 10
5837.0000000000127
 20
-590.5000000000008
 30
0.0
 11
5837.0000000000127
 21
-699.5000000000008
 31
0.0
1001
ACDBBLOCKREPETAG
1070
     1
1071
       93
1005
13A2AB
  0
LINE
  5
13A2AC
  8
OBJECT
 10
5837.0000000000127
 20
-590.5000000000008
 30
0.0
 11
5850.0000000000146
 21
-590.5000000000008
 31
0.0
1001
ACDBBLOCKREPETAG
1070
     1
1071
       94
1005
13A2AC
  0
LINE
  5
13A2AD
  8
OBJECT
 10
5833.0000000000146
 20
-704.0000000000008
 30
0.0
 11
5797.0000000000136
 21
-704.0
 31
0.0
1001
ACDBBLOCKREPETAG
1070
     1
1071
       95
1005
13A2AD
  0
LINE
  5
13A2AE
  8
OBJECT
 10
5833.0000000000146
 20
-586.0000000000008
 30
0.0
 11
5837.0000000000127
 21
-590.5000000000008
 31
0.0
1001
ACDBBLOCKREPETAG
1070
     1
1071
       96
1005
13A2AE
  0
LINE
  5
13A2AF
  8
OBJECT
 10
5850.0000000000146
 20
-590.5000000000008
 30
0.0
 11
5850.0000000000146
 21
-675.74491827928784
 31
0.0
1001
ACDBBLOCKREPETAG
1070
     1
1071
       97
1005
13A2AF
  0
ARC
  5
13A2B0
  8
OBJECT
 10
5847.2000000000153
 20
-685.0000000000008
 30
0.0
 40
85.0
 50
36.869897645906562
 51
88.112268108168848
1001
ACDBBLOCKREPETAG
1070
     1
1071
       98
1005
13A2B0
  0
LINE
  5
13A2B1
  8
HIDDEN
 10
5842.0000000000127
 20
-600.50000000000068
 30
0.0
 11
5842.0000000000127
 21
-689.50000000000091
 31
0.0
1001
ACDBBLOCKREPETAG
1070
     1
1071
      100
1005
13A2B1
  0
LINE
  5
13A2B2
  8
OBJECT
 10
5914.0000000000146
 20
-751.07945073181781
 30
0.0
 11
5843.3686800789692
 21
-699.5000000000008
 31
0.0
1001
ACDBBLOCKREPETAG
1070
     1
1071
      101
1005
13A2B2
  0
LINE
  5
13A2B3
  8
OBJECT
 10
5920.0000000000182
 20
-634.0
 30
0.0
 11
5915.2000000000162
 21
-634.0
 31
0.0
1001
ACDBBLOCKREPETAG
1070
     1
1071
      102
1005
13A2B3
  0
LINE
  5
13A2B4
  8
OBJECT
 10
5914.0000000000146
 20
-653.35026377573013
 30
0.0
 11
5915.2000000000162
 21
-634.0
 31
0.0
1001
ACDBBLOCKREPETAG
1070
     1
1071
      103
1005
13A2B4
  0
LINE
  5
13A2B5
  8
OBJECT
 10
5837.0000000000127
 20
-699.5000000000008
 30
0.0
 11
5843.3686800789692
 21
-699.5000000000008
 31
0.0
1001
ACDBBLOCKREPETAG
1070
     1
1071
      104
1005
13A2B5
  0
LINE
  5
13A2B6
  8
OBJECT
 10
5833.0000000000146
 20
-704.0000000000008
 30
0.0
 11
5837.0000000000127
 21
-699.5000000000008
 31
0.0
1001
ACDBBLOCKREPETAG
1070
     1
1071
      105
1005
13A2B6
  0
CIRCLE
  5
13A2B7
  8
OBJECT
 10
6000.0
 20
-696.0
 30
0.0
 40
62.0
1001
ACDBBLOCKREPETAG
1070
     1
1071
        0
1005
13A2B7
  0
LINE
  5
13A2B8
  8
OBJECT
 10
6202.9999999999864
 20
-583.0000000000008
 30
0.0
 11
6209.9999999999864
 21
-583.0000000000008
 31
0.0
1001
ACDBBLOCKREPETAG
1070
     1
1071
       83
1005
13A2B8
  0
LINE
  5
13A2B9
  8
OBJECT
 10
6209.9999999999864
 20
-583.0000000000008
 30
0.0
 11
6209.9999999999864
 21
-707.00000000000091
 31
0.0
1001
ACDBBLOCKREPETAG
1070
     1
1071
       84
1005
13A2B9
  0
LINE
  5
13A2BA
  8
OBJECT
 10
6085.9999999999864
 20
-653.3502637757274
 30
0.0
 11
6085.9999999999864
 21
-755.00000000000102
 31
0.0
1001
ACDBBLOCKREPETAG
1070
     1
1071
       85
1005
13A2BA
  0
LINE
  5
13A2BB
  8
OBJECT
 10
6209.9999999999864
 20
-707.00000000000091
 30
0.0
 11
6202.9999999999864
 21
-707.00000000000091
 31
0.0
1001
ACDBBLOCKREPETAG
1070
     1
1071
       86
1005
13A2BB
  0
LINE
  5
13A2BC
  8
OBJECT
 10
6202.9999999999864
 20
-707.00000000000091
 30
0.0
 11
6202.9999999999864
 21
-583.0000000000008
 31
0.0
1001
ACDBBLOCKREPETAG
1070
     1
1071
       87
1005
13A2BC
  0
LINE
  5
13A2BD
  8
CENTER
 10
6134.9999999999873
 20
-645.0000000000008
 30
0.0
 11
6224.9999999999873
 21
-645.0000000000008
 31
0.0
1001
ACDBBLOCKREPETAG
1070
     1
1071
       88
1005
13A2BD
  0
LINE
  5
13A2BE
  8
OBJECT
 10
6079.9999999999818
 20
-758.0
 30
0.0
 11
6082.9999999999864
 21
-758.0000000000008
 31
0.0
1001
ACDBBLOCKREPETAG
1070
     1
1071
       89
1005
13A2BE
  0
ARC
  5
13A2BF
  8
OBJECT
 10
6082.9999999999864
 20
-755.00000000000102
 30
0.0
 40
3.0
 50
270.0
 51
0.0
1001
ACDBBLOCKREPETAG
1070
     1
1071
       90
1005
13A2BF
  0
LINE
  5
13A2C0
  8
OBJECT
 10
6202.9999999999864
 20
-586.0000000000008
 30
0.0
 11
6166.9999999999873
 21
-586.0000000000008
 31
0.0
1001
ACDBBLOCKREPETAG
1070
     1
1071
       91
1005
13A2C0
  0
LINE
  5
13A2C1
  8
OBJECT
 10
6166.9999999999873
 20
-586.0000000000008
 30
0.0
 11
6166.9999999999873
 21
-704.0000000000008
 31
0.0
1001
ACDBBLOCKREPETAG
1070
     1
1071
       92
1005
13A2C1
  0
LINE
  5
13A2C2
  8
OBJECT
 10
6162.9999999999864
 20
-590.5000000000008
 30
0.0
 11
6162.9999999999864
 21
-699.5000000000008
 31
0.0
1001
ACDBBLOCKREPETAG
1070
     1
1071
       93
1005
13A2C2
  0
LINE
  5
13A2C3
  8
OBJECT
 10
6162.9999999999864
 20
-590.5000000000008
 30
0.0
 11
6149.9999999999873
 21
-590.5000000000008
 31
0.0
1001
ACDBBLOCKREPETAG
1070
     1
1071
       94
1005
13A2C3
  0
LINE
  5
13A2C4
  8
OBJECT
 10
6166.9999999999873
 20
-704.0000000000008
 30
0.0
 11
6202.9999999999864
 21
-704.0000000000008
 31
0.0
1001
ACDBBLOCKREPETAG
1070
     1
1071
       95
1005
13A2C4
  0
LINE
  5
13A2C5
  8
OBJECT
 10
6166.9999999999873
 20
-586.0000000000008
 30
0.0
 11
6162.9999999999864
 21
-590.5000000000008
 31
0.0
1001
ACDBBLOCKREPETAG
1070
     1
1071
       96
1005
13A2C5
  0
LINE
  5
13A2C6
  8
OBJECT
 10
6149.9999999999873
 20
-590.5000000000008
 30
0.0
 11
6149.9999999999873
 21
-675.74491827928784
 31
0.0
1001
ACDBBLOCKREPETAG
1070
     1
1071
       97
1005
13A2C6
  0
ARC
  5
13A2C7
  8
OBJECT
 10
6152.7999999999838
 20
-685.0000000000008
 30
0.0
 40
85.0
 50
91.887731891831123
 51
143.1301023540934
1001
ACDBBLOCKREPETAG
1070
     1
1071
       98
1005
13A2C7
  0
LINE
  5
13A2C8
  8
HIDDEN
 10
6157.9999999999873
 20
-600.50000000000068
 30
0.0
 11
6157.9999999999873
 21
-689.50000000000091
 31
0.0
1001
ACDBBLOCKREPETAG
1070
     1
1071
      100
1005
13A2C8
  0
LINE
  5
13A2C9
  8
OBJECT
 10
6085.9999999999864
 20
-751.07945073181781
 30
0.0
 11
6156.6313199210299
 21
-699.5000000000008
 31
0.0
1001
ACDBBLOCKREPETAG
1070
     1
1071
      101
1005
13A2C9
  0
LINE
  5
13A2CA
  8
OBJECT
 10
6079.9999999999818
 20
-634.0
 30
0.0
 11
6084.7999999999856
 21
-634.0
 31
0.0
1001
ACDBBLOCKREPETAG
1070
     1
1071
      102
1005
13A2CA
  0
LINE
  5
13A2CB
  8
OBJECT
 10
6085.9999999999864
 20
-653.35026377573013
 30
0.0
 11
6084.7999999999856
 21
-634.0
 31
0.0
1001
ACDBBLOCKREPETAG
1070
     1
1071
      103
1005
13A2CB
  0
LINE
  5
13A2CC
  8
OBJECT
 10
6162.9999999999864
 20
-699.5000000000008
 30
0.0
 11
6156.6313199210299
 21
-699.5000000000008
 31
0.0
1001
ACDBBLOCKREPETAG
1070
     1
1071
      104
1005
13A2CC
  0
LINE
  5
13A2CD
  8
OBJECT
 10
6166.9999999999873
 20
-704.0000000000008
 30
0.0
 11
6162.9999999999864
 21
-699.5000000000008
 31
0.0
1001
ACDBBLOCKREPETAG
1070
     1
1071
      105
1005
13A2CD
  0
LINE
  5
13A2CE
  8
OBJECT
 10
5923.0
 20
-571.0
 30
0.0
 11
5923.0
 21
-550.0
 31
0.0
1001
ACDBBLOCKREPETAG
1070
     1
1071
       38
1005
13A2CE
  0
LINE
  5
13A2CF
  8
OBJECT
 10
5923.0
 20
-550.0
 30
0.0
 11
6077.0
 21
-550.0
 31
0.0
1001
ACDBBLOCKREPETAG
1070
     1
1071
       39
1005
13A2CF
  0
LINE
  5
13A2D0
  8
HIDDEN
 10
5943.0
 20
-620.0
 30
0.0
 11
6057.0
 21
-620.0
 31
0.0
1001
ACDBBLOCKREPETAG
1070
     1
1071
       40
1005
13A2D0
  0
LINE
  5
13A2D1
  8
OBJECT
 10
6077.0
 20
-550.0
 30
0.0
 11
6077.0
 21
-571.0
 31
0.0
1001
ACDBBLOCKREPETAG
1070
     1
1071
       41
1005
13A2D1
  0
LINE
  5
13A2D2
  8
OBJECT
 10
6077.0
 20
-571.0
 30
0.0
 11
5923.0
 21
-571.0
 31
0.0
1001
ACDBBLOCKREPETAG
1070
     1
1071
       42
1005
13A2D2
  0
LINE
  5
13A2D3
  8
CENTER
 10
6000.0
 20
-535.0
 30
0.0
 11
6000.0
 21
-890.0
 31
0.0
1001
ACDBBLOCKREPETAG
1070
     1
1071
       43
1005
13A2D3
  0
LINE
  5
13A2D4
  8
OBJECT
 10
5928.0
 20
-571.0
 30
0.0
 11
5928.0
 21
-634.0
 31
0.0
1001
ACDBBLOCKREPETAG
1070
     1
1071
       44
1005
13A2D4
  0
LINE
  5
13A2D5
  8
OBJECT
 10
6072.0
 20
-634.0
 30
0.0
 11
6072.0
 21
-571.0
 31
0.0
1001
ACDBBLOCKREPETAG
1070
     1
1071
       45
1005
13A2D5
  0
LINE
  5
13A2D6
  8
OBJECT
 10
5920.0
 20
-878.0
 30
0.0
 11
6080.0
 21
-878.0
 31
0.0
1001
ACDBBLOCKREPETAG
1070
     1
1071
       46
1005
13A2D6
  0
LINE
  5
13A2D7
  8
OBJECT
 10
6080.0
 20
-634.0
 30
0.0
 11
5920.0
 21
-634.0
 31
0.0
1001
ACDBBLOCKREPETAG
1070
     1
1071
       47
1005
13A2D7
  0
LINE
  5
13A2D8
  8
OBJECT
 10
5920.0
 20
-878.0
 30
0.0
 11
5920.0
 21
-890.0
 31
0.0
1001
ACDBBLOCKREPETAG
1070
     1
1071
       48
1005
13A2D8
  0
LINE
  5
13A2D9
  8
OBJECT
 10
5920.0
 20
-890.0
 30
0.0
 11
6080.0
 21
-890.0
 31
0.0
1001
ACDBBLOCKREPETAG
1070
     1
1071
       49
1005
13A2D9
  0
LINE
  5
13A2DA
  8
OBJECT
 10
6080.0
 20
-890.0
 30
0.0
 11
6080.0
 21
-878.0
 31
0.0
1001
ACDBBLOCKREPETAG
1070
     1
1071
       50
1005
13A2DA
  0
LINE
  5
13A2DB
  8
OBJECT
 10
6074.9999999998618
 20
-757.99999999985096
 30
0.0
 11
6075.0
 21
-878.0
 31
0.0
1001
ACDBBLOCKREPETAG
1070
     1
1071
       54
1005
13A2DB
  0
LINE
  5
13A2DC
  8
OBJECT
 10
6074.9999908029858
 20
-757.99998602702181
 30
0.0
 11
6080.0
 21
-757.99998602702181
 31
0.0
1001
ACDBBLOCKREPETAG
1070
     1
1071
       55
1005
13A2DC
  0
LINE
  5
13A2DD
  8
OBJECT
 10
5925.0000000001392
 20
-757.99999999985096
 30
0.0
 11
5925.0
 21
-878.0
 31
0.0
1001
ACDBBLOCKREPETAG
1070
     1
1071
       56
1005
13A2DD
  0
LINE
  5
13A2DE
  8
OBJECT
 10
5925.0000091970142
 20
-757.99998602702181
 30
0.0
 11
5920.0
 21
-757.99998602702181
 31
0.0
1001
ACDBBLOCKREPETAG
1070
     1
1071
       57
1005
13A2DE
  0
ARC
  5
13A2DF
  8
OBJECT
 10
6200.6872746716735
 20
-749.40809941010752
 30
0.0
 40
170.6350503965856
 50
137.44134459184301
 51
149.91949581337221
1001
ACDBBLOCKREPETAG
1070
     1
1071
       58
1005
13A2DF
  0
ARC
  5
13A2E0
  8
OBJECT
 10
6200.6872746716735
 20
-642.59190058989225
 30
0.0
 40
170.6350503965856
 50
210.08050418662771
 51
222.55865540815699
1001
ACDBBLOCKREPETAG
1070
     1
1071
       59
1005
13A2E0
  0
ARC
  5
13A2E1
  8
OBJECT
 10
5799.3127253283274
 20
-749.40809941010752
 30
0.0
 40
170.6350503965856
 50
30.080504186787142
 51
42.558655408382641
1001
ACDBBLOCKREPETAG
1070
     1
1071
       60
1005
13A2E1
  0
ARC
  5
13A2E2
  8
OBJECT
 10
5799.3127253283274
 20
-642.59190058989225
 30
0.0
 40
170.6350503965856
 50
317.44134459161722
 51
329.9194958132129
1001
ACDBBLOCKREPETAG
1070
     1
1071
       61
1005
13A2E2
  0
POINT
  5
13A2E3
  8
DOTS
 10
6000.0
 20
-755.0
 30
0.0
1001
ACDBBLOCKREPETAG
1070
     1
1071
      185
1005
13A2E3
  0
LINE
  5
13A2E4
  8
OBJECT
 10
3969.4199755553018
 20
-243.89888500818171
 30
0.0
 11
3979.8564918232369
 21
-222.48688253356801
 31
0.0
1001
ACDBBLOCKREPETAG
1070
     1
1071
      305
1005
13A2E4
  0
LINE
  5
13A2E5
  8
OBJECT
 10
3965.2972169006089
 20
-240.71813901882729
 30
0.0
 11
3973.9071022665089
 21
-223.05373004430751
 31
0.0
1001
ACDBBLOCKREPETAG
1070
     1
1071
      306
1005
13A2E5
  0
LINE
  5
13A2E6
  8
OBJECT
 10
4024.102933093302
 20
-243.80694712371681
 30
0.0
 11
4020.6596569999951
 21
-232.55462199999889
 31
0.0
1001
ACDBBLOCKREPETAG
1070
     1
1071
      307
1005
13A2E6
  0
ARC
  5
13A2E7
  8
OBJECT
 10
3976.579695307315
 20
-207.1289369828437
 30
0.0
 40
60.031113246032611
 50
314.07020130418567
 51
322.33936106091278
1001
ACDBBLOCKREPETAG
1070
     1
1071
      308
1005
13A2E7
  0
LINE
  5
13A2E8
  8
OBJECT
 10
3986.7927499013749
 20
-218.22553374208019
 30
0.0
 11
4020.6596569999951
 21
-232.5546219999969
 31
0.0
1001
ACDBBLOCKREPETAG
1070
     1
1071
      309
1005
13A2E8
  0
ARC
  5
13A2E9
  8
OBJECT
 10
3982.896169761902
 20
-227.4351299990567
 30
0.0
 40
10.0
 50
67.066778292911366
 51
154.0147343702935
1001
ACDBBLOCKREPETAG
1070
     1
1071
      310
1005
13A2E9
  0
ARC
  5
13A2EA
  8
OBJECT
 10
3986.1488390381278
 20
-225.55386256729159
 30
0.0
 40
7.0
 50
67.066778292911366
 51
154.01473377497121
1001
ACDBBLOCKREPETAG
1070
     1
1071
      311
1005
13A2EA
  0
CIRCLE
  5
13A2EB
  8
OBJECT
 10
4000.0
 20
-199.99999999999909
 30
0.0
 40
53.5
1001
ACDBBLOCKREPETAG
1070
     1
1071
      340
1005
13A2EB
  0
POINT
  5
13A2EC
  8
DOTS
 10
4000.0
 20
-199.99999999999909
 30
0.0
 50
270.0
1001
ACDBBLOCKREPETAG
1070
     1
1071
      153
1005
13A2EC
  0
ARC
  5
13A2ED
  8
OBJECT
 10
4000.0
 20
-199.99999999999909
 30
0.0
 40
50.0
 50
298.81994300000417
 51
228.52376955967449
1001
ACDBBLOCKREPETAG
1070
     1
1071
       48
1005
13A2ED
  0
LINE
  5
13A2EE
  8
CENTER
 10
4080.0
 20
-199.99999999999909
 30
0.0
 11
3920.0
 21
-199.99999999999909
 31
0.0
1001
ACDBBLOCKREPETAG
1070
     1
1071
       49
1005
13A2EE
  0
LINE
  5
13A2EF
  8
CENTER
 10
4000.0
 20
-279.99999999999909
 30
0.0
 11
4000.0
 21
-104.9999999999991
 31
0.0
1001
ACDBBLOCKREPETAG
1070
     1
1071
       50
1005
13A2EF
  0
CIRCLE
  5
13A2F0
  8
OBJECT
 10
4000.0
 20
-199.99999999999909
 30
0.0
 40
70.0
1001
ACDBBLOCKREPETAG
1070
     1
1071
       51
1005
13A2F0
  0
CIRCLE
  5
13A2F1
  8
OBJECT
 10
4000.0
 20
-199.99999999999909
 30
0.0
 40
77.0
1001
ACDBBLOCKREPETAG
1070
     1
1071
       52
1005
13A2F1
  0
ARC
  5
13A2F2
  8
OBJECT
 10
4000.0
 20
-199.99999999999909
 30
0.0
 40
80.0
 50
50.805032573864182
 51
129.1949674261358
1001
ACDBBLOCKREPETAG
1070
     1
1071
       53
1005
13A2F2
  0
LINE
  5
13A2F3
  8
OBJECT
 10
4045.661800227324
 20
-137.99999999999909
 30
0.0
 11
4080.0
 21
-137.99999999999909
 31
0.0
1001
ACDBBLOCKREPETAG
1070
     1
1071
       54
1005
13A2F3
  0
LINE
  5
13A2F4
  8
OBJECT
 10
4062.0
 20
-261.99999999999909
 30
0.0
 11
4080.0
 21
-261.99999999999909
 31
0.0
1001
ACDBBLOCKREPETAG
1070
     1
1071
       55
1005
13A2F4
  0
LINE
  5
13A2F5
  8
OBJECT
 10
4062.0
 20
-261.99999999999909
 30
0.0
 11
4062.0
 21
-279.99999999999909
 31
0.0
1001
ACDBBLOCKREPETAG
1070
     1
1071
       57
1005
13A2F5
  0
LINE
  5
13A2F6
  8
OBJECT
 10
3938.0
 20
-261.99999999999909
 30
0.0
 11
3938.0
 21
-279.99999999999909
 31
0.0
1001
ACDBBLOCKREPETAG
1070
     1
1071
       58
1005
13A2F6
  0
LINE
  5
13A2F7
  8
OBJECT
 10
3938.0
 20
-261.99999999999909
 30
0.0
 11
3920.0
 21
-261.99999999999909
 31
0.0
1001
ACDBBLOCKREPETAG
1070
     1
1071
       60
1005
13A2F7
  0
LINE
  5
13A2F8
  8
OBJECT
 10
3954.338199772676
 20
-137.99999999999909
 30
0.0
 11
3920.0
 21
-137.99999999999909
 31
0.0
1001
ACDBBLOCKREPETAG
1070
     1
1071
       61
1005
13A2F8
  0
LINE
  5
13A2F9
  8
OBJECT
 10
3945.5527778486362
 20
-254.44722215136329
 30
0.0
 11
3938.0
 21
-261.99999999999909
 31
0.0
1001
ACDBBLOCKREPETAG
1070
     1
1071
       42
1005
13A2F9
  0
LINE
  5
13A2FA
  8
OBJECT
 10
4054.4472221513638
 20
-254.44722215136329
 30
0.0
 11
4062.0
 21
-261.99999999999909
 31
0.0
1001
ACDBBLOCKREPETAG
1070
     1
1071
       43
1005
13A2FA
  0
LINE
  5
13A2FB
  8
OBJECT
 10
3797.0000000000159
 20
-261.99999999999909
 30
0.0
 11
3790.0000000000159
 21
-261.99999999999909
 31
0.0
1001
ACDBBLOCKREPETAG
1070
     1
1071
       85
1005
13A2FB
  0
LINE
  5
13A2FC
  8
OBJECT
 10
3790.0000000000159
 20
-261.99999999999909
 30
0.0
 11
3790.0000000000159
 21
-137.99999999999909
 31
0.0
1001
ACDBBLOCKREPETAG
1070
     1
1071
       86
1005
13A2FC
  0
LINE
  5
13A2FD
  8
OBJECT
 10
3790.0000000000159
 20
-137.99999999999909
 30
0.0
 11
3797.0000000000159
 21
-137.99999999999909
 31
0.0
1001
ACDBBLOCKREPETAG
1070
     1
1071
       87
1005
13A2FD
  0
LINE
  5
13A2FE
  8
OBJECT
 10
3797.0000000000159
 20
-137.99999999999909
 30
0.0
 11
3797.0000000000159
 21
-261.99999999999909
 31
0.0
1001
ACDBBLOCKREPETAG
1070
     1
1071
       88
1005
13A2FE
  0
LINE
  5
13A2FF
  8
CENTER
 10
3775.0000000000159
 20
-199.99999999999909
 30
0.0
 11
3920.0
 21
-199.99999999999909
 31
0.0
1001
ACDBBLOCKREPETAG
1070
     1
1071
       89
1005
13A2FF
  0
LINE
  5
13A300
  8
OBJECT
 10
3850.000025035813
 20
-154.9999999999954
 30
0.0
 11
3914.0
 21
-154.99999999999909
 31
0.0
1001
ACDBBLOCKREPETAG
1070
     1
1071
       90
1005
13A300
  0
LINE
  5
13A301
  8
OBJECT
 10
3850.000025035813
 20
-244.99999999999909
 30
0.0
 11
3914.0
 21
-244.99999999999909
 31
0.0
1001
ACDBBLOCKREPETAG
1070
     1
1071
       91
1005
13A301
  0
LINE
  5
13A302
  8
OBJECT
 10
3797.0000000000159
 20
-258.99999999999909
 30
0.0
 11
3833.0000000000159
 21
-258.99999999999909
 31
0.0
1001
ACDBBLOCKREPETAG
1070
     1
1071
       92
1005
13A302
  0
LINE
  5
13A303
  8
OBJECT
 10
3833.0000000000159
 20
-258.99999999999909
 30
0.0
 11
3833.0000000000159
 21
-140.99999999999909
 31
0.0
1001
ACDBBLOCKREPETAG
1070
     1
1071
       93
1005
13A303
  0
LINE
  5
13A304
  8
OBJECT
 10
3833.0000000000159
 20
-140.99999999999909
 30
0.0
 11
3797.0000000000159
 21
-140.99999999999909
 31
0.0
1001
ACDBBLOCKREPETAG
1070
     1
1071
       94
1005
13A304
  0
LINE
  5
13A305
  8
OBJECT
 10
3837.0000000000159
 20
-254.49999999999909
 30
0.0
 11
3850.000000000015
 21
-254.49999999999909
 31
0.0
1001
ACDBBLOCKREPETAG
1070
     1
1071
       95
1005
13A305
  0
LINE
  5
13A306
  8
OBJECT
 10
3850.000000000015
 20
-145.49999999999909
 30
0.0
 11
3837.0000000000159
 21
-145.49999999999909
 31
0.0
1001
ACDBBLOCKREPETAG
1070
     1
1071
       96
1005
13A306
  0
LINE
  5
13A307
  8
OBJECT
 10
3837.0000000000159
 20
-145.49999999999909
 30
0.0
 11
3837.0000000000159
 21
-254.49999999999909
 31
0.0
1001
ACDBBLOCKREPETAG
1070
     1
1071
       97
1005
13A307
  0
LINE
  5
13A308
  8
OBJECT
 10
3833.0000000000159
 20
-258.99999999999909
 30
0.0
 11
3837.0000000000159
 21
-254.49999999999909
 31
0.0
1001
ACDBBLOCKREPETAG
1070
     1
1071
       98
1005
13A308
  0
LINE
  5
13A309
  8
OBJECT
 10
3833.0000000000159
 20
-140.99999999999909
 30
0.0
 11
3837.0000000000159
 21
-145.49999999999909
 31
0.0
1001
ACDBBLOCKREPETAG
1070
     1
1071
       99
1005
13A309
  0
LINE
  5
13A30A
  8
OBJECT
 10
3917.0
 20
-261.99999999999909
 30
0.0
 11
3920.0
 21
-261.99999999999909
 31
0.0
1001
ACDBBLOCKREPETAG
1070
     1
1071
      100
1005
13A30A
  0
ARC
  5
13A30B
  8
OBJECT
 10
3917.0
 20
-258.99999999999909
 30
0.0
 40
3.0
 50
180.0
 51
270.0
1001
ACDBBLOCKREPETAG
1070
     1
1071
      101
1005
13A30B
  0
LINE
  5
13A30C
  8
OBJECT
 10
3920.0
 20
-137.99999999999909
 30
0.0
 11
3917.0
 21
-137.99999999999909
 31
0.0
1001
ACDBBLOCKREPETAG
1070
     1
1071
      102
1005
13A30C
  0
ARC
  5
13A30D
  8
OBJECT
 10
3917.0
 20
-140.99999999999909
 30
0.0
 40
3.0
 50
90.0
 51
180.0
1001
ACDBBLOCKREPETAG
1070
     1
1071
      103
1005
13A30D
  0
LINE
  5
13A30E
  8
OBJECT
 10
3914.0
 20
-140.99999999999909
 30
0.0
 11
3914.0
 21
-189.6772096796403
 31
0.0
1001
ACDBBLOCKREPETAG
1070
     1
1071
      104
1005
13A30E
  0
LINE
  5
13A30F
  8
OBJECT
 10
3914.0
 20
-210.3227903203578
 30
0.0
 11
3914.0
 21
-258.99999999999909
 31
0.0
1001
ACDBBLOCKREPETAG
1070
     1
1071
      105
1005
13A30F
  0
LINE
  5
13A310
  8
HIDDEN
 10
3842.0000000000159
 20
-244.49999999999909
 30
0.0
 11
3842.0000000000159
 21
-155.49999999999909
 31
0.0
1001
ACDBBLOCKREPETAG
1070
     1
1071
      106
1005
13A310
  0
LINE
  5
13A311
  8
OBJECT
 10
3850.000025035813
 20
-145.50004907618759
 30
0.0
 11
3850.000025035813
 21
-254.50004907618771
 31
0.0
1001
ACDBBLOCKREPETAG
1070
     1
1071
      108
1005
13A311
  0
ARC
  5
13A312
  8
OBJECT
 10
3870.1999999999771
 20
-199.99999999999909
 30
0.0
 40
45.000000000000547
 50
270.0
 51
90.0
1001
ACDBBLOCKREPETAG
1070
     1
1071
      109
1005
13A312
  0
LINE
  5
13A313
  8
CENTER
 10
4000.0
 20
-300.99999999999898
 30
0.0
 11
4000.0
 21
-279.99999999999909
 31
0.0
1001
ACDBBLOCKREPETAG
1070
     1
1071
        0
1005
13A313
  0
LINE
  5
13A314
  8
OBJECT
 10
4062.0
 20
-283.0
 30
0.0
 11
4062.0
 21
-279.99999999999909
 31
0.0
1001
ACDBBLOCKREPETAG
1070
     1
1071
        1
1005
13A314
  0
ARC
  5
13A315
  8
OBJECT
 10
4059.0
 20
-283.0
 30
0.0
 40
3.0
 50
270.0
 51
0.0
1001
ACDBBLOCKREPETAG
1070
     1
1071
        2
1005
13A315
  0
LINE
  5
13A316
  8
OBJECT
 10
3938.0
 20
-279.99999999999909
 30
0.0
 11
3938.0
 21
-282.99999999999818
 31
0.0
1001
ACDBBLOCKREPETAG
1070
     1
1071
        3
1005
13A316
  0
ARC
  5
13A317
  8
OBJECT
 10
3941.0
 20
-282.99999999999818
 30
0.0
 40
3.0
 50
180.0
 51
270.0
1001
ACDBBLOCKREPETAG
1070
     1
1071
        4
1005
13A317
  0
LINE
  5
13A318
  8
OBJECT
 10
3941.0
 20
-285.99999999999818
 30
0.0
 11
4059.0
 21
-286.0
 31
0.0
1001
ACDBBLOCKREPETAG
1070
     1
1071
        5
1005
13A318
  0
LINE
  5
13A319
  8
OBJECT
 10
4202.9999999999854
 20
-137.99999999999909
 30
0.0
 11
4209.9999999999854
 21
-137.99999999999909
 31
0.0
1001
ACDBBLOCKREPETAG
1070
     1
1071
       85
1005
13A319
  0
LINE
  5
13A31A
  8
OBJECT
 10
4209.9999999999854
 20
-137.99999999999909
 30
0.0
 11
4209.9999999999854
 21
-261.99999999999909
 31
0.0
1001
ACDBBLOCKREPETAG
1070
     1
1071
       86
1005
13A31A
  0
LINE
  5
13A31B
  8
OBJECT
 10
4209.9999999999854
 20
-261.99999999999909
 30
0.0
 11
4202.9999999999854
 21
-261.99999999999909
 31
0.0
1001
ACDBBLOCKREPETAG
1070
     1
1071
       87
1005
13A31B
  0
LINE
  5
13A31C
  8
OBJECT
 10
4202.9999999999854
 20
-261.99999999999909
 30
0.0
 11
4202.9999999999854
 21
-137.99999999999909
 31
0.0
1001
ACDBBLOCKREPETAG
1070
     1
1071
       88
1005
13A31C
  0
LINE
  5
13A31D
  8
CENTER
 10
4224.9999999999864
 20
-199.99999999999909
 30
0.0
 11
4080.0
 21
-199.99999999999909
 31
0.0
1001
ACDBBLOCKREPETAG
1070
     1
1071
       89
1005
13A31D
  0
LINE
  5
13A31E
  8
OBJECT
 10
4149.9999749641856
 20
-245.0000000000027
 30
0.0
 11
4086.0
 21
-244.99999999999909
 31
0.0
1001
ACDBBLOCKREPETAG
1070
     1
1071
       90
1005
13A31E
  0
LINE
  5
13A31F
  8
OBJECT
 10
4149.9999749641856
 20
-154.99999999999909
 30
0.0
 11
4086.0
 21
-154.99999999999909
 31
0.0
1001
ACDBBLOCKREPETAG
1070
     1
1071
       91
1005
13A31F
  0
LINE
  5
13A320
  8
OBJECT
 10
4202.9999999999854
 20
-140.99999999999909
 30
0.0
 11
4166.9999999999854
 21
-140.99999999999909
 31
0.0
1001
ACDBBLOCKREPETAG
1070
     1
1071
       92
1005
13A320
  0
LINE
  5
13A321
  8
OBJECT
 10
4166.9999999999854
 20
-140.99999999999909
 30
0.0
 11
4166.9999999999854
 21
-258.99999999999909
 31
0.0
1001
ACDBBLOCKREPETAG
1070
     1
1071
       93
1005
13A321
  0
LINE
  5
13A322
  8
OBJECT
 10
4166.9999999999854
 20
-258.99999999999909
 30
0.0
 11
4202.9999999999854
 21
-258.99999999999909
 31
0.0
1001
ACDBBLOCKREPETAG
1070
     1
1071
       94
1005
13A322
  0
LINE
  5
13A323
  8
OBJECT
 10
4162.9999999999854
 20
-145.49999999999909
 30
0.0
 11
4149.9999999999864
 21
-145.49999999999909
 31
0.0
1001
ACDBBLOCKREPETAG
1070
     1
1071
       95
1005
13A323
  0
LINE
  5
13A324
  8
OBJECT
 10
4149.9999999999864
 20
-254.49999999999909
 30
0.0
 11
4162.9999999999854
 21
-254.49999999999909
 31
0.0
1001
ACDBBLOCKREPETAG
1070
     1
1071
       96
1005
13A324
  0
LINE
  5
13A325
  8
OBJECT
 10
4162.9999999999854
 20
-254.49999999999909
 30
0.0
 11
4162.9999999999854
 21
-145.49999999999909
 31
0.0
1001
ACDBBLOCKREPETAG
1070
     1
1071
       97
1005
13A325
  0
LINE
  5
13A326
  8
OBJECT
 10
4166.9999999999854
 20
-140.99999999999909
 30
0.0
 11
4162.9999999999854
 21
-145.49999999999909
 31
0.0
1001
ACDBBLOCKREPETAG
1070
     1
1071
       98
1005
13A326
  0
LINE
  5
13A327
  8
OBJECT
 10
4166.9999999999854
 20
-258.99999999999909
 30
0.0
 11
4162.9999999999854
 21
-254.49999999999909
 31
0.0
1001
ACDBBLOCKREPETAG
1070
     1
1071
       99
1005
13A327
  0
LINE
  5
13A328
  8
OBJECT
 10
4083.0
 20
-137.99999999999909
 30
0.0
 11
4080.0
 21
-137.99999999999909
 31
0.0
1001
ACDBBLOCKREPETAG
1070
     1
1071
      100
1005
13A328
  0
ARC
  5
13A329
  8
OBJECT
 10
4083.0
 20
-140.99999999999909
 30
0.0
 40
3.0
 50
0.0
 51
90.0
1001
ACDBBLOCKREPETAG
1070
     1
1071
      101
1005
13A329
  0
LINE
  5
13A32A
  8
OBJECT
 10
4080.0
 20
-261.99999999999909
 30
0.0
 11
4083.0
 21
-261.99999999999909
 31
0.0
1001
ACDBBLOCKREPETAG
1070
     1
1071
      102
1005
13A32A
  0
ARC
  5
13A32B
  8
OBJECT
 10
4083.0
 20
-258.99999999999909
 30
0.0
 40
3.0
 50
270.0
 51
0.0
1001
ACDBBLOCKREPETAG
1070
     1
1071
      103
1005
13A32B
  0
LINE
  5
13A32C
  8
OBJECT
 10
4086.0
 20
-258.99999999999909
 30
0.0
 11
4086.0
 21
-210.3227903203578
 31
0.0
1001
ACDBBLOCKREPETAG
1070
     1
1071
      104
1005
13A32C
  0
LINE
  5
13A32D
  8
OBJECT
 10
4086.0
 20
-189.6772096796403
 30
0.0
 11
4086.0
 21
-140.99999999999909
 31
0.0
1001
ACDBBLOCKREPETAG
1070
     1
1071
      105
1005
13A32D
  0
LINE
  5
13A32E
  8
HIDDEN
 10
4157.9999999999864
 20
-155.49999999999909
 30
0.0
 11
4157.9999999999864
 21
-244.49999999999909
 31
0.0
1001
ACDBBLOCKREPETAG
1070
     1
1071
      106
1005
13A32E
  0
LINE
  5
13A32F
  8
OBJECT
 10
4149.9999749641856
 20
-254.4999509238105
 30
0.0
 11
4149.9999749641856
 21
-145.4999509238105
 31
0.0
1001
ACDBBLOCKREPETAG
1070
     1
1071
      108
1005
13A32F
  0
ARC
  5
13A330
  8
OBJECT
 10
4129.8000000000247
 20
-199.99999999999909
 30
0.0
 40
45.000000000000547
 50
90.0
 51
270.0
1001
ACDBBLOCKREPETAG
1070
     1
1071
      109
1005
13A330
  0
LINE
  5
13A331
  8
OBJECT
 10
3797.0000000000159
 20
-583.0
 30
0.0
 11
3790.0000000000159
 21
-583.0
 31
0.0
1001
ACDBBLOCKREPETAG
1070
     1
1071
       83
1005
13A331
  0
LINE
  5
13A332
  8
OBJECT
 10
3790.0000000000159
 20
-583.0
 30
0.0
 11
3790.0000000000159
 21
-707.0
 31
0.0
1001
ACDBBLOCKREPETAG
1070
     1
1071
       84
1005
13A332
  0
LINE
  5
13A333
  8
OBJECT
 10
3914.0000000000159
 20
-653.3502637757274
 30
0.0
 11
3914.0000000000159
 21
-755.00000000000102
 31
0.0
1001
ACDBBLOCKREPETAG
1070
     1
1071
       85
1005
13A333
  0
LINE
  5
13A334
  8
OBJECT
 10
3790.0000000000159
 20
-707.0
 30
0.0
 11
3797.0000000000159
 21
-707.0
 31
0.0
1001
ACDBBLOCKREPETAG
1070
     1
1071
       86
1005
13A334
  0
LINE
  5
13A335
  8
OBJECT
 10
3797.0000000000159
 20
-707.0
 30
0.0
 11
3797.0000000000159
 21
-583.0
 31
0.0
1001
ACDBBLOCKREPETAG
1070
     1
1071
       87
1005
13A335
  0
LINE
  5
13A336
  8
CENTER
 10
3865.0000000000159
 20
-645.0000000000008
 30
0.0
 11
3775.0000000000159
 21
-645.0
 31
0.0
1001
ACDBBLOCKREPETAG
1070
     1
1071
       88
1005
13A336
  0
LINE
  5
13A337
  8
OBJECT
 10
3920.0000000000182
 20
-758.0
 30
0.0
 11
3917.0000000000141
 21
-758.0000000000008
 31
0.0
1001
ACDBBLOCKREPETAG
1070
     1
1071
       89
1005
13A337
  0
ARC
  5
13A338
  8
OBJECT
 10
3917.0000000000141
 20
-755.00000000000102
 30
0.0
 40
3.0
 50
180.0
 51
270.0
1001
ACDBBLOCKREPETAG
1070
     1
1071
       90
1005
13A338
  0
LINE
  5
13A339
  8
OBJECT
 10
3797.0000000000159
 20
-586.0
 30
0.0
 11
3833.0000000000159
 21
-586.0000000000008
 31
0.0
1001
ACDBBLOCKREPETAG
1070
     1
1071
       91
1005
13A339
  0
LINE
  5
13A33A
  8
OBJECT
 10
3833.0000000000159
 20
-586.0000000000008
 30
0.0
 11
3833.0000000000159
 21
-704.0000000000008
 31
0.0
1001
ACDBBLOCKREPETAG
1070
     1
1071
       92
1005
13A33A
  0
LINE
  5
13A33B
  8
OBJECT
 10
3837.0000000000159
 20
-590.5000000000008
 30
0.0
 11
3837.0000000000159
 21
-699.5000000000008
 31
0.0
1001
ACDBBLOCKREPETAG
1070
     1
1071
       93
1005
13A33B
  0
LINE
  5
13A33C
  8
OBJECT
 10
3837.0000000000159
 20
-590.5000000000008
 30
0.0
 11
3850.000000000015
 21
-590.5000000000008
 31
0.0
1001
ACDBBLOCKREPETAG
1070
     1
1071
       94
1005
13A33C
  0
LINE
  5
13A33D
  8
OBJECT
 10
3833.0000000000159
 20
-704.0000000000008
 30
0.0
 11
3797.0000000000159
 21
-704.0
 31
0.0
1001
ACDBBLOCKREPETAG
1070
     1
1071
       95
1005
13A33D
  0
LINE
  5
13A33E
  8
OBJECT
 10
3833.0000000000159
 20
-586.0000000000008
 30
0.0
 11
3837.0000000000159
 21
-590.5000000000008
 31
0.0
1001
ACDBBLOCKREPETAG
1070
     1
1071
       96
1005
13A33E
  0
LINE
  5
13A33F
  8
OBJECT
 10
3850.000000000015
 20
-590.5000000000008
 30
0.0
 11
3850.000000000015
 21
-675.74491827928784
 31
0.0
1001
ACDBBLOCKREPETAG
1070
     1
1071
       97
1005
13A33F
  0
ARC
  5
13A340
  8
OBJECT
 10
3847.2000000000148
 20
-685.0000000000008
 30
0.0
 40
85.0
 50
36.869897645906562
 51
88.112268108168848
1001
ACDBBLOCKREPETAG
1070
     1
1071
       98
1005
13A340
  0
LINE
  5
13A341
  8
HIDDEN
 10
3842.0000000000159
 20
-600.50000000000068
 30
0.0
 11
3842.0000000000159
 21
-689.50000000000091
 31
0.0
1001
ACDBBLOCKREPETAG
1070
     1
1071
      100
1005
13A341
  0
LINE
  5
13A342
  8
OBJECT
 10
3914.0000000000159
 20
-751.07945073181781
 30
0.0
 11
3843.3686800789692
 21
-699.5000000000008
 31
0.0
1001
ACDBBLOCKREPETAG
1070
     1
1071
      101
1005
13A342
  0
LINE
  5
13A343
  8
OBJECT
 10
3920.0000000000182
 20
-634.0
 30
0.0
 11
3915.2000000000148
 21
-634.0
 31
0.0
1001
ACDBBLOCKREPETAG
1070
     1
1071
      102
1005
13A343
  0
LINE
  5
13A344
  8
OBJECT
 10
3914.0000000000159
 20
-653.35026377573013
 30
0.0
 11
3915.2000000000148
 21
-634.0
 31
0.0
1001
ACDBBLOCKREPETAG
1070
     1
1071
      103
1005
13A344
  0
LINE
  5
13A345
  8
OBJECT
 10
3837.0000000000159
 20
-699.5000000000008
 30
0.0
 11
3843.3686800789692
 21
-699.5000000000008
 31
0.0
1001
ACDBBLOCKREPETAG
1070
     1
1071
      104
1005
13A345
  0
LINE
  5
13A346
  8
OBJECT
 10
3833.0000000000159
 20
-704.0000000000008
 30
0.0
 11
3837.0000000000159
 21
-699.5000000000008
 31
0.0
1001
ACDBBLOCKREPETAG
1070
     1
1071
      105
1005
13A346
  0
CIRCLE
  5
13A347
  8
OBJECT
 10
4000.0
 20
-696.0
 30
0.0
 40
62.0
1001
ACDBBLOCKREPETAG
1070
     1
1071
        0
1005
13A347
  0
LINE
  5
13A348
  8
OBJECT
 10
4202.9999999999854
 20
-583.0000000000008
 30
0.0
 11
4209.9999999999854
 21
-583.0000000000008
 31
0.0
1001
ACDBBLOCKREPETAG
1070
     1
1071
       83
1005
13A348
  0
LINE
  5
13A349
  8
OBJECT
 10
4209.9999999999854
 20
-583.0000000000008
 30
0.0
 11
4209.9999999999854
 21
-707.00000000000091
 31
0.0
1001
ACDBBLOCKREPETAG
1070
     1
1071
       84
1005
13A349
  0
LINE
  5
13A34A
  8
OBJECT
 10
4085.9999999999859
 20
-653.3502637757274
 30
0.0
 11
4085.9999999999859
 21
-755.00000000000102
 31
0.0
1001
ACDBBLOCKREPETAG
1070
     1
1071
       85
1005
13A34A
  0
LINE
  5
13A34B
  8
OBJECT
 10
4209.9999999999854
 20
-707.00000000000091
 30
0.0
 11
4202.9999999999854
 21
-707.00000000000091
 31
0.0
1001
ACDBBLOCKREPETAG
1070
     1
1071
       86
1005
13A34B
  0
LINE
  5
13A34C
  8
OBJECT
 10
4202.9999999999854
 20
-707.00000000000091
 30
0.0
 11
4202.9999999999854
 21
-583.0000000000008
 31
0.0
1001
ACDBBLOCKREPETAG
1070
     1
1071
       87
1005
13A34C
  0
LINE
  5
13A34D
  8
CENTER
 10
4134.9999999999854
 20
-645.0000000000008
 30
0.0
 11
4224.9999999999864
 21
-645.0000000000008
 31
0.0
1001
ACDBBLOCKREPETAG
1070
     1
1071
       88
1005
13A34D
  0
LINE
  5
13A34E
  8
OBJECT
 10
4079.9999999999818
 20
-758.0
 30
0.0
 11
4082.999999999985
 21
-758.0000000000008
 31
0.0
1001
ACDBBLOCKREPETAG
1070
     1
1071
       89
1005
13A34E
  0
ARC
  5
13A34F
  8
OBJECT
 10
4082.999999999985
 20
-755.00000000000102
 30
0.0
 40
3.0
 50
270.0
 51
0.0
1001
ACDBBLOCKREPETAG
1070
     1
1071
       90
1005
13A34F
  0
LINE
  5
13A350
  8
OBJECT
 10
4202.9999999999854
 20
-586.0000000000008
 30
0.0
 11
4166.9999999999854
 21
-586.0000000000008
 31
0.0
1001
ACDBBLOCKREPETAG
1070
     1
1071
       91
1005
13A350
  0
LINE
  5
13A351
  8
OBJECT
 10
4166.9999999999854
 20
-586.0000000000008
 30
0.0
 11
4166.9999999999854
 21
-704.0000000000008
 31
0.0
1001
ACDBBLOCKREPETAG
1070
     1
1071
       92
1005
13A351
  0
LINE
  5
13A352
  8
OBJECT
 10
4162.9999999999854
 20
-590.5000000000008
 30
0.0
 11
4162.9999999999854
 21
-699.5000000000008
 31
0.0
1001
ACDBBLOCKREPETAG
1070
     1
1071
       93
1005
13A352
  0
LINE
  5
13A353
  8
OBJECT
 10
4162.9999999999854
 20
-590.5000000000008
 30
0.0
 11
4149.9999999999864
 21
-590.5000000000008
 31
0.0
1001
ACDBBLOCKREPETAG
1070
     1
1071
       94
1005
13A353
  0
LINE
  5
13A354
  8
OBJECT
 10
4166.9999999999854
 20
-704.0000000000008
 30
0.0
 11
4202.9999999999854
 21
-704.0000000000008
 31
0.0
1001
ACDBBLOCKREPETAG
1070
     1
1071
       95
1005
13A354
  0
LINE
  5
13A355
  8
OBJECT
 10
4166.9999999999854
 20
-586.0000000000008
 30
0.0
 11
4162.9999999999854
 21
-590.5000000000008
 31
0.0
1001
ACDBBLOCKREPETAG
1070
     1
1071
       96
1005
13A355
  0
LINE
  5
13A356
  8
OBJECT
 10
4149.9999999999864
 20
-590.5000000000008
 30
0.0
 11
4149.9999999999864
 21
-675.74491827928784
 31
0.0
1001
ACDBBLOCKREPETAG
1070
     1
1071
       97
1005
13A356
  0
ARC
  5
13A357
  8
OBJECT
 10
4152.7999999999838
 20
-685.0000000000008
 30
0.0
 40
85.0
 50
91.887731891831123
 51
143.1301023540934
1001
ACDBBLOCKREPETAG
1070
     1
1071
       98
1005
13A357
  0
LINE
  5
13A358
  8
HIDDEN
 10
4157.9999999999864
 20
-600.50000000000068
 30
0.0
 11
4157.9999999999864
 21
-689.50000000000091
 31
0.0
1001
ACDBBLOCKREPETAG
1070
     1
1071
      100
1005
13A358
  0
LINE
  5
13A359
  8
OBJECT
 10
4085.9999999999859
 20
-751.07945073181781
 30
0.0
 11
4156.6313199210299
 21
-699.5000000000008
 31
0.0
1001
ACDBBLOCKREPETAG
1070
     1
1071
      101
1005
13A359
  0
LINE
  5
13A35A
  8
OBJECT
 10
4079.9999999999818
 20
-634.0
 30
0.0
 11
4084.7999999999852
 21
-634.0
 31
0.0
1001
ACDBBLOCKREPETAG
1070
     1
1071
      102
1005
13A35A
  0
LINE
  5
13A35B
  8
OBJECT
 10
4085.9999999999859
 20
-653.35026377573013
 30
0.0
 11
4084.7999999999852
 21
-634.0
 31
0.0
1001
ACDBBLOCKREPETAG
1070
     1
1071
      103
1005
13A35B
  0
LINE
  5
13A35C
  8
OBJECT
 10
4162.9999999999854
 20
-699.5000000000008
 30
0.0
 11
4156.6313199210299
 21
-699.5000000000008
 31
0.0
1001
ACDBBLOCKREPETAG
1070
     1
1071
      104
1005
13A35C
  0
LINE
  5
13A35D
  8
OBJECT
 10
4166.9999999999854
 20
-704.0000000000008
 30
0.0
 11
4162.9999999999854
 21
-699.5000000000008
 31
0.0
1001
ACDBBLOCKREPETAG
1070
     1
1071
      105
1005
13A35D
  0
LINE
  5
13A35E
  8
OBJECT
 10
3923.0
 20
-571.0
 30
0.0
 11
3923.0
 21
-550.0
 31
0.0
1001
ACDBBLOCKREPETAG
1070
     1
1071
       38
1005
13A35E
  0
LINE
  5
13A35F
  8
OBJECT
 10
3923.0
 20
-550.0
 30
0.0
 11
4077.0
 21
-550.0
 31
0.0
1001
ACDBBLOCKREPETAG
1070
     1
1071
       39
1005
13A35F
  0
LINE
  5
13A360
  8
HIDDEN
 10
3943.0
 20
-620.0
 30
0.0
 11
4057.0
 21
-620.0
 31
0.0
1001
ACDBBLOCKREPETAG
1070
     1
1071
       40
1005
13A360
  0
LINE
  5
13A361
  8
OBJECT
 10
4077.0
 20
-550.0
 30
0.0
 11
4077.0
 21
-571.0
 31
0.0
1001
ACDBBLOCKREPETAG
1070
     1
1071
       41
1005
13A361
  0
LINE
  5
13A362
  8
OBJECT
 10
4077.0
 20
-571.0
 30
0.0
 11
3923.0
 21
-571.0
 31
0.0
1001
ACDBBLOCKREPETAG
1070
     1
1071
       42
1005
13A362
  0
LINE
  5
13A363
  8
CENTER
 10
4000.0
 20
-535.0
 30
0.0
 11
4000.0
 21
-890.0
 31
0.0
1001
ACDBBLOCKREPETAG
1070
     1
1071
       43
1005
13A363
  0
LINE
  5
13A364
  8
OBJECT
 10
3928.0
 20
-571.0
 30
0.0
 11
3928.0
 21
-634.0
 31
0.0
1001
ACDBBLOCKREPETAG
1070
     1
1071
       44
1005
13A364
  0
LINE
  5
13A365
  8
OBJECT
 10
4072.0
 20
-634.0
 30
0.0
 11
4072.0
 21
-571.0
 31
0.0
1001
ACDBBLOCKREPETAG
1070
     1
1071
       45
1005
13A365
  0
LINE
  5
13A366
  8
OBJECT
 10
3920.0
 20
-878.0
 30
0.0
 11
4080.0
 21
-878.0
 31
0.0
1001
ACDBBLOCKREPETAG
1070
     1
1071
       46
1005
13A366
  0
LINE
  5
13A367
  8
OBJECT
 10
4080.0
 20
-634.0
 30
0.0
 11
3920.0
 21
-634.0
 31
0.0
1001
ACDBBLOCKREPETAG
1070
     1
1071
       47
1005
13A367
  0
LINE
  5
13A368
  8
OBJECT
 10
3920.0
 20
-878.0
 30
0.0
 11
3920.0
 21
-890.0
 31
0.0
1001
ACDBBLOCKREPETAG
1070
     1
1071
       48
1005
13A368
  0
LINE
  5
13A369
  8
OBJECT
 10
3920.0
 20
-890.0
 30
0.0
 11
4080.0
 21
-890.0
 31
0.0
1001
ACDBBLOCKREPETAG
1070
     1
1071
       49
1005
13A369
  0
LINE
  5
13A36A
  8
OBJECT
 10
4080.0
 20
-890.0
 30
0.0
 11
4080.0
 21
-878.0
 31
0.0
1001
ACDBBLOCKREPETAG
1070
     1
1071
       50
1005
13A36A
  0
LINE
  5
13A36B
  8
OBJECT
 10
4074.9999999998631
 20
-757.99999999985096
 30
0.0
 11
4075.0
 21
-878.0
 31
0.0
1001
ACDBBLOCKREPETAG
1070
     1
1071
       54
1005
13A36B
  0
LINE
  5
13A36C
  8
OBJECT
 10
4074.9999908029849
 20
-757.99998602702181
 30
0.0
 11
4080.0
 21
-757.99998602702181
 31
0.0
1001
ACDBBLOCKREPETAG
1070
     1
1071
       55
1005
13A36C
  0
LINE
  5
13A36D
  8
OBJECT
 10
3925.0000000001392
 20
-757.99999999985096
 30
0.0
 11
3925.0
 21
-878.0
 31
0.0
1001
ACDBBLOCKREPETAG
1070
     1
1071
       56
1005
13A36D
  0
LINE
  5
13A36E
  8
OBJECT
 10
3925.0000091970151
 20
-757.99998602702181
 30
0.0
 11
3920.0
 21
-757.99998602702181
 31
0.0
1001
ACDBBLOCKREPETAG
1070
     1
1071
       57
1005
13A36E
  0
ARC
  5
13A36F
  8
OBJECT
 10
4200.6872746716726
 20
-749.40809941010752
 30
0.0
 40
170.6350503965856
 50
137.44134459184301
 51
149.91949581337221
1001
ACDBBLOCKREPETAG
1070
     1
1071
       58
1005
13A36F
  0
ARC
  5
13A370
  8
OBJECT
 10
4200.6872746716726
 20
-642.59190058989225
 30
0.0
 40
170.6350503965856
 50
210.08050418662771
 51
222.55865540815699
1001
ACDBBLOCKREPETAG
1070
     1
1071
       59
1005
13A370
  0
ARC
  5
13A371
  8
OBJECT
 10
3799.3127253283278
 20
-749.40809941010752
 30
0.0
 40
170.6350503965856
 50
30.080504186774089
 51
42.558655408382641
1001
ACDBBLOCKREPETAG
1070
     1
1071
       60
1005
13A371
  0
ARC
  5
13A372
  8
OBJECT
 10
3799.3127253283278
 20
-642.59190058989225
 30
0.0
 40
170.6350503965856
 50
317.44134459161722
 51
329.91949581322592
1001
ACDBBLOCKREPETAG
1070
     1
1071
       61
1005
13A372
  0
POINT
  5
13A373
  8
DOTS
 10
4000.0
 20
-755.0
 30
0.0
1001
ACDBBLOCKREPETAG
1070
     1
1071
      185
1005
13A373
  0
LINE
  5
13A374
  8
OBJECT
 10
1969.4199755553
 20
-243.89888500818171
 30
0.0
 11
1979.856491823236
 21
-222.48688253356801
 31
0.0
1001
ACDBBLOCKREPETAG
1070
     1
1071
      305
1005
13A374
  0
LINE
  5
13A375
  8
OBJECT
 10
1965.2972169006091
 20
-240.71813901882729
 30
0.0
 11
1973.907102266508
 21
-223.05373004430751
 31
0.0
1001
ACDBBLOCKREPETAG
1070
     1
1071
      306
1005
13A375
  0
LINE
  5
13A376
  8
OBJECT
 10
2024.102933093302
 20
-243.80694712371681
 30
0.0
 11
2020.659656999997
 21
-232.55462199999889
 31
0.0
1001
ACDBBLOCKREPETAG
1070
     1
1071
      307
1005
13A376
  0
ARC
  5
13A377
  8
OBJECT
 10
1976.579695307315
 20
-207.1289369828437
 30
0.0
 40
60.031113246032611
 50
314.07020130418567
 51
322.33936106091278
1001
ACDBBLOCKREPETAG
1070
     1
1071
      308
1005
13A377
  0
LINE
  5
13A378
  8
OBJECT
 10
1986.7927499013749
 20
-218.22553374208019
 30
0.0
 11
2020.659656999997
 21
-232.5546219999969
 31
0.0
1001
ACDBBLOCKREPETAG
1070
     1
1071
      309
1005
13A378
  0
ARC
  5
13A379
  8
OBJECT
 10
1982.8961697619
 20
-227.4351299990567
 30
0.0
 40
10.0
 50
67.066778292923374
 51
154.0147343702935
1001
ACDBBLOCKREPETAG
1070
     1
1071
      310
1005
13A379
  0
ARC
  5
13A37A
  8
OBJECT
 10
1986.1488390381271
 20
-225.55386256729159
 30
0.0
 40
7.0
 50
67.066778292923374
 51
154.01473377497121
1001
ACDBBLOCKREPETAG
1070
     1
1071
      311
1005
13A37A
  0
CIRCLE
  5
13A37B
  8
OBJECT
 10
2000.0
 20
-199.99999999999909
 30
0.0
 40
53.5
1001
ACDBBLOCKREPETAG
1070
     1
1071
      340
1005
13A37B
  0
POINT
  5
13A37C
  8
DOTS
 10
2000.0
 20
-199.99999999999909
 30
0.0
 50
270.0
1001
ACDBBLOCKREPETAG
1070
     1
1071
      153
1005
13A37C
  0
ARC
  5
13A37D
  8
OBJECT
 10
2000.0
 20
-199.99999999999909
 30
0.0
 40
50.0
 50
298.81994300000417
 51
228.52376955967449
1001
ACDBBLOCKREPETAG
1070
     1
1071
       48
1005
13A37D
  0
LINE
  5
13A37E
  8
CENTER
 10
2080.0
 20
-199.99999999999909
 30
0.0
 11
1920.0
 21
-199.99999999999909
 31
0.0
1001
ACDBBLOCKREPETAG
1070
     1
1071
       49
1005
13A37E
  0
LINE
  5
13A37F
  8
CENTER
 10
2000.0
 20
-279.99999999999909
 30
0.0
 11
2000.0
 21
-104.9999999999991
 31
0.0
1001
ACDBBLOCKREPETAG
1070
     1
1071
       50
1005
13A37F
  0
CIRCLE
  5
13A380
  8
OBJECT
 10
2000.0
 20
-199.99999999999909
 30
0.0
 40
70.0
1001
ACDBBLOCKREPETAG
1070
     1
1071
       51
1005
13A380
  0
CIRCLE
  5
13A381
  8
OBJECT
 10
2000.0
 20
-199.99999999999909
 30
0.0
 40
77.0
1001
ACDBBLOCKREPETAG
1070
     1
1071
       52
1005
13A381
  0
ARC
  5
13A382
  8
OBJECT
 10
2000.0
 20
-199.99999999999909
 30
0.0
 40
80.0
 50
50.805032573864182
 51
129.1949674261358
1001
ACDBBLOCKREPETAG
1070
     1
1071
       53
1005
13A382
  0
LINE
  5
13A383
  8
OBJECT
 10
2045.6618002273251
 20
-137.99999999999909
 30
0.0
 11
2080.0
 21
-137.99999999999909
 31
0.0
1001
ACDBBLOCKREPETAG
1070
     1
1071
       54
1005
13A383
  0
LINE
  5
13A384
  8
OBJECT
 10
2062.0
 20
-261.99999999999909
 30
0.0
 11
2080.0
 21
-261.99999999999909
 31
0.0
1001
ACDBBLOCKREPETAG
1070
     1
1071
       55
1005
13A384
  0
LINE
  5
13A385
  8
OBJECT
 10
2062.0
 20
-261.99999999999909
 30
0.0
 11
2062.0
 21
-279.99999999999909
 31
0.0
1001
ACDBBLOCKREPETAG
1070
     1
1071
       57
1005
13A385
  0
LINE
  5
13A386
  8
OBJECT
 10
1938.0
 20
-261.99999999999909
 30
0.0
 11
1938.0
 21
-279.99999999999909
 31
0.0
1001
ACDBBLOCKREPETAG
1070
     1
1071
       58
1005
13A386
  0
LINE
  5
13A387
  8
OBJECT
 10
1938.0
 20
-261.99999999999909
 30
0.0
 11
1920.0
 21
-261.99999999999909
 31
0.0
1001
ACDBBLOCKREPETAG
1070
     1
1071
       60
1005
13A387
  0
LINE
  5
13A388
  8
OBJECT
 10
1954.3381997726749
 20
-137.99999999999909
 30
0.0
 11
1920.0
 21
-137.99999999999909
 31
0.0
1001
ACDBBLOCKREPETAG
1070
     1
1071
       61
1005
13A388
  0
LINE
  5
13A389
  8
OBJECT
 10
1945.5527778486351
 20
-254.44722215136329
 30
0.0
 11
1938.0
 21
-261.99999999999909
 31
0.0
1001
ACDBBLOCKREPETAG
1070
     1
1071
       42
1005
13A389
  0
LINE
  5
13A38A
  8
OBJECT
 10
2054.4472221513638
 20
-254.44722215136329
 30
0.0
 11
2062.0
 21
-261.99999999999909
 31
0.0
1001
ACDBBLOCKREPETAG
1070
     1
1071
       43
1005
13A38A
  0
LINE
  5
13A38B
  8
OBJECT
 10
1797.0000000000141
 20
-261.99999999999909
 30
0.0
 11
1790.0000000000141
 21
-261.99999999999909
 31
0.0
1001
ACDBBLOCKREPETAG
1070
     1
1071
       85
1005
13A38B
  0
LINE
  5
13A38C
  8
OBJECT
 10
1790.0000000000141
 20
-261.99999999999909
 30
0.0
 11
1790.0000000000141
 21
-137.99999999999909
 31
0.0
1001
ACDBBLOCKREPETAG
1070
     1
1071
       86
1005
13A38C
  0
LINE
  5
13A38D
  8
OBJECT
 10
1790.0000000000141
 20
-137.99999999999909
 30
0.0
 11
1797.0000000000141
 21
-137.99999999999909
 31
0.0
1001
ACDBBLOCKREPETAG
1070
     1
1071
       87
1005
13A38D
  0
LINE
  5
13A38E
  8
OBJECT
 10
1797.0000000000141
 20
-137.99999999999909
 30
0.0
 11
1797.0000000000141
 21
-261.99999999999909
 31
0.0
1001
ACDBBLOCKREPETAG
1070
     1
1071
       88
1005
13A38E
  0
LINE
  5
13A38F
  8
CENTER
 10
1775.0000000000141
 20
-199.99999999999909
 30
0.0
 11
1920.0
 21
-199.99999999999909
 31
0.0
1001
ACDBBLOCKREPETAG
1070
     1
1071
       89
1005
13A38F
  0
LINE
  5
13A390
  8
OBJECT
 10
1850.000025035813
 20
-154.9999999999954
 30
0.0
 11
1914.0
 21
-154.99999999999909
 31
0.0
1001
ACDBBLOCKREPETAG
1070
     1
1071
       90
1005
13A390
  0
LINE
  5
13A391
  8
OBJECT
 10
1850.000025035813
 20
-244.99999999999909
 30
0.0
 11
1914.0
 21
-244.99999999999909
 31
0.0
1001
ACDBBLOCKREPETAG
1070
     1
1071
       91
1005
13A391
  0
LINE
  5
13A392
  8
OBJECT
 10
1797.0000000000141
 20
-258.99999999999909
 30
0.0
 11
1833.000000000015
 21
-258.99999999999909
 31
0.0
1001
ACDBBLOCKREPETAG
1070
     1
1071
       92
1005
13A392
  0
LINE
  5
13A393
  8
OBJECT
 10
1833.000000000015
 20
-258.99999999999909
 30
0.0
 11
1833.000000000015
 21
-140.99999999999909
 31
0.0
1001
ACDBBLOCKREPETAG
1070
     1
1071
       93
1005
13A393
  0
LINE
  5
13A394
  8
OBJECT
 10
1833.000000000015
 20
-140.99999999999909
 30
0.0
 11
1797.0000000000141
 21
-140.99999999999909
 31
0.0
1001
ACDBBLOCKREPETAG
1070
     1
1071
       94
1005
13A394
  0
LINE
  5
13A395
  8
OBJECT
 10
1837.000000000015
 20
-254.49999999999909
 30
0.0
 11
1850.0000000000141
 21
-254.49999999999909
 31
0.0
1001
ACDBBLOCKREPETAG
1070
     1
1071
       95
1005
13A395
  0
LINE
  5
13A396
  8
OBJECT
 10
1850.0000000000141
 20
-145.49999999999909
 30
0.0
 11
1837.000000000015
 21
-145.49999999999909
 31
0.0
1001
ACDBBLOCKREPETAG
1070
     1
1071
       96
1005
13A396
  0
LINE
  5
13A397
  8
OBJECT
 10
1837.000000000015
 20
-145.49999999999909
 30
0.0
 11
1837.000000000015
 21
-254.49999999999909
 31
0.0
1001
ACDBBLOCKREPETAG
1070
     1
1071
       97
1005
13A397
  0
LINE
  5
13A398
  8
OBJECT
 10
1833.000000000015
 20
-258.99999999999909
 30
0.0
 11
1837.000000000015
 21
-254.49999999999909
 31
0.0
1001
ACDBBLOCKREPETAG
1070
     1
1071
       98
1005
13A398
  0
LINE
  5
13A399
  8
OBJECT
 10
1833.000000000015
 20
-140.99999999999909
 30
0.0
 11
1837.000000000015
 21
-145.49999999999909
 31
0.0
1001
ACDBBLOCKREPETAG
1070
     1
1071
       99
1005
13A399
  0
LINE
  5
13A39A
  8
OBJECT
 10
1917.0
 20
-261.99999999999909
 30
0.0
 11
1920.0
 21
-261.99999999999909
 31
0.0
1001
ACDBBLOCKREPETAG
1070
     1
1071
      100
1005
13A39A
  0
ARC
  5
13A39B
  8
OBJECT
 10
1917.0
 20
-258.99999999999909
 30
0.0
 40
3.0
 50
180.0
 51
270.0
1001
ACDBBLOCKREPETAG
1070
     1
1071
      101
1005
13A39B
  0
LINE
  5
13A39C
  8
OBJECT
 10
1920.0
 20
-137.99999999999909
 30
0.0
 11
1917.0
 21
-137.99999999999909
 31
0.0
1001
ACDBBLOCKREPETAG
1070
     1
1071
      102
1005
13A39C
  0
ARC
  5
13A39D
  8
OBJECT
 10
1917.0
 20
-140.99999999999909
 30
0.0
 40
3.0
 50
90.0
 51
180.0
1001
ACDBBLOCKREPETAG
1070
     1
1071
      103
1005
13A39D
  0
LINE
  5
13A39E
  8
OBJECT
 10
1914.0
 20
-140.99999999999909
 30
0.0
 11
1914.0
 21
-189.6772096796403
 31
0.0
1001
ACDBBLOCKREPETAG
1070
     1
1071
      104
1005
13A39E
  0
LINE
  5
13A39F
  8
OBJECT
 10
1914.0
 20
-210.3227903203578
 30
0.0
 11
1914.0
 21
-258.99999999999909
 31
0.0
1001
ACDBBLOCKREPETAG
1070
     1
1071
      105
1005
13A39F
  0
LINE
  5
13A3A0
  8
HIDDEN
 10
1842.0000000000141
 20
-244.49999999999909
 30
0.0
 11
1842.0000000000141
 21
-155.49999999999909
 31
0.0
1001
ACDBBLOCKREPETAG
1070
     1
1071
      106
1005
13A3A0
  0
LINE
  5
13A3A1
  8
OBJECT
 10
1850.000025035813
 20
-145.50004907618759
 30
0.0
 11
1850.000025035813
 21
-254.50004907618771
 31
0.0
1001
ACDBBLOCKREPETAG
1070
     1
1071
      108
1005
13A3A1
  0
ARC
  5
13A3A2
  8
OBJECT
 10
1870.199999999975
 20
-199.99999999999909
 30
0.0
 40
45.000000000000547
 50
270.0
 51
90.0
1001
ACDBBLOCKREPETAG
1070
     1
1071
      109
1005
13A3A2
  0
LINE
  5
13A3A3
  8
CENTER
 10
2000.0
 20
-300.99999999999898
 30
0.0
 11
2000.0
 21
-279.99999999999909
 31
0.0
1001
ACDBBLOCKREPETAG
1070
     1
1071
        0
1005
13A3A3
  0
LINE
  5
13A3A4
  8
OBJECT
 10
2062.0
 20
-283.0
 30
0.0
 11
2062.0
 21
-279.99999999999909
 31
0.0
1001
ACDBBLOCKREPETAG
1070
     1
1071
        1
1005
13A3A4
  0
ARC
  5
13A3A5
  8
OBJECT
 10
2059.0
 20
-283.0
 30
0.0
 40
3.0
 50
270.0
 51
0.0
1001
ACDBBLOCKREPETAG
1070
     1
1071
        2
1005
13A3A5
  0
LINE
  5
13A3A6
  8
OBJECT
 10
1938.0
 20
-279.99999999999909
 30
0.0
 11
1938.0
 21
-282.99999999999818
 31
0.0
1001
ACDBBLOCKREPETAG
1070
     1
1071
        3
1005
13A3A6
  0
ARC
  5
13A3A7
  8
OBJECT
 10
1941.0
 20
-282.99999999999818
 30
0.0
 40
3.0
 50
180.0
 51
270.0
1001
ACDBBLOCKREPETAG
1070
     1
1071
        4
1005
13A3A7
  0
LINE
  5
13A3A8
  8
OBJECT
 10
1941.0
 20
-285.99999999999818
 30
0.0
 11
2059.0
 21
-286.0
 31
0.0
1001
ACDBBLOCKREPETAG
1070
     1
1071
        5
1005
13A3A8
  0
LINE
  5
13A3A9
  8
OBJECT
 10
2202.9999999999859
 20
-137.99999999999909
 30
0.0
 11
2209.9999999999859
 21
-137.99999999999909
 31
0.0
1001
ACDBBLOCKREPETAG
1070
     1
1071
       85
1005
13A3A9
  0
LINE
  5
13A3AA
  8
OBJECT
 10
2209.9999999999859
 20
-137.99999999999909
 30
0.0
 11
2209.9999999999859
 21
-261.99999999999909
 31
0.0
1001
ACDBBLOCKREPETAG
1070
     1
1071
       86
1005
13A3AA
  0
LINE
  5
13A3AB
  8
OBJECT
 10
2209.9999999999859
 20
-261.99999999999909
 30
0.0
 11
2202.9999999999859
 21
-261.99999999999909
 31
0.0
1001
ACDBBLOCKREPETAG
1070
     1
1071
       87
1005
13A3AB
  0
LINE
  5
13A3AC
  8
OBJECT
 10
2202.9999999999859
 20
-261.99999999999909
 30
0.0
 11
2202.9999999999859
 21
-137.99999999999909
 31
0.0
1001
ACDBBLOCKREPETAG
1070
     1
1071
       88
1005
13A3AC
  0
LINE
  5
13A3AD
  8
CENTER
 10
2224.999999999985
 20
-199.99999999999909
 30
0.0
 11
2080.0
 21
-199.99999999999909
 31
0.0
1001
ACDBBLOCKREPETAG
1070
     1
1071
       89
1005
13A3AD
  0
LINE
  5
13A3AE
  8
OBJECT
 10
2149.9999749641861
 20
-245.0000000000027
 30
0.0
 11
2086.0
 21
-244.99999999999909
 31
0.0
1001
ACDBBLOCKREPETAG
1070
     1
1071
       90
1005
13A3AE
  0
LINE
  5
13A3AF
  8
OBJECT
 10
2149.9999749641861
 20
-154.99999999999909
 30
0.0
 11
2086.0
 21
-154.99999999999909
 31
0.0
1001
ACDBBLOCKREPETAG
1070
     1
1071
       91
1005
13A3AF
  0
LINE
  5
13A3B0
  8
OBJECT
 10
2202.9999999999859
 20
-140.99999999999909
 30
0.0
 11
2166.9999999999859
 21
-140.99999999999909
 31
0.0
1001
ACDBBLOCKREPETAG
1070
     1
1071
       92
1005
13A3B0
  0
LINE
  5
13A3B1
  8
OBJECT
 10
2166.9999999999859
 20
-140.99999999999909
 30
0.0
 11
2166.9999999999859
 21
-258.99999999999909
 31
0.0
1001
ACDBBLOCKREPETAG
1070
     1
1071
       93
1005
13A3B1
  0
LINE
  5
13A3B2
  8
OBJECT
 10
2166.9999999999859
 20
-258.99999999999909
 30
0.0
 11
2202.9999999999859
 21
-258.99999999999909
 31
0.0
1001
ACDBBLOCKREPETAG
1070
     1
1071
       94
1005
13A3B2
  0
LINE
  5
13A3B3
  8
OBJECT
 10
2162.9999999999859
 20
-145.49999999999909
 30
0.0
 11
2149.9999999999859
 21
-145.49999999999909
 31
0.0
1001
ACDBBLOCKREPETAG
1070
     1
1071
       95
1005
13A3B3
  0
LINE
  5
13A3B4
  8
OBJECT
 10
2149.9999999999859
 20
-254.49999999999909
 30
0.0
 11
2162.9999999999859
 21
-254.49999999999909
 31
0.0
1001
ACDBBLOCKREPETAG
1070
     1
1071
       96
1005
13A3B4
  0
LINE
  5
13A3B5
  8
OBJECT
 10
2162.9999999999859
 20
-254.49999999999909
 30
0.0
 11
2162.9999999999859
 21
-145.49999999999909
 31
0.0
1001
ACDBBLOCKREPETAG
1070
     1
1071
       97
1005
13A3B5
  0
LINE
  5
13A3B6
  8
OBJECT
 10
2166.9999999999859
 20
-140.99999999999909
 30
0.0
 11
2162.9999999999859
 21
-145.49999999999909
 31
0.0
1001
ACDBBLOCKREPETAG
1070
     1
1071
       98
1005
13A3B6
  0
LINE
  5
13A3B7
  8
OBJECT
 10
2166.9999999999859
 20
-258.99999999999909
 30
0.0
 11
2162.9999999999859
 21
-254.49999999999909
 31
0.0
1001
ACDBBLOCKREPETAG
1070
     1
1071
       99
1005
13A3B7
  0
LINE
  5
13A3B8
  8
OBJECT
 10
2083.0
 20
-137.99999999999909
 30
0.0
 11
2080.0
 21
-137.99999999999909
 31
0.0
1001
ACDBBLOCKREPETAG
1070
     1
1071
      100
1005
13A3B8
  0
ARC
  5
13A3B9
  8
OBJECT
 10
2083.0
 20
-140.99999999999909
 30
0.0
 40
3.0
 50
0.0
 51
90.0
1001
ACDBBLOCKREPETAG
1070
     1
1071
      101
1005
13A3B9
  0
LINE
  5
13A3BA
  8
OBJECT
 10
2080.0
 20
-261.99999999999909
 30
0.0
 11
2083.0
 21
-261.99999999999909
 31
0.0
1001
ACDBBLOCKREPETAG
1070
     1
1071
      102
1005
13A3BA
  0
ARC
  5
13A3BB
  8
OBJECT
 10
2083.0
 20
-258.99999999999909
 30
0.0
 40
3.0
 50
270.0
 51
0.0
1001
ACDBBLOCKREPETAG
1070
     1
1071
      103
1005
13A3BB
  0
LINE
  5
13A3BC
  8
OBJECT
 10
2086.0
 20
-258.99999999999909
 30
0.0
 11
2086.0
 21
-210.3227903203578
 31
0.0
1001
ACDBBLOCKREPETAG
1070
     1
1071
      104
1005
13A3BC
  0
LINE
  5
13A3BD
  8
OBJECT
 10
2086.0
 20
-189.6772096796403
 30
0.0
 11
2086.0
 21
-140.99999999999909
 31
0.0
1001
ACDBBLOCKREPETAG
1070
     1
1071
      105
1005
13A3BD
  0
LINE
  5
13A3BE
  8
HIDDEN
 10
2157.9999999999859
 20
-155.49999999999909
 30
0.0
 11
2157.9999999999859
 21
-244.49999999999909
 31
0.0
1001
ACDBBLOCKREPETAG
1070
     1
1071
      106
1005
13A3BE
  0
LINE
  5
13A3BF
  8
OBJECT
 10
2149.9999749641861
 20
-254.4999509238105
 30
0.0
 11
2149.9999749641861
 21
-145.4999509238105
 31
0.0
1001
ACDBBLOCKREPETAG
1070
     1
1071
      108
1005
13A3BF
  0
ARC
  5
13A3C0
  8
OBJECT
 10
2129.8000000000252
 20
-199.99999999999909
 30
0.0
 40
45.000000000000547
 50
90.0
 51
270.0
1001
ACDBBLOCKREPETAG
1070
     1
1071
      109
1005
13A3C0
  0
LINE
  5
13A3C1
  8
OBJECT
 10
1797.0000000000141
 20
-583.0
 30
0.0
 11
1790.0000000000141
 21
-583.0
 31
0.0
1001
ACDBBLOCKREPETAG
1070
     1
1071
       83
1005
13A3C1
  0
LINE
  5
13A3C2
  8
OBJECT
 10
1790.0000000000141
 20
-583.0
 30
0.0
 11
1790.0000000000141
 21
-707.0
 31
0.0
1001
ACDBBLOCKREPETAG
1070
     1
1071
       84
1005
13A3C2
  0
LINE
  5
13A3C3
  8
OBJECT
 10
1914.0000000000141
 20
-653.3502637757274
 30
0.0
 11
1914.0000000000141
 21
-755.00000000000102
 31
0.0
1001
ACDBBLOCKREPETAG
1070
     1
1071
       85
1005
13A3C3
  0
LINE
  5
13A3C4
  8
OBJECT
 10
1790.0000000000141
 20
-707.0
 30
0.0
 11
1797.0000000000141
 21
-707.0
 31
0.0
1001
ACDBBLOCKREPETAG
1070
     1
1071
       86
1005
13A3C4
  0
LINE
  5
13A3C5
  8
OBJECT
 10
1797.0000000000141
 20
-707.0
 30
0.0
 11
1797.0000000000141
 21
-583.0
 31
0.0
1001
ACDBBLOCKREPETAG
1070
     1
1071
       87
1005
13A3C5
  0
LINE
  5
13A3C6
  8
CENTER
 10
1865.0000000000141
 20
-645.0000000000008
 30
0.0
 11
1775.0000000000141
 21
-645.0
 31
0.0
1001
ACDBBLOCKREPETAG
1070
     1
1071
       88
1005
13A3C6
  0
LINE
  5
13A3C7
  8
OBJECT
 10
1920.000000000018
 20
-758.0
 30
0.0
 11
1917.000000000015
 21
-758.0000000000008
 31
0.0
1001
ACDBBLOCKREPETAG
1070
     1
1071
       89
1005
13A3C7
  0
ARC
  5
13A3C8
  8
OBJECT
 10
1917.000000000015
 20
-755.00000000000102
 30
0.0
 40
3.0
 50
180.0
 51
270.0
1001
ACDBBLOCKREPETAG
1070
     1
1071
       90
1005
13A3C8
  0
LINE
  5
13A3C9
  8
OBJECT
 10
1797.0000000000141
 20
-586.0
 30
0.0
 11
1833.000000000015
 21
-586.0000000000008
 31
0.0
1001
ACDBBLOCKREPETAG
1070
     1
1071
       91
1005
13A3C9
  0
LINE
  5
13A3CA
  8
OBJECT
 10
1833.000000000015
 20
-586.0000000000008
 30
0.0
 11
1833.000000000015
 21
-704.0000000000008
 31
0.0
1001
ACDBBLOCKREPETAG
1070
     1
1071
       92
1005
13A3CA
  0
LINE
  5
13A3CB
  8
OBJECT
 10
1837.000000000015
 20
-590.5000000000008
 30
0.0
 11
1837.000000000015
 21
-699.5000000000008
 31
0.0
1001
ACDBBLOCKREPETAG
1070
     1
1071
       93
1005
13A3CB
  0
LINE
  5
13A3CC
  8
OBJECT
 10
1837.000000000015
 20
-590.5000000000008
 30
0.0
 11
1850.0000000000141
 21
-590.5000000000008
 31
0.0
1001
ACDBBLOCKREPETAG
1070
     1
1071
       94
1005
13A3CC
  0
LINE
  5
13A3CD
  8
OBJECT
 10
1833.000000000015
 20
-704.0000000000008
 30
0.0
 11
1797.0000000000141
 21
-704.0
 31
0.0
1001
ACDBBLOCKREPETAG
1070
     1
1071
       95
1005
13A3CD
  0
LINE
  5
13A3CE
  8
OBJECT
 10
1833.000000000015
 20
-586.0000000000008
 30
0.0
 11
1837.000000000015
 21
-590.5000000000008
 31
0.0
1001
ACDBBLOCKREPETAG
1070
     1
1071
       96
1005
13A3CE
  0
LINE
  5
13A3CF
  8
OBJECT
 10
1850.0000000000141
 20
-590.5000000000008
 30
0.0
 11
1850.0000000000141
 21
-675.74491827928784
 31
0.0
1001
ACDBBLOCKREPETAG
1070
     1
1071
       97
1005
13A3CF
  0
ARC
  5
13A3D0
  8
OBJECT
 10
1847.2000000000151
 20
-685.0000000000008
 30
0.0
 40
85.0
 50
36.869897645898732
 51
88.112268108168848
1001
ACDBBLOCKREPETAG
1070
     1
1071
       98
1005
13A3D0
  0
LINE
  5
13A3D1
  8
HIDDEN
 10
1842.0000000000141
 20
-600.50000000000068
 30
0.0
 11
1842.0000000000141
 21
-689.50000000000091
 31
0.0
1001
ACDBBLOCKREPETAG
1070
     1
1071
      100
1005
13A3D1
  0
LINE
  5
13A3D2
  8
OBJECT
 10
1914.0000000000141
 20
-751.07945073181781
 30
0.0
 11
1843.368680078969
 21
-699.5000000000008
 31
0.0
1001
ACDBBLOCKREPETAG
1070
     1
1071
      101
1005
13A3D2
  0
LINE
  5
13A3D3
  8
OBJECT
 10
1920.000000000018
 20
-634.0
 30
0.0
 11
1915.2000000000151
 21
-634.0
 31
0.0
1001
ACDBBLOCKREPETAG
1070
     1
1071
      102
1005
13A3D3
  0
LINE
  5
13A3D4
  8
OBJECT
 10
1914.0000000000141
 20
-653.35026377573013
 30
0.0
 11
1915.2000000000151
 21
-634.0
 31
0.0
1001
ACDBBLOCKREPETAG
1070
     1
1071
      103
1005
13A3D4
  0
LINE
  5
13A3D5
  8
OBJECT
 10
1837.000000000015
 20
-699.5000000000008
 30
0.0
 11
1843.368680078969
 21
-699.5000000000008
 31
0.0
1001
ACDBBLOCKREPETAG
1070
     1
1071
      104
1005
13A3D5
  0
LINE
  5
13A3D6
  8
OBJECT
 10
1833.000000000015
 20
-704.0000000000008
 30
0.0
 11
1837.000000000015
 21
-699.5000000000008
 31
0.0
1001
ACDBBLOCKREPETAG
1070
     1
1071
      105
1005
13A3D6
  0
CIRCLE
  5
13A3D7
  8
OBJECT
 10
2000.0
 20
-696.0
 30
0.0
 40
62.0
1001
ACDBBLOCKREPETAG
1070
     1
1071
        0
1005
13A3D7
  0
LINE
  5
13A3D8
  8
OBJECT
 10
2202.9999999999859
 20
-583.0000000000008
 30
0.0
 11
2209.9999999999859
 21
-583.0000000000008
 31
0.0
1001
ACDBBLOCKREPETAG
1070
     1
1071
       83
1005
13A3D8
  0
LINE
  5
13A3D9
  8
OBJECT
 10
2209.9999999999859
 20
-583.0000000000008
 30
0.0
 11
2209.9999999999859
 21
-707.00000000000091
 31
0.0
1001
ACDBBLOCKREPETAG
1070
     1
1071
       84
1005
13A3D9
  0
LINE
  5
13A3DA
  8
OBJECT
 10
2085.9999999999859
 20
-653.3502637757274
 30
0.0
 11
2085.9999999999859
 21
-755.00000000000102
 31
0.0
1001
ACDBBLOCKREPETAG
1070
     1
1071
       85
1005
13A3DA
  0
LINE
  5
13A3DB
  8
OBJECT
 10
2209.9999999999859
 20
-707.00000000000091
 30
0.0
 11
2202.9999999999859
 21
-707.00000000000091
 31
0.0
1001
ACDBBLOCKREPETAG
1070
     1
1071
       86
1005
13A3DB
  0
LINE
  5
13A3DC
  8
OBJECT
 10
2202.9999999999859
 20
-707.00000000000091
 30
0.0
 11
2202.9999999999859
 21
-583.0000000000008
 31
0.0
1001
ACDBBLOCKREPETAG
1070
     1
1071
       87
1005
13A3DC
  0
LINE
  5
13A3DD
  8
CENTER
 10
2134.9999999999859
 20
-645.0000000000008
 30
0.0
 11
2224.999999999985
 21
-645.0000000000008
 31
0.0
1001
ACDBBLOCKREPETAG
1070
     1
1071
       88
1005
13A3DD
  0
LINE
  5
13A3DE
  8
OBJECT
 10
2079.9999999999809
 20
-758.0
 30
0.0
 11
2082.999999999985
 21
-758.0000000000008
 31
0.0
1001
ACDBBLOCKREPETAG
1070
     1
1071
       89
1005
13A3DE
  0
ARC
  5
13A3DF
  8
OBJECT
 10
2082.999999999985
 20
-755.00000000000102
 30
0.0
 40
3.0
 50
270.0
 51
0.0
1001
ACDBBLOCKREPETAG
1070
     1
1071
       90
1005
13A3DF
  0
LINE
  5
13A3E0
  8
OBJECT
 10
2202.9999999999859
 20
-586.0000000000008
 30
0.0
 11
2166.9999999999859
 21
-586.0000000000008
 31
0.0
1001
ACDBBLOCKREPETAG
1070
     1
1071
       91
1005
13A3E0
  0
LINE
  5
13A3E1
  8
OBJECT
 10
2166.9999999999859
 20
-586.0000000000008
 30
0.0
 11
2166.9999999999859
 21
-704.0000000000008
 31
0.0
1001
ACDBBLOCKREPETAG
1070
     1
1071
       92
1005
13A3E1
  0
LINE
  5
13A3E2
  8
OBJECT
 10
2162.9999999999859
 20
-590.5000000000008
 30
0.0
 11
2162.9999999999859
 21
-699.5000000000008
 31
0.0
1001
ACDBBLOCKREPETAG
1070
     1
1071
       93
1005
13A3E2
  0
LINE
  5
13A3E3
  8
OBJECT
 10
2162.9999999999859
 20
-590.5000000000008
 30
0.0
 11
2149.9999999999859
 21
-590.5000000000008
 31
0.0
1001
ACDBBLOCKREPETAG
1070
     1
1071
       94
1005
13A3E3
  0
LINE
  5
13A3E4
  8
OBJECT
 10
2166.9999999999859
 20
-704.0000000000008
 30
0.0
 11
2202.9999999999859
 21
-704.0000000000008
 31
0.0
1001
ACDBBLOCKREPETAG
1070
     1
1071
       95
1005
13A3E4
  0
LINE
  5
13A3E5
  8
OBJECT
 10
2166.9999999999859
 20
-586.0000000000008
 30
0.0
 11
2162.9999999999859
 21
-590.5000000000008
 31
0.0
1001
ACDBBLOCKREPETAG
1070
     1
1071
       96
1005
13A3E5
  0
LINE
  5
13A3E6
  8
OBJECT
 10
2149.9999999999859
 20
-590.5000000000008
 30
0.0
 11
2149.9999999999859
 21
-675.74491827928784
 31
0.0
1001
ACDBBLOCKREPETAG
1070
     1
1071
       97
1005
13A3E6
  0
ARC
  5
13A3E7
  8
OBJECT
 10
2152.7999999999838
 20
-685.0000000000008
 30
0.0
 40
85.0
 50
91.887731891831123
 51
143.1301023540934
1001
ACDBBLOCKREPETAG
1070
     1
1071
       98
1005
13A3E7
  0
LINE
  5
13A3E8
  8
HIDDEN
 10
2157.9999999999859
 20
-600.50000000000068
 30
0.0
 11
2157.9999999999859
 21
-689.50000000000091
 31
0.0
1001
ACDBBLOCKREPETAG
1070
     1
1071
      100
1005
13A3E8
  0
LINE
  5
13A3E9
  8
OBJECT
 10
2085.9999999999859
 20
-751.07945073181781
 30
0.0
 11
2156.6313199210308
 21
-699.5000000000008
 31
0.0
1001
ACDBBLOCKREPETAG
1070
     1
1071
      101
1005
13A3E9
  0
LINE
  5
13A3EA
  8
OBJECT
 10
2079.9999999999809
 20
-634.0
 30
0.0
 11
2084.7999999999852
 21
-634.0
 31
0.0
1001
ACDBBLOCKREPETAG
1070
     1
1071
      102
1005
13A3EA
  0
LINE
  5
13A3EB
  8
OBJECT
 10
2085.9999999999859
 20
-653.35026377573013
 30
0.0
 11
2084.7999999999852
 21
-634.0
 31
0.0
1001
ACDBBLOCKREPETAG
1070
     1
1071
      103
1005
13A3EB
  0
LINE
  5
13A3EC
  8
OBJECT
 10
2162.9999999999859
 20
-699.5000000000008
 30
0.0
 11
2156.6313199210308
 21
-699.5000000000008
 31
0.0
1001
ACDBBLOCKREPETAG
1070
     1
1071
      104
1005
13A3EC
  0
LINE
  5
13A3ED
  8
OBJECT
 10
2166.9999999999859
 20
-704.0000000000008
 30
0.0
 11
2162.9999999999859
 21
-699.5000000000008
 31
0.0
1001
ACDBBLOCKREPETAG
1070
     1
1071
      105
1005
13A3ED
  0
LINE
  5
13A3EE
  8
OBJECT
 10
1923.0
 20
-571.0
 30
0.0
 11
1923.0
 21
-550.0
 31
0.0
1001
ACDBBLOCKREPETAG
1070
     1
1071
       38
1005
13A3EE
  0
LINE
  5
13A3EF
  8
OBJECT
 10
1923.0
 20
-550.0
 30
0.0
 11
2077.0
 21
-550.0
 31
0.0
1001
ACDBBLOCKREPETAG
1070
     1
1071
       39
1005
13A3EF
  0
LINE
  5
13A3F0
  8
HIDDEN
 10
1943.0
 20
-620.0
 30
0.0
 11
2057.0
 21
-620.0
 31
0.0
1001
ACDBBLOCKREPETAG
1070
     1
1071
       40
1005
13A3F0
  0
LINE
  5
13A3F1
  8
OBJECT
 10
2077.0
 20
-550.0
 30
0.0
 11
2077.0
 21
-571.0
 31
0.0
1001
ACDBBLOCKREPETAG
1070
     1
1071
       41
1005
13A3F1
  0
LINE
  5
13A3F2
  8
OBJECT
 10
2077.0
 20
-571.0
 30
0.0
 11
1923.0
 21
-571.0
 31
0.0
1001
ACDBBLOCKREPETAG
1070
     1
1071
       42
1005
13A3F2
  0
LINE
  5
13A3F3
  8
CENTER
 10
2000.0
 20
-535.0
 30
0.0
 11
2000.0
 21
-890.0
 31
0.0
1001
ACDBBLOCKREPETAG
1070
     1
1071
       43
1005
13A3F3
  0
LINE
  5
13A3F4
  8
OBJECT
 10
1928.0
 20
-571.0
 30
0.0
 11
1928.0
 21
-634.0
 31
0.0
1001
ACDBBLOCKREPETAG
1070
     1
1071
       44
1005
13A3F4
  0
LINE
  5
13A3F5
  8
OBJECT
 10
2072.0
 20
-634.0
 30
0.0
 11
2072.0
 21
-571.0
 31
0.0
1001
ACDBBLOCKREPETAG
1070
     1
1071
       45
1005
13A3F5
  0
LINE
  5
13A3F6
  8
OBJECT
 10
1920.0
 20
-878.0
 30
0.0
 11
2080.0
 21
-878.0
 31
0.0
1001
ACDBBLOCKREPETAG
1070
     1
1071
       46
1005
13A3F6
  0
LINE
  5
13A3F7
  8
OBJECT
 10
2080.0
 20
-634.0
 30
0.0
 11
1920.0
 21
-634.0
 31
0.0
1001
ACDBBLOCKREPETAG
1070
     1
1071
       47
1005
13A3F7
  0
LINE
  5
13A3F8
  8
OBJECT
 10
1920.0
 20
-878.0
 30
0.0
 11
1920.0
 21
-890.0
 31
0.0
1001
ACDBBLOCKREPETAG
1070
     1
1071
       48
1005
13A3F8
  0
LINE
  5
13A3F9
  8
OBJECT
 10
1920.0
 20
-890.0
 30
0.0
 11
2080.0
 21
-890.0
 31
0.0
1001
ACDBBLOCKREPETAG
1070
     1
1071
       49
1005
13A3F9
  0
LINE
  5
13A3FA
  8
OBJECT
 10
2080.0
 20
-890.0
 30
0.0
 11
2080.0
 21
-878.0
 31
0.0
1001
ACDBBLOCKREPETAG
1070
     1
1071
       50
1005
13A3FA
  0
LINE
  5
13A3FB
  8
OBJECT
 10
2074.9999999998622
 20
-757.99999999985096
 30
0.0
 11
2075.0
 21
-878.0
 31
0.0
1001
ACDBBLOCKREPETAG
1070
     1
1071
       54
1005
13A3FB
  0
LINE
  5
13A3FC
  8
OBJECT
 10
2074.9999908029849
 20
-757.99998602702181
 30
0.0
 11
2080.0
 21
-757.99998602702181
 31
0.0
1001
ACDBBLOCKREPETAG
1070
     1
1071
       55
1005
13A3FC
  0
LINE
  5
13A3FD
  8
OBJECT
 10
1925.000000000138
 20
-757.99999999985096
 30
0.0
 11
1925.0
 21
-878.0
 31
0.0
1001
ACDBBLOCKREPETAG
1070
     1
1071
       56
1005
13A3FD
  0
LINE
  5
13A3FE
  8
OBJECT
 10
1925.000009197013
 20
-757.99998602702181
 30
0.0
 11
1920.0
 21
-757.99998602702181
 31
0.0
1001
ACDBBLOCKREPETAG
1070
     1
1071
       57
1005
13A3FE
  0
ARC
  5
13A3FF
  8
OBJECT
 10
2200.6872746716731
 20
-749.40809941010752
 30
0.0
 40
170.6350503965856
 50
137.44134459184301
 51
149.91949581336559
1001
ACDBBLOCKREPETAG
1070
     1
1071
       58
1005
13A3FF
  0
ARC
  5
13A400
  8
OBJECT
 10
2200.6872746716731
 20
-642.59190058989225
 30
0.0
 40
170.6350503965856
 50
210.0805041866343
 51
222.55865540815699
1001
ACDBBLOCKREPETAG
1070
     1
1071
       59
1005
13A400
  0
ARC
  5
13A401
  8
OBJECT
 10
1799.312725328326
 20
-749.40809941010752
 30
0.0
 40
170.6350503965856
 50
30.080504186774089
 51
42.558655408382641
1001
ACDBBLOCKREPETAG
1070
     1
1071
       60
1005
13A401
  0
ARC
  5
13A402
  8
OBJECT
 10
1799.312725328326
 20
-642.59190058989225
 30
0.0
 40
170.6350503965856
 50
317.44134459161722
 51
329.91949581322592
1001
ACDBBLOCKREPETAG
1070
     1
1071
       61
1005
13A402
  0
POINT
  5
13A403
  8
DOTS
 10
2000.0
 20
-755.0
 30
0.0
1001
ACDBBLOCKREPETAG
1070
     1
1071
      185
1005
13A403
  0
LINE
  5
13A404
  8
SLIM
 10
11914.999999999991
 20
-759.47385309434696
 30
0.0
 11
11919.47385309434
 21
-754.99999999999955
 31
0.0
1001
ACAD
1010
0.0
1020
0.0
1030
0.0
1001
ACDBBLOCKREPETAG
1070
     1
1071
        0
1005
0
  0
LINE
  5
13A405
  8
SLIM
 10
11914.999999999991
 20
-777.43436533648446
 30
0.0
 11
11937.434365336479
 21
-754.99999999999955
 31
0.0
1001
ACAD
1010
0.0
1020
0.0
1030
0.0
1001
ACDBBLOCKREPETAG
1070
     1
1071
       10
1005
13A405
  0
LINE
  5
13A406
  8
SLIM
 10
11914.999999999991
 20
-795.39487757862241
 30
0.0
 11
11955.39487757861
 21
-754.99999999999955
 31
0.0
1001
ACAD
1010
0.0
1020
0.0
1030
0.0
1001
ACDBBLOCKREPETAG
1070
     1
1071
       11
1005
13A406
  0
LINE
  5
13A407
  8
SLIM
 10
11914.999999999991
 20
-813.35538982076014
 30
0.0
 11
11973.35538982075
 21
-754.99999999999955
 31
0.0
1001
ACAD
1010
0.0
1020
0.0
1030
0.0
1001
ACDBBLOCKREPETAG
1070
     1
1071
       12
1005
13A407
  0
LINE
  5
13A408
  8
SLIM
 10
11914.999999999991
 20
-831.31590206289775
 30
0.0
 11
11991.31590206289
 21
-754.99999999999955
 31
0.0
1001
ACAD
1010
0.0
1020
0.0
1030
0.0
1001
ACDBBLOCKREPETAG
1070
     1
1071
       13
1005
13A408
  0
LINE
  5
13A409
  8
SLIM
 10
11915.0
 20
-849.27641430503525
 30
0.0
 11
12009.27641430503
 21
-754.99999999999955
 31
0.0
1001
ACAD
1010
0.0
1020
0.0
1030
0.0
1001
ACDBBLOCKREPETAG
1070
     1
1071
       14
1005
13A409
  0
LINE
  5
13A40A
  8
SLIM
 10
11915.0
 20
-867.23692654717308
 30
0.0
 11
12027.23692654717
 21
-754.99999999999955
 31
0.0
1001
ACAD
1010
0.0
1020
0.0
1030
0.0
1001
ACDBBLOCKREPETAG
1070
     1
1071
       15
1005
13A40A
  0
LINE
  5
13A40B
  8
SLIM
 10
11915.0
 20
-885.19743878931092
 30
0.0
 11
12045.19743878931
 21
-754.99999999999955
 31
0.0
1001
ACAD
1010
0.0
1020
0.0
1030
0.0
1001
ACDBBLOCKREPETAG
1070
     1
1071
       16
1005
13A40B
  0
LINE
  5
13A40C
  8
SLIM
 10
11915.0
 20
-903.15795103144865
 30
0.0
 11
12063.15795103144
 21
-754.99999999999955
 31
0.0
1001
ACAD
1010
0.0
1020
0.0
1030
0.0
1001
ACDBBLOCKREPETAG
1070
     1
1071
       17
1005
13A40C
  0
LINE
  5
13A40D
  8
SLIM
 10
11915.0
 20
-921.11846327358626
 30
0.0
 11
12081.11846327358
 21
-754.99999999999955
 31
0.0
1001
ACAD
1010
0.0
1020
0.0
1030
0.0
1001
ACDBBLOCKREPETAG
1070
     1
1071
       18
1005
13A40D
  0
LINE
  5
13A40E
  8
SLIM
 10
11915.0
 20
-939.07897551572387
 30
0.0
 11
12085.000000000009
 21
-769.07897551571614
 31
0.0
1001
ACAD
1010
0.0
1020
0.0
1030
0.0
1001
ACDBBLOCKREPETAG
1070
     1
1071
       19
1005
13A40E
  0
LINE
  5
13A40F
  8
SLIM
 10
11915.0
 20
-957.03948775786182
 30
0.0
 11
12085.0
 21
-787.03948775785511
 31
0.0
1001
ACAD
1010
0.0
1020
0.0
1030
0.0
1001
ACDBBLOCKREPETAG
1070
     1
1071
       20
1005
13A40F
  0
LINE
  5
13A410
  8
SLIM
 10
11915.28360074955
 20
-974.71639925044155
 30
0.0
 11
12085.0
 21
-804.99999999999375
 31
0.0
1001
ACAD
1010
0.0
1020
0.0
1030
0.0
1001
ACDBBLOCKREPETAG
1070
     1
1071
       21
1005
13A410
  0
LINE
  5
13A411
  8
SLIM
 10
11917.49791047804
 20
-990.46260176409658
 30
0.0
 11
12085.0
 21
-822.96051224213306
 31
0.0
1001
ACAD
1010
0.0
1020
0.0
1030
0.0
1001
ACDBBLOCKREPETAG
1070
     1
1071
       22
1005
13A411
  0
LINE
  5
13A412
  8
SLIM
 10
11919.71222020652
 20
-1006.2088042777521
 30
0.0
 11
12085.0
 21
-840.92102448427181
 31
0.0
1001
ACAD
1010
0.0
1020
0.0
1030
0.0
1001
ACDBBLOCKREPETAG
1070
     1
1071
       23
1005
13A412
  0
LINE
  5
13A413
  8
SLIM
 10
11921.926529935001
 20
-1021.955006791408
 30
0.0
 11
12085.0
 21
-858.88153672641045
 31
0.0
1001
ACAD
1010
0.0
1020
0.0
1030
0.0
1001
ACDBBLOCKREPETAG
1070
     1
1071
       24
1005
13A413
  0
LINE
  5
13A414
  8
SLIM
 10
11924.140839663491
 20
-1037.701209305063
 30
0.0
 11
12085.0
 21
-876.84204896854942
 31
0.0
1001
ACAD
1010
0.0
1020
0.0
1030
0.0
1001
ACDBBLOCKREPETAG
1070
     1
1071
       25
1005
13A414
  0
LINE
  5
13A415
  8
SLIM
 10
11926.35514939196
 20
-1053.4474118187179
 30
0.0
 11
12085.0
 21
-894.80256121068851
 31
0.0
1001
ACAD
1010
0.0
1020
0.0
1030
0.0
1001
ACDBBLOCKREPETAG
1070
     1
1071
       26
1005
13A415
  0
LINE
  5
13A416
  8
SLIM
 10
11928.56945912045
 20
-1069.193614332373
 30
0.0
 11
12085.0
 21
-912.76307345282714
 31
0.0
1001
ACAD
1010
0.0
1020
0.0
1030
0.0
1001
ACDBBLOCKREPETAG
1070
     1
1071
       27
1005
13A416
  0
LINE
  5
13A417
  8
SLIM
 10
11930.78376884894
 20
-1084.9398168460291
 30
0.0
 11
12085.0
 21
-930.72358569496646
 31
0.0
1001
ACAD
1010
0.0
1020
0.0
1030
0.0
1001
ACDBBLOCKREPETAG
1070
     1
1071
       28
1005
13A417
  0
LINE
  5
13A418
  8
SLIM
 10
11932.998078577421
 20
-1100.6860193596849
 30
0.0
 11
12085.0
 21
-948.68409793710521
 31
0.0
1001
ACAD
1010
0.0
1020
0.0
1030
0.0
1001
ACDBBLOCKREPETAG
1070
     1
1071
       29
1005
13A418
  0
LINE
  5
13A419
  8
SLIM
 10
11932.999999999991
 20
-1118.644610179251
 30
0.0
 11
12085.0
 21
-966.64461017924395
 31
0.0
1001
ACAD
1010
0.0
1020
0.0
1030
0.0
1001
ACDBBLOCKREPETAG
1070
     1
1071
       30
1005
13A419
  0
LINE
  5
13A41A
  8
SLIM
 10
11932.999999999991
 20
-1136.60512242139
 30
0.0
 11
12083.05183715436
 21
-986.55328526701646
 31
0.0
1001
ACAD
1010
0.0
1020
0.0
1030
0.0
1001
ACDBBLOCKREPETAG
1070
     1
1071
       31
1005
13A41A
  0
LINE
  5
13A41B
  8
SLIM
 10
11942.565634663521
 20
-1144.9999999999959
 30
0.0
 11
12080.112844242019
 21
-1007.452790421504
 31
0.0
1001
ACAD
1010
0.0
1020
0.0
1030
0.0
1001
ACDBBLOCKREPETAG
1070
     1
1071
       32
1005
13A41B
  0
LINE
  5
13A41C
  8
SLIM
 10
11960.52614690566
 20
-1144.9999999999959
 30
0.0
 11
12077.17385132967
 21
-1028.3522955759911
 31
0.0
1001
ACAD
1010
0.0
1020
0.0
1030
0.0
1001
ACDBBLOCKREPETAG
1070
     1
1071
       33
1005
13A41C
  0
LINE
  5
13A41D
  8
SLIM
 10
11978.4866591478
 20
-1144.999999999997
 30
0.0
 11
12074.23485841732
 21
-1049.251800730478
 31
0.0
1001
ACAD
1010
0.0
1020
0.0
1030
0.0
1001
ACDBBLOCKREPETAG
1070
     1
1071
       34
1005
13A41D
  0
LINE
  5
13A41E
  8
SLIM
 10
11996.44717138994
 20
-1144.999999999998
 30
0.0
 11
12071.29586550497
 21
-1070.151305884966
 31
0.0
1001
ACAD
1010
0.0
1020
0.0
1030
0.0
1001
ACDBBLOCKREPETAG
1070
     1
1071
       35
1005
13A41E
  0
LINE
  5
13A41F
  8
SLIM
 10
12014.40768363208
 20
-1144.999999999998
 30
0.0
 11
12068.35687259262
 21
-1091.050811039453
 31
0.0
1001
ACAD
1010
0.0
1020
0.0
1030
0.0
1001
ACDBBLOCKREPETAG
1070
     1
1071
       36
1005
13A41F
  0
LINE
  5
13A420
  8
SLIM
 10
12032.368195874211
 20
-1144.999999999998
 30
0.0
 11
12067.0
 21
-1110.3681958742011
 31
0.0
1001
ACAD
1010
0.0
1020
0.0
1030
0.0
1001
ACDBBLOCKREPETAG
1070
     1
1071
       37
1005
13A420
  0
LINE
  5
13A421
  8
SLIM
 10
12050.328708116351
 20
-1144.9999999999991
 30
0.0
 11
12067.0
 21
-1128.3287081163401
 31
0.0
1001
ACAD
1010
0.0
1020
0.0
1030
0.0
1001
ACDBBLOCKREPETAG
1070
     1
1071
       38
1005
13A421
  0
LINE
  5
13A422
  8
OBJECT
 10
11932.999999999991
 20
-1144.9999999999959
 30
0.0
 11
12067.0
 21
-1144.9999999999991
 31
0.0
1001
ACDBBLOCKREPETAG
1070
     1
1071
        1
1005
13A422
  0
LINE
  5
13A423
  8
OBJECT
 10
11914.999999999991
 20
-754.99999999999955
 30
0.0
 11
11915.0
 21
-972.69968280914077
 31
0.0
1001
ACDBBLOCKREPETAG
1070
     1
1071
        2
1005
13A423
  0
LINE
  5
13A424
  8
OBJECT
 10
12085.000000000009
 20
-754.99999999999955
 30
0.0
 11
12085.0
 21
-972.69968280917215
 31
0.0
1001
ACDBBLOCKREPETAG
1070
     1
1071
        3
1005
13A424
  0
LINE
  5
13A425
  8
OBJECT
 10
11915.0
 20
-972.69968280914077
 30
0.0
 11
11932.999999999991
 21
-1100.699682809081
 31
0.0
1001
ACDBBLOCKREPETAG
1070
     1
1071
        4
1005
13A425
  0
LINE
  5
13A426
  8
OBJECT
 10
12067.0
 20
-1100.699682809128
 30
0.0
 11
12085.0
 21
-972.69968280917215
 31
0.0
1001
ACDBBLOCKREPETAG
1070
     1
1071
        5
1005
13A426
  0
LINE
  5
13A427
  8
OBJECT
 10
12085.000000000009
 20
-754.99999999999955
 30
0.0
 11
11914.999999999991
 21
-754.99999999999955
 31
0.0
1001
ACDBBLOCKREPETAG
1070
     1
1071
        6
1005
13A427
  0
LINE
  5
13A428
  8
OBJECT
 10
11932.999999999991
 20
-1100.699682809081
 30
0.0
 11
11932.999999999991
 21
-1144.9999999999959
 31
0.0
1001
ACDBBLOCKREPETAG
1070
     1
1071
        8
1005
13A428
  0
LINE
  5
13A429
  8
OBJECT
 10
12067.0
 20
-1100.699682809128
 30
0.0
 11
12067.0
 21
-1144.9999999999991
 31
0.0
1001
ACDBBLOCKREPETAG
1070
     1
1071
        9
1005
13A429
  0
LINE
  5
13A42A
  8
SLIM
 10
9914.9999999999927
 20
-759.47385309434696
 30
0.0
 11
9919.4738530943396
 21
-754.99999999999955
 31
0.0
1001
ACAD
1010
0.0
1020
0.0
1030
0.0
1001
ACDBBLOCKREPETAG
1070
     1
1071
        0
1005
0
  0
LINE
  5
13A42B
  8
SLIM
 10
9914.9999999999927
 20
-777.43436533648446
 30
0.0
 11
9937.4343653364795
 21
-754.99999999999955
 31
0.0
1001
ACAD
1010
0.0
1020
0.0
1030
0.0
1001
ACDBBLOCKREPETAG
1070
     1
1071
       10
1005
13A42B
  0
LINE
  5
13A42C
  8
SLIM
 10
9914.9999999999945
 20
-795.39487757862241
 30
0.0
 11
9955.3948775786212
 21
-754.99999999999955
 31
0.0
1001
ACAD
1010
0.0
1020
0.0
1030
0.0
1001
ACDBBLOCKREPETAG
1070
     1
1071
       11
1005
13A42C
  0
LINE
  5
13A42D
  8
SLIM
 10
9914.9999999999945
 20
-813.35538982076014
 30
0.0
 11
9973.3553898207556
 21
-754.99999999999955
 31
0.0
1001
ACAD
1010
0.0
1020
0.0
1030
0.0
1001
ACDBBLOCKREPETAG
1070
     1
1071
       12
1005
13A42D
  0
LINE
  5
13A42E
  8
SLIM
 10
9914.9999999999945
 20
-831.31590206289775
 30
0.0
 11
9991.3159020628937
 21
-754.99999999999955
 31
0.0
1001
ACAD
1010
0.0
1020
0.0
1030
0.0
1001
ACDBBLOCKREPETAG
1070
     1
1071
       13
1005
13A42E
  0
LINE
  5
13A42F
  8
SLIM
 10
9914.9999999999964
 20
-849.27641430503525
 30
0.0
 11
10009.27641430503
 21
-754.99999999999955
 31
0.0
1001
ACAD
1010
0.0
1020
0.0
1030
0.0
1001
ACDBBLOCKREPETAG
1070
     1
1071
       14
1005
13A42F
  0
LINE
  5
13A430
  8
SLIM
 10
9914.9999999999964
 20
-867.23692654717308
 30
0.0
 11
10027.23692654717
 21
-754.99999999999955
 31
0.0
1001
ACAD
1010
0.0
1020
0.0
1030
0.0
1001
ACDBBLOCKREPETAG
1070
     1
1071
       15
1005
13A430
  0
LINE
  5
13A431
  8
SLIM
 10
9914.9999999999964
 20
-885.19743878931092
 30
0.0
 11
10045.19743878931
 21
-754.99999999999955
 31
0.0
1001
ACAD
1010
0.0
1020
0.0
1030
0.0
1001
ACDBBLOCKREPETAG
1070
     1
1071
       16
1005
13A431
  0
LINE
  5
13A432
  8
SLIM
 10
9914.9999999999982
 20
-903.15795103144865
 30
0.0
 11
10063.15795103144
 21
-754.99999999999955
 31
0.0
1001
ACAD
1010
0.0
1020
0.0
1030
0.0
1001
ACDBBLOCKREPETAG
1070
     1
1071
       17
1005
13A432
  0
LINE
  5
13A433
  8
SLIM
 10
9914.9999999999982
 20
-921.11846327358626
 30
0.0
 11
10081.11846327358
 21
-754.99999999999955
 31
0.0
1001
ACAD
1010
0.0
1020
0.0
1030
0.0
1001
ACDBBLOCKREPETAG
1070
     1
1071
       18
1005
13A433
  0
LINE
  5
13A434
  8
SLIM
 10
9914.9999999999982
 20
-939.07897551572387
 30
0.0
 11
10085.000000000009
 21
-769.07897551571614
 31
0.0
1001
ACAD
1010
0.0
1020
0.0
1030
0.0
1001
ACDBBLOCKREPETAG
1070
     1
1071
       19
1005
13A434
  0
LINE
  5
13A435
  8
SLIM
 10
9915.0
 20
-957.03948775786182
 30
0.0
 11
10085.0
 21
-787.03948775785511
 31
0.0
1001
ACAD
1010
0.0
1020
0.0
1030
0.0
1001
ACDBBLOCKREPETAG
1070
     1
1071
       20
1005
13A435
  0
LINE
  5
13A436
  8
SLIM
 10
9915.2836007495607
 20
-974.71639925044155
 30
0.0
 11
10085.0
 21
-804.99999999999375
 31
0.0
1001
ACAD
1010
0.0
1020
0.0
1030
0.0
1001
ACDBBLOCKREPETAG
1070
     1
1071
       21
1005
13A436
  0
LINE
  5
13A437
  8
SLIM
 10
9917.4979104780396
 20
-990.46260176409658
 30
0.0
 11
10085.0
 21
-822.96051224213306
 31
0.0
1001
ACAD
1010
0.0
1020
0.0
1030
0.0
1001
ACDBBLOCKREPETAG
1070
     1
1071
       22
1005
13A437
  0
LINE
  5
13A438
  8
SLIM
 10
9919.7122202065257
 20
-1006.2088042777521
 30
0.0
 11
10085.0
 21
-840.92102448427181
 31
0.0
1001
ACAD
1010
0.0
1020
0.0
1030
0.0
1001
ACDBBLOCKREPETAG
1070
     1
1071
       23
1005
13A438
  0
LINE
  5
13A439
  8
SLIM
 10
9921.9265299350063
 20
-1021.955006791408
 30
0.0
 11
10085.0
 21
-858.88153672641045
 31
0.0
1001
ACAD
1010
0.0
1020
0.0
1030
0.0
1001
ACDBBLOCKREPETAG
1070
     1
1071
       24
1005
13A439
  0
LINE
  5
13A43A
  8
SLIM
 10
9924.1408396634924
 20
-1037.701209305063
 30
0.0
 11
10085.0
 21
-876.84204896854942
 31
0.0
1001
ACAD
1010
0.0
1020
0.0
1030
0.0
1001
ACDBBLOCKREPETAG
1070
     1
1071
       25
1005
13A43A
  0
LINE
  5
13A43B
  8
SLIM
 10
9926.3551493919731
 20
-1053.4474118187179
 30
0.0
 11
10085.0
 21
-894.80256121068851
 31
0.0
1001
ACAD
1010
0.0
1020
0.0
1030
0.0
1001
ACDBBLOCKREPETAG
1070
     1
1071
       26
1005
13A43B
  0
LINE
  5
13A43C
  8
SLIM
 10
9928.5694591204574
 20
-1069.193614332373
 30
0.0
 11
10085.0
 21
-912.76307345282714
 31
0.0
1001
ACAD
1010
0.0
1020
0.0
1030
0.0
1001
ACDBBLOCKREPETAG
1070
     1
1071
       27
1005
13A43C
  0
LINE
  5
13A43D
  8
SLIM
 10
9930.7837688489417
 20
-1084.9398168460291
 30
0.0
 11
10085.0
 21
-930.72358569496646
 31
0.0
1001
ACAD
1010
0.0
1020
0.0
1030
0.0
1001
ACDBBLOCKREPETAG
1070
     1
1071
       28
1005
13A43D
  0
LINE
  5
13A43E
  8
SLIM
 10
9932.9980785774187
 20
-1100.6860193596849
 30
0.0
 11
10085.0
 21
-948.68409793710521
 31
0.0
1001
ACAD
1010
0.0
1020
0.0
1030
0.0
1001
ACDBBLOCKREPETAG
1070
     1
1071
       29
1005
13A43E
  0
LINE
  5
13A43F
  8
SLIM
 10
9932.9999999999927
 20
-1118.644610179251
 30
0.0
 11
10085.0
 21
-966.64461017924395
 31
0.0
1001
ACAD
1010
0.0
1020
0.0
1030
0.0
1001
ACDBBLOCKREPETAG
1070
     1
1071
       30
1005
13A43F
  0
LINE
  5
13A440
  8
SLIM
 10
9932.9999999999927
 20
-1136.60512242139
 30
0.0
 11
10083.05183715436
 21
-986.55328526701646
 31
0.0
1001
ACAD
1010
0.0
1020
0.0
1030
0.0
1001
ACDBBLOCKREPETAG
1070
     1
1071
       31
1005
13A440
  0
LINE
  5
13A441
  8
SLIM
 10
9942.5656346635242
 20
-1144.9999999999959
 30
0.0
 11
10080.11284424201
 21
-1007.452790421504
 31
0.0
1001
ACAD
1010
0.0
1020
0.0
1030
0.0
1001
ACDBBLOCKREPETAG
1070
     1
1071
       32
1005
13A441
  0
LINE
  5
13A442
  8
SLIM
 10
9960.5261469056641
 20
-1144.9999999999959
 30
0.0
 11
10077.17385132967
 21
-1028.3522955759911
 31
0.0
1001
ACAD
1010
0.0
1020
0.0
1030
0.0
1001
ACDBBLOCKREPETAG
1070
     1
1071
       33
1005
13A442
  0
LINE
  5
13A443
  8
SLIM
 10
9978.4866591478003
 20
-1144.999999999997
 30
0.0
 11
10074.23485841732
 21
-1049.251800730478
 31
0.0
1001
ACAD
1010
0.0
1020
0.0
1030
0.0
1001
ACDBBLOCKREPETAG
1070
     1
1071
       34
1005
13A443
  0
LINE
  5
13A444
  8
SLIM
 10
9996.4471713899384
 20
-1144.999999999998
 30
0.0
 11
10071.29586550497
 21
-1070.151305884966
 31
0.0
1001
ACAD
1010
0.0
1020
0.0
1030
0.0
1001
ACDBBLOCKREPETAG
1070
     1
1071
       35
1005
13A444
  0
LINE
  5
13A445
  8
SLIM
 10
10014.40768363206
 20
-1144.999999999998
 30
0.0
 11
10068.35687259262
 21
-1091.050811039453
 31
0.0
1001
ACAD
1010
0.0
1020
0.0
1030
0.0
1001
ACDBBLOCKREPETAG
1070
     1
1071
       36
1005
13A445
  0
LINE
  5
13A446
  8
SLIM
 10
10032.368195874211
 20
-1144.999999999998
 30
0.0
 11
10067.000000000009
 21
-1110.3681958742011
 31
0.0
1001
ACAD
1010
0.0
1020
0.0
1030
0.0
1001
ACDBBLOCKREPETAG
1070
     1
1071
       37
1005
13A446
  0
LINE
  5
13A447
  8
SLIM
 10
10050.328708116351
 20
-1144.9999999999991
 30
0.0
 11
10067.000000000009
 21
-1128.3287081163401
 31
0.0
1001
ACAD
1010
0.0
1020
0.0
1030
0.0
1001
ACDBBLOCKREPETAG
1070
     1
1071
       38
1005
13A447
  0
LINE
  5
13A448
  8
OBJECT
 10
9932.9999999999927
 20
-1144.9999999999959
 30
0.0
 11
10067.000000000009
 21
-1144.9999999999991
 31
0.0
1001
ACDBBLOCKREPETAG
1070
     1
1071
        1
1005
13A448
  0
LINE
  5
13A449
  8
OBJECT
 10
9914.9999999999927
 20
-754.99999999999955
 30
0.0
 11
9915.0
 21
-972.69968280914077
 31
0.0
1001
ACDBBLOCKREPETAG
1070
     1
1071
        2
1005
13A449
  0
LINE
  5
13A44A
  8
OBJECT
 10
10085.000000000009
 20
-754.99999999999955
 30
0.0
 11
10085.0
 21
-972.69968280917215
 31
0.0
1001
ACDBBLOCKREPETAG
1070
     1
1071
        3
1005
13A44A
  0
LINE
  5
13A44B
  8
OBJECT
 10
9915.0
 20
-972.69968280914077
 30
0.0
 11
9932.9999999999927
 21
-1100.699682809081
 31
0.0
1001
ACDBBLOCKREPETAG
1070
     1
1071
        4
1005
13A44B
  0
LINE
  5
13A44C
  8
OBJECT
 10
10067.000000000009
 20
-1100.699682809128
 30
0.0
 11
10085.0
 21
-972.69968280917215
 31
0.0
1001
ACDBBLOCKREPETAG
1070
     1
1071
        5
1005
13A44C
  0
LINE
  5
13A44D
  8
OBJECT
 10
10085.000000000009
 20
-754.99999999999955
 30
0.0
 11
9914.9999999999927
 21
-754.99999999999955
 31
0.0
1001
ACDBBLOCKREPETAG
1070
     1
1071
        6
1005
13A44D
  0
LINE
  5
13A44E
  8
OBJECT
 10
9932.9999999999927
 20
-1100.699682809081
 30
0.0
 11
9932.9999999999927
 21
-1144.9999999999959
 31
0.0
1001
ACDBBLOCKREPETAG
1070
     1
1071
        8
1005
13A44E
  0
LINE
  5
13A44F
  8
OBJECT
 10
10067.000000000009
 20
-1100.699682809128
 30
0.0
 11
10067.000000000009
 21
-1144.9999999999991
 31
0.0
1001
ACDBBLOCKREPETAG
1070
     1
1071
        9
1005
13A44F
  0
LINE
  5
13A450
  8
SLIM
 10
7914.9999999999918
 20
-759.47385309434696
 30
0.0
 11
7919.4738530943414
 21
-754.99999999999955
 31
0.0
1001
ACAD
1010
0.0
1020
0.0
1030
0.0
1001
ACDBBLOCKREPETAG
1070
     1
1071
        0
1005
0
  0
LINE
  5
13A451
  8
SLIM
 10
7914.9999999999918
 20
-777.43436533648446
 30
0.0
 11
7937.4343653364776
 21
-754.99999999999955
 31
0.0
1001
ACAD
1010
0.0
1020
0.0
1030
0.0
1001
ACDBBLOCKREPETAG
1070
     1
1071
       11
1005
13A451
  0
LINE
  5
13A452
  8
SLIM
 10
7914.9999999999918
 20
-795.39487757862241
 30
0.0
 11
7955.3948775786157
 21
-754.99999999999955
 31
0.0
1001
ACAD
1010
0.0
1020
0.0
1030
0.0
1001
ACDBBLOCKREPETAG
1070
     1
1071
       12
1005
13A452
  0
LINE
  5
13A453
  8
SLIM
 10
7914.9999999999964
 20
-813.35538982076014
 30
0.0
 11
7973.3553898207538
 21
-754.99999999999955
 31
0.0
1001
ACAD
1010
0.0
1020
0.0
1030
0.0
1001
ACDBBLOCKREPETAG
1070
     1
1071
       13
1005
13A453
  0
LINE
  5
13A454
  8
SLIM
 10
7914.9999999999982
 20
-831.31590206289775
 30
0.0
 11
7991.3159020628918
 21
-754.99999999999955
 31
0.0
1001
ACAD
1010
0.0
1020
0.0
1030
0.0
1001
ACDBBLOCKREPETAG
1070
     1
1071
       14
1005
13A454
  0
LINE
  5
13A455
  8
SLIM
 10
7914.9999999999982
 20
-849.27641430503559
 30
0.0
 11
8009.2764143050308
 21
-754.99999999999955
 31
0.0
1001
ACAD
1010
0.0
1020
0.0
1030
0.0
1001
ACDBBLOCKREPETAG
1070
     1
1071
       15
1005
13A455
  0
LINE
  5
13A456
  8
SLIM
 10
7914.9999999999982
 20
-867.23692654717308
 30
0.0
 11
8027.2369265471707
 21
-754.99999999999955
 31
0.0
1001
ACAD
1010
0.0
1020
0.0
1030
0.0
1001
ACDBBLOCKREPETAG
1070
     1
1071
       16
1005
13A456
  0
LINE
  5
13A457
  8
SLIM
 10
7914.9999999999982
 20
-885.19743878931092
 30
0.0
 11
8045.1974387893079
 21
-754.99999999999955
 31
0.0
1001
ACAD
1010
0.0
1020
0.0
1030
0.0
1001
ACDBBLOCKREPETAG
1070
     1
1071
       17
1005
13A457
  0
LINE
  5
13A458
  8
SLIM
 10
7914.9999999999982
 20
-903.15795103144865
 30
0.0
 11
8063.1579510314468
 21
-754.99999999999955
 31
0.0
1001
ACAD
1010
0.0
1020
0.0
1030
0.0
1001
ACDBBLOCKREPETAG
1070
     1
1071
       18
1005
13A458
  0
LINE
  5
13A459
  8
SLIM
 10
7914.9999999999982
 20
-921.11846327358626
 30
0.0
 11
8081.118463273584
 21
-754.99999999999955
 31
0.0
1001
ACAD
1010
0.0
1020
0.0
1030
0.0
1001
ACDBBLOCKREPETAG
1070
     1
1071
       19
1005
13A459
  0
LINE
  5
13A45A
  8
SLIM
 10
7914.9999999999982
 20
-939.07897551572387
 30
0.0
 11
8085.0000000000064
 21
-769.07897551571614
 31
0.0
1001
ACAD
1010
0.0
1020
0.0
1030
0.0
1001
ACDBBLOCKREPETAG
1070
     1
1071
       20
1005
13A45A
  0
LINE
  5
13A45B
  8
SLIM
 10
7914.9999999999982
 20
-957.03948775786182
 30
0.0
 11
8085.0000000000064
 21
-787.03948775785511
 31
0.0
1001
ACAD
1010
0.0
1020
0.0
1030
0.0
1001
ACDBBLOCKREPETAG
1070
     1
1071
       21
1005
13A45B
  0
LINE
  5
13A45C
  8
SLIM
 10
7915.283600749558
 20
-974.71639925044155
 30
0.0
 11
8085.0000000000064
 21
-804.99999999999375
 31
0.0
1001
ACAD
1010
0.0
1020
0.0
1030
0.0
1001
ACDBBLOCKREPETAG
1070
     1
1071
       22
1005
13A45C
  0
LINE
  5
13A45D
  8
SLIM
 10
7917.4979104780423
 20
-990.46260176409658
 30
0.0
 11
8085.0000000000064
 21
-822.96051224213306
 31
0.0
1001
ACAD
1010
0.0
1020
0.0
1030
0.0
1001
ACDBBLOCKREPETAG
1070
     1
1071
       23
1005
13A45D
  0
LINE
  5
13A45E
  8
SLIM
 10
7919.7122202065239
 20
-1006.2088042777521
 30
0.0
 11
8085.0000000000064
 21
-840.92102448427181
 31
0.0
1001
ACAD
1010
0.0
1020
0.0
1030
0.0
1001
ACDBBLOCKREPETAG
1070
     1
1071
       24
1005
13A45E
  0
LINE
  5
13A45F
  8
SLIM
 10
7921.9265299350072
 20
-1021.955006791407
 30
0.0
 11
8085.0000000000018
 21
-858.88153672641045
 31
0.0
1001
ACAD
1010
0.0
1020
0.0
1030
0.0
1001
ACDBBLOCKREPETAG
1070
     1
1071
       25
1005
13A45F
  0
LINE
  5
13A460
  8
SLIM
 10
7924.1408396634897
 20
-1037.701209305063
 30
0.0
 11
8085.0000000000018
 21
-876.84204896854942
 31
0.0
1001
ACAD
1010
0.0
1020
0.0
1030
0.0
1001
ACDBBLOCKREPETAG
1070
     1
1071
       26
1005
13A460
  0
LINE
  5
13A461
  8
SLIM
 10
7926.3551493919731
 20
-1053.4474118187179
 30
0.0
 11
8085.0000000000018
 21
-894.80256121068851
 31
0.0
1001
ACAD
1010
0.0
1020
0.0
1030
0.0
1001
ACDBBLOCKREPETAG
1070
     1
1071
       27
1005
13A461
  0
LINE
  5
13A462
  8
SLIM
 10
7928.5694591204538
 20
-1069.193614332373
 30
0.0
 11
8085.0000000000018
 21
-912.76307345282714
 31
0.0
1001
ACAD
1010
0.0
1020
0.0
1030
0.0
1001
ACDBBLOCKREPETAG
1070
     1
1071
       28
1005
13A462
  0
LINE
  5
13A463
  8
SLIM
 10
7930.783768848939
 20
-1084.939816846028
 30
0.0
 11
8085.0000000000018
 21
-930.72358569496612
 31
0.0
1001
ACAD
1010
0.0
1020
0.0
1030
0.0
1001
ACDBBLOCKREPETAG
1070
     1
1071
       29
1005
13A463
  0
LINE
  5
13A464
  8
SLIM
 10
7932.9980785774214
 20
-1100.686019359684
 30
0.0
 11
8085.0
 21
-948.68409793710521
 31
0.0
1001
ACAD
1010
0.0
1020
0.0
1030
0.0
1001
ACDBBLOCKREPETAG
1070
     1
1071
       30
1005
13A464
  0
LINE
  5
13A465
  8
SLIM
 10
7943.0
 20
-1108.644610179244
 30
0.0
 11
7946.6446101792453
 21
-1104.999999999997
 31
0.0
1001
ACAD
1010
0.0
1020
0.0
1030
0.0
1001
ACDBBLOCKREPETAG
1070
     1
1071
       31
1005
13A465
  0
LINE
  5
13A466
  8
SLIM
 10
7946.6446101792453
 20
-1104.999999999997
 30
0.0
 11
8085.0
 21
-966.64461017924395
 31
0.0
1001
ACAD
1010
0.0
1020
0.0
1030
0.0
1001
ACDBBLOCKREPETAG
1070
     1
1071
       32
1005
13A466
  0
LINE
  5
13A467
  8
SLIM
 10
7944.6051224213861
 20
-1124.999999999998
 30
0.0
 11
7964.6051224213852
 21
-1104.999999999997
 31
0.0
1001
ACAD
1010
0.0
1020
0.0
1030
0.0
1001
ACDBBLOCKREPETAG
1070
     1
1071
       33
1005
13A467
  0
LINE
  5
13A468
  8
SLIM
 10
7964.6051224213852
 20
-1104.999999999997
 30
0.0
 11
8083.051837154364
 21
-986.55328526701703
 31
0.0
1001
ACAD
1010
0.0
1020
0.0
1030
0.0
1001
ACDBBLOCKREPETAG
1070
     1
1071
       34
1005
13A468
  0
LINE
  5
13A469
  8
SLIM
 10
7962.5656346635242
 20
-1124.999999999998
 30
0.0
 11
7982.5656346635215
 21
-1104.999999999997
 31
0.0
1001
ACAD
1010
0.0
1020
0.0
1030
0.0
1001
ACDBBLOCKREPETAG
1070
     1
1071
       35
1005
13A469
  0
LINE
  5
13A46A
  8
SLIM
 10
7982.5656346635215
 20
-1104.999999999997
 30
0.0
 11
8080.1128442420159
 21
-1007.452790421505
 31
0.0
1001
ACAD
1010
0.0
1020
0.0
1030
0.0
1001
ACDBBLOCKREPETAG
1070
     1
1071
       36
1005
13A46A
  0
LINE
  5
13A46B
  8
SLIM
 10
7980.5261469056622
 20
-1124.999999999998
 30
0.0
 11
8000.5261469056613
 21
-1104.999999999997
 31
0.0
1001
ACAD
1010
0.0
1020
0.0
1030
0.0
1001
ACDBBLOCKREPETAG
1070
     1
1071
       37
1005
13A46B
  0
LINE
  5
13A46C
  8
SLIM
 10
8000.5261469056613
 20
-1104.999999999997
 30
0.0
 11
8077.1738513296659
 21
-1028.352295575992
 31
0.0
1001
ACAD
1010
0.0
1020
0.0
1030
0.0
1001
ACDBBLOCKREPETAG
1070
     1
1071
       38
1005
13A46C
  0
LINE
  5
13A46D
  8
SLIM
 10
7998.4866591478003
 20
-1124.999999999998
 30
0.0
 11
8018.4866591478003
 21
-1104.999999999997
 31
0.0
1001
ACAD
1010
0.0
1020
0.0
1030
0.0
1001
ACDBBLOCKREPETAG
1070
     1
1071
       39
1005
13A46D
  0
LINE
  5
13A46E
  8
SLIM
 10
8018.4866591478003
 20
-1104.999999999997
 30
0.0
 11
8074.234858417316
 21
-1049.2518007304809
 31
0.0
1001
ACAD
1010
0.0
1020
0.0
1030
0.0
1001
ACDBBLOCKREPETAG
1070
     1
1071
       40
1005
13A46E
  0
LINE
  5
13A46F
  8
SLIM
 10
8016.4471713899393
 20
-1124.999999999998
 30
0.0
 11
8036.4471713899393
 21
-1104.999999999997
 31
0.0
1001
ACAD
1010
0.0
1020
0.0
1030
0.0
1001
ACDBBLOCKREPETAG
1070
     1
1071
       41
1005
13A46F
  0
LINE
  5
13A470
  8
SLIM
 10
8036.4471713899393
 20
-1104.999999999997
 30
0.0
 11
8071.2958655049679
 21
-1070.151305884968
 31
0.0
1001
ACAD
1010
0.0
1020
0.0
1030
0.0
1001
ACDBBLOCKREPETAG
1070
     1
1071
       42
1005
13A470
  0
LINE
  5
13A471
  8
SLIM
 10
8034.4076836320774
 20
-1124.999999999998
 30
0.0
 11
8054.4076836320764
 21
-1104.999999999997
 31
0.0
1001
ACAD
1010
0.0
1020
0.0
1030
0.0
1001
ACDBBLOCKREPETAG
1070
     1
1071
       43
1005
13A471
  0
LINE
  5
13A472
  8
SLIM
 10
8054.4076836320764
 20
-1104.999999999997
 30
0.0
 11
8068.3568725926198
 21
-1091.0508110394569
 31
0.0
1001
ACAD
1010
0.0
1020
0.0
1030
0.0
1001
ACDBBLOCKREPETAG
1070
     1
1071
       44
1005
13A472
  0
LINE
  5
13A473
  8
SLIM
 10
8052.3681958742136
 20
-1124.999999999998
 30
0.0
 11
8057.0
 21
-1120.368195874212
 31
0.0
1001
ACAD
1010
0.0
1020
0.0
1030
0.0
1001
ACDBBLOCKREPETAG
1070
     1
1071
       45
1005
13A473
  0
LINE
  5
13A474
  8
OBJECT
 10
7943.0
 20
-1124.999999999998
 30
0.0
 11
8057.0
 21
-1124.999999999998
 31
0.0
1001
ACDBBLOCKREPETAG
1070
     1
1071
        1
1005
13A474
  0
LINE
  5
13A475
  8
OBJECT
 10
7933.6047321049664
 20
-1104.999999999997
 30
0.0
 11
8066.3952678950427
 21
-1104.999999999997
 31
0.0
1001
ACDBBLOCKREPETAG
1070
     1
1071
        2
1005
13A475
  0
LINE
  5
13A476
  8
OBJECT
 10
7943.0
 20
-1124.999999999998
 30
0.0
 11
7943.0
 21
-1104.999999999997
 31
0.0
1001
ACDBBLOCKREPETAG
1070
     1
1071
        3
1005
13A476
  0
LINE
  5
13A477
  8
OBJECT
 10
8057.0
 20
-1124.999999999998
 30
0.0
 11
8057.0
 21
-1104.999999999997
 31
0.0
1001
ACDBBLOCKREPETAG
1070
     1
1071
        4
1005
13A477
  0
LINE
  5
13A478
  8
OBJECT
 10
7914.9999999999918
 20
-754.99999999999955
 30
0.0
 11
7915.0
 21
-972.69968280914077
 31
0.0
1001
ACDBBLOCKREPETAG
1070
     1
1071
        5
1005
13A478
  0
LINE
  5
13A479
  8
OBJECT
 10
8085.0000000000064
 20
-754.99999999999955
 30
0.0
 11
8085.0
 21
-972.69968280917215
 31
0.0
1001
ACDBBLOCKREPETAG
1070
     1
1071
        6
1005
13A479
  0
LINE
  5
13A47A
  8
OBJECT
 10
7915.0
 20
-972.69968280914077
 30
0.0
 11
7933.6047321049664
 21
-1104.999999999997
 31
0.0
1001
ACDBBLOCKREPETAG
1070
     1
1071
        7
1005
13A47A
  0
LINE
  5
13A47B
  8
OBJECT
 10
8066.3952678950427
 20
-1104.999999999997
 30
0.0
 11
8085.0
 21
-972.69968280917215
 31
0.0
1001
ACDBBLOCKREPETAG
1070
     1
1071
        8
1005
13A47B
  0
LINE
  5
13A47C
  8
OBJECT
 10
8085.0000000000064
 20
-754.99999999999955
 30
0.0
 11
7914.9999999999918
 21
-754.99999999999955
 31
0.0
1001
ACDBBLOCKREPETAG
1070
     1
1071
        9
1005
13A47C
  0
LINE
  5
13A47D
  8
OBJECT
 10
12085.999999999991
 20
-1223.9999999999991
 30
0.0
 11
12085.999999999991
 21
-1233.9999999999991
 31
0.0
1001
ACDBBLOCKREPETAG
1070
     1
1071
      121
1005
13A47D
  0
LINE
  5
13A47E
  8
OBJECT
 10
12069.999999999991
 20
-1223.9999999999991
 30
0.0
 11
12069.999999999991
 21
-1233.9999999999991
 31
0.0
1001
ACDBBLOCKREPETAG
1070
     1
1071
      122
1005
13A47E
  0
LINE
  5
13A47F
  8
OBJECT
 10
12085.999999999991
 20
-1233.9999999999991
 30
0.0
 11
12069.999999999991
 21
-1233.9999999999991
 31
0.0
1001
ACDBBLOCKREPETAG
1070
     1
1071
      123
1005
13A47F
  0
LINE
  5
13A480
  8
OBJECT
 10
12090.0
 20
-1184.9999999999959
 30
0.0
 11
11924.0
 21
-1184.9999999999959
 31
0.0
1001
ACDBBLOCKREPETAG
1070
     1
1071
      124
1005
13A480
  0
LINE
  5
13A481
  8
OBJECT
 10
12090.0
 20
-1199.9999999999991
 30
0.0
 11
12090.0
 21
-1184.9999999999959
 31
0.0
1001
ACDBBLOCKREPETAG
1070
     1
1071
      125
1005
13A481
  0
LINE
  5
13A482
  8
OBJECT
 10
11924.0
 20
-1199.9999999999991
 30
0.0
 11
12090.0
 21
-1199.9999999999991
 31
0.0
1001
ACDBBLOCKREPETAG
1070
     1
1071
      126
1005
13A482
  0
LINE
  5
13A483
  8
OBJECT
 10
12067.49999999998
 20
-1199.9999999999991
 30
0.0
 11
12067.49999999998
 21
-1209.9999999999991
 31
0.0
1001
ACDBBLOCKREPETAG
1070
     1
1071
      127
1005
13A483
  0
LINE
  5
13A484
  8
OBJECT
 10
12072.999999999991
 20
-1209.9999999999991
 30
0.0
 11
12072.999999999991
 21
-1199.9999999999991
 31
0.0
1001
ACDBBLOCKREPETAG
1070
     1
1071
      128
1005
13A484
  0
LINE
  5
13A485
  8
OBJECT
 10
12082.999999999991
 20
-1209.9999999999991
 30
0.0
 11
12082.999999999991
 21
-1199.9999999999991
 31
0.0
1001
ACDBBLOCKREPETAG
1070
     1
1071
      129
1005
13A485
  0
LINE
  5
13A486
  8
OBJECT
 10
11924.0
 20
-1209.9999999999991
 30
0.0
 11
11924.0
 21
-1223.9999999999959
 31
0.0
1001
ACDBBLOCKREPETAG
1070
     1
1071
      130
1005
13A486
  0
LINE
  5
13A487
  8
OBJECT
 10
12090.0
 20
-1209.9999999999991
 30
0.0
 11
12090.0
 21
-1223.9999999999959
 31
0.0
1001
ACDBBLOCKREPETAG
1070
     1
1071
      131
1005
13A487
  0
LINE
  5
13A488
  8
OBJECT
 10
11924.0
 20
-1223.9999999999959
 30
0.0
 11
12090.0
 21
-1223.9999999999959
 31
0.0
1001
ACDBBLOCKREPETAG
1070
     1
1071
      132
1005
13A488
  0
LINE
  5
13A489
  8
OBJECT
 10
11924.0
 20
-1209.9999999999991
 30
0.0
 11
12090.0
 21
-1209.9999999999991
 31
0.0
1001
ACDBBLOCKREPETAG
1070
     1
1071
      133
1005
13A489
  0
LINE
  5
13A48A
  8
OBJECT
 10
11932.49999999998
 20
-1199.9999999999991
 30
0.0
 11
11932.49999999998
 21
-1209.9999999999991
 31
0.0
1001
ACDBBLOCKREPETAG
1070
     1
1071
      134
1005
13A48A
  0
LINE
  5
13A48B
  8
OBJECT
 10
11934.0
 20
-1148.9999999999959
 30
0.0
 11
12065.999999999991
 21
-1148.9999999999959
 31
0.0
1001
ACDBBLOCKREPETAG
1070
     1
1071
      135
1005
13A48B
  0
LINE
  5
13A48C
  8
OBJECT
 10
11924.0
 20
-1199.9999999999991
 30
0.0
 11
11924.0
 21
-1184.9999999999959
 31
0.0
1001
ACDBBLOCKREPETAG
1070
     1
1071
      136
1005
13A48C
  0
LINE
  5
13A48D
  8
HIDDEN
 10
11943.0
 20
-1159.9999999999991
 30
0.0
 11
12057.0
 21
-1159.9999999999991
 31
0.0
1001
ACDBBLOCKREPETAG
1070
     1
1071
      137
1005
13A48D
  0
LINE
  5
13A48E
  8
OBJECT
 10
12086.999999999991
 20
-1183.2
 30
0.0
 11
12086.999999999991
 21
-1184.9999999999991
 31
0.0
1001
ACDBBLOCKREPETAG
1070
     1
1071
      138
1005
13A48E
  0
LINE
  5
13A48F
  8
OBJECT
 10
12068.999999999991
 20
-1183.2
 30
0.0
 11
12068.999999999991
 21
-1184.9999999999991
 31
0.0
1001
ACDBBLOCKREPETAG
1070
     1
1071
      139
1005
13A48F
  0
LINE
  5
13A490
  8
OBJECT
 10
12072.249999999991
 20
-1173.4999999999991
 30
0.0
 11
12083.749999999991
 21
-1173.4999999999991
 31
0.0
1001
ACDBBLOCKREPETAG
1070
     1
1071
      140
1005
13A490
  0
LINE
  5
13A491
  8
OBJECT
 10
12072.249999999991
 20
-1173.4999999999991
 30
0.0
 11
12072.249999999991
 21
-1183.2
 31
0.0
1001
ACDBBLOCKREPETAG
1070
     1
1071
      141
1005
13A491
  0
LINE
  5
13A492
  8
OBJECT
 10
12083.749999999991
 20
-1173.4999999999991
 30
0.0
 11
12083.749999999991
 21
-1183.2
 31
0.0
1001
ACDBBLOCKREPETAG
1070
     1
1071
      142
1005
13A492
  0
LINE
  5
13A493
  8
OBJECT
 10
11931.99999999998
 20
-1264.9999999999991
 30
0.0
 11
12067.99999999998
 21
-1264.9999999999991
 31
0.0
1001
ACDBBLOCKREPETAG
1070
     1
1071
      143
1005
13A493
  0
LINE
  5
13A494
  8
OBJECT
 10
11931.99999999998
 20
-1264.9999999999991
 30
0.0
 11
11931.99999999998
 21
-1223.9999999999991
 31
0.0
1001
ACDBBLOCKREPETAG
1070
     1
1071
      144
1005
13A494
  0
LINE
  5
13A495
  8
OBJECT
 10
12067.99999999998
 20
-1264.9999999999991
 30
0.0
 11
12067.99999999998
 21
-1223.9999999999991
 31
0.0
1001
ACDBBLOCKREPETAG
1070
     1
1071
      145
1005
13A495
  0
LINE
  5
13A496
  8
OBJECT
 10
12086.999999999991
 20
-1183.2
 30
0.0
 11
12068.999999999991
 21
-1183.2
 31
0.0
1001
ACDBBLOCKREPETAG
1070
     1
1071
      146
1005
13A496
  0
LINE
  5
13A497
  8
CENTER
 10
12000.0
 20
-889.99999999999955
 30
0.0
 11
12000.0
 21
-1279.9999999999991
 31
0.0
1001
ACDBBLOCKREPETAG
1070
     1
1071
      147
1005
13A497
  0
LINE
  5
13A498
  8
OBJECT
 10
11925.0
 20
-889.99999999999955
 30
0.0
 11
11925.0
 21
-971.99999999999591
 31
0.0
1001
ACDBBLOCKREPETAG
1070
     1
1071
      148
1005
13A498
  0
LINE
  5
13A499
  8
OBJECT
 10
12075.0
 20
-889.99999999999955
 30
0.0
 11
12075.0
 21
-971.99999999999204
 31
0.0
1001
ACDBBLOCKREPETAG
1070
     1
1071
      149
1005
13A499
  0
LINE
  5
13A49A
  8
OBJECT
 10
11925.0
 20
-971.99999999999591
 30
0.0
 11
12075.0
 21
-971.99999999999204
 31
0.0
1001
ACDBBLOCKREPETAG
1070
     1
1071
      150
1005
13A49A
  0
LINE
  5
13A49B
  8
OBJECT
 10
11943.0
 20
-1148.9999999999959
 30
0.0
 11
11943.0
 21
-1099.999999999992
 31
0.0
1001
ACDBBLOCKREPETAG
1070
     1
1071
      151
1005
13A49B
  0
LINE
  5
13A49C
  8
OBJECT
 10
12057.0
 20
-1099.999999999992
 30
0.0
 11
11943.0
 21
-1099.999999999992
 31
0.0
1001
ACDBBLOCKREPETAG
1070
     1
1071
      152
1005
13A49C
  0
LINE
  5
13A49D
  8
OBJECT
 10
12057.0
 20
-1099.999999999992
 30
0.0
 11
12057.0
 21
-1148.9999999999959
 31
0.0
1001
ACDBBLOCKREPETAG
1070
     1
1071
      153
1005
13A49D
  0
LINE
  5
13A49E
  8
OBJECT
 10
11925.0
 20
-971.99999999999591
 30
0.0
 11
11943.0
 21
-1099.999999999992
 31
0.0
1001
ACDBBLOCKREPETAG
1070
     1
1071
      154
1005
13A49E
  0
LINE
  5
13A49F
  8
OBJECT
 10
12057.0
 20
-1099.999999999992
 30
0.0
 11
12075.0
 21
-971.99999999999204
 31
0.0
1001
ACDBBLOCKREPETAG
1070
     1
1071
      155
1005
13A49F
  0
LINE
  5
13A4A0
  8
OBJECT
 10
11934.0
 20
-1184.9999999999959
 30
0.0
 11
11934.0
 21
-1148.9999999999959
 31
0.0
1001
ACDBBLOCKREPETAG
1070
     1
1071
      156
1005
13A4A0
  0
LINE
  5
13A4A1
  8
OBJECT
 10
12066.0
 20
-1184.9999999999959
 30
0.0
 11
12065.999999999991
 21
-1148.9999999999959
 31
0.0
1001
ACDBBLOCKREPETAG
1070
     1
1071
      157
1005
13A4A1
  0
LINE
  5
13A4A2
  8
OBJECT
 10
11954.75
 20
-1174.699999999993
 30
0.0
 11
11967.25
 21
-1174.699999999993
 31
0.0
1001
ACDBBLOCKREPETAG
1070
     1
1071
      158
1005
13A4A2
  0
LINE
  5
13A4A3
  8
OBJECT
 10
11946.0
 20
-1184.9999999999959
 30
0.0
 11
11946.0
 21
-1182.699999999996
 31
0.0
1001
ACDBBLOCKREPETAG
1070
     1
1071
      159
1005
13A4A3
  0
LINE
  5
13A4A4
  8
OBJECT
 10
11976.0
 20
-1184.9999999999959
 30
0.0
 11
11976.0
 21
-1182.699999999996
 31
0.0
1001
ACDBBLOCKREPETAG
1070
     1
1071
      160
1005
13A4A4
  0
LINE
  5
13A4A5
  8
OBJECT
 10
11954.75
 20
-1174.699999999993
 30
0.0
 11
11954.75
 21
-1182.699999999996
 31
0.0
1001
ACDBBLOCKREPETAG
1070
     1
1071
      161
1005
13A4A5
  0
LINE
  5
13A4A6
  8
OBJECT
 10
11967.25
 20
-1174.699999999993
 30
0.0
 11
11967.25
 21
-1182.699999999996
 31
0.0
1001
ACDBBLOCKREPETAG
1070
     1
1071
      162
1005
13A4A6
  0
LINE
  5
13A4A7
  8
OBJECT
 10
11946.0
 20
-1182.699999999996
 30
0.0
 11
11976.0
 21
-1182.699999999996
 31
0.0
1001
ACDBBLOCKREPETAG
1070
     1
1071
      163
1005
13A4A7
  0
LINE
  5
13A4A8
  8
OBJECT
 10
11953.0
 20
-1223.9999999999959
 30
0.0
 11
11953.0
 21
-1233.9999999999959
 31
0.0
1001
ACDBBLOCKREPETAG
1070
     1
1071
      164
1005
13A4A8
  0
LINE
  5
13A4A9
  8
OBJECT
 10
11969.0
 20
-1223.9999999999959
 30
0.0
 11
11969.0
 21
-1233.9999999999959
 31
0.0
1001
ACDBBLOCKREPETAG
1070
     1
1071
      165
1005
13A4A9
  0
LINE
  5
13A4AA
  8
OBJECT
 10
11953.0
 20
-1233.9999999999959
 30
0.0
 11
11969.0
 21
-1233.9999999999959
 31
0.0
1001
ACDBBLOCKREPETAG
1070
     1
1071
      166
1005
13A4AA
  0
LINE
  5
13A4AB
  8
OBJECT
 10
11966.0
 20
-1209.9999999999959
 30
0.0
 11
11966.0
 21
-1199.9999999999959
 31
0.0
1001
ACDBBLOCKREPETAG
1070
     1
1071
      167
1005
13A4AB
  0
LINE
  5
13A4AC
  8
OBJECT
 10
11956.0
 20
-1209.9999999999959
 30
0.0
 11
11956.0
 21
-1199.9999999999959
 31
0.0
1001
ACDBBLOCKREPETAG
1070
     1
1071
      168
1005
13A4AC
  0
LINE
  5
13A4AD
  8
OBJECT
 10
10090.0
 20
-1184.9999999999959
 30
0.0
 11
9924.0
 21
-1184.9999999999959
 31
0.0
1001
ACDBBLOCKREPETAG
1070
     1
1071
       12
1005
13A4AD
  0
LINE
  5
13A4AE
  8
OBJECT
 10
10066.0
 20
-1148.9999999999959
 30
0.0
 11
9934.0
 21
-1148.9999999999959
 31
0.0
1001
ACDBBLOCKREPETAG
1070
     1
1071
       13
1005
13A4AE
  0
LINE
  5
13A4AF
  8
OBJECT
 10
10090.0
 20
-1199.9999999999991
 30
0.0
 11
10090.0
 21
-1184.9999999999959
 31
0.0
1001
ACDBBLOCKREPETAG
1070
     1
1071
       14
1005
13A4AF
  0
LINE
  5
13A4B0
  8
OBJECT
 10
9924.0
 20
-1199.9999999999991
 30
0.0
 11
10090.0
 21
-1199.9999999999991
 31
0.0
1001
ACDBBLOCKREPETAG
1070
     1
1071
       15
1005
13A4B0
  0
LINE
  5
13A4B1
  8
OBJECT
 10
10067.49999999998
 20
-1199.9999999999991
 30
0.0
 11
10067.49999999998
 21
-1209.9999999999991
 31
0.0
1001
ACDBBLOCKREPETAG
1070
     1
1071
       16
1005
13A4B1
  0
LINE
  5
13A4B2
  8
OBJECT
 10
9924.0
 20
-1209.9999999999991
 30
0.0
 11
9924.0
 21
-1223.9999999999959
 31
0.0
1001
ACDBBLOCKREPETAG
1070
     1
1071
       17
1005
13A4B2
  0
LINE
  5
13A4B3
  8
OBJECT
 10
10090.0
 20
-1209.9999999999991
 30
0.0
 11
10090.0
 21
-1223.9999999999959
 31
0.0
1001
ACDBBLOCKREPETAG
1070
     1
1071
       18
1005
13A4B3
  0
LINE
  5
13A4B4
  8
OBJECT
 10
9924.0
 20
-1223.9999999999959
 30
0.0
 11
10090.0
 21
-1223.9999999999959
 31
0.0
1001
ACDBBLOCKREPETAG
1070
     1
1071
       19
1005
13A4B4
  0
LINE
  5
13A4B5
  8
OBJECT
 10
9924.0
 20
-1209.9999999999991
 30
0.0
 11
10090.0
 21
-1209.9999999999991
 31
0.0
1001
ACDBBLOCKREPETAG
1070
     1
1071
       20
1005
13A4B5
  0
LINE
  5
13A4B6
  8
OBJECT
 10
9932.4999999999836
 20
-1199.9999999999991
 30
0.0
 11
9932.4999999999836
 21
-1209.9999999999991
 31
0.0
1001
ACDBBLOCKREPETAG
1070
     1
1071
       21
1005
13A4B6
  0
LINE
  5
13A4B7
  8
OBJECT
 10
9924.0
 20
-1199.9999999999991
 30
0.0
 11
9924.0
 21
-1184.9999999999959
 31
0.0
1001
ACDBBLOCKREPETAG
1070
     1
1071
       22
1005
13A4B7
  0
LINE
  5
13A4B8
  8
HIDDEN
 10
9943.0
 20
-1159.9999999999991
 30
0.0
 11
10057.0
 21
-1159.9999999999991
 31
0.0
1001
ACDBBLOCKREPETAG
1070
     1
1071
       23
1005
13A4B8
  0
LINE
  5
13A4B9
  8
CENTER
 10
10000.0
 20
-889.99999999999955
 30
0.0
 11
10000.0
 21
-1238.9999999999959
 31
0.0
1001
ACDBBLOCKREPETAG
1070
     1
1071
       24
1005
13A4B9
  0
LINE
  5
13A4BA
  8
OBJECT
 10
9925.0
 20
-889.99999999999955
 30
0.0
 11
9925.0
 21
-971.99999999999591
 31
0.0
1001
ACDBBLOCKREPETAG
1070
     1
1071
       25
1005
13A4BA
  0
LINE
  5
13A4BB
  8
OBJECT
 10
10075.0
 20
-889.99999999999955
 30
0.0
 11
10075.0
 21
-971.99999999999204
 31
0.0
1001
ACDBBLOCKREPETAG
1070
     1
1071
       26
1005
13A4BB
  0
LINE
  5
13A4BC
  8
OBJECT
 10
9925.0
 20
-971.99999999999591
 30
0.0
 11
10075.0
 21
-971.99999999999204
 31
0.0
1001
ACDBBLOCKREPETAG
1070
     1
1071
       27
1005
13A4BC
  0
LINE
  5
13A4BD
  8
OBJECT
 10
10057.0
 20
-1148.9999999999959
 30
0.0
 11
10057.0
 21
-1099.999999999992
 31
0.0
1001
ACDBBLOCKREPETAG
1070
     1
1071
       28
1005
13A4BD
  0
LINE
  5
13A4BE
  8
OBJECT
 10
9943.0
 20
-1148.9999999999959
 30
0.0
 11
9943.0
 21
-1099.999999999992
 31
0.0
1001
ACDBBLOCKREPETAG
1070
     1
1071
       29
1005
13A4BE
  0
LINE
  5
13A4BF
  8
OBJECT
 10
10057.0
 20
-1099.999999999992
 30
0.0
 11
9943.0
 21
-1099.999999999992
 31
0.0
1001
ACDBBLOCKREPETAG
1070
     1
1071
       30
1005
13A4BF
  0
LINE
  5
13A4C0
  8
OBJECT
 10
9925.0
 20
-971.99999999999591
 30
0.0
 11
9943.0
 21
-1099.999999999992
 31
0.0
1001
ACDBBLOCKREPETAG
1070
     1
1071
       31
1005
13A4C0
  0
LINE
  5
13A4C1
  8
OBJECT
 10
10057.0
 20
-1099.999999999992
 30
0.0
 11
10075.0
 21
-971.99999999999204
 31
0.0
1001
ACDBBLOCKREPETAG
1070
     1
1071
       32
1005
13A4C1
  0
LINE
  5
13A4C2
  8
OBJECT
 10
9934.0
 20
-1148.9999999999959
 30
0.0
 11
9934.0
 21
-1184.9999999999959
 31
0.0
1001
ACDBBLOCKREPETAG
1070
     1
1071
       33
1005
13A4C2
  0
LINE
  5
13A4C3
  8
OBJECT
 10
10066.0
 20
-1148.9999999999959
 30
0.0
 11
10066.0
 21
-1184.9999999999959
 31
0.0
1001
ACDBBLOCKREPETAG
1070
     1
1071
       34
1005
13A4C3
  0
LINE
  5
13A4C4
  8
OBJECT
 10
10082.999999999991
 20
-1209.9999999999959
 30
0.0
 11
10082.999999999991
 21
-1199.9999999999959
 31
0.0
1001
ACDBBLOCKREPETAG
1070
     1
1071
       35
1005
13A4C4
  0
LINE
  5
13A4C5
  8
OBJECT
 10
10072.999999999991
 20
-1209.9999999999959
 30
0.0
 11
10072.999999999991
 21
-1199.9999999999959
 31
0.0
1001
ACDBBLOCKREPETAG
1070
     1
1071
       36
1005
13A4C5
  0
LINE
  5
13A4C6
  8
OBJECT
 10
10068.99999999998
 20
-1179.9999999999959
 30
0.0
 11
10068.99999999998
 21
-1184.9999999999959
 31
0.0
1001
ACDBBLOCKREPETAG
1070
     1
1071
       37
1005
13A4C6
  0
LINE
  5
13A4C7
  8
OBJECT
 10
10087.0
 20
-1179.9999999999959
 30
0.0
 11
10087.0
 21
-1184.9999999999959
 31
0.0
1001
ACDBBLOCKREPETAG
1070
     1
1071
       38
1005
13A4C7
  0
LINE
  5
13A4C8
  8
OBJECT
 10
10087.0
 20
-1179.9999999999959
 30
0.0
 11
10068.99999999998
 21
-1179.9999999999959
 31
0.0
1001
ACDBBLOCKREPETAG
1070
     1
1071
       39
1005
13A4C8
  0
LINE
  5
13A4C9
  8
OBJECT
 10
10073.0
 20
-1231.9999999999959
 30
0.0
 11
10073.0
 21
-1234.9999999999959
 31
0.0
1001
ACDBBLOCKREPETAG
1070
     1
1071
       40
1005
13A4C9
  0
LINE
  5
13A4CA
  8
OBJECT
 10
10073.0
 20
-1234.9999999999959
 30
0.0
 11
10083.0
 21
-1234.9999999999959
 31
0.0
1001
ACDBBLOCKREPETAG
1070
     1
1071
       41
1005
13A4CA
  0
LINE
  5
13A4CB
  8
OBJECT
 10
10068.18504542377
 20
-1231.9999999999959
 30
0.0
 11
10087.814954576221
 21
-1231.9999999999959
 31
0.0
1001
ACDBBLOCKREPETAG
1070
     1
1071
       42
1005
13A4CB
  0
LINE
  5
13A4CC
  8
OBJECT
 10
10083.0
 20
-1234.9999999999959
 30
0.0
 11
10083.0
 21
-1231.9999999999959
 31
0.0
1001
ACDBBLOCKREPETAG
1070
     1
1071
       43
1005
13A4CC
  0
LINE
  5
13A4CD
  8
OBJECT
 10
10068.18503599129
 20
-1223.9999868402549
 30
0.0
 11
10068.18503599129
 21
-1231.9999868402549
 31
0.0
1001
ACDBBLOCKREPETAG
1070
     1
1071
       44
1005
13A4CD
  0
LINE
  5
13A4CE
  8
OBJECT
 10
10073.0925013592
 20
-1223.9999868402549
 30
0.0
 11
10073.0925013592
 21
-1231.9999868402549
 31
0.0
1001
ACDBBLOCKREPETAG
1070
     1
1071
       45
1005
13A4CE
  0
LINE
  5
13A4CF
  8
OBJECT
 10
10082.90743209502
 20
-1223.9999868402549
 30
0.0
 11
10082.90743209502
 21
-1231.9999868402549
 31
0.0
1001
ACDBBLOCKREPETAG
1070
     1
1071
       46
1005
13A4CF
  0
LINE
  5
13A4D0
  8
OBJECT
 10
10087.81499155279
 20
-1223.9999868402549
 30
0.0
 11
10087.81499155279
 21
-1231.9999868402549
 31
0.0
1001
ACDBBLOCKREPETAG
1070
     1
1071
       47
1005
13A4D0
  0
LINE
  5
13A4D1
  8
OBJECT
 10
9968.5
 20
-1179.9999999999959
 30
0.0
 11
9951.9999999999909
 21
-1179.9999999999959
 31
0.0
1001
ACDBBLOCKREPETAG
1070
     1
1071
       48
1005
13A4D1
  0
LINE
  5
13A4D2
  8
OBJECT
 10
9976.0
 20
-1184.9999999999959
 30
0.0
 11
9976.0
 21
-1182.9999999999959
 31
0.0
1001
ACDBBLOCKREPETAG
1070
     1
1071
       49
1005
13A4D2
  0
LINE
  5
13A4D3
  8
OBJECT
 10
9966.0
 20
-1209.9999999999959
 30
0.0
 11
9966.0
 21
-1199.9999999999959
 31
0.0
1001
ACDBBLOCKREPETAG
1070
     1
1071
       50
1005
13A4D3
  0
LINE
  5
13A4D4
  8
OBJECT
 10
9956.0
 20
-1209.9999999999959
 30
0.0
 11
9956.0
 21
-1199.9999999999959
 31
0.0
1001
ACDBBLOCKREPETAG
1070
     1
1071
       51
1005
13A4D4
  0
LINE
  5
13A4D5
  8
OBJECT
 10
9951.9999999999909
 20
-1179.9999999999959
 30
0.0
 11
9951.9999999999909
 21
-1184.9999999999959
 31
0.0
1001
ACDBBLOCKREPETAG
1070
     1
1071
       52
1005
13A4D5
  0
LINE
  5
13A4D6
  8
OBJECT
 10
9956.0
 20
-1231.9999999999959
 30
0.0
 11
9956.0
 21
-1234.9999999999959
 31
0.0
1001
ACDBBLOCKREPETAG
1070
     1
1071
       53
1005
13A4D6
  0
LINE
  5
13A4D7
  8
OBJECT
 10
9956.0
 20
-1234.9999999999959
 30
0.0
 11
9966.0
 21
-1234.9999999999959
 31
0.0
1001
ACDBBLOCKREPETAG
1070
     1
1071
       54
1005
13A4D7
  0
LINE
  5
13A4D8
  8
OBJECT
 10
9951.185045423772
 20
-1231.9999999999959
 30
0.0
 11
9970.814954576219
 21
-1231.9999999999959
 31
0.0
1001
ACDBBLOCKREPETAG
1070
     1
1071
       55
1005
13A4D8
  0
LINE
  5
13A4D9
  8
OBJECT
 10
9966.0
 20
-1234.9999999999959
 30
0.0
 11
9966.0
 21
-1231.9999999999959
 31
0.0
1001
ACDBBLOCKREPETAG
1070
     1
1071
       56
1005
13A4D9
  0
LINE
  5
13A4DA
  8
OBJECT
 10
9976.0
 20
-1182.9999999999959
 30
0.0
 11
9968.5
 21
-1179.9999999999959
 31
0.0
1001
ACDBBLOCKREPETAG
1070
     1
1071
       57
1005
13A4DA
  0
LINE
  5
13A4DB
  8
OBJECT
 10
9951.1850359912914
 20
-1223.9999868402549
 30
0.0
 11
9951.1850359912914
 21
-1231.9999868402549
 31
0.0
1001
ACDBBLOCKREPETAG
1070
     1
1071
       58
1005
13A4DB
  0
LINE
  5
13A4DC
  8
OBJECT
 10
9956.0925013591986
 20
-1223.9999868402549
 30
0.0
 11
9956.0925013591986
 21
-1231.9999868402549
 31
0.0
1001
ACDBBLOCKREPETAG
1070
     1
1071
       59
1005
13A4DC
  0
LINE
  5
13A4DD
  8
OBJECT
 10
9965.907432095024
 20
-1223.9999868402549
 30
0.0
 11
9965.907432095024
 21
-1231.9999868402549
 31
0.0
1001
ACDBBLOCKREPETAG
1070
     1
1071
       60
1005
13A4DD
  0
LINE
  5
13A4DE
  8
OBJECT
 10
9970.8149915528011
 20
-1223.9999868402549
 30
0.0
 11
9970.8149915528011
 21
-1231.9999868402549
 31
0.0
1001
ACDBBLOCKREPETAG
1070
     1
1071
       61
1005
13A4DE
  0
LINE
  5
13A4DF
  8
OBJECT
 10
7943.0
 20
-1199.9999999999959
 30
0.0
 11
8057.0
 21
-1199.9999999999959
 31
0.0
1001
ACDBBLOCKREPETAG
1070
     1
1071
        0
1005
13A4DF
  0
LINE
  5
13A4E0
  8
OBJECT
 10
7943.0
 20
-1199.9999999999959
 30
0.0
 11
7943.0
 21
-1099.9999999999959
 31
0.0
1001
ACDBBLOCKREPETAG
1070
     1
1071
        1
1005
13A4E0
  0
LINE
  5
13A4E1
  8
OBJECT
 10
8057.0
 20
-1199.9999999999959
 30
0.0
 11
8057.0
 21
-1099.9999999999959
 31
0.0
1001
ACDBBLOCKREPETAG
1070
     1
1071
        2
1005
13A4E1
  0
LINE
  5
13A4E2
  8
OBJECT
 10
7943.0
 20
-1099.9999999999959
 30
0.0
 11
8057.0
 21
-1099.9999999999959
 31
0.0
1001
ACDBBLOCKREPETAG
1070
     1
1071
        3
1005
13A4E2
  0
LINE
  5
13A4E3
  8
HIDDEN
 10
7950.0
 20
-1099.9999999999959
 30
0.0
 11
7950.0
 21
-1199.9999999999959
 31
0.0
1001
ACDBBLOCKREPETAG
1070
     1
1071
        4
1005
13A4E3
  0
LINE
  5
13A4E4
  8
HIDDEN
 10
8050.0
 20
-1099.9999999999959
 30
0.0
 11
8050.0
 21
-1199.9999999999959
 31
0.0
1001
ACDBBLOCKREPETAG
1070
     1
1071
        5
1005
13A4E4
  0
LINE
  5
13A4E5
  8
CENTER
 10
8000.0
 20
-889.99999999999955
 30
0.0
 11
8000.0
 21
-1214.9999999999959
 31
0.0
1001
ACDBBLOCKREPETAG
1070
     1
1071
        6
1005
13A4E5
  0
LINE
  5
13A4E6
  8
OBJECT
 10
7925.0
 20
-889.99999999999955
 30
0.0
 11
7925.0
 21
-971.99999999999591
 31
0.0
1001
ACDBBLOCKREPETAG
1070
     1
1071
        7
1005
13A4E6
  0
LINE
  5
13A4E7
  8
OBJECT
 10
8075.0
 20
-889.99999999999955
 30
0.0
 11
8075.0
 21
-971.99999999999591
 31
0.0
1001
ACDBBLOCKREPETAG
1070
     1
1071
        8
1005
13A4E7
  0
LINE
  5
13A4E8
  8
OBJECT
 10
7925.0
 20
-971.99999999999591
 30
0.0
 11
8075.0
 21
-971.99999999999591
 31
0.0
1001
ACDBBLOCKREPETAG
1070
     1
1071
        9
1005
13A4E8
  0
LINE
  5
13A4E9
  8
OBJECT
 10
7925.0
 20
-971.99999999999591
 30
0.0
 11
7943.0
 21
-1099.9999999999959
 31
0.0
1001
ACDBBLOCKREPETAG
1070
     1
1071
       10
1005
13A4E9
  0
LINE
  5
13A4EA
  8
OBJECT
 10
8057.0
 20
-1099.9999999999959
 30
0.0
 11
8075.0
 21
-971.99999999999591
 31
0.0
1001
ACDBBLOCKREPETAG
1070
     1
1071
       11
1005
13A4EA
  0
LINE
  5
13A4EB
  8
OBJECT
 10
6085.9999999999927
 20
-1223.9999999999991
 30
0.0
 11
6085.9999999999927
 21
-1233.9999999999991
 31
0.0
1001
ACDBBLOCKREPETAG
1070
     1
1071
      121
1005
13A4EB
  0
LINE
  5
13A4EC
  8
OBJECT
 10
6069.9999999999927
 20
-1223.9999999999991
 30
0.0
 11
6069.9999999999927
 21
-1233.9999999999991
 31
0.0
1001
ACDBBLOCKREPETAG
1070
     1
1071
      122
1005
13A4EC
  0
LINE
  5
13A4ED
  8
OBJECT
 10
6085.9999999999927
 20
-1233.9999999999991
 30
0.0
 11
6069.9999999999927
 21
-1233.9999999999991
 31
0.0
1001
ACDBBLOCKREPETAG
1070
     1
1071
      123
1005
13A4ED
  0
LINE
  5
13A4EE
  8
OBJECT
 10
6090.0
 20
-1184.9999999999959
 30
0.0
 11
5924.0
 21
-1184.9999999999959
 31
0.0
1001
ACDBBLOCKREPETAG
1070
     1
1071
      124
1005
13A4EE
  0
LINE
  5
13A4EF
  8
OBJECT
 10
6090.0
 20
-1199.9999999999991
 30
0.0
 11
6090.0
 21
-1184.9999999999959
 31
0.0
1001
ACDBBLOCKREPETAG
1070
     1
1071
      125
1005
13A4EF
  0
LINE
  5
13A4F0
  8
OBJECT
 10
5924.0
 20
-1199.9999999999991
 30
0.0
 11
6090.0
 21
-1199.9999999999991
 31
0.0
1001
ACDBBLOCKREPETAG
1070
     1
1071
      126
1005
13A4F0
  0
LINE
  5
13A4F1
  8
OBJECT
 10
6067.4999999999864
 20
-1199.9999999999991
 30
0.0
 11
6067.4999999999864
 21
-1209.9999999999991
 31
0.0
1001
ACDBBLOCKREPETAG
1070
     1
1071
      127
1005
13A4F1
  0
LINE
  5
13A4F2
  8
OBJECT
 10
6072.9999999999927
 20
-1209.9999999999991
 30
0.0
 11
6072.9999999999927
 21
-1199.9999999999991
 31
0.0
1001
ACDBBLOCKREPETAG
1070
     1
1071
      128
1005
13A4F2
  0
LINE
  5
13A4F3
  8
OBJECT
 10
6082.9999999999927
 20
-1209.9999999999991
 30
0.0
 11
6082.9999999999927
 21
-1199.9999999999991
 31
0.0
1001
ACDBBLOCKREPETAG
1070
     1
1071
      129
1005
13A4F3
  0
LINE
  5
13A4F4
  8
OBJECT
 10
5924.0
 20
-1209.9999999999991
 30
0.0
 11
5924.0
 21
-1223.9999999999959
 31
0.0
1001
ACDBBLOCKREPETAG
1070
     1
1071
      130
1005
13A4F4
  0
LINE
  5
13A4F5
  8
OBJECT
 10
6090.0
 20
-1209.9999999999991
 30
0.0
 11
6090.0
 21
-1223.9999999999959
 31
0.0
1001
ACDBBLOCKREPETAG
1070
     1
1071
      131
1005
13A4F5
  0
LINE
  5
13A4F6
  8
OBJECT
 10
5924.0
 20
-1223.9999999999959
 30
0.0
 11
6090.0
 21
-1223.9999999999959
 31
0.0
1001
ACDBBLOCKREPETAG
1070
     1
1071
      132
1005
13A4F6
  0
LINE
  5
13A4F7
  8
OBJECT
 10
5924.0
 20
-1209.9999999999991
 30
0.0
 11
6090.0
 21
-1209.9999999999991
 31
0.0
1001
ACDBBLOCKREPETAG
1070
     1
1071
      133
1005
13A4F7
  0
LINE
  5
13A4F8
  8
OBJECT
 10
5932.4999999999864
 20
-1199.9999999999991
 30
0.0
 11
5932.4999999999864
 21
-1209.9999999999991
 31
0.0
1001
ACDBBLOCKREPETAG
1070
     1
1071
      134
1005
13A4F8
  0
LINE
  5
13A4F9
  8
OBJECT
 10
5934.0
 20
-1148.9999999999959
 30
0.0
 11
6065.9999999999909
 21
-1148.9999999999959
 31
0.0
1001
ACDBBLOCKREPETAG
1070
     1
1071
      135
1005
13A4F9
  0
LINE
  5
13A4FA
  8
OBJECT
 10
5924.0
 20
-1199.9999999999991
 30
0.0
 11
5924.0
 21
-1184.9999999999959
 31
0.0
1001
ACDBBLOCKREPETAG
1070
     1
1071
      136
1005
13A4FA
  0
LINE
  5
13A4FB
  8
HIDDEN
 10
5943.0
 20
-1159.9999999999991
 30
0.0
 11
6057.0
 21
-1159.9999999999991
 31
0.0
1001
ACDBBLOCKREPETAG
1070
     1
1071
      137
1005
13A4FB
  0
LINE
  5
13A4FC
  8
OBJECT
 10
6086.9999999999918
 20
-1183.2
 30
0.0
 11
6086.9999999999918
 21
-1184.9999999999991
 31
0.0
1001
ACDBBLOCKREPETAG
1070
     1
1071
      138
1005
13A4FC
  0
LINE
  5
13A4FD
  8
OBJECT
 10
6068.9999999999909
 20
-1183.2
 30
0.0
 11
6068.9999999999909
 21
-1184.9999999999991
 31
0.0
1001
ACDBBLOCKREPETAG
1070
     1
1071
      139
1005
13A4FD
  0
LINE
  5
13A4FE
  8
OBJECT
 10
6072.2499999999927
 20
-1173.4999999999991
 30
0.0
 11
6083.7499999999927
 21
-1173.4999999999991
 31
0.0
1001
ACDBBLOCKREPETAG
1070
     1
1071
      140
1005
13A4FE
  0
LINE
  5
13A4FF
  8
OBJECT
 10
6072.2499999999927
 20
-1173.4999999999991
 30
0.0
 11
6072.2499999999927
 21
-1183.2
 31
0.0
1001
ACDBBLOCKREPETAG
1070
     1
1071
      141
1005
13A4FF
  0
LINE
  5
13A500
  8
OBJECT
 10
6083.7499999999927
 20
-1173.4999999999991
 30
0.0
 11
6083.7499999999927
 21
-1183.2
 31
0.0
1001
ACDBBLOCKREPETAG
1070
     1
1071
      142
1005
13A500
  0
LINE
  5
13A501
  8
OBJECT
 10
5931.9999999999873
 20
-1264.9999999999991
 30
0.0
 11
6067.9999999999873
 21
-1264.9999999999991
 31
0.0
1001
ACDBBLOCKREPETAG
1070
     1
1071
      143
1005
13A501
  0
LINE
  5
13A502
  8
OBJECT
 10
5931.9999999999873
 20
-1264.9999999999991
 30
0.0
 11
5931.9999999999873
 21
-1223.9999999999991
 31
0.0
1001
ACDBBLOCKREPETAG
1070
     1
1071
      144
1005
13A502
  0
LINE
  5
13A503
  8
OBJECT
 10
6067.9999999999873
 20
-1264.9999999999991
 30
0.0
 11
6067.9999999999873
 21
-1223.9999999999991
 31
0.0
1001
ACDBBLOCKREPETAG
1070
     1
1071
      145
1005
13A503
  0
LINE
  5
13A504
  8
OBJECT
 10
6086.9999999999918
 20
-1183.2
 30
0.0
 11
6068.9999999999909
 21
-1183.2
 31
0.0
1001
ACDBBLOCKREPETAG
1070
     1
1071
      146
1005
13A504
  0
LINE
  5
13A505
  8
CENTER
 10
6000.0
 20
-889.99999999999955
 30
0.0
 11
6000.0
 21
-1279.9999999999991
 31
0.0
1001
ACDBBLOCKREPETAG
1070
     1
1071
      147
1005
13A505
  0
LINE
  5
13A506
  8
OBJECT
 10
5925.0
 20
-889.99999999999955
 30
0.0
 11
5925.0
 21
-971.99999999999591
 31
0.0
1001
ACDBBLOCKREPETAG
1070
     1
1071
      148
1005
13A506
  0
LINE
  5
13A507
  8
OBJECT
 10
6075.0
 20
-889.99999999999955
 30
0.0
 11
6075.0
 21
-971.99999999999204
 31
0.0
1001
ACDBBLOCKREPETAG
1070
     1
1071
      149
1005
13A507
  0
LINE
  5
13A508
  8
OBJECT
 10
5925.0
 20
-971.99999999999591
 30
0.0
 11
6075.0
 21
-971.99999999999204
 31
0.0
1001
ACDBBLOCKREPETAG
1070
     1
1071
      150
1005
13A508
  0
LINE
  5
13A509
  8
OBJECT
 10
5943.0
 20
-1148.9999999999959
 30
0.0
 11
5943.0
 21
-1099.999999999992
 31
0.0
1001
ACDBBLOCKREPETAG
1070
     1
1071
      151
1005
13A509
  0
LINE
  5
13A50A
  8
OBJECT
 10
6057.0
 20
-1099.999999999992
 30
0.0
 11
5943.0
 21
-1099.999999999992
 31
0.0
1001
ACDBBLOCKREPETAG
1070
     1
1071
      152
1005
13A50A
  0
LINE
  5
13A50B
  8
OBJECT
 10
6057.0
 20
-1099.999999999992
 30
0.0
 11
6057.0
 21
-1148.9999999999959
 31
0.0
1001
ACDBBLOCKREPETAG
1070
     1
1071
      153
1005
13A50B
  0
LINE
  5
13A50C
  8
OBJECT
 10
5925.0
 20
-971.99999999999591
 30
0.0
 11
5943.0
 21
-1099.999999999992
 31
0.0
1001
ACDBBLOCKREPETAG
1070
     1
1071
      154
1005
13A50C
  0
LINE
  5
13A50D
  8
OBJECT
 10
6057.0
 20
-1099.999999999992
 30
0.0
 11
6075.0
 21
-971.99999999999204
 31
0.0
1001
ACDBBLOCKREPETAG
1070
     1
1071
      155
1005
13A50D
  0
LINE
  5
13A50E
  8
OBJECT
 10
5934.0
 20
-1184.9999999999959
 30
0.0
 11
5934.0
 21
-1148.9999999999959
 31
0.0
1001
ACDBBLOCKREPETAG
1070
     1
1071
      156
1005
13A50E
  0
LINE
  5
13A50F
  8
OBJECT
 10
6066.0
 20
-1184.9999999999959
 30
0.0
 11
6065.9999999999909
 21
-1148.9999999999959
 31
0.0
1001
ACDBBLOCKREPETAG
1070
     1
1071
      157
1005
13A50F
  0
LINE
  5
13A510
  8
OBJECT
 10
5954.75
 20
-1174.699999999993
 30
0.0
 11
5967.2499999999991
 21
-1174.699999999993
 31
0.0
1001
ACDBBLOCKREPETAG
1070
     1
1071
      158
1005
13A510
  0
LINE
  5
13A511
  8
OBJECT
 10
5946.0
 20
-1184.9999999999959
 30
0.0
 11
5946.0
 21
-1182.699999999996
 31
0.0
1001
ACDBBLOCKREPETAG
1070
     1
1071
      159
1005
13A511
  0
LINE
  5
13A512
  8
OBJECT
 10
5976.0
 20
-1184.9999999999959
 30
0.0
 11
5976.0
 21
-1182.699999999996
 31
0.0
1001
ACDBBLOCKREPETAG
1070
     1
1071
      160
1005
13A512
  0
LINE
  5
13A513
  8
OBJECT
 10
5954.75
 20
-1174.699999999993
 30
0.0
 11
5954.75
 21
-1182.699999999996
 31
0.0
1001
ACDBBLOCKREPETAG
1070
     1
1071
      161
1005
13A513
  0
LINE
  5
13A514
  8
OBJECT
 10
5967.2499999999991
 20
-1174.699999999993
 30
0.0
 11
5967.2499999999991
 21
-1182.699999999996
 31
0.0
1001
ACDBBLOCKREPETAG
1070
     1
1071
      162
1005
13A514
  0
LINE
  5
13A515
  8
OBJECT
 10
5946.0
 20
-1182.699999999996
 30
0.0
 11
5976.0
 21
-1182.699999999996
 31
0.0
1001
ACDBBLOCKREPETAG
1070
     1
1071
      163
1005
13A515
  0
LINE
  5
13A516
  8
OBJECT
 10
5953.0
 20
-1223.9999999999959
 30
0.0
 11
5953.0
 21
-1233.9999999999959
 31
0.0
1001
ACDBBLOCKREPETAG
1070
     1
1071
      164
1005
13A516
  0
LINE
  5
13A517
  8
OBJECT
 10
5969.0
 20
-1223.9999999999959
 30
0.0
 11
5969.0
 21
-1233.9999999999959
 31
0.0
1001
ACDBBLOCKREPETAG
1070
     1
1071
      165
1005
13A517
  0
LINE
  5
13A518
  8
OBJECT
 10
5953.0
 20
-1233.9999999999959
 30
0.0
 11
5969.0
 21
-1233.9999999999959
 31
0.0
1001
ACDBBLOCKREPETAG
1070
     1
1071
      166
1005
13A518
  0
LINE
  5
13A519
  8
OBJECT
 10
5966.0
 20
-1209.9999999999959
 30
0.0
 11
5966.0
 21
-1199.9999999999959
 31
0.0
1001
ACDBBLOCKREPETAG
1070
     1
1071
      167
1005
13A519
  0
LINE
  5
13A51A
  8
OBJECT
 10
5956.0
 20
-1209.9999999999959
 30
0.0
 11
5956.0
 21
-1199.9999999999959
 31
0.0
1001
ACDBBLOCKREPETAG
1070
     1
1071
      168
1005
13A51A
  0
LINE
  5
13A51B
  8
OBJECT
 10
4090.0
 20
-1184.9999999999959
 30
0.0
 11
3924.0
 21
-1184.9999999999959
 31
0.0
1001
ACDBBLOCKREPETAG
1070
     1
1071
       12
1005
13A51B
  0
LINE
  5
13A51C
  8
OBJECT
 10
4066.0
 20
-1148.9999999999959
 30
0.0
 11
3934.0
 21
-1148.9999999999959
 31
0.0
1001
ACDBBLOCKREPETAG
1070
     1
1071
       13
1005
13A51C
  0
LINE
  5
13A51D
  8
OBJECT
 10
4090.0
 20
-1199.9999999999991
 30
0.0
 11
4090.0
 21
-1184.9999999999959
 31
0.0
1001
ACDBBLOCKREPETAG
1070
     1
1071
       14
1005
13A51D
  0
LINE
  5
13A51E
  8
OBJECT
 10
3924.0
 20
-1199.9999999999991
 30
0.0
 11
4090.0
 21
-1199.9999999999991
 31
0.0
1001
ACDBBLOCKREPETAG
1070
     1
1071
       15
1005
13A51E
  0
LINE
  5
13A51F
  8
OBJECT
 10
4067.4999999999841
 20
-1199.9999999999991
 30
0.0
 11
4067.4999999999841
 21
-1209.9999999999991
 31
0.0
1001
ACDBBLOCKREPETAG
1070
     1
1071
       16
1005
13A51F
  0
LINE
  5
13A520
  8
OBJECT
 10
3924.0
 20
-1209.9999999999991
 30
0.0
 11
3924.0
 21
-1223.9999999999959
 31
0.0
1001
ACDBBLOCKREPETAG
1070
     1
1071
       17
1005
13A520
  0
LINE
  5
13A521
  8
OBJECT
 10
4090.0
 20
-1209.9999999999991
 30
0.0
 11
4090.0
 21
-1223.9999999999959
 31
0.0
1001
ACDBBLOCKREPETAG
1070
     1
1071
       18
1005
13A521
  0
LINE
  5
13A522
  8
OBJECT
 10
3924.0
 20
-1223.9999999999959
 30
0.0
 11
4090.0
 21
-1223.9999999999959
 31
0.0
1001
ACDBBLOCKREPETAG
1070
     1
1071
       19
1005
13A522
  0
LINE
  5
13A523
  8
OBJECT
 10
3924.0
 20
-1209.9999999999991
 30
0.0
 11
4090.0
 21
-1209.9999999999991
 31
0.0
1001
ACDBBLOCKREPETAG
1070
     1
1071
       20
1005
13A523
  0
LINE
  5
13A524
  8
OBJECT
 10
3932.499999999985
 20
-1199.9999999999991
 30
0.0
 11
3932.499999999985
 21
-1209.9999999999991
 31
0.0
1001
ACDBBLOCKREPETAG
1070
     1
1071
       21
1005
13A524
  0
LINE
  5
13A525
  8
OBJECT
 10
3924.0
 20
-1199.9999999999991
 30
0.0
 11
3924.0
 21
-1184.9999999999959
 31
0.0
1001
ACDBBLOCKREPETAG
1070
     1
1071
       22
1005
13A525
  0
LINE
  5
13A526
  8
HIDDEN
 10
3943.0
 20
-1159.9999999999991
 30
0.0
 11
4057.0
 21
-1159.9999999999991
 31
0.0
1001
ACDBBLOCKREPETAG
1070
     1
1071
       23
1005
13A526
  0
LINE
  5
13A527
  8
CENTER
 10
4000.0
 20
-889.99999999999955
 30
0.0
 11
4000.0
 21
-1238.9999999999959
 31
0.0
1001
ACDBBLOCKREPETAG
1070
     1
1071
       24
1005
13A527
  0
LINE
  5
13A528
  8
OBJECT
 10
3925.0
 20
-889.99999999999955
 30
0.0
 11
3925.0
 21
-971.99999999999591
 31
0.0
1001
ACDBBLOCKREPETAG
1070
     1
1071
       25
1005
13A528
  0
LINE
  5
13A529
  8
OBJECT
 10
4075.0
 20
-889.99999999999955
 30
0.0
 11
4075.0
 21
-971.99999999999204
 31
0.0
1001
ACDBBLOCKREPETAG
1070
     1
1071
       26
1005
13A529
  0
LINE
  5
13A52A
  8
OBJECT
 10
3925.0
 20
-971.99999999999591
 30
0.0
 11
4075.0
 21
-971.99999999999204
 31
0.0
1001
ACDBBLOCKREPETAG
1070
     1
1071
       27
1005
13A52A
  0
LINE
  5
13A52B
  8
OBJECT
 10
4057.0
 20
-1148.9999999999959
 30
0.0
 11
4057.0
 21
-1099.999999999992
 31
0.0
1001
ACDBBLOCKREPETAG
1070
     1
1071
       28
1005
13A52B
  0
LINE
  5
13A52C
  8
OBJECT
 10
3943.0
 20
-1148.9999999999959
 30
0.0
 11
3943.0
 21
-1099.999999999992
 31
0.0
1001
ACDBBLOCKREPETAG
1070
     1
1071
       29
1005
13A52C
  0
LINE
  5
13A52D
  8
OBJECT
 10
4057.0
 20
-1099.999999999992
 30
0.0
 11
3943.0
 21
-1099.999999999992
 31
0.0
1001
ACDBBLOCKREPETAG
1070
     1
1071
       30
1005
13A52D
  0
LINE
  5
13A52E
  8
OBJECT
 10
3925.0
 20
-971.99999999999591
 30
0.0
 11
3943.0
 21
-1099.999999999992
 31
0.0
1001
ACDBBLOCKREPETAG
1070
     1
1071
       31
1005
13A52E
  0
LINE
  5
13A52F
  8
OBJECT
 10
4057.0
 20
-1099.999999999992
 30
0.0
 11
4075.0
 21
-971.99999999999204
 31
0.0
1001
ACDBBLOCKREPETAG
1070
     1
1071
       32
1005
13A52F
  0
LINE
  5
13A530
  8
OBJECT
 10
3934.0
 20
-1148.9999999999959
 30
0.0
 11
3934.0
 21
-1184.9999999999959
 31
0.0
1001
ACDBBLOCKREPETAG
1070
     1
1071
       33
1005
13A530
  0
LINE
  5
13A531
  8
OBJECT
 10
4066.0
 20
-1148.9999999999959
 30
0.0
 11
4066.0
 21
-1184.9999999999959
 31
0.0
1001
ACDBBLOCKREPETAG
1070
     1
1071
       34
1005
13A531
  0
LINE
  5
13A532
  8
OBJECT
 10
4082.9999999999932
 20
-1209.9999999999959
 30
0.0
 11
4082.9999999999932
 21
-1199.9999999999959
 31
0.0
1001
ACDBBLOCKREPETAG
1070
     1
1071
       35
1005
13A532
  0
LINE
  5
13A533
  8
OBJECT
 10
4072.9999999999918
 20
-1209.9999999999959
 30
0.0
 11
4072.9999999999918
 21
-1199.9999999999959
 31
0.0
1001
ACDBBLOCKREPETAG
1070
     1
1071
       36
1005
13A533
  0
LINE
  5
13A534
  8
OBJECT
 10
4068.9999999999841
 20
-1179.9999999999959
 30
0.0
 11
4068.9999999999841
 21
-1184.9999999999959
 31
0.0
1001
ACDBBLOCKREPETAG
1070
     1
1071
       37
1005
13A534
  0
LINE
  5
13A535
  8
OBJECT
 10
4087.0
 20
-1179.9999999999959
 30
0.0
 11
4087.0
 21
-1184.9999999999959
 31
0.0
1001
ACDBBLOCKREPETAG
1070
     1
1071
       38
1005
13A535
  0
LINE
  5
13A536
  8
OBJECT
 10
4087.0
 20
-1179.9999999999959
 30
0.0
 11
4068.9999999999841
 21
-1179.9999999999959
 31
0.0
1001
ACDBBLOCKREPETAG
1070
     1
1071
       39
1005
13A536
  0
LINE
  5
13A537
  8
OBJECT
 10
4073.0
 20
-1231.9999999999959
 30
0.0
 11
4073.0
 21
-1234.9999999999959
 31
0.0
1001
ACDBBLOCKREPETAG
1070
     1
1071
       40
1005
13A537
  0
LINE
  5
13A538
  8
OBJECT
 10
4073.0
 20
-1234.9999999999959
 30
0.0
 11
4083.0
 21
-1234.9999999999959
 31
0.0
1001
ACDBBLOCKREPETAG
1070
     1
1071
       41
1005
13A538
  0
LINE
  5
13A539
  8
OBJECT
 10
4068.185045423772
 20
-1231.9999999999959
 30
0.0
 11
4087.8149545762199
 21
-1231.9999999999959
 31
0.0
1001
ACDBBLOCKREPETAG
1070
     1
1071
       42
1005
13A539
  0
LINE
  5
13A53A
  8
OBJECT
 10
4083.0
 20
-1234.9999999999959
 30
0.0
 11
4083.0
 21
-1231.9999999999959
 31
0.0
1001
ACDBBLOCKREPETAG
1070
     1
1071
       43
1005
13A53A
  0
LINE
  5
13A53B
  8
OBJECT
 10
4068.1850359912942
 20
-1223.9999868402549
 30
0.0
 11
4068.1850359912942
 21
-1231.9999868402549
 31
0.0
1001
ACDBBLOCKREPETAG
1070
     1
1071
       44
1005
13A53B
  0
LINE
  5
13A53C
  8
OBJECT
 10
4073.0925013591982
 20
-1223.9999868402549
 30
0.0
 11
4073.0925013591982
 21
-1231.9999868402549
 31
0.0
1001
ACDBBLOCKREPETAG
1070
     1
1071
       45
1005
13A53C
  0
LINE
  5
13A53D
  8
OBJECT
 10
4082.907432095024
 20
-1223.9999868402549
 30
0.0
 11
4082.907432095024
 21
-1231.9999868402549
 31
0.0
1001
ACDBBLOCKREPETAG
1070
     1
1071
       46
1005
13A53D
  0
LINE
  5
13A53E
  8
OBJECT
 10
4087.814991552797
 20
-1223.9999868402549
 30
0.0
 11
4087.814991552797
 21
-1231.9999868402549
 31
0.0
1001
ACDBBLOCKREPETAG
1070
     1
1071
       47
1005
13A53E
  0
LINE
  5
13A53F
  8
OBJECT
 10
3968.5
 20
-1179.9999999999959
 30
0.0
 11
3951.9999999999932
 21
-1179.9999999999959
 31
0.0
1001
ACDBBLOCKREPETAG
1070
     1
1071
       48
1005
13A53F
  0
LINE
  5
13A540
  8
OBJECT
 10
3976.0
 20
-1184.9999999999959
 30
0.0
 11
3976.0
 21
-1182.9999999999959
 31
0.0
1001
ACDBBLOCKREPETAG
1070
     1
1071
       49
1005
13A540
  0
LINE
  5
13A541
  8
OBJECT
 10
3966.0
 20
-1209.9999999999959
 30
0.0
 11
3966.0
 21
-1199.9999999999959
 31
0.0
1001
ACDBBLOCKREPETAG
1070
     1
1071
       50
1005
13A541
  0
LINE
  5
13A542
  8
OBJECT
 10
3956.0
 20
-1209.9999999999959
 30
0.0
 11
3956.0
 21
-1199.9999999999959
 31
0.0
1001
ACDBBLOCKREPETAG
1070
     1
1071
       51
1005
13A542
  0
LINE
  5
13A543
  8
OBJECT
 10
3951.9999999999932
 20
-1179.9999999999959
 30
0.0
 11
3951.9999999999932
 21
-1184.9999999999959
 31
0.0
1001
ACDBBLOCKREPETAG
1070
     1
1071
       52
1005
13A543
  0
LINE
  5
13A544
  8
OBJECT
 10
3956.0
 20
-1231.9999999999959
 30
0.0
 11
3956.0
 21
-1234.9999999999959
 31
0.0
1001
ACDBBLOCKREPETAG
1070
     1
1071
       53
1005
13A544
  0
LINE
  5
13A545
  8
OBJECT
 10
3956.0
 20
-1234.9999999999959
 30
0.0
 11
3966.0
 21
-1234.9999999999959
 31
0.0
1001
ACDBBLOCKREPETAG
1070
     1
1071
       54
1005
13A545
  0
LINE
  5
13A546
  8
OBJECT
 10
3951.185045423772
 20
-1231.9999999999959
 30
0.0
 11
3970.8149545762212
 21
-1231.9999999999959
 31
0.0
1001
ACDBBLOCKREPETAG
1070
     1
1071
       55
1005
13A546
  0
LINE
  5
13A547
  8
OBJECT
 10
3966.0
 20
-1234.9999999999959
 30
0.0
 11
3966.0
 21
-1231.9999999999959
 31
0.0
1001
ACDBBLOCKREPETAG
1070
     1
1071
       56
1005
13A547
  0
LINE
  5
13A548
  8
OBJECT
 10
3976.0
 20
-1182.9999999999959
 30
0.0
 11
3968.5
 21
-1179.9999999999959
 31
0.0
1001
ACDBBLOCKREPETAG
1070
     1
1071
       57
1005
13A548
  0
LINE
  5
13A549
  8
OBJECT
 10
3951.1850359912951
 20
-1223.9999868402549
 30
0.0
 11
3951.1850359912951
 21
-1231.9999868402549
 31
0.0
1001
ACDBBLOCKREPETAG
1070
     1
1071
       58
1005
13A549
  0
LINE
  5
13A54A
  8
OBJECT
 10
3956.0925013591991
 20
-1223.9999868402549
 30
0.0
 11
3956.0925013591991
 21
-1231.9999868402549
 31
0.0
1001
ACDBBLOCKREPETAG
1070
     1
1071
       59
1005
13A54A
  0
LINE
  5
13A54B
  8
OBJECT
 10
3965.907432095024
 20
-1223.9999868402549
 30
0.0
 11
3965.907432095024
 21
-1231.9999868402549
 31
0.0
1001
ACDBBLOCKREPETAG
1070
     1
1071
       60
1005
13A54B
  0
LINE
  5
13A54C
  8
OBJECT
 10
3970.8149915527979
 20
-1223.9999868402549
 30
0.0
 11
3970.8149915527979
 21
-1231.9999868402549
 31
0.0
1001
ACDBBLOCKREPETAG
1070
     1
1071
       61
1005
13A54C
  0
LINE
  5
13A54D
  8
OBJECT
 10
1943.0
 20
-1199.9999999999959
 30
0.0
 11
2057.0
 21
-1199.9999999999959
 31
0.0
1001
ACDBBLOCKREPETAG
1070
     1
1071
        0
1005
13A54D
  0
LINE
  5
13A54E
  8
OBJECT
 10
1943.0
 20
-1199.9999999999959
 30
0.0
 11
1943.0
 21
-1099.9999999999959
 31
0.0
1001
ACDBBLOCKREPETAG
1070
     1
1071
        1
1005
13A54E
  0
LINE
  5
13A54F
  8
OBJECT
 10
2057.0
 20
-1199.9999999999959
 30
0.0
 11
2057.0
 21
-1099.9999999999959
 31
0.0
1001
ACDBBLOCKREPETAG
1070
     1
1071
        2
1005
13A54F
  0
LINE
  5
13A550
  8
OBJECT
 10
1943.0
 20
-1099.9999999999959
 30
0.0
 11
2057.0
 21
-1099.9999999999959
 31
0.0
1001
ACDBBLOCKREPETAG
1070
     1
1071
        3
1005
13A550
  0
LINE
  5
13A551
  8
HIDDEN
 10
1950.0
 20
-1099.9999999999959
 30
0.0
 11
1950.0
 21
-1199.9999999999959
 31
0.0
1001
ACDBBLOCKREPETAG
1070
     1
1071
        4
1005
13A551
  0
LINE
  5
13A552
  8
HIDDEN
 10
2050.0
 20
-1099.9999999999959
 30
0.0
 11
2050.0
 21
-1199.9999999999959
 31
0.0
1001
ACDBBLOCKREPETAG
1070
     1
1071
        5
1005
13A552
  0
LINE
  5
13A553
  8
CENTER
 10
2000.0
 20
-889.99999999999955
 30
0.0
 11
2000.0
 21
-1214.9999999999959
 31
0.0
1001
ACDBBLOCKREPETAG
1070
     1
1071
        6
1005
13A553
  0
LINE
  5
13A554
  8
OBJECT
 10
1925.0
 20
-889.99999999999955
 30
0.0
 11
1925.0
 21
-971.99999999999591
 31
0.0
1001
ACDBBLOCKREPETAG
1070
     1
1071
        7
1005
13A554
  0
LINE
  5
13A555
  8
OBJECT
 10
2075.0
 20
-889.99999999999955
 30
0.0
 11
2075.0
 21
-971.99999999999591
 31
0.0
1001
ACDBBLOCKREPETAG
1070
     1
1071
        8
1005
13A555
  0
LINE
  5
13A556
  8
OBJECT
 10
1925.0
 20
-971.99999999999591
 30
0.0
 11
2075.0
 21
-971.99999999999591
 31
0.0
1001
ACDBBLOCKREPETAG
1070
     1
1071
        9
1005
13A556
  0
LINE
  5
13A557
  8
OBJECT
 10
1925.0
 20
-971.99999999999591
 30
0.0
 11
1943.0
 21
-1099.9999999999959
 31
0.0
1001
ACDBBLOCKREPETAG
1070
     1
1071
       10
1005
13A557
  0
LINE
  5
13A558
  8
OBJECT
 10
2057.0
 20
-1099.9999999999959
 30
0.0
 11
2075.0
 21
-971.99999999999591
 31
0.0
1001
ACDBBLOCKREPETAG
1070
     1
1071
       11
1005
13A558
  0
TEXT
  5
13A559
  8
SLIM
 10
0.0
 20
670.0
 30
0.0
 40
100.0
  1
4SLT-Z606-P110-S
 41
0.75
  0
TEXT
  5
13A55A
  8
SLIM
 10
0.0
 20
520.0
 30
0.0
 40
100.0
  1
4SLT-Z606-P110-W
 41
0.75
  0
LINE
  5
13A55B
  8
CENTER
 10
11909.0
 20
-1473.9999999999959
 30
0.0
 11
12105.0
 21
-1473.9999999999959
 31
0.0
1001
ACDBBLOCKREPETAG
1070
     1
1071
       10
1005
13A55B
  0
LINE
  5
13A55C
  8
CENTER
 10
12000.0
 20
-1382.725335570779
 30
0.0
 11
12000.0
 21
-1565.274664429212
 31
0.0
1001
ACDBBLOCKREPETAG
1070
     1
1071
       11
1005
13A55C
  0
CIRCLE
  5
13A55D
  8
OBJECT
 10
12000.0
 20
-1473.9999999999959
 30
0.0
 40
50.0
1001
ACDBBLOCKREPETAG
1070
     1
1071
       12
1005
13A55D
  0
CIRCLE
  5
13A55E
  8
OBJECT
 10
12000.0
 20
-1473.9999999999959
 30
0.0
 40
60.0
1001
ACDBBLOCKREPETAG
1070
     1
1071
       13
1005
13A55E
  0
CIRCLE
  5
13A55F
  8
OBJECT
 10
12000.0
 20
-1473.9999999999959
 30
0.0
 40
68.0
1001
ACDBBLOCKREPETAG
1070
     1
1071
       14
1005
13A55F
  0
ARC
  5
13A560
  8
OBJECT
 10
12077.5
 20
-1473.9999999999959
 30
0.0
 40
12.0
 50
272.10542627221611
 51
87.894573727783893
1001
ACDBBLOCKREPETAG
1070
     1
1071
       15
1005
13A560
  0
ARC
  5
13A561
  8
OBJECT
 10
12078.49193548386
 20
-1447.0182271895239
 30
0.0
 40
15.0
 50
198.97051877965251
 51
267.89457372778372
1001
ACDBBLOCKREPETAG
1070
     1
1071
       16
1005
13A561
  0
ARC
  5
13A562
  8
OBJECT
 10
12078.49193548386
 20
-1500.981772810464
 30
0.0
 40
15.0
 50
92.105426272216135
 51
161.02948122034729
1001
ACDBBLOCKREPETAG
1070
     1
1071
       17
1005
13A562
  0
CIRCLE
  5
13A563
  8
SLIM
 10
12078.0
 20
-1473.9999999999959
 30
0.0
 40
8.0
1001
ACDBBLOCKREPETAG
1070
     1
1071
       18
1005
13A563
  0
POLYLINE
  5
13A564
  8
SLIM
 66
     1
 10
0.0
 20
0.0
 30
0.0
 70
     1
1001
ACDBBLOCKREPETAG
1070
     1
1071
       19
1005
13A564
  0
VERTEX
  5
13ACB3
  8
SLIM
 10
12075.69059892322
 20
-1469.9999999999959
 30
0.0
  0
VERTEX
  5
13ACB4
  8
SLIM
 10
12073.38119784648
 20
-1473.9999999999959
 30
0.0
  0
VERTEX
  5
13ACB5
  8
SLIM
 10
12075.69059892322
 20
-1477.9999999999959
 30
0.0
  0
VERTEX
  5
13ACB6
  8
SLIM
 10
12080.309401076751
 20
-1477.9999999999959
 30
0.0
  0
VERTEX
  5
13ACB7
  8
SLIM
 10
12082.618802153511
 20
-1473.9999999999959
 30
0.0
  0
VERTEX
  5
13ACB8
  8
SLIM
 10
12080.309401076751
 20
-1469.9999999999959
 30
0.0
  0
SEQEND
  5
13ACB9
  8
SLIM
  0
ARC
  5
13A565
  8
OBJECT
 10
11961.25
 20
-1406.8830312067
 30
0.0
 40
12.0
 50
32.105426272130188
 51
207.89457372768319
1001
ACDBBLOCKREPETAG
1070
     1
1071
       20
1005
13A565
  0
ARC
  5
13A566
  8
OBJECT
 10
11937.38713156505
 20
-1419.5148762839881
 30
0.0
 40
15.0
 50
318.97051877944762
 51
27.89457372768311
1001
ACDBBLOCKREPETAG
1070
     1
1071
       21
1005
13A566
  0
ARC
  5
13A567
  8
OBJECT
 10
11984.120932951069
 20
-1392.533103473517
 30
0.0
 40
15.0
 50
212.10542627213019
 51
281.02948122044069
1001
ACDBBLOCKREPETAG
1070
     1
1071
       22
1005
13A567
  0
CIRCLE
  5
13A568
  8
SLIM
 10
11961.0
 20
-1406.450018504808
 30
0.0
 40
7.9999999999999982
1001
ACDBBLOCKREPETAG
1070
     1
1071
       23
1005
13A568
  0
POLYLINE
  5
13A569
  8
SLIM
 66
     1
 10
0.0
 20
0.0
 30
0.0
 70
     1
1001
ACDBBLOCKREPETAG
1070
     1
1071
       24
1005
13A569
  0
VERTEX
  5
13ACBA
  8
SLIM
 10
11958.69059892324
 20
-1410.4500185048089
 30
0.0
  0
VERTEX
  5
13ACBB
  8
SLIM
 10
11963.309401076751
 20
-1410.4500185048089
 30
0.0
  0
VERTEX
  5
13ACBC
  8
SLIM
 10
11965.618802153511
 20
-1406.450018504808
 30
0.0
  0
VERTEX
  5
13ACBD
  8
SLIM
 10
11963.309401076751
 20
-1402.4500185048089
 30
0.0
  0
VERTEX
  5
13ACBE
  8
SLIM
 10
11958.69059892324
 20
-1402.4500185048089
 30
0.0
  0
VERTEX
  5
13ACBF
  8
SLIM
 10
11956.38119784648
 20
-1406.450018504808
 30
0.0
  0
SEQEND
  5
13ACC0
  8
SLIM
  0
ARC
  5
13A56A
  8
OBJECT
 10
11961.25
 20
-1541.1169687932879
 30
0.0
 40
12.0
 50
152.10542627231681
 51
327.89457372786978
1001
ACDBBLOCKREPETAG
1070
     1
1071
       25
1005
13A56A
  0
ARC
  5
13A56B
  8
OBJECT
 10
11984.120932951069
 20
-1555.4668965264709
 30
0.0
 40
15.0
 50
78.970518779559228
 51
147.89457372786981
1001
ACDBBLOCKREPETAG
1070
     1
1071
       26
1005
13A56B
  0
ARC
  5
13A56C
  8
OBJECT
 10
11937.38713156505
 20
-1528.485123716003
 30
0.0
 40
15.0
 50
332.10542627231678
 51
41.029481220552412
1001
ACDBBLOCKREPETAG
1070
     1
1071
       27
1005
13A56C
  0
CIRCLE
  5
13A56D
  8
SLIM
 10
11961.0
 20
-1541.549981495182
 30
0.0
 40
8.0
1001
ACDBBLOCKREPETAG
1070
     1
1071
       28
1005
13A56D
  0
POLYLINE
  5
13A56E
  8
SLIM
 66
     1
 10
0.0
 20
0.0
 30
0.0
 70
     1
1001
ACDBBLOCKREPETAG
1070
     1
1071
       29
1005
13A56E
  0
VERTEX
  5
13ACC1
  8
SLIM
 10
11965.618802153511
 20
-1541.5499814951791
 30
0.0
  0
VERTEX
  5
13ACC2
  8
SLIM
 10
11963.309401076751
 20
-1537.5499814951829
 30
0.0
  0
VERTEX
  5
13ACC3
  8
SLIM
 10
11958.69059892324
 20
-1537.5499814951791
 30
0.0
  0
VERTEX
  5
13ACC4
  8
SLIM
 10
11956.38119784648
 20
-1541.549981495182
 30
0.0
  0
VERTEX
  5
13ACC5
  8
SLIM
 10
11958.69059892322
 20
-1545.5499814951791
 30
0.0
  0
VERTEX
  5
13ACC6
  8
SLIM
 10
11963.309401076751
 20
-1545.5499814951829
 30
0.0
  0
SEQEND
  5
13ACC7
  8
SLIM
  0
ARC
  5
13A56F
  8
OBJECT
 10
12000.0
 20
-1473.9999999999959
 30
0.0
 40
76.0
 50
34.863837954171863
 51
85.136162045732945
1001
ACDBBLOCKREPETAG
1070
     1
1071
       42
1005
13A56F
  0
ARC
  5
13A570
  8
OBJECT
 10
12000.0
 20
-1473.9999999999959
 30
0.0
 40
76.0
 50
154.86383795430939
 51
205.1361620456905
1001
ACDBBLOCKREPETAG
1070
     1
1071
       43
1005
13A570
  0
ARC
  5
13A571
  8
OBJECT
 10
12000.0
 20
-1473.9999999999959
 30
0.0
 40
76.0
 50
274.86383795426718
 51
325.13616204582797
1001
ACDBBLOCKREPETAG
1070
     1
1071
       44
1005
13A571
  0
ARC
  5
13A572
  8
OBJECT
 10
12078.0
 20
-1473.9999999999959
 30
0.0
 40
12.0
 50
325.13616204582797
 51
34.863837954171863
1001
ACDBBLOCKREPETAG
1070
     1
1071
       45
1005
13A572
  0
LINE
  5
13A573
  8
OBJECT
 10
12087.84615384616
 20
-1467.140462520133
 30
0.0
 11
12062.358974359049
 21
-1430.5562626275339
 31
0.0
1001
ACDBBLOCKREPETAG
1070
     1
1071
       46
1005
13A573
  0
LINE
  5
13A574
  8
OBJECT
 10
12087.846153846171
 20
-1480.859537479856
 30
0.0
 11
12062.358974359049
 21
-1517.4437373724591
 31
0.0
1001
ACDBBLOCKREPETAG
1070
     1
1071
       47
1005
13A574
  0
ARC
  5
13A575
  8
OBJECT
 10
11961.0
 20
-1406.45001850481
 30
0.0
 40
12.0
 50
85.136162045942811
 51
154.86383795410001
1001
ACDBBLOCKREPETAG
1070
     1
1071
       48
1005
13A575
  0
LINE
  5
13A576
  8
OBJECT
 10
11950.13638936114
 20
-1401.3527678843909
 30
0.0
 11
11931.19713262058
 21
-1441.7174127373471
 31
0.0
1001
ACDBBLOCKREPETAG
1070
     1
1071
       49
1005
13A576
  0
LINE
  5
13A577
  8
OBJECT
 10
11962.017456792681
 20
-1394.493230404526
 30
0.0
 11
12006.443893020371
 21
-1398.2736753648851
 31
0.0
1001
ACDBBLOCKREPETAG
1070
     1
1071
       50
1005
13A577
  0
ARC
  5
13A578
  8
OBJECT
 10
11961.0
 20
-1541.5499814951811
 30
0.0
 40
12.0
 50
205.13616204589991
 51
274.8638379540572
1001
ACDBBLOCKREPETAG
1070
     1
1071
       51
1005
13A578
  0
LINE
  5
13A579
  8
OBJECT
 10
11962.01745679269
 20
-1553.5067695954631
 30
0.0
 11
12006.44389302036
 21
-1549.726324635106
 31
0.0
1001
ACDBBLOCKREPETAG
1070
     1
1071
       52
1005
13A579
  0
LINE
  5
13A57A
  8
OBJECT
 10
11950.13638936114
 20
-1546.647232115605
 30
0.0
 11
11931.19713262058
 21
-1506.2825872626429
 31
0.0
1001
ACDBBLOCKREPETAG
1070
     1
1071
       53
1005
13A57A
  0
LINE
  5
13A57B
  8
CENTER
 10
9909.0
 20
-1473.9999999999959
 30
0.0
 11
10105.0
 21
-1473.9999999999959
 31
0.0
1001
ACDBBLOCKREPETAG
1070
     1
1071
        0
1005
13A57B
  0
LINE
  5
13A57C
  8
CENTER
 10
10000.0
 20
-1382.725335570779
 30
0.0
 11
10000.0
 21
-1565.274664429212
 31
0.0
1001
ACDBBLOCKREPETAG
1070
     1
1071
        1
1005
13A57C
  0
CIRCLE
  5
13A57D
  8
OBJECT
 10
10000.0
 20
-1473.9999999999959
 30
0.0
 40
50.0
1001
ACDBBLOCKREPETAG
1070
     1
1071
        2
1005
13A57D
  0
CIRCLE
  5
13A57E
  8
OBJECT
 10
10000.0
 20
-1473.9999999999959
 30
0.0
 40
62.0
1001
ACDBBLOCKREPETAG
1070
     1
1071
        3
1005
13A57E
  0
CIRCLE
  5
13A57F
  8
SLIM
 10
10078.0
 20
-1473.9999999999959
 30
0.0
 40
5.0
1001
ACDBBLOCKREPETAG
1070
     1
1071
        4
1005
13A57F
  0
POLYLINE
  5
13A580
  8
SLIM
 66
     1
 10
0.0
 20
0.0
 30
0.0
 70
     1
1001
ACDBBLOCKREPETAG
1070
     1
1071
        5
1005
13A580
  0
VERTEX
  5
13ACC8
  8
SLIM
 10
10073.092522711881
 20
-1465.4999999999959
 30
0.0
  0
VERTEX
  5
13ACC9
  8
SLIM
 10
10068.18504542377
 20
-1473.9999999999959
 30
0.0
  0
VERTEX
  5
13ACCA
  8
SLIM
 10
10073.092522711881
 20
-1482.4999999999959
 30
0.0
  0
VERTEX
  5
13ACCB
  8
SLIM
 10
10082.907477288099
 20
-1482.4999999999959
 30
0.0
  0
VERTEX
  5
13ACCC
  8
SLIM
 10
10087.814954576221
 20
-1473.9999999999959
 30
0.0
  0
VERTEX
  5
13ACCD
  8
SLIM
 10
10082.907477288099
 20
-1465.4999999999959
 30
0.0
  0
SEQEND
  5
13ACCE
  8
SLIM
  0
CIRCLE
  5
13A581
  8
SLIM
 10
9961.0
 20
-1406.450018504808
 30
0.0
 40
4.9999999999999991
1001
ACDBBLOCKREPETAG
1070
     1
1071
        6
1005
13A581
  0
POLYLINE
  5
13A582
  8
SLIM
 66
     1
 10
0.0
 20
0.0
 30
0.0
 70
     1
1001
ACDBBLOCKREPETAG
1070
     1
1071
        7
1005
13A582
  0
VERTEX
  5
13ACCF
  8
SLIM
 10
9956.092522711886
 20
-1414.950018504808
 30
0.0
  0
VERTEX
  5
13ACD0
  8
SLIM
 10
9965.907477288114
 20
-1414.950018504808
 30
0.0
  0
VERTEX
  5
13ACD1
  8
SLIM
 10
9970.814954576219
 20
-1406.450018504808
 30
0.0
  0
VERTEX
  5
13ACD2
  8
SLIM
 10
9965.907477288114
 20
-1397.9500185048089
 30
0.0
  0
VERTEX
  5
13ACD3
  8
SLIM
 10
9956.092522711886
 20
-1397.9500185048089
 30
0.0
  0
VERTEX
  5
13ACD4
  8
SLIM
 10
9951.185045423772
 20
-1406.450018504808
 30
0.0
  0
SEQEND
  5
13ACD5
  8
SLIM
  0
CIRCLE
  5
13A583
  8
SLIM
 10
9961.0
 20
-1541.549981495182
 30
0.0
 40
5.0
1001
ACDBBLOCKREPETAG
1070
     1
1071
        8
1005
13A583
  0
POLYLINE
  5
13A584
  8
SLIM
 66
     1
 10
0.0
 20
0.0
 30
0.0
 70
     1
1001
ACDBBLOCKREPETAG
1070
     1
1071
        9
1005
13A584
  0
VERTEX
  5
13ACD6
  8
SLIM
 10
9970.814954576219
 20
-1541.549981495182
 30
0.0
  0
VERTEX
  5
13ACD7
  8
SLIM
 10
9965.9074772881049
 20
-1533.0499814951791
 30
0.0
  0
VERTEX
  5
13ACD8
  8
SLIM
 10
9956.092522711886
 20
-1533.0499814951829
 30
0.0
  0
VERTEX
  5
13ACD9
  8
SLIM
 10
9951.185045423772
 20
-1541.5499814951791
 30
0.0
  0
VERTEX
  5
13ACDA
  8
SLIM
 10
9956.092522711886
 20
-1550.049981495182
 30
0.0
  0
VERTEX
  5
13ACDB
  8
SLIM
 10
9965.907477288114
 20
-1550.0499814951791
 30
0.0
  0
SEQEND
  5
13ACDC
  8
SLIM
  0
ARC
  5
13A585
  8
OBJECT
 10
10000.0
 20
-1473.9999999999959
 30
0.0
 40
76.0
 50
34.863837954171863
 51
85.136162045732945
1001
ACDBBLOCKREPETAG
1070
     1
1071
       30
1005
13A585
  0
ARC
  5
13A586
  8
OBJECT
 10
10000.0
 20
-1473.9999999999959
 30
0.0
 40
76.0
 50
154.86383795430939
 51
205.1361620456905
1001
ACDBBLOCKREPETAG
1070
     1
1071
       31
1005
13A586
  0
ARC
  5
13A587
  8
OBJECT
 10
10000.0
 20
-1473.9999999999959
 30
0.0
 40
76.0
 50
274.86383795426718
 51
325.13616204582797
1001
ACDBBLOCKREPETAG
1070
     1
1071
       32
1005
13A587
  0
ARC
  5
13A588
  8
OBJECT
 10
10078.0
 20
-1473.9999999999959
 30
0.0
 40
12.0
 50
325.13616204582797
 51
34.863837954171863
1001
ACDBBLOCKREPETAG
1070
     1
1071
       33
1005
13A588
  0
LINE
  5
13A589
  8
OBJECT
 10
10087.84615384616
 20
-1467.140462520133
 30
0.0
 11
10062.35897435904
 21
-1430.5562626275339
 31
0.0
1001
ACDBBLOCKREPETAG
1070
     1
1071
       34
1005
13A589
  0
LINE
  5
13A58A
  8
OBJECT
 10
10087.846153846171
 20
-1480.859537479856
 30
0.0
 11
10062.35897435904
 21
-1517.4437373724591
 31
0.0
1001
ACDBBLOCKREPETAG
1070
     1
1071
       35
1005
13A58A
  0
ARC
  5
13A58B
  8
OBJECT
 10
9961.0
 20
-1406.45001850481
 30
0.0
 40
12.0
 50
85.136162045942811
 51
154.86383795410001
1001
ACDBBLOCKREPETAG
1070
     1
1071
       36
1005
13A58B
  0
LINE
  5
13A58C
  8
OBJECT
 10
9950.1363893611433
 20
-1401.3527678843909
 30
0.0
 11
9931.1971326205894
 21
-1441.7174127373471
 31
0.0
1001
ACDBBLOCKREPETAG
1070
     1
1071
       37
1005
13A58C
  0
LINE
  5
13A58D
  8
OBJECT
 10
9962.0174567926842
 20
-1394.493230404526
 30
0.0
 11
10006.443893020371
 21
-1398.2736753648851
 31
0.0
1001
ACDBBLOCKREPETAG
1070
     1
1071
       38
1005
13A58D
  0
ARC
  5
13A58E
  8
OBJECT
 10
9961.0
 20
-1541.5499814951811
 30
0.0
 40
12.0
 50
205.13616204589991
 51
274.8638379540572
1001
ACDBBLOCKREPETAG
1070
     1
1071
       39
1005
13A58E
  0
LINE
  5
13A58F
  8
OBJECT
 10
9962.0174567926897
 20
-1553.5067695954631
 30
0.0
 11
10006.44389302036
 21
-1549.726324635106
 31
0.0
1001
ACDBBLOCKREPETAG
1070
     1
1071
       40
1005
13A58F
  0
LINE
  5
13A590
  8
OBJECT
 10
9950.1363893611433
 20
-1546.647232115605
 30
0.0
 11
9931.1971326205821
 21
-1506.2825872626429
 31
0.0
1001
ACDBBLOCKREPETAG
1070
     1
1071
       41
1005
13A590
  0
LINE
  5
13A591
  8
CENTER
 10
5909.0
 20
-1514.9999999999991
 30
0.0
 11
6105.0
 21
-1514.9999999999991
 31
0.0
1001
ACDBBLOCKREPETAG
1070
     1
1071
       10
1005
13A591
  0
LINE
  5
13A592
  8
CENTER
 10
6000.0
 20
-1423.725335570783
 30
0.0
 11
6000.0
 21
-1606.274664429214
 31
0.0
1001
ACDBBLOCKREPETAG
1070
     1
1071
       11
1005
13A592
  0
CIRCLE
  5
13A593
  8
OBJECT
 10
6000.0
 20
-1514.9999999999991
 30
0.0
 40
50.0
1001
ACDBBLOCKREPETAG
1070
     1
1071
       12
1005
13A593
  0
CIRCLE
  5
13A594
  8
OBJECT
 10
6000.0
 20
-1514.9999999999991
 30
0.0
 40
60.0
1001
ACDBBLOCKREPETAG
1070
     1
1071
       13
1005
13A594
  0
CIRCLE
  5
13A595
  8
OBJECT
 10
6000.0
 20
-1514.9999999999991
 30
0.0
 40
68.0
1001
ACDBBLOCKREPETAG
1070
     1
1071
       14
1005
13A595
  0
ARC
  5
13A596
  8
OBJECT
 10
6077.5
 20
-1514.9999999999991
 30
0.0
 40
12.0
 50
272.10542627221611
 51
87.894573727783893
1001
ACDBBLOCKREPETAG
1070
     1
1071
       15
1005
13A596
  0
ARC
  5
13A597
  8
OBJECT
 10
6078.4919354838639
 20
-1488.0182271895269
 30
0.0
 40
15.0
 50
198.9705187796356
 51
267.89457372778372
1001
ACDBBLOCKREPETAG
1070
     1
1071
       16
1005
13A597
  0
ARC
  5
13A598
  8
OBJECT
 10
6078.4919354838639
 20
-1541.981772810467
 30
0.0
 40
15.0
 50
92.105426272216135
 51
161.02948122036429
1001
ACDBBLOCKREPETAG
1070
     1
1071
       17
1005
13A598
  0
CIRCLE
  5
13A599
  8
SLIM
 10
6078.0
 20
-1514.9999999999991
 30
0.0
 40
8.0
1001
ACDBBLOCKREPETAG
1070
     1
1071
       18
1005
13A599
  0
POLYLINE
  5
13A59A
  8
SLIM
 66
     1
 10
0.0
 20
0.0
 30
0.0
 70
     1
1001
ACDBBLOCKREPETAG
1070
     1
1071
       19
1005
13A59A
  0
VERTEX
  5
13ACDD
  8
SLIM
 10
6075.6905989232328
 20
-1510.9999999999991
 30
0.0
  0
VERTEX
  5
13ACDE
  8
SLIM
 10
6073.3811978464801
 20
-1514.9999999999991
 30
0.0
  0
VERTEX
  5
13ACDF
  8
SLIM
 10
6075.6905989232328
 20
-1518.9999999999991
 30
0.0
  0
VERTEX
  5
13ACE0
  8
SLIM
 10
6080.3094010767527
 20
-1518.9999999999991
 30
0.0
  0
VERTEX
  5
13ACE1
  8
SLIM
 10
6082.6188021535136
 20
-1514.9999999999991
 30
0.0
  0
VERTEX
  5
13ACE2
  8
SLIM
 10
6080.3094010767527
 20
-1510.9999999999991
 30
0.0
  0
SEQEND
  5
13ACE3
  8
SLIM
  0
ARC
  5
13A59B
  8
OBJECT
 10
5961.25
 20
-1447.883031206703
 30
0.0
 40
12.0
 50
32.105426272157878
 51
207.89457372770741
1001
ACDBBLOCKREPETAG
1070
     1
1071
       20
1005
13A59B
  0
ARC
  5
13A59C
  8
OBJECT
 10
5937.387131565054
 20
-1460.514876283992
 30
0.0
 40
15.0
 50
318.97051877944762
 51
27.894573727707481
1001
ACDBBLOCKREPETAG
1070
     1
1071
       21
1005
13A59C
  0
ARC
  5
13A59D
  8
OBJECT
 10
5984.1209329510702
 20
-1433.53310347352
 30
0.0
 40
15.0
 50
212.1054262721579
 51
281.02948122044069
1001
ACDBBLOCKREPETAG
1070
     1
1071
       22
1005
13A59D
  0
CIRCLE
  5
13A59E
  8
SLIM
 10
5961.0
 20
-1447.4500185048109
 30
0.0
 40
7.9999999999999982
1001
ACDBBLOCKREPETAG
1070
     1
1071
       23
1005
13A59E
  0
POLYLINE
  5
13A59F
  8
SLIM
 66
     1
 10
0.0
 20
0.0
 30
0.0
 70
     1
1001
ACDBBLOCKREPETAG
1070
     1
1071
       24
1005
13A59F
  0
VERTEX
  5
13ACE4
  8
SLIM
 10
5958.69059892324
 20
-1451.4500185048121
 30
0.0
  0
VERTEX
  5
13ACE5
  8
SLIM
 10
5963.3094010767518
 20
-1451.4500185048121
 30
0.0
  0
VERTEX
  5
13ACE6
  8
SLIM
 10
5965.6188021535136
 20
-1447.4500185048109
 30
0.0
  0
VERTEX
  5
13ACE7
  8
SLIM
 10
5963.3094010767518
 20
-1443.4500185048121
 30
0.0
  0
VERTEX
  5
13ACE8
  8
SLIM
 10
5958.69059892324
 20
-1443.4500185048121
 30
0.0
  0
VERTEX
  5
13ACE9
  8
SLIM
 10
5956.3811978464792
 20
-1447.4500185048109
 30
0.0
  0
SEQEND
  5
13ACEA
  8
SLIM
  0
ARC
  5
13A5A0
  8
OBJECT
 10
5961.25
 20
-1582.1169687932911
 30
0.0
 40
12.0
 50
152.1054262722925
 51
327.89457372784221
1001
ACDBBLOCKREPETAG
1070
     1
1071
       25
1005
13A5A0
  0
ARC
  5
13A5A1
  8
OBJECT
 10
5984.1209329510702
 20
-1596.4668965264741
 30
0.0
 40
15.0
 50
78.970518779559228
 51
147.8945737278421
1001
ACDBBLOCKREPETAG
1070
     1
1071
       26
1005
13A5A1
  0
ARC
  5
13A5A2
  8
OBJECT
 10
5937.387131565054
 20
-1569.485123716006
 30
0.0
 40
15.0
 50
332.1054262722925
 51
41.029481220552412
1001
ACDBBLOCKREPETAG
1070
     1
1071
       27
1005
13A5A2
  0
CIRCLE
  5
13A5A3
  8
SLIM
 10
5961.0
 20
-1582.5499814951861
 30
0.0
 40
8.0
1001
ACDBBLOCKREPETAG
1070
     1
1071
       28
1005
13A5A3
  0
POLYLINE
  5
13A5A4
  8
SLIM
 66
     1
 10
0.0
 20
0.0
 30
0.0
 70
     1
1001
ACDBBLOCKREPETAG
1070
     1
1071
       29
1005
13A5A4
  0
VERTEX
  5
13ACEB
  8
SLIM
 10
5965.6188021535136
 20
-1582.5499814951829
 30
0.0
  0
VERTEX
  5
13ACEC
  8
SLIM
 10
5963.3094010767518
 20
-1578.5499814951861
 30
0.0
  0
VERTEX
  5
13ACED
  8
SLIM
 10
5958.69059892324
 20
-1578.5499814951811
 30
0.0
  0
VERTEX
  5
13ACEE
  8
SLIM
 10
5956.3811978464792
 20
-1582.5499814951861
 30
0.0
  0
VERTEX
  5
13ACEF
  8
SLIM
 10
5958.6905989232328
 20
-1586.5499814951811
 30
0.0
  0
VERTEX
  5
13ACF0
  8
SLIM
 10
5963.3094010767518
 20
-1586.5499814951861
 30
0.0
  0
SEQEND
  5
13ACF1
  8
SLIM
  0
ARC
  5
13A5A5
  8
OBJECT
 10
6000.0
 20
-1514.9999999999991
 30
0.0
 40
76.0
 50
34.863837954142063
 51
85.136162045732945
1001
ACDBBLOCKREPETAG
1070
     1
1071
       42
1005
13A5A5
  0
ARC
  5
13A5A6
  8
OBJECT
 10
6000.0
 20
-1514.9999999999991
 30
0.0
 40
76.0
 50
154.86383795430939
 51
205.1361620456905
1001
ACDBBLOCKREPETAG
1070
     1
1071
       43
1005
13A5A6
  0
ARC
  5
13A5A7
  8
OBJECT
 10
6000.0
 20
-1514.9999999999991
 30
0.0
 40
76.0
 50
274.86383795426718
 51
325.13616204585799
1001
ACDBBLOCKREPETAG
1070
     1
1071
       44
1005
13A5A7
  0
ARC
  5
13A5A8
  8
OBJECT
 10
6078.0
 20
-1514.9999999999991
 30
0.0
 40
12.0
 50
325.13616204585799
 51
34.863837954142063
1001
ACDBBLOCKREPETAG
1070
     1
1071
       45
1005
13A5A8
  0
LINE
  5
13A5A9
  8
OBJECT
 10
6087.846153846167
 20
-1508.1404625201369
 30
0.0
 11
6062.3589743590501
 21
-1471.556262627538
 31
0.0
1001
ACDBBLOCKREPETAG
1070
     1
1071
       46
1005
13A5A9
  0
LINE
  5
13A5AA
  8
OBJECT
 10
6087.8461538461697
 20
-1521.859537479859
 30
0.0
 11
6062.3589743590501
 21
-1558.443737372462
 31
0.0
1001
ACDBBLOCKREPETAG
1070
     1
1071
       47
1005
13A5AA
  0
ARC
  5
13A5AB
  8
OBJECT
 10
5961.0
 20
-1447.4500185048139
 30
0.0
 40
12.0
 50
85.136162045942811
 51
154.86383795410001
1001
ACDBBLOCKREPETAG
1070
     1
1071
       48
1005
13A5AB
  0
LINE
  5
13A5AC
  8
OBJECT
 10
5950.1363893611451
 20
-1442.3527678843941
 30
0.0
 11
5931.1971326205849
 21
-1482.7174127373501
 31
0.0
1001
ACDBBLOCKREPETAG
1070
     1
1071
       49
1005
13A5AC
  0
LINE
  5
13A5AD
  8
OBJECT
 10
5962.0174567926842
 20
-1435.4932304045301
 30
0.0
 11
6006.4438930203669
 21
-1439.273675364889
 31
0.0
1001
ACDBBLOCKREPETAG
1070
     1
1071
       50
1005
13A5AD
  0
ARC
  5
13A5AE
  8
OBJECT
 10
5961.0
 20
-1582.5499814951841
 30
0.0
 40
12.0
 50
205.13616204589991
 51
274.8638379540572
1001
ACDBBLOCKREPETAG
1070
     1
1071
       51
1005
13A5AE
  0
LINE
  5
13A5AF
  8
OBJECT
 10
5962.0174567926879
 20
-1594.5067695954669
 30
0.0
 11
6006.4438930203651
 21
-1590.726324635109
 31
0.0
1001
ACDBBLOCKREPETAG
1070
     1
1071
       52
1005
13A5AF
  0
LINE
  5
13A5B0
  8
OBJECT
 10
5950.1363893611451
 20
-1587.6472321156079
 30
0.0
 11
5931.1971326205821
 21
-1547.2825872626461
 31
0.0
1001
ACDBBLOCKREPETAG
1070
     1
1071
       53
1005
13A5B0
  0
LINE
  5
13A5B1
  8
CENTER
 10
3909.0
 20
-1473.9999999999959
 30
0.0
 11
4105.0
 21
-1473.9999999999959
 31
0.0
1001
ACDBBLOCKREPETAG
1070
     1
1071
        0
1005
13A5B1
  0
LINE
  5
13A5B2
  8
CENTER
 10
4000.0
 20
-1382.725335570779
 30
0.0
 11
4000.0
 21
-1565.274664429212
 31
0.0
1001
ACDBBLOCKREPETAG
1070
     1
1071
        1
1005
13A5B2
  0
CIRCLE
  5
13A5B3
  8
OBJECT
 10
4000.0
 20
-1473.9999999999959
 30
0.0
 40
50.0
1001
ACDBBLOCKREPETAG
1070
     1
1071
        2
1005
13A5B3
  0
CIRCLE
  5
13A5B4
  8
OBJECT
 10
4000.0
 20
-1473.9999999999959
 30
0.0
 40
62.0
1001
ACDBBLOCKREPETAG
1070
     1
1071
        3
1005
13A5B4
  0
CIRCLE
  5
13A5B5
  8
SLIM
 10
4078.0
 20
-1473.9999999999959
 30
0.0
 40
5.0
1001
ACDBBLOCKREPETAG
1070
     1
1071
        4
1005
13A5B5
  0
POLYLINE
  5
13A5B6
  8
SLIM
 66
     1
 10
0.0
 20
0.0
 30
0.0
 70
     1
1001
ACDBBLOCKREPETAG
1070
     1
1071
        5
1005
13A5B6
  0
VERTEX
  5
13ACF2
  8
SLIM
 10
4073.092522711886
 20
-1465.4999999999959
 30
0.0
  0
VERTEX
  5
13ACF3
  8
SLIM
 10
4068.185045423772
 20
-1473.9999999999959
 30
0.0
  0
VERTEX
  5
13ACF4
  8
SLIM
 10
4073.092522711886
 20
-1482.4999999999959
 30
0.0
  0
VERTEX
  5
13ACF5
  8
SLIM
 10
4082.9074772881072
 20
-1482.4999999999959
 30
0.0
  0
VERTEX
  5
13ACF6
  8
SLIM
 10
4087.8149545762199
 20
-1473.9999999999959
 30
0.0
  0
VERTEX
  5
13ACF7
  8
SLIM
 10
4082.9074772881072
 20
-1465.4999999999959
 30
0.0
  0
SEQEND
  5
13ACF8
  8
SLIM
  0
CIRCLE
  5
13A5B7
  8
SLIM
 10
3961.0
 20
-1406.450018504808
 30
0.0
 40
4.9999999999999991
1001
ACDBBLOCKREPETAG
1070
     1
1071
        6
1005
13A5B7
  0
POLYLINE
  5
13A5B8
  8
SLIM
 66
     1
 10
0.0
 20
0.0
 30
0.0
 70
     1
1001
ACDBBLOCKREPETAG
1070
     1
1071
        7
1005
13A5B8
  0
VERTEX
  5
13ACF9
  8
SLIM
 10
3956.092522711886
 20
-1414.950018504808
 30
0.0
  0
VERTEX
  5
13ACFA
  8
SLIM
 10
3965.907477288114
 20
-1414.950018504808
 30
0.0
  0
VERTEX
  5
13ACFB
  8
SLIM
 10
3970.8149545762212
 20
-1406.450018504808
 30
0.0
  0
VERTEX
  5
13ACFC
  8
SLIM
 10
3965.907477288114
 20
-1397.9500185048089
 30
0.0
  0
VERTEX
  5
13ACFD
  8
SLIM
 10
3956.092522711886
 20
-1397.9500185048089
 30
0.0
  0
VERTEX
  5
13ACFE
  8
SLIM
 10
3951.185045423772
 20
-1406.450018504808
 30
0.0
  0
SEQEND
  5
13ACFF
  8
SLIM
  0
CIRCLE
  5
13A5B9
  8
SLIM
 10
3961.0
 20
-1541.549981495182
 30
0.0
 40
5.0
1001
ACDBBLOCKREPETAG
1070
     1
1071
        8
1005
13A5B9
  0
POLYLINE
  5
13A5BA
  8
SLIM
 66
     1
 10
0.0
 20
0.0
 30
0.0
 70
     1
1001
ACDBBLOCKREPETAG
1070
     1
1071
        9
1005
13A5BA
  0
VERTEX
  5
13AD00
  8
SLIM
 10
3970.8149545762212
 20
-1541.549981495182
 30
0.0
  0
VERTEX
  5
13AD01
  8
SLIM
 10
3965.9074772881072
 20
-1533.0499814951791
 30
0.0
  0
VERTEX
  5
13AD02
  8
SLIM
 10
3956.092522711886
 20
-1533.0499814951829
 30
0.0
  0
VERTEX
  5
13AD03
  8
SLIM
 10
3951.185045423772
 20
-1541.5499814951791
 30
0.0
  0
VERTEX
  5
13AD04
  8
SLIM
 10
3956.092522711886
 20
-1550.049981495182
 30
0.0
  0
VERTEX
  5
13AD05
  8
SLIM
 10
3965.907477288114
 20
-1550.0499814951791
 30
0.0
  0
SEQEND
  5
13AD06
  8
SLIM
  0
ARC
  5
13A5BB
  8
OBJECT
 10
4000.0
 20
-1473.9999999999959
 30
0.0
 40
76.0
 50
34.863837954142063
 51
85.136162045732945
1001
ACDBBLOCKREPETAG
1070
     1
1071
       30
1005
13A5BB
  0
ARC
  5
13A5BC
  8
OBJECT
 10
4000.0
 20
-1473.9999999999959
 30
0.0
 40
76.0
 50
154.86383795430939
 51
205.1361620456905
1001
ACDBBLOCKREPETAG
1070
     1
1071
       31
1005
13A5BC
  0
ARC
  5
13A5BD
  8
OBJECT
 10
4000.0
 20
-1473.9999999999959
 30
0.0
 40
76.0
 50
274.86383795426718
 51
325.13616204585799
1001
ACDBBLOCKREPETAG
1070
     1
1071
       32
1005
13A5BD
  0
ARC
  5
13A5BE
  8
OBJECT
 10
4078.0
 20
-1473.9999999999959
 30
0.0
 40
12.0
 50
325.13616204585799
 51
34.863837954142063
1001
ACDBBLOCKREPETAG
1070
     1
1071
       33
1005
13A5BE
  0
LINE
  5
13A5BF
  8
OBJECT
 10
4087.846153846167
 20
-1467.140462520133
 30
0.0
 11
4062.3589743590492
 21
-1430.5562626275339
 31
0.0
1001
ACDBBLOCKREPETAG
1070
     1
1071
       34
1005
13A5BF
  0
LINE
  5
13A5C0
  8
OBJECT
 10
4087.8461538461711
 20
-1480.859537479856
 30
0.0
 11
4062.3589743590492
 21
-1517.4437373724591
 31
0.0
1001
ACDBBLOCKREPETAG
1070
     1
1071
       35
1005
13A5C0
  0
ARC
  5
13A5C1
  8
OBJECT
 10
3961.0
 20
-1406.45001850481
 30
0.0
 40
12.0
 50
85.136162045942811
 51
154.86383795411109
1001
ACDBBLOCKREPETAG
1070
     1
1071
       36
1005
13A5C1
  0
LINE
  5
13A5C2
  8
OBJECT
 10
3950.136389361146
 20
-1401.3527678843909
 30
0.0
 11
3931.1971326205862
 21
-1441.7174127373471
 31
0.0
1001
ACDBBLOCKREPETAG
1070
     1
1071
       37
1005
13A5C2
  0
LINE
  5
13A5C3
  8
OBJECT
 10
3962.0174567926852
 20
-1394.493230404526
 30
0.0
 11
4006.4438930203678
 21
-1398.2736753648851
 31
0.0
1001
ACDBBLOCKREPETAG
1070
     1
1071
       38
1005
13A5C3
  0
ARC
  5
13A5C4
  8
OBJECT
 10
3961.0
 20
-1541.5499814951811
 30
0.0
 40
12.0
 50
205.13616204588891
 51
274.8638379540572
1001
ACDBBLOCKREPETAG
1070
     1
1071
       39
1005
13A5C4
  0
LINE
  5
13A5C5
  8
OBJECT
 10
3962.0174567926879
 20
-1553.5067695954631
 30
0.0
 11
4006.4438930203651
 21
-1549.726324635106
 31
0.0
1001
ACDBBLOCKREPETAG
1070
     1
1071
       40
1005
13A5C5
  0
LINE
  5
13A5C6
  8
OBJECT
 10
3950.136389361146
 20
-1546.647232115605
 30
0.0
 11
3931.1971326205821
 21
-1506.2825872626429
 31
0.0
1001
ACDBBLOCKREPETAG
1070
     1
1071
       41
1005
13A5C6
  0
TEXT
  5
13A5C7
  8
SLIM
 10
3853.75
 20
-1741.4999999999959
 30
0.0
 40
35.0
  1
両受けスタイル（W）
 41
0.75
  0
TEXT
  5
13A5C8
  8
SLIM
 10
5811.8000000000002
 20
-1838.9999999999991
 30
0.0
 40
28.0
  1
※ 対応スラブ厚　150mm以上
 41
0.75
  0
TEXT
  5
13A5C9
  8
SLIM
 10
5611.5
 20
-1932.333333333333
 30
0.0
 40
28.0
  1
国土交通大臣認定・（財）日本消防設備安全センター性能評定取得品
 41
0.75
  0
TEXT
  5
13A5CA
  8
SLIM
 10
5631.1000000000004
 20
-1978.9999999999991
 30
0.0
 40
28.0
  1
注）ご採用にあたり、認定書及び評定書の内容をご確認ください。
 41
0.75
  0
TEXT
  5
13A5CB
  8
SLIM
 10
11824.6
 20
-1797.9999999999959
 30
0.0
 40
28.0
  1
※ 対応スラブ厚　150～380
 41
0.75
  0
TEXT
  5
13A5CC
  8
SLIM
 10
11611.5
 20
-1891.3333333333289
 30
0.0
 40
28.0
  1
国土交通大臣認定・（財）日本消防設備安全センター性能評定取得品
 41
0.75
  0
TEXT
  5
13A5CD
  8
SLIM
 10
11631.1
 20
-1937.9999999999959
 30
0.0
 40
28.0
  1
注）ご採用にあたり、認定書及び評定書の内容をご確認ください。
 41
0.75
  0
TEXT
  5
13A5CE
  8
SLIM
 10
9824.6000000000004
 20
-1797.9999999999959
 30
0.0
 40
28.0
  1
※ 対応スラブ厚　180～380
 41
0.75
  0
TEXT
  5
13A5CF
  8
SLIM
 10
9611.5000000000018
 20
-1891.3333333333289
 30
0.0
 40
28.0
  1
国土交通大臣認定・（財）日本消防設備安全センター性能評定取得品
 41
0.75
  0
TEXT
  5
13A5D0
  8
SLIM
 10
9631.1000000000004
 20
-1937.9999999999959
 30
0.0
 40
28.0
  1
注）ご採用にあたり、認定書及び評定書の内容をご確認ください。
 41
0.75
  0
TEXT
  5
13A5D1
  8
SLIM
 10
7771.3999999999987
 20
-1530.666666666664
 30
0.0
 40
28.0
  1
※ 対応スラブ厚　180｛150｝～340
 41
0.75
  0
TEXT
  5
13A5D2
  8
SLIM
 10
7733.2999999999975
 20
-1577.333333333331
 30
0.0
 40
28.0
  1
｛｝内はカンペイ立て管との組み合わせの場合
 41
0.75
  0
TEXT
  5
13A5D3
  8
SLIM
 10
7611.4999999999982
 20
-1670.666666666664
 30
0.0
 40
28.0
  1
国土交通大臣認定・（財）日本消防設備安全センター性能評定取得品
 41
0.75
  0
TEXT
  5
13A5D4
  8
SLIM
 10
7631.1000000000004
 20
-1717.333333333331
 30
0.0
 40
28.0
  1
注）ご採用にあたり、認定書及び評定書の内容をご確認ください。
 41
0.75
  0
TEXT
  5
13A5D5
  8
SLIM
 10
9739.1250000000018
 20
-1741.4999999999959
 30
0.0
 40
35.0
  1
両受けスタイル（W）＋シンドカット
 41
0.75
  0
TEXT
  5
13A5D6
  8
SLIM
 10
11743.5
 20
-1741.4999999999959
 30
0.0
 40
35.0
  1
カンペイ君（WKP）＋シンドカット
 41
0.75
  0
TEXT
  5
13A5D7
  8
SLIM
 10
7741.625
 20
-1467.499999999998
 30
0.0
 40
35.0
  1
片受けスタイル（S）＋シンドカット
 41
0.75
  0
TEXT
  5
13A5D8
  8
SLIM
 10
5858.1250000000009
 20
-1782.4999999999991
 30
0.0
 40
35.0
  1
カンペイ君（WKP）
 41
0.75
  0
TEXT
  5
13A5D9
  8
SLIM
 10
1856.25
 20
-1467.499999999998
 30
0.0
 40
35.0
  1
片受けスタイル（S）
 41
0.75
  0
TEXT
  5
13A5DA
  8
SLIM
 10
0.0
 20
370.0
 30
0.0
 40
100.0
  1
4SLT-Z606-P110-WKP
 41
0.75
  0
VIEWPORT
  5
F6BA7
 67
     1
  8
0
 10
163.0024027789494
 20
101.8328354358673
 30
0.0
 40
369.34663245053321
 41
222.19657968139651
 68
     1
 69
     1
1001
ACAD
1000
MVIEW
1002
{
1070
    16
1010
0.0
1020
0.0
1030
0.0
1010
0.0
1020
0.0
1030
1.0
1040
0.0
1040
222.19657968139651
1040
163.0024027789494
1040
101.8328354358673
1040
50.0
1040
0.0
1040
0.0
1070
     0
1070
     0
1070
     1
1070
     1
1070
     0
1070
     0
1070
     0
1070
     0
1040
0.0
1040
0.0
1040
0.0
1040
10.0
1040
10.0
1040
10.0
1040
10.0
1070
     0
1002
{
1002
}
1002
}
  0
VIEWPORT
  5
F6BA9
 67
     1
  8
OBJECT
 10
145.3303314447403
 20
101.8328338861465
 30
0.0
 40
232.5285303115844
 41
162.93253421783439
 68
     2
 69
     2
1001
ACAD
1000
MVIEW
1002
{
1070
    16
1010
0.0
1020
0.0
1030
0.0
1010
0.0
1020
0.0
1030
1.0
1040
0.0
1040
25942.55904403147
1040
2377.604457077377
1040
-7591.5176687056619
1040
50.0
1040
0.0
1040
0.0
1070
     0
1070
   600
1070
     1
1070
     1
1070
     0
1070
     0
1070
     0
1070
     0
1040
0.0
1040
0.0
1040
0.0
1040
1.0
1040
1.0
1040
0.0
1040
0.0
1070
     0
1002
{
1002
}
1002
}
  0
ENDSEC
  0
EOF
