  0
SECTION
  2
HEADER
  9
$ACADVER
  1
AC1009
  9
$INSBASE
 10
0.0
 20
0.0
 30
0.0
  9
$EXTMIN
 10
-0.0000000000002274
 20
-4102.4999999999973
 30
0.0
  9
$EXTMAX
 10
12966.09999999998
 20
770.0
 30
0.0
  9
$LIMMIN
 10
0.0
 20
0.0
  9
$LIMMAX
 10
210.0
 20
297.0
  9
$ORTHOMODE
 70
     0
  9
$REGENMODE
 70
     1
  9
$FILLMODE
 70
     1
  9
$QTEXTMODE
 70
     0
  9
$MIRRTEXT
 70
     0
  9
$DRAGMODE
 70
     2
  9
$LTSCALE
 40
1.0
  9
$OSMODE
 70
  2557
  9
$ATTMODE
 70
     1
  9
$TEXTSIZE
 40
4.0
  9
$TRACEWID
 40
0.05
  9
$TEXTSTYLE
  7
STANDARD
  9
$CLAYER
  8
SLIM
  9
$CELTYPE
  6
BYLAYER
  9
$CECOLOR
 62
   256
  9
$DIMSCALE
 40
10.0
  9
$DIMASZ
 40
2.0
  9
$DIMEXO
 40
1.0
  9
$DIMDLI
 40
10.0
  9
$DIMRND
 40
0.0
  9
$DIMDLE
 40
0.0
  9
$DIMEXE
 40
1.0
  9
$DIMTP
 40
0.0
  9
$DIMTM
 40
0.0
  9
$DIMTXT
 40
3.2000000000000002
  9
$DIMCEN
 40
0.0
  9
$DIMTSZ
 40
0.0
  9
$DIMTOL
 70
     0
  9
$DIMLIM
 70
     0
  9
$DIMTIH
 70
     0
  9
$DIMTOH
 70
     0
  9
$DIMSE1
 70
     0
  9
$DIMSE2
 70
     0
  9
$DIMTAD
 70
     1
  9
$DIMZIN
 70
     8
  9
$DIMBLK
  1
OPEN30
  9
$DIMASO
 70
     1
  9
$DIMSHO
 70
     1
  9
$DIMPOST
  1

  9
$DIMAPOST
  1

  9
$DIMALT
 70
     0
  9
$DIMALTD
 70
     2
  9
$DIMALTF
 40
25.399999999999999
  9
$DIMLFAC
 40
1.0
  9
$DIMTOFL
 70
     1
  9
$DIMTVP
 40
0.0
  9
$DIMTIX
 70
     0
  9
$DIMSOXD
 70
     0
  9
$DIMSAH
 70
     0
  9
$DIMBLK1
  1

  9
$DIMBLK2
  1

  9
$DIMSTYLE
  2
S10
  9
$DIMCLRD
 70
   256
  9
$DIMCLRE
 70
   256
  9
$DIMCLRT
 70
   256
  9
$DIMTFAC
 40
1.0
  9
$DIMGAP
 40
0.9
  9
$LUNITS
 70
     2
  9
$LUPREC
 70
     2
  9
$SKETCHINC
 40
0.1
  9
$FILLETRAD
 40
0.0
  9
$AUNITS
 70
     0
  9
$AUPREC
 70
     2
  9
$MENU
  1
ACAD
  9
$ELEVATION
 40
0.0
  9
$PELEVATION
 40
0.0
  9
$THICKNESS
 40
0.0
  9
$LIMCHECK
 70
     0
  9
$BLIPMODE
 70
     0
  9
$CHAMFERA
 40
2.0
  9
$CHAMFERB
 40
2.0
  9
$SKPOLY
 70
     0
  9
$TDCREATE
 40
2453095.4929404748
  9
$TDUPDATE
 40
2456573.711931203
  9
$TDINDWG
 40
18.762814814799999
  9
$TDUSRTIMER
 40
18.762813911999999
  9
$USRTIMER
 70
     1
  9
$ANGBASE
 50
0.0
  9
$ANGDIR
 70
     0
  9
$PDMODE
 70
    35
  9
$PDSIZE
 40
2.0
  9
$PLINEWID
 40
0.0
  9
$COORDS
 70
     1
  9
$SPLFRAME
 70
     0
  9
$SPLINETYPE
 70
     6
  9
$SPLINESEGS
 70
     8
  9
$ATTDIA
 70
     1
  9
$ATTREQ
 70
     1
  9
$HANDLING
 70
     1
  9
$HANDSEED
  5
128308
  9
$SURFTAB1
 70
     6
  9
$SURFTAB2
 70
     6
  9
$SURFTYPE
 70
     6
  9
$SURFU
 70
     6
  9
$SURFV
 70
     6
  9
$UCSNAME
  2

  9
$UCSORG
 10
0.0
 20
0.0
 30
0.0
  9
$UCSXDIR
 10
1.0
 20
0.0
 30
0.0
  9
$UCSYDIR
 10
0.0
 20
1.0
 30
0.0
  9
$PUCSNAME
  2

  9
$PUCSORG
 10
0.0
 20
0.0
 30
0.0
  9
$PUCSXDIR
 10
1.0
 20
0.0
 30
0.0
  9
$PUCSYDIR
 10
0.0
 20
1.0
 30
0.0
  9
$USERI1
 70
     0
  9
$USERI2
 70
     0
  9
$USERI3
 70
     0
  9
$USERI4
 70
     0
  9
$USERI5
 70
     0
  9
$USERR1
 40
0.0
  9
$USERR2
 40
0.0
  9
$USERR3
 40
0.0
  9
$USERR4
 40
0.0
  9
$USERR5
 40
0.0
  9
$WORLDVIEW
 70
     1
  9
$SHADEDGE
 70
     3
  9
$SHADEDIF
 70
    70
  9
$TILEMODE
 70
     1
  9
$MAXACTVP
 70
    64
  9
$PLIMCHECK
 70
     0
  9
$PEXTMIN
 10
29.066066288948051
 20
20.366566777229309
 30
0.0
  9
$PEXTMAX
 10
261.5945966005325
 20
183.29910099506381
 30
0.0
  9
$PLIMMIN
 10
-3.17498779296875
 20
-3.1749999523162842
  9
$PLIMMAX
 10
293.83566284179687
 20
206.8406708240509
  9
$UNITMODE
 70
     0
  9
$VISRETAIN
 70
     1
  9
$PLINEGEN
 70
     0
  9
$PSLTSCALE
 70
     1
  0
ENDSEC
  0
SECTION
  2
TABLES
  0
TABLE
  2
VPORT
 70
     1
  0
VPORT
  2
*ACTIVE
 70
     0
 10
0.0
 20
0.0
 11
1.0
 21
1.0
 12
8208.9603326182041
 22
-3483.105170739414
 13
0.0
 23
0.0
 14
1.0
 24
1.0
 15
0.0
 25
0.0
 16
0.0
 26
0.0
 36
1.0
 17
0.0
 27
0.0
 37
0.0
 40
12986.72459219888
 41
1.958525345622119
 42
50.0
 43
0.0
 44
0.0
 50
0.0
 51
0.0
 71
     0
 72
   600
 73
     1
 74
     1
 75
     0
 76
     0
 77
     0
 78
     0
  0
ENDTAB
  0
TABLE
  2
LTYPE
 70
     3
  0
LTYPE
  2
CONTINUOUS
 70
     0
  3
Solid line
 72
    65
 73
     0
 40
0.0
  0
LTYPE
  2
ACAD_ISO08W100
 70
     0
  3
ISO long-dash short-dash ____ __ ____ __ ____ _
 72
    65
 73
     4
 40
36.0
 49
24.0
 49
-3.0
 49
6.0
 49
-3.0
  0
LTYPE
  2
ACAD_ISO02W100
 70
     0
  3
ISO dash __ __ __ __ __ __ __ __ __ __ __ __ __
 72
    65
 73
     2
 40
15.0
 49
12.0
 49
-3.0
  0
ENDTAB
  0
TABLE
  2
LAYER
 70
     8
  0
LAYER
  2
0
 70
     0
 62
     7
  6
CONTINUOUS
  0
LAYER
  2
SLIM
 70
     0
 62
     2
  6
CONTINUOUS
  0
LAYER
  2
DEFPOINTS
 70
     0
 62
     7
  6
CONTINUOUS
  0
LAYER
  2
DIM
 70
     0
 62
     7
  6
CONTINUOUS
  0
LAYER
  2
OBJECT
 70
     0
 62
     4
  6
CONTINUOUS
  0
LAYER
  2
HIDDEN
 70
     0
 62
     2
  6
ACAD_ISO02W100
  0
LAYER
  2
CENTER
 70
     0
 62
     2
  6
ACAD_ISO08W100
  0
LAYER
  2
DOTS
 70
     0
 62
     1
  6
CONTINUOUS
  0
ENDTAB
  0
TABLE
  2
STYLE
 70
     2
  0
STYLE
  2
STANDARD
 70
     0
 40
0.0
 41
0.75
 50
0.0
 71
     0
 42
4.0
  3
simplex.shx
  4
bigfont.shx
  0
STYLE
  2
ANNOTATIVE
 70
     0
 40
0.0
 41
1.0
 50
0.0
 71
     0
 42
0.2
  3
txt
  4

  0
ENDTAB
  0
TABLE
  2
VIEW
 70
     0
  0
ENDTAB
  0
TABLE
  2
UCS
 70
     0
  0
ENDTAB
  0
TABLE
  2
APPID
 70
    20
  0
APPID
  2
ACAD
 70
     0
  0
APPID
  2
ACADANNOTATIVE
 70
     0
  0
APPID
  2
ACAD_PSEXT
 70
     0
  0
APPID
  2
ACAD_EXEMPT_FROM_CAD_STANDARDS
 70
     0
  0
APPID
  2
ACAECLAYERSTANDARD
 70
     0
  0
APPID
  2
ACAUTHENVIRON
 70
     0
  0
APPID
  2
ACDBDYNAMICBLOCKTRUENAME
 70
     0
  0
APPID
  2
ACDBDYNAMICBLOCKGUID
 70
     0
  0
APPID
  2
ACDBBLOCKREPETAG
 70
     0
  0
APPID
  2
ACDBBLOCKREPBTAG
 70
     0
  0
APPID
  2
ACAD_NAV_VCDISPLAY
 70
     0
  0
APPID
  2
ACAD_DSTYLE_DIMRADIAL_EXTENSION
 70
     0
  0
APPID
  2
ACAD_DSTYLE_DIMJAG
 70
     0
  0
APPID
  2
ACAD_DSTYLE_DIMTALN
 70
     0
  0
APPID
  2
ACADANNOPO
 70
     0
  0
APPID
  2
GRADIENTCOLOR1ACI
 70
     0
  0
APPID
  2
GRADIENTCOLOR2ACI
 70
     0
  0
APPID
  2
ACADANNOMONITORALERTICONDI
 70
     0
  0
APPID
  2
CONTENTBLOCKICON
 70
     0
  0
APPID
  2
ACAD_MLEADERVER
 70
     0
  0
ENDTAB
  0
TABLE
  2
DIMSTYLE
 70
     3
  0
DIMSTYLE
  2
STANDARD
 70
     0
  3

  4

  5

  6

  7

 40
1.0
 41
0.18
 42
0.0625
 43
0.38
 44
0.18
 45
0.0
 46
0.0
 47
0.0
 48
0.0
140
0.18
141
0.09
142
0.0
143
25.399999999999999
144
1.0
145
0.0
146
1.0
147
0.09
 71
     0
 72
     0
 73
     1
 74
     1
 75
     0
 76
     0
 77
     0
 78
     0
170
     0
171
     2
172
     0
173
     0
174
     0
175
     0
176
     0
177
     0
178
     0
  0
DIMSTYLE
  2
ANNOTATIVE
 70
     0
  3

  4

  5

  6

  7

 40
1.0
 41
0.18
 42
0.0625
 43
0.38
 44
0.18
 45
0.0
 46
0.0
 47
0.0
 48
0.0
140
0.18
141
0.09
142
0.0
143
25.399999999999999
144
1.0
145
0.0
146
1.0
147
0.09
 71
     0
 72
     0
 73
     1
 74
     1
 75
     0
 76
     0
 77
     0
 78
     0
170
     0
171
     2
172
     0
173
     0
174
     0
175
     0
176
     0
177
     0
178
     0
  0
DIMSTYLE
  2
S10
 70
     0
  3

  4

  5

  6

  7

 40
10.0
 41
2.0
 42
1.0
 43
10.0
 44
1.0
 45
0.0
 46
0.0
 47
0.0
 48
0.0
140
3.2000000000000002
141
0.0
142
0.0
143
25.399999999999999
144
1.0
145
0.0
146
1.0
147
0.9
 71
     0
 72
     0
 73
     0
 74
     0
 75
     0
 76
     0
 77
     1
 78
     8
170
     0
171
     2
172
     1
173
     0
174
     0
175
     0
176
   256
177
   256
178
   256
  0
ENDTAB
  0
ENDSEC
  0
SECTION
  2
BLOCKS
  0
BLOCK
  8
0
  2
$MODEL_SPACE
 70
     0
 10
0.0
 20
0.0
 30
0.0
  3
$MODEL_SPACE
  1

  0
ENDBLK
  5
1281F4
  8
0
  0
BLOCK
 67
     1
  8
0
  2
$PAPER_SPACE
 70
     0
 10
0.0
 20
0.0
 30
0.0
  3
$PAPER_SPACE
  1

  0
ENDBLK
  5
1281F0
 67
     1
  8
0
  0
BLOCK
  8
0
  2
_OPEN30
 70
     0
 10
0.0
 20
0.0
 30
0.0
  3
_OPEN30
  1

  0
LINE
  5
202
  8
0
  6
BYBLOCK
 62
     0
 10
-1.0
 20
0.26794919
 30
0.0
 11
0.0
 21
0.0
 31
0.0
  0
LINE
  5
203
  8
0
  6
BYBLOCK
 62
     0
 10
0.0
 20
0.0
 30
0.0
 11
-1.0
 21
-0.26794919
 31
0.0
  0
LINE
  5
204
  8
0
  6
BYBLOCK
 62
     0
 10
0.0
 20
0.0
 30
0.0
 11
-1.0
 21
0.0
 31
0.0
  0
ENDBLK
  5
206
  8
0
  0
BLOCK
  8
0
  2
*U3
 70
     1
 10
0.0
 20
0.0
 30
0.0
  3
*U3
  1

  0
TEXT
  5
127E79
  8
SLIM
 10
158.95238095238091
 20
-1393.9999999999991
 30
0.0
 40
26.0
  1
75
  0
ENDBLK
  5
127E7B
  8
0
  0
BLOCK
  8
0
  2
*U4
 70
     1
 10
0.0
 20
0.0
 30
0.0
  3
*U4
  1

  0
TEXT
  5
127E7D
  8
SLIM
 10
518.95238095238085
 20
-929.99999999999909
 30
0.0
 40
26.0
  1
65
  0
ENDBLK
  5
127E7F
  8
0
  0
BLOCK
  8
0
  2
*U5
 70
     1
 10
0.0
 20
0.0
 30
0.0
  3
*U5
  1

  0
TEXT
  5
127E81
  8
SLIM
 10
158.95238095238091
 20
-929.99999999999909
 30
0.0
 40
26.0
  1
50
  0
ENDBLK
  5
127E83
  8
0
  0
BLOCK
  8
0
  2
*U6
 70
     1
 10
0.0
 20
0.0
 30
0.0
  3
*U6
  1

  0
TEXT
  5
127E85
  8
DIM
 10
12700.424581672751
 20
-923.99999999999818
 30
0.0
 40
32.0
  1
P
 50
90.0
 41
0.75
  0
ENDBLK
  5
127E87
  8
0
  0
BLOCK
  8
0
  2
*U7
 70
     1
 10
0.0
 20
0.0
 30
0.0
  3
*U7
  1

  0
TEXT
  5
127E89
  8
DIM
 10
10700.424581672751
 20
-923.99999999999818
 30
0.0
 40
32.0
  1
P
 50
90.0
 41
0.75
  0
ENDBLK
  5
127E8B
  8
0
  0
BLOCK
  8
0
  2
*U8
 70
     1
 10
0.0
 20
0.0
 30
0.0
  3
*U8
  1

  0
TEXT
  5
127E8D
  8
DIM
 10
8700.4245816727544
 20
-923.99999999999875
 30
0.0
 40
32.0
  1
P
 50
90.0
 41
0.75
  0
ENDBLK
  5
127E8F
  8
0
  0
BLOCK
  8
0
  2
*U9
 70
     1
 10
0.0
 20
0.0
 30
0.0
  3
*U9
  1

  0
TEXT
  5
127E91
  8
DIM
 10
6700.4245816727562
 20
-923.99999999999932
 30
0.0
 40
32.0
  1
P
 50
90.0
 41
0.75
  0
ENDBLK
  5
127E93
  8
0
  0
BLOCK
  8
0
  2
*U10
 70
     1
 10
0.0
 20
0.0
 30
0.0
  3
*U10
  1

  0
TEXT
  5
127E95
  8
DIM
 10
4700.4245816727562
 20
-923.99999999999932
 30
0.0
 40
32.0
  1
P
 50
90.0
 41
0.75
  0
ENDBLK
  5
127E97
  8
0
  0
BLOCK
  8
0
  2
*U11
 70
     1
 10
0.0
 20
0.0
 30
0.0
  3
*U11
  1

  0
TEXT
  5
127EAD
  8
SLIM
 10
158.9523809524228
 20
-130.00000000017181
 30
0.0
 40
26.0
  1
75
  0
ENDBLK
  5
127EAF
  8
0
  0
BLOCK
  8
0
  2
*U12
 70
     1
 10
0.0
 20
0.0
 30
0.0
  3
*U12
  1

  0
TEXT
  5
127EB1
  8
DIM
 10
12334.11645607577
 20
-1447.7428571428529
 30
0.0
 40
32.0
  1
730-P（シンドカット）
 50
90.0
 41
0.75
  0
ENDBLK
  5
127EB3
  8
0
  0
BLOCK
  8
0
  2
*U13
 70
     1
 10
0.0
 20
0.0
 30
0.0
  3
*U13
  1

  0
TEXT
  5
127EB5
  8
DIM
 10
10334.11645607577
 20
-1447.7428571428541
 30
0.0
 40
32.0
  1
730-P（シンドカット）
 50
90.0
 41
0.75
  0
ENDBLK
  5
127EB7
  8
0
  0
BLOCK
  8
0
  2
*U14
 70
     1
 10
0.0
 20
0.0
 30
0.0
  3
*U14
  1

  0
TEXT
  5
127EB9
  8
DIM
 10
8334.1164560757734
 20
-1427.742857142855
 30
0.0
 40
32.0
  1
690-P（シンドカット）
 50
90.0
 41
0.75
  0
ENDBLK
  5
127EBB
  8
0
  0
BLOCK
  8
0
  2
*U15
 70
     1
 10
0.0
 20
0.0
 30
0.0
  3
*U15
  1

  0
TEXT
  5
127EBD
  8
DIM
 10
2700.4245816727571
 20
-923.99999999999943
 30
0.0
 40
32.0
  1
P
 50
90.0
 41
0.75
  0
ENDBLK
  5
127EBF
  8
0
  0
BLOCK
  8
0
  2
*U16
 70
     1
 10
0.0
 20
0.0
 30
0.0
  3
*U16
  1

  0
TEXT
  5
127EC1
  8
DIM
 10
2709.479620594459
 20
-3589.1428571428528
 30
0.0
 40
32.0
  1
A
 50
90.0
 41
0.75
  0
ENDBLK
  5
127EC3
  8
0
  0
BLOCK
  8
0
  2
*U17
 70
     1
 10
0.0
 20
0.0
 30
0.0
  3
*U17
  1

  0
TEXT
  5
127EC5
  8
DIM
 10
2707.840928403733
 20
-3970.9999999999968
 30
0.0
 40
32.0
  1
B
 50
90.0
 41
0.75
  0
ENDBLK
  5
127EC7
  8
0
  0
BLOCK
  8
0
  2
*U18
 70
     1
 10
0.0
 20
0.0
 30
0.0
  3
*U18
  1

  0
TEXT
  5
127EC9
  8
DIM
 10
2561.4285714285711
 20
-3443.208121984444
 30
0.0
 40
32.0
  1
C
 41
0.75
  0
ENDBLK
  5
127ECB
  8
0
  0
ENDSEC
  0
SECTION
  2
ENTITIES
  0
LINE
  5
11273E
  8
OBJECT
 10
2325.0
 20
-3984.9999999999968
 30
0.0
 11
5075.0
 21
-3984.9999999999968
 31
0.0
  0
LINE
  5
11412B
  8
SLIM
 10
3256.0
 20
-3042.5000160472709
 30
0.0
 11
3256.0
 21
-3372.5000160472709
 31
0.0
  0
LINE
  5
11412C
  8
SLIM
 10
3380.0
 20
-3042.5000160472709
 30
0.0
 11
3380.0
 21
-3372.5000160472709
 31
0.0
  0
LINE
  5
11412D
  8
SLIM
 10
3510.0
 20
-3102.5000160472709
 30
0.0
 11
3510.0
 21
-3372.5000160472709
 31
0.0
  0
LINE
  5
11412E
  8
SLIM
 10
3640.0
 20
-3102.5000160472709
 30
0.0
 11
3640.0
 21
-3372.5000160472709
 31
0.0
  0
LINE
  5
11412F
  8
SLIM
 10
3770.0
 20
-3372.5000160472709
 30
0.0
 11
3770.0
 21
-3042.5000160472709
 31
0.0
  0
LINE
  5
114131
  8
SLIM
 10
3770.0
 20
-3042.5000160472709
 30
0.0
 11
3256.0
 21
-3042.5000160472709
 31
0.0
  0
LINE
  5
114132
  8
SLIM
 10
3769.9999999999991
 20
-3102.5000160472709
 30
0.0
 11
3380.0
 21
-3102.5000160472709
 31
0.0
  0
LINE
  5
114133
  8
SLIM
 10
3770.0
 20
-3162.5000160472709
 30
0.0
 11
3256.0
 21
-3162.5000160472709
 31
0.0
  0
LINE
  5
114134
  8
SLIM
 10
3770.0
 20
-3232.50001604727
 30
0.0
 11
3256.0
 21
-3232.50001604727
 31
0.0
  0
LINE
  5
114135
  8
SLIM
 10
3770.0
 20
-3302.5000160472709
 30
0.0
 11
3256.0
 21
-3302.5000160472709
 31
0.0
  0
LINE
  5
114136
  8
SLIM
 10
3770.0
 20
-3372.5000160472709
 30
0.0
 11
3256.0
 21
-3372.5000160472709
 31
0.0
  0
LINE
  5
11414B
  8
SLIM
 10
3380.0
 20
-3162.5000160472709
 30
0.0
 11
3255.9999722746579
 21
-3042.5
 31
0.0
  0
LINE
  5
1238B4
  8
CENTER
 10
2579.9999999999991
 20
-3579.9999999999959
 30
0.0
 11
2409.9999999999991
 21
-3579.9999999999959
 31
0.0
1001
ACDBBLOCKREPETAG
1070
     1
1071
       14
1005
122545
  0
LINE
  5
1238B5
  8
CENTER
 10
2500.0
 20
-3669.9999999999968
 30
0.0
 11
2500.0
 21
-3489.9999999999968
 31
0.0
1001
ACDBBLOCKREPETAG
1070
     1
1071
       15
1005
122546
  0
CIRCLE
  5
1238B6
  8
OBJECT
 10
2500.0
 20
-3579.9999999999959
 30
0.0
 40
70.0
1001
ACDBBLOCKREPETAG
1070
     1
1071
       16
1005
122547
  0
CIRCLE
  5
1238B7
  8
OBJECT
 10
2500.0
 20
-3579.9999999999959
 30
0.0
 40
75.0
1001
ACDBBLOCKREPETAG
1070
     1
1071
       17
1005
122548
  0
LINE
  5
123927
  8
CENTER
 10
2500.0
 20
-3764.9999999999968
 30
0.0
 11
2500.0
 21
-4011.9999999999959
 31
0.0
1001
ACDBBLOCKREPETAG
1070
     1
1071
       25
1005
123927
  0
LINE
  5
123928
  8
OBJECT
 10
2425.0
 20
-3779.9999999999991
 30
0.0
 11
2425.0
 21
-3999.9999999999968
 31
0.0
1001
ACDBBLOCKREPETAG
1070
     1
1071
       26
1005
123928
  0
LINE
  5
12392C
  8
OBJECT
 10
2575.0
 20
-3779.9999999999991
 30
0.0
 11
2575.0
 21
-3876.5000000000618
 31
0.0
1001
ACDBBLOCKREPETAG
1070
     1
1071
       34
1005
12392C
  0
LINE
  5
123A5C
  8
OBJECT
 10
2575.0
 20
-3982.4999999999991
 30
0.0
 11
2575.0
 21
-3999.9999999999968
 31
0.0
1001
ACDBBLOCKREPETAG
1070
     1
1071
       34
1005
12392C
  0
LINE
  5
123A5E
  8
CENTER
 10
2900.0
 20
-3764.9999999999968
 30
0.0
 11
2900.0
 21
-4011.9999999999959
 31
0.0
1001
ACDBBLOCKREPETAG
1070
     1
1071
       25
1005
123927
  0
LINE
  5
123A5F
  8
OBJECT
 10
2825.0
 20
-3779.9999999999991
 30
0.0
 11
2825.0
 21
-3999.9999999999968
 31
0.0
1001
ACDBBLOCKREPETAG
1070
     1
1071
       26
1005
123928
  0
LINE
  5
123A60
  8
OBJECT
 10
2975.0
 20
-3779.9999999999991
 30
0.0
 11
2975.0
 21
-3999.9999999999991
 31
0.0
1001
ACDBBLOCKREPETAG
1070
     1
1071
       34
1005
12392C
  0
LINE
  5
123AD2
  8
CENTER
 10
3579.9999999999991
 20
-3579.9999999999959
 30
0.0
 11
3410.0
 21
-3579.9999999999959
 31
0.0
1001
ACDBBLOCKREPETAG
1070
     1
1071
       14
1005
122545
  0
LINE
  5
123AD3
  8
CENTER
 10
3500.0
 20
-3669.9999999999968
 30
0.0
 11
3500.0
 21
-3489.9999999999968
 31
0.0
1001
ACDBBLOCKREPETAG
1070
     1
1071
       15
1005
122546
  0
CIRCLE
  5
123AD4
  8
OBJECT
 10
3500.0
 20
-3579.9999999999959
 30
0.0
 40
70.0
1001
ACDBBLOCKREPETAG
1070
     1
1071
       16
1005
122547
  0
CIRCLE
  5
123AD5
  8
OBJECT
 10
3500.0
 20
-3579.9999999999959
 30
0.0
 40
75.0
1001
ACDBBLOCKREPETAG
1070
     1
1071
       17
1005
122548
  0
LINE
  5
123ADD
  8
CENTER
 10
3500.0
 20
-3764.9999999999968
 30
0.0
 11
3500.0
 21
-4011.9999999999959
 31
0.0
1001
ACDBBLOCKREPETAG
1070
     1
1071
       25
1005
123927
  0
LINE
  5
123ADE
  8
OBJECT
 10
3424.9999999999991
 20
-3779.9999999999991
 30
0.0
 11
3424.9999999999991
 21
-3999.9999999999968
 31
0.0
1001
ACDBBLOCKREPETAG
1070
     1
1071
       26
1005
123928
  0
LINE
  5
123ADF
  8
OBJECT
 10
3574.9999999999991
 20
-3779.9999999999991
 30
0.0
 11
3574.9999999999991
 21
-3876.5000000000618
 31
0.0
1001
ACDBBLOCKREPETAG
1070
     1
1071
       34
1005
12392C
  0
LINE
  5
123AE0
  8
OBJECT
 10
3574.9999999999991
 20
-3982.4999999999991
 30
0.0
 11
3574.9999999999991
 21
-3999.9999999999968
 31
0.0
1001
ACDBBLOCKREPETAG
1070
     1
1071
       34
1005
12392C
  0
LINE
  5
123AE8
  8
CENTER
 10
3900.0
 20
-3764.9999999999968
 30
0.0
 11
3900.0
 21
-4011.9999999999959
 31
0.0
1001
ACDBBLOCKREPETAG
1070
     1
1071
       25
1005
123927
  0
LINE
  5
123AE9
  8
OBJECT
 10
3824.9999999999991
 20
-3779.9999999999991
 30
0.0
 11
3824.9999999999991
 21
-3999.9999999999968
 31
0.0
1001
ACDBBLOCKREPETAG
1070
     1
1071
       26
1005
123928
  0
LINE
  5
123AEA
  8
OBJECT
 10
3975.0
 20
-3779.9999999999991
 30
0.0
 11
3975.0
 21
-3999.9999999999991
 31
0.0
1001
ACDBBLOCKREPETAG
1070
     1
1071
       34
1005
12392C
  0
LINE
  5
123B38
  8
CENTER
 10
4579.9999999999991
 20
-3579.9999999999959
 30
0.0
 11
4409.9999999999991
 21
-3579.9999999999959
 31
0.0
1001
ACDBBLOCKREPETAG
1070
     1
1071
       14
1005
122545
  0
LINE
  5
123B39
  8
CENTER
 10
4499.9999999999991
 20
-3669.9999999999968
 30
0.0
 11
4499.9999999999991
 21
-3489.9999999999968
 31
0.0
1001
ACDBBLOCKREPETAG
1070
     1
1071
       15
1005
122546
  0
CIRCLE
  5
123B3A
  8
OBJECT
 10
4499.9999999999991
 20
-3579.9999999999959
 30
0.0
 40
70.0
1001
ACDBBLOCKREPETAG
1070
     1
1071
       16
1005
122547
  0
CIRCLE
  5
123B3B
  8
OBJECT
 10
4499.9999999999991
 20
-3579.9999999999959
 30
0.0
 40
75.0
1001
ACDBBLOCKREPETAG
1070
     1
1071
       17
1005
122548
  0
LINE
  5
123B43
  8
CENTER
 10
4500.0
 20
-3764.9999999999968
 30
0.0
 11
4500.0
 21
-4011.9999999999959
 31
0.0
1001
ACDBBLOCKREPETAG
1070
     1
1071
       25
1005
123927
  0
LINE
  5
123B44
  8
OBJECT
 10
4425.0
 20
-3779.9999999999991
 30
0.0
 11
4425.0
 21
-3999.9999999999968
 31
0.0
1001
ACDBBLOCKREPETAG
1070
     1
1071
       26
1005
123928
  0
LINE
  5
123B45
  8
OBJECT
 10
4575.0
 20
-3779.9999999999991
 30
0.0
 11
4575.0
 21
-3876.5000000000618
 31
0.0
1001
ACDBBLOCKREPETAG
1070
     1
1071
       34
1005
12392C
  0
LINE
  5
123B46
  8
OBJECT
 10
4575.0
 20
-3982.4999999999991
 30
0.0
 11
4575.0
 21
-3999.9999999999968
 31
0.0
1001
ACDBBLOCKREPETAG
1070
     1
1071
       34
1005
12392C
  0
LINE
  5
123B4E
  8
CENTER
 10
4900.0
 20
-3764.9999999999968
 30
0.0
 11
4900.0
 21
-4011.9999999999959
 31
0.0
1001
ACDBBLOCKREPETAG
1070
     1
1071
       25
1005
123927
  0
LINE
  5
123B4F
  8
OBJECT
 10
4825.0
 20
-3779.9999999999991
 30
0.0
 11
4825.0
 21
-3999.9999999999968
 31
0.0
1001
ACDBBLOCKREPETAG
1070
     1
1071
       26
1005
123928
  0
LINE
  5
123B50
  8
OBJECT
 10
4975.0
 20
-3779.9999999999991
 30
0.0
 11
4974.9999999999991
 21
-3999.9999999999991
 31
0.0
1001
ACDBBLOCKREPETAG
1070
     1
1071
       34
1005
12392C
  0
POINT
  5
124C02
  8
DOTS
 10
2500.0
 20
-3579.9999999999959
 30
0.0
  0
POINT
  5
124C03
  8
DOTS
 10
2500.0
 20
-3984.9999999999968
 30
0.0
  0
POINT
  5
124C05
  8
DOTS
 10
3500.0
 20
-3984.9999999999968
 30
0.0
  0
POINT
  5
124C07
  8
DOTS
 10
3500.0
 20
-3579.9999999999959
 30
0.0
  0
POINT
  5
124C08
  8
DOTS
 10
4499.9999999999991
 20
-3579.9999999999959
 30
0.0
  0
POINT
  5
124C09
  8
DOTS
 10
4499.9999999999991
 20
-3984.9999999999968
 30
0.0
  0
LINE
  5
127295
  8
OBJECT
 10
12423.0
 20
-571.0
 30
0.0
 11
12423.0
 21
-550.0
 31
0.0
1001
ACDBBLOCKREPETAG
1070
     1
1071
        0
1005
127295
  0
LINE
  5
127296
  8
OBJECT
 10
12423.0
 20
-550.0
 30
0.0
 11
12577.0
 21
-550.0
 31
0.0
1001
ACDBBLOCKREPETAG
1070
     1
1071
        1
1005
127296
  0
LINE
  5
127297
  8
HIDDEN
 10
12443.0
 20
-620.0
 30
0.0
 11
12557.0
 21
-620.0
 31
0.0
1001
ACDBBLOCKREPETAG
1070
     1
1071
        2
1005
127297
  0
LINE
  5
127298
  8
OBJECT
 10
12577.0
 20
-550.0
 30
0.0
 11
12577.0
 21
-571.0
 31
0.0
1001
ACDBBLOCKREPETAG
1070
     1
1071
        3
1005
127298
  0
LINE
  5
127299
  8
OBJECT
 10
12577.0
 20
-571.0
 30
0.0
 11
12423.0
 21
-571.0
 31
0.0
1001
ACDBBLOCKREPETAG
1070
     1
1071
        4
1005
127299
  0
LINE
  5
12729A
  8
CENTER
 10
12500.0
 20
-535.0
 30
0.0
 11
12500.0
 21
-890.0
 31
0.0
1001
ACDBBLOCKREPETAG
1070
     1
1071
        5
1005
12729A
  0
LINE
  5
12729B
  8
OBJECT
 10
12425.0
 20
-634.0
 30
0.0
 11
12425.0
 21
-878.0
 31
0.0
1001
ACDBBLOCKREPETAG
1070
     1
1071
        6
1005
12729B
  0
LINE
  5
12729C
  8
OBJECT
 10
12428.0
 20
-571.0
 30
0.0
 11
12428.0
 21
-634.0
 31
0.0
1001
ACDBBLOCKREPETAG
1070
     1
1071
        7
1005
12729C
  0
LINE
  5
12729D
  8
OBJECT
 10
12572.0
 20
-634.0
 30
0.0
 11
12572.0
 21
-571.0
 31
0.0
1001
ACDBBLOCKREPETAG
1070
     1
1071
        8
1005
12729D
  0
LINE
  5
12729E
  8
OBJECT
 10
12420.0
 20
-878.0
 30
0.0
 11
12580.0
 21
-878.0
 31
0.0
1001
ACDBBLOCKREPETAG
1070
     1
1071
        9
1005
12729E
  0
LINE
  5
12729F
  8
OBJECT
 10
12580.0
 20
-634.0
 30
0.0
 11
12425.0
 21
-634.0
 31
0.0
1001
ACDBBLOCKREPETAG
1070
     1
1071
       10
1005
12729F
  0
LINE
  5
1272A0
  8
OBJECT
 10
12420.0
 20
-878.0
 30
0.0
 11
12420.0
 21
-890.0
 31
0.0
1001
ACDBBLOCKREPETAG
1070
     1
1071
       11
1005
1272A0
  0
LINE
  5
1272A1
  8
OBJECT
 10
12420.0
 20
-890.0
 30
0.0
 11
12580.0
 21
-890.0
 31
0.0
1001
ACDBBLOCKREPETAG
1070
     1
1071
       12
1005
1272A1
  0
LINE
  5
1272A2
  8
OBJECT
 10
12580.0
 20
-890.0
 30
0.0
 11
12580.0
 21
-878.0
 31
0.0
1001
ACDBBLOCKREPETAG
1070
     1
1071
       13
1005
1272A2
  0
LINE
  5
1272A3
  8
OBJECT
 10
12574.99999999986
 20
-757.99999999985096
 30
0.0
 11
12575.0
 21
-878.0
 31
0.0
1001
ACDBBLOCKREPETAG
1070
     1
1071
       15
1005
1272A3
  0
LINE
  5
1272A4
  8
OBJECT
 10
12574.999990802989
 20
-757.99998602702181
 30
0.0
 11
12580.0
 21
-757.99998602702181
 31
0.0
1001
ACDBBLOCKREPETAG
1070
     1
1071
       16
1005
1272A4
  0
ARC
  5
1272A5
  8
OBJECT
 10
12700.687274671671
 20
-749.40809941010752
 30
0.0
 40
170.6350503965856
 50
137.44134459184301
 51
149.91949581337221
1001
ACDBBLOCKREPETAG
1070
     1
1071
       17
1005
1272A5
  0
ARC
  5
1272A6
  8
OBJECT
 10
12618.845598704051
 20
-705.88272669536457
 30
0.0
 40
78.072222021763665
 50
147.4551531038623
 51
164.6636599771729
1001
ACDBBLOCKREPETAG
1070
     1
1071
       18
1005
1272A6
  0
ARC
  5
1272A7
  8
OBJECT
 10
12585.755434960871
 20
-696.0
 30
0.0
 40
43.55353926885617
 50
165.688452300753
 51
194.3115476992468
1001
ACDBBLOCKREPETAG
1070
     1
1071
       19
1005
1272A7
  0
ARC
  5
1272A8
  8
OBJECT
 10
12700.687274671671
 20
-642.59190058989225
 30
0.0
 40
170.6350503965856
 50
210.08050418662771
 51
222.55865540815699
1001
ACDBBLOCKREPETAG
1070
     1
1071
       20
1005
1272A8
  0
ARC
  5
1272A9
  8
OBJECT
 10
12618.845598704051
 20
-686.11727330463521
 30
0.0
 40
78.072222021763665
 50
195.3363400228271
 51
212.5448468961377
1001
ACDBBLOCKREPETAG
1070
     1
1071
       21
1005
1272A9
  0
POINT
  5
1272AA
  8
DOTS
 10
12500.0
 20
-755.0
 30
0.0
1001
ACDBBLOCKREPETAG
1070
     1
1071
      187
1005
1272AA
  0
LINE
  5
1272AB
  8
OBJECT
 10
10423.0
 20
-571.0
 30
0.0
 11
10423.0
 21
-550.0
 31
0.0
1001
ACDBBLOCKREPETAG
1070
     1
1071
        0
1005
1272AB
  0
LINE
  5
1272AC
  8
OBJECT
 10
10423.0
 20
-550.0
 30
0.0
 11
10577.0
 21
-550.0
 31
0.0
1001
ACDBBLOCKREPETAG
1070
     1
1071
        1
1005
1272AC
  0
LINE
  5
1272AD
  8
HIDDEN
 10
10443.0
 20
-620.0
 30
0.0
 11
10557.0
 21
-620.0
 31
0.0
1001
ACDBBLOCKREPETAG
1070
     1
1071
        2
1005
1272AD
  0
LINE
  5
1272AE
  8
OBJECT
 10
10577.0
 20
-550.0
 30
0.0
 11
10577.0
 21
-571.0
 31
0.0
1001
ACDBBLOCKREPETAG
1070
     1
1071
        3
1005
1272AE
  0
LINE
  5
1272AF
  8
OBJECT
 10
10577.0
 20
-571.0
 30
0.0
 11
10423.0
 21
-571.0
 31
0.0
1001
ACDBBLOCKREPETAG
1070
     1
1071
        4
1005
1272AF
  0
LINE
  5
1272B0
  8
CENTER
 10
10500.0
 20
-535.0
 30
0.0
 11
10500.0
 21
-890.0
 31
0.0
1001
ACDBBLOCKREPETAG
1070
     1
1071
        5
1005
1272B0
  0
LINE
  5
1272B1
  8
OBJECT
 10
10425.0
 20
-634.0
 30
0.0
 11
10425.0
 21
-878.0
 31
0.0
1001
ACDBBLOCKREPETAG
1070
     1
1071
        6
1005
1272B1
  0
LINE
  5
1272B2
  8
OBJECT
 10
10428.0
 20
-571.0
 30
0.0
 11
10428.0
 21
-634.0
 31
0.0
1001
ACDBBLOCKREPETAG
1070
     1
1071
        7
1005
1272B2
  0
LINE
  5
1272B3
  8
OBJECT
 10
10572.0
 20
-634.0
 30
0.0
 11
10572.0
 21
-571.0
 31
0.0
1001
ACDBBLOCKREPETAG
1070
     1
1071
        8
1005
1272B3
  0
LINE
  5
1272B4
  8
OBJECT
 10
10420.0
 20
-878.0
 30
0.0
 11
10580.0
 21
-878.0
 31
0.0
1001
ACDBBLOCKREPETAG
1070
     1
1071
        9
1005
1272B4
  0
LINE
  5
1272B5
  8
OBJECT
 10
10580.0
 20
-634.0
 30
0.0
 11
10425.0
 21
-634.0
 31
0.0
1001
ACDBBLOCKREPETAG
1070
     1
1071
       10
1005
1272B5
  0
LINE
  5
1272B6
  8
OBJECT
 10
10420.0
 20
-878.0
 30
0.0
 11
10420.0
 21
-890.0
 31
0.0
1001
ACDBBLOCKREPETAG
1070
     1
1071
       11
1005
1272B6
  0
LINE
  5
1272B7
  8
OBJECT
 10
10420.0
 20
-890.0
 30
0.0
 11
10580.0
 21
-890.0
 31
0.0
1001
ACDBBLOCKREPETAG
1070
     1
1071
       12
1005
1272B7
  0
LINE
  5
1272B8
  8
OBJECT
 10
10580.0
 20
-890.0
 30
0.0
 11
10580.0
 21
-878.0
 31
0.0
1001
ACDBBLOCKREPETAG
1070
     1
1071
       13
1005
1272B8
  0
LINE
  5
1272B9
  8
OBJECT
 10
10574.99999999986
 20
-757.99999999985096
 30
0.0
 11
10575.0
 21
-878.0
 31
0.0
1001
ACDBBLOCKREPETAG
1070
     1
1071
       15
1005
1272B9
  0
LINE
  5
1272BA
  8
OBJECT
 10
10574.99999080298
 20
-757.99998602702181
 30
0.0
 11
10580.0
 21
-757.99998602702181
 31
0.0
1001
ACDBBLOCKREPETAG
1070
     1
1071
       16
1005
1272BA
  0
ARC
  5
1272BB
  8
OBJECT
 10
10700.687274671671
 20
-749.40809941010752
 30
0.0
 40
170.6350503965856
 50
137.44134459184301
 51
149.91949581337221
1001
ACDBBLOCKREPETAG
1070
     1
1071
       17
1005
1272BB
  0
ARC
  5
1272BC
  8
OBJECT
 10
10618.845598704051
 20
-705.88272669536457
 30
0.0
 40
78.072222021763665
 50
147.4551531038623
 51
164.6636599771729
1001
ACDBBLOCKREPETAG
1070
     1
1071
       18
1005
1272BC
  0
ARC
  5
1272BD
  8
OBJECT
 10
10585.755434960871
 20
-696.0
 30
0.0
 40
43.55353926885617
 50
165.688452300753
 51
194.3115476992468
1001
ACDBBLOCKREPETAG
1070
     1
1071
       19
1005
1272BD
  0
ARC
  5
1272BE
  8
OBJECT
 10
10700.687274671671
 20
-642.59190058989225
 30
0.0
 40
170.6350503965856
 50
210.08050418662771
 51
222.55865540815699
1001
ACDBBLOCKREPETAG
1070
     1
1071
       20
1005
1272BE
  0
ARC
  5
1272BF
  8
OBJECT
 10
10618.845598704051
 20
-686.11727330463521
 30
0.0
 40
78.072222021763665
 50
195.3363400228271
 51
212.5448468961377
1001
ACDBBLOCKREPETAG
1070
     1
1071
       21
1005
1272BF
  0
POINT
  5
1272C0
  8
DOTS
 10
10500.0
 20
-755.0
 30
0.0
1001
ACDBBLOCKREPETAG
1070
     1
1071
      187
1005
1272C0
  0
LINE
  5
1272C1
  8
OBJECT
 10
8423.0
 20
-571.0
 30
0.0
 11
8423.0
 21
-550.0
 31
0.0
1001
ACDBBLOCKREPETAG
1070
     1
1071
        0
1005
1272C1
  0
LINE
  5
1272C2
  8
OBJECT
 10
8423.0
 20
-550.0
 30
0.0
 11
8577.0
 21
-550.0
 31
0.0
1001
ACDBBLOCKREPETAG
1070
     1
1071
        1
1005
1272C2
  0
LINE
  5
1272C3
  8
HIDDEN
 10
8443.0
 20
-620.0
 30
0.0
 11
8557.0
 21
-620.0
 31
0.0
1001
ACDBBLOCKREPETAG
1070
     1
1071
        2
1005
1272C3
  0
LINE
  5
1272C4
  8
OBJECT
 10
8577.0
 20
-550.0
 30
0.0
 11
8577.0
 21
-571.0
 31
0.0
1001
ACDBBLOCKREPETAG
1070
     1
1071
        3
1005
1272C4
  0
LINE
  5
1272C5
  8
OBJECT
 10
8577.0
 20
-571.0
 30
0.0
 11
8423.0
 21
-571.0
 31
0.0
1001
ACDBBLOCKREPETAG
1070
     1
1071
        4
1005
1272C5
  0
LINE
  5
1272C6
  8
CENTER
 10
8500.0
 20
-535.0
 30
0.0
 11
8500.0
 21
-890.0
 31
0.0
1001
ACDBBLOCKREPETAG
1070
     1
1071
        5
1005
1272C6
  0
LINE
  5
1272C7
  8
OBJECT
 10
8425.0
 20
-634.0
 30
0.0
 11
8425.0
 21
-878.0
 31
0.0
1001
ACDBBLOCKREPETAG
1070
     1
1071
        6
1005
1272C7
  0
LINE
  5
1272C8
  8
OBJECT
 10
8428.0
 20
-571.0
 30
0.0
 11
8428.0
 21
-634.0
 31
0.0
1001
ACDBBLOCKREPETAG
1070
     1
1071
        7
1005
1272C8
  0
LINE
  5
1272C9
  8
OBJECT
 10
8572.0
 20
-634.0
 30
0.0
 11
8572.0
 21
-571.0
 31
0.0
1001
ACDBBLOCKREPETAG
1070
     1
1071
        8
1005
1272C9
  0
LINE
  5
1272CA
  8
OBJECT
 10
8420.0
 20
-878.0
 30
0.0
 11
8580.0
 21
-878.0
 31
0.0
1001
ACDBBLOCKREPETAG
1070
     1
1071
        9
1005
1272CA
  0
LINE
  5
1272CB
  8
OBJECT
 10
8580.0
 20
-634.0
 30
0.0
 11
8425.0
 21
-634.0
 31
0.0
1001
ACDBBLOCKREPETAG
1070
     1
1071
       10
1005
1272CB
  0
LINE
  5
1272CC
  8
OBJECT
 10
8420.0
 20
-878.0
 30
0.0
 11
8420.0
 21
-890.0
 31
0.0
1001
ACDBBLOCKREPETAG
1070
     1
1071
       11
1005
1272CC
  0
LINE
  5
1272CD
  8
OBJECT
 10
8420.0
 20
-890.0
 30
0.0
 11
8580.0
 21
-890.0
 31
0.0
1001
ACDBBLOCKREPETAG
1070
     1
1071
       12
1005
1272CD
  0
LINE
  5
1272CE
  8
OBJECT
 10
8580.0
 20
-890.0
 30
0.0
 11
8580.0
 21
-878.0
 31
0.0
1001
ACDBBLOCKREPETAG
1070
     1
1071
       13
1005
1272CE
  0
LINE
  5
1272CF
  8
OBJECT
 10
8574.9999999998618
 20
-757.99999999985096
 30
0.0
 11
8575.0
 21
-878.0
 31
0.0
1001
ACDBBLOCKREPETAG
1070
     1
1071
       15
1005
1272CF
  0
LINE
  5
1272D0
  8
OBJECT
 10
8574.9999908029858
 20
-757.99998602702181
 30
0.0
 11
8580.0
 21
-757.99998602702181
 31
0.0
1001
ACDBBLOCKREPETAG
1070
     1
1071
       16
1005
1272D0
  0
ARC
  5
1272D1
  8
OBJECT
 10
8700.6872746716726
 20
-749.40809941010752
 30
0.0
 40
170.6350503965856
 50
137.44134459184301
 51
149.91949581337221
1001
ACDBBLOCKREPETAG
1070
     1
1071
       17
1005
1272D1
  0
ARC
  5
1272D2
  8
OBJECT
 10
8618.8455987040506
 20
-705.88272669536457
 30
0.0
 40
78.072222021763665
 50
147.4551531038623
 51
164.6636599771729
1001
ACDBBLOCKREPETAG
1070
     1
1071
       18
1005
1272D2
  0
ARC
  5
1272D3
  8
OBJECT
 10
8585.7554349608708
 20
-696.0
 30
0.0
 40
43.55353926885617
 50
165.688452300753
 51
194.3115476992468
1001
ACDBBLOCKREPETAG
1070
     1
1071
       19
1005
1272D3
  0
ARC
  5
1272D4
  8
OBJECT
 10
8700.6872746716726
 20
-642.59190058989225
 30
0.0
 40
170.6350503965856
 50
210.08050418662771
 51
222.55865540815699
1001
ACDBBLOCKREPETAG
1070
     1
1071
       20
1005
1272D4
  0
ARC
  5
1272D5
  8
OBJECT
 10
8618.8455987040506
 20
-686.11727330463521
 30
0.0
 40
78.072222021763665
 50
195.3363400228271
 51
212.5448468961377
1001
ACDBBLOCKREPETAG
1070
     1
1071
       21
1005
1272D5
  0
POINT
  5
1272D6
  8
DOTS
 10
8500.0
 20
-755.0
 30
0.0
1001
ACDBBLOCKREPETAG
1070
     1
1071
      187
1005
1272D6
  0
LINE
  5
1272D7
  8
OBJECT
 10
6423.0
 20
-571.0
 30
0.0
 11
6423.0
 21
-550.0
 31
0.0
1001
ACDBBLOCKREPETAG
1070
     1
1071
        0
1005
1272D7
  0
LINE
  5
1272D8
  8
OBJECT
 10
6423.0
 20
-550.0
 30
0.0
 11
6577.0
 21
-550.0
 31
0.0
1001
ACDBBLOCKREPETAG
1070
     1
1071
        1
1005
1272D8
  0
LINE
  5
1272D9
  8
HIDDEN
 10
6443.0
 20
-620.0
 30
0.0
 11
6557.0
 21
-620.0
 31
0.0
1001
ACDBBLOCKREPETAG
1070
     1
1071
        2
1005
1272D9
  0
LINE
  5
1272DA
  8
OBJECT
 10
6577.0
 20
-550.0
 30
0.0
 11
6577.0
 21
-571.0
 31
0.0
1001
ACDBBLOCKREPETAG
1070
     1
1071
        3
1005
1272DA
  0
LINE
  5
1272DB
  8
OBJECT
 10
6577.0
 20
-571.0
 30
0.0
 11
6423.0
 21
-571.0
 31
0.0
1001
ACDBBLOCKREPETAG
1070
     1
1071
        4
1005
1272DB
  0
LINE
  5
1272DC
  8
CENTER
 10
6500.0
 20
-535.0
 30
0.0
 11
6500.0
 21
-890.0
 31
0.0
1001
ACDBBLOCKREPETAG
1070
     1
1071
        5
1005
1272DC
  0
LINE
  5
1272DD
  8
OBJECT
 10
6425.0
 20
-634.0
 30
0.0
 11
6425.0
 21
-878.0
 31
0.0
1001
ACDBBLOCKREPETAG
1070
     1
1071
        6
1005
1272DD
  0
LINE
  5
1272DE
  8
OBJECT
 10
6428.0
 20
-571.0
 30
0.0
 11
6428.0
 21
-634.0
 31
0.0
1001
ACDBBLOCKREPETAG
1070
     1
1071
        7
1005
1272DE
  0
LINE
  5
1272DF
  8
OBJECT
 10
6572.0
 20
-634.0
 30
0.0
 11
6572.0
 21
-571.0
 31
0.0
1001
ACDBBLOCKREPETAG
1070
     1
1071
        8
1005
1272DF
  0
LINE
  5
1272E0
  8
OBJECT
 10
6420.0
 20
-878.0
 30
0.0
 11
6580.0
 21
-878.0
 31
0.0
1001
ACDBBLOCKREPETAG
1070
     1
1071
        9
1005
1272E0
  0
LINE
  5
1272E1
  8
OBJECT
 10
6580.0
 20
-634.0
 30
0.0
 11
6425.0
 21
-634.0
 31
0.0
1001
ACDBBLOCKREPETAG
1070
     1
1071
       10
1005
1272E1
  0
LINE
  5
1272E2
  8
OBJECT
 10
6420.0
 20
-878.0
 30
0.0
 11
6420.0
 21
-890.0
 31
0.0
1001
ACDBBLOCKREPETAG
1070
     1
1071
       11
1005
1272E2
  0
LINE
  5
1272E3
  8
OBJECT
 10
6420.0
 20
-890.0
 30
0.0
 11
6580.0
 21
-890.0
 31
0.0
1001
ACDBBLOCKREPETAG
1070
     1
1071
       12
1005
1272E3
  0
LINE
  5
1272E4
  8
OBJECT
 10
6580.0
 20
-890.0
 30
0.0
 11
6580.0
 21
-878.0
 31
0.0
1001
ACDBBLOCKREPETAG
1070
     1
1071
       13
1005
1272E4
  0
LINE
  5
1272E5
  8
OBJECT
 10
6574.9999999998618
 20
-757.99999999985096
 30
0.0
 11
6575.0
 21
-878.0
 31
0.0
1001
ACDBBLOCKREPETAG
1070
     1
1071
       15
1005
1272E5
  0
LINE
  5
1272E6
  8
OBJECT
 10
6574.9999908029858
 20
-757.99998602702181
 30
0.0
 11
6580.0
 21
-757.99998602702181
 31
0.0
1001
ACDBBLOCKREPETAG
1070
     1
1071
       16
1005
1272E6
  0
ARC
  5
1272E7
  8
OBJECT
 10
6700.6872746716717
 20
-749.40809941010752
 30
0.0
 40
170.6350503965856
 50
137.44134459184301
 51
149.91949581337221
1001
ACDBBLOCKREPETAG
1070
     1
1071
       17
1005
1272E7
  0
ARC
  5
1272E8
  8
OBJECT
 10
6618.8455987040506
 20
-705.88272669536457
 30
0.0
 40
78.072222021763665
 50
147.4551531038623
 51
164.66365997718671
1001
ACDBBLOCKREPETAG
1070
     1
1071
       18
1005
1272E8
  0
ARC
  5
1272E9
  8
OBJECT
 10
6585.7554349608727
 20
-696.0
 30
0.0
 40
43.55353926885617
 50
165.688452300753
 51
194.3115476992468
1001
ACDBBLOCKREPETAG
1070
     1
1071
       19
1005
1272E9
  0
ARC
  5
1272EA
  8
OBJECT
 10
6700.6872746716717
 20
-642.59190058989225
 30
0.0
 40
170.6350503965856
 50
210.08050418662771
 51
222.55865540815699
1001
ACDBBLOCKREPETAG
1070
     1
1071
       20
1005
1272EA
  0
ARC
  5
1272EB
  8
OBJECT
 10
6618.8455987040506
 20
-686.11727330463521
 30
0.0
 40
78.072222021763665
 50
195.33634002281309
 51
212.5448468961377
1001
ACDBBLOCKREPETAG
1070
     1
1071
       21
1005
1272EB
  0
POINT
  5
1272EC
  8
DOTS
 10
6500.0
 20
-755.0
 30
0.0
1001
ACDBBLOCKREPETAG
1070
     1
1071
      187
1005
1272EC
  0
LINE
  5
1272ED
  8
OBJECT
 10
4423.0
 20
-571.0
 30
0.0
 11
4423.0
 21
-550.0
 31
0.0
1001
ACDBBLOCKREPETAG
1070
     1
1071
        0
1005
1272ED
  0
LINE
  5
1272EE
  8
OBJECT
 10
4423.0
 20
-550.0
 30
0.0
 11
4577.0
 21
-550.0
 31
0.0
1001
ACDBBLOCKREPETAG
1070
     1
1071
        1
1005
1272EE
  0
LINE
  5
1272EF
  8
HIDDEN
 10
4443.0
 20
-620.0
 30
0.0
 11
4557.0
 21
-620.0
 31
0.0
1001
ACDBBLOCKREPETAG
1070
     1
1071
        2
1005
1272EF
  0
LINE
  5
1272F0
  8
OBJECT
 10
4577.0
 20
-550.0
 30
0.0
 11
4577.0
 21
-571.0
 31
0.0
1001
ACDBBLOCKREPETAG
1070
     1
1071
        3
1005
1272F0
  0
LINE
  5
1272F1
  8
OBJECT
 10
4577.0
 20
-571.0
 30
0.0
 11
4423.0
 21
-571.0
 31
0.0
1001
ACDBBLOCKREPETAG
1070
     1
1071
        4
1005
1272F1
  0
LINE
  5
1272F2
  8
CENTER
 10
4500.0
 20
-535.0
 30
0.0
 11
4500.0
 21
-890.0
 31
0.0
1001
ACDBBLOCKREPETAG
1070
     1
1071
        5
1005
1272F2
  0
LINE
  5
1272F3
  8
OBJECT
 10
4425.0
 20
-634.0
 30
0.0
 11
4425.0
 21
-878.0
 31
0.0
1001
ACDBBLOCKREPETAG
1070
     1
1071
        6
1005
1272F3
  0
LINE
  5
1272F4
  8
OBJECT
 10
4428.0
 20
-571.0
 30
0.0
 11
4428.0
 21
-634.0
 31
0.0
1001
ACDBBLOCKREPETAG
1070
     1
1071
        7
1005
1272F4
  0
LINE
  5
1272F5
  8
OBJECT
 10
4572.0
 20
-634.0
 30
0.0
 11
4572.0
 21
-571.0
 31
0.0
1001
ACDBBLOCKREPETAG
1070
     1
1071
        8
1005
1272F5
  0
LINE
  5
1272F6
  8
OBJECT
 10
4420.0
 20
-878.0
 30
0.0
 11
4580.0
 21
-878.0
 31
0.0
1001
ACDBBLOCKREPETAG
1070
     1
1071
        9
1005
1272F6
  0
LINE
  5
1272F7
  8
OBJECT
 10
4580.0
 20
-634.0
 30
0.0
 11
4425.0
 21
-634.0
 31
0.0
1001
ACDBBLOCKREPETAG
1070
     1
1071
       10
1005
1272F7
  0
LINE
  5
1272F8
  8
OBJECT
 10
4420.0
 20
-878.0
 30
0.0
 11
4420.0
 21
-890.0
 31
0.0
1001
ACDBBLOCKREPETAG
1070
     1
1071
       11
1005
1272F8
  0
LINE
  5
1272F9
  8
OBJECT
 10
4420.0
 20
-890.0
 30
0.0
 11
4580.0
 21
-890.0
 31
0.0
1001
ACDBBLOCKREPETAG
1070
     1
1071
       12
1005
1272F9
  0
LINE
  5
1272FA
  8
OBJECT
 10
4580.0
 20
-890.0
 30
0.0
 11
4580.0
 21
-878.0
 31
0.0
1001
ACDBBLOCKREPETAG
1070
     1
1071
       13
1005
1272FA
  0
LINE
  5
1272FB
  8
OBJECT
 10
4574.9999999998618
 20
-757.99999999985096
 30
0.0
 11
4575.0
 21
-878.0
 31
0.0
1001
ACDBBLOCKREPETAG
1070
     1
1071
       15
1005
1272FB
  0
LINE
  5
1272FC
  8
OBJECT
 10
4574.9999908029849
 20
-757.99998602702181
 30
0.0
 11
4580.0
 21
-757.99998602702181
 31
0.0
1001
ACDBBLOCKREPETAG
1070
     1
1071
       16
1005
1272FC
  0
ARC
  5
1272FD
  8
OBJECT
 10
4700.6872746716726
 20
-749.40809941010752
 30
0.0
 40
170.6350503965856
 50
137.44134459184301
 51
149.91949581337221
1001
ACDBBLOCKREPETAG
1070
     1
1071
       17
1005
1272FD
  0
ARC
  5
1272FE
  8
OBJECT
 10
4618.8455987040506
 20
-705.88272669536457
 30
0.0
 40
78.072222021763665
 50
147.4551531038623
 51
164.66365997718671
1001
ACDBBLOCKREPETAG
1070
     1
1071
       18
1005
1272FE
  0
ARC
  5
1272FF
  8
OBJECT
 10
4585.7554349608718
 20
-696.0
 30
0.0
 40
43.55353926885617
 50
165.688452300753
 51
194.3115476992468
1001
ACDBBLOCKREPETAG
1070
     1
1071
       19
1005
1272FF
  0
ARC
  5
127300
  8
OBJECT
 10
4700.6872746716726
 20
-642.59190058989225
 30
0.0
 40
170.6350503965856
 50
210.08050418662771
 51
222.55865540815699
1001
ACDBBLOCKREPETAG
1070
     1
1071
       20
1005
127300
  0
ARC
  5
127301
  8
OBJECT
 10
4618.8455987040506
 20
-686.11727330463521
 30
0.0
 40
78.072222021763665
 50
195.33634002281309
 51
212.5448468961377
1001
ACDBBLOCKREPETAG
1070
     1
1071
       21
1005
127301
  0
POINT
  5
127302
  8
DOTS
 10
4500.0
 20
-755.0
 30
0.0
1001
ACDBBLOCKREPETAG
1070
     1
1071
      187
1005
127302
  0
LINE
  5
127303
  8
OBJECT
 10
2423.0
 20
-571.0
 30
0.0
 11
2423.0
 21
-550.0
 31
0.0
1001
ACDBBLOCKREPETAG
1070
     1
1071
        0
1005
127303
  0
LINE
  5
127304
  8
OBJECT
 10
2423.0
 20
-550.0
 30
0.0
 11
2577.0
 21
-550.0
 31
0.0
1001
ACDBBLOCKREPETAG
1070
     1
1071
        1
1005
127304
  0
LINE
  5
127305
  8
HIDDEN
 10
2443.0
 20
-620.0
 30
0.0
 11
2557.0
 21
-620.0
 31
0.0
1001
ACDBBLOCKREPETAG
1070
     1
1071
        2
1005
127305
  0
LINE
  5
127306
  8
OBJECT
 10
2577.0
 20
-550.0
 30
0.0
 11
2577.0
 21
-571.0
 31
0.0
1001
ACDBBLOCKREPETAG
1070
     1
1071
        3
1005
127306
  0
LINE
  5
127307
  8
OBJECT
 10
2577.0
 20
-571.0
 30
0.0
 11
2423.0
 21
-571.0
 31
0.0
1001
ACDBBLOCKREPETAG
1070
     1
1071
        4
1005
127307
  0
LINE
  5
127308
  8
CENTER
 10
2500.0
 20
-535.0
 30
0.0
 11
2500.0
 21
-890.0
 31
0.0
1001
ACDBBLOCKREPETAG
1070
     1
1071
        5
1005
127308
  0
LINE
  5
127309
  8
OBJECT
 10
2425.0
 20
-634.0
 30
0.0
 11
2425.0
 21
-878.0
 31
0.0
1001
ACDBBLOCKREPETAG
1070
     1
1071
        6
1005
127309
  0
LINE
  5
12730A
  8
OBJECT
 10
2428.0
 20
-571.0
 30
0.0
 11
2428.0
 21
-634.0
 31
0.0
1001
ACDBBLOCKREPETAG
1070
     1
1071
        7
1005
12730A
  0
LINE
  5
12730B
  8
OBJECT
 10
2572.0
 20
-634.0
 30
0.0
 11
2572.0
 21
-571.0
 31
0.0
1001
ACDBBLOCKREPETAG
1070
     1
1071
        8
1005
12730B
  0
LINE
  5
12730C
  8
OBJECT
 10
2420.0
 20
-878.0
 30
0.0
 11
2580.0
 21
-878.0
 31
0.0
1001
ACDBBLOCKREPETAG
1070
     1
1071
        9
1005
12730C
  0
LINE
  5
12730D
  8
OBJECT
 10
2580.0
 20
-634.0
 30
0.0
 11
2425.0
 21
-634.0
 31
0.0
1001
ACDBBLOCKREPETAG
1070
     1
1071
       10
1005
12730D
  0
LINE
  5
12730E
  8
OBJECT
 10
2420.0
 20
-878.0
 30
0.0
 11
2420.0
 21
-890.0
 31
0.0
1001
ACDBBLOCKREPETAG
1070
     1
1071
       11
1005
12730E
  0
LINE
  5
12730F
  8
OBJECT
 10
2420.0
 20
-890.0
 30
0.0
 11
2580.0
 21
-890.0
 31
0.0
1001
ACDBBLOCKREPETAG
1070
     1
1071
       12
1005
12730F
  0
LINE
  5
127310
  8
OBJECT
 10
2580.0
 20
-890.0
 30
0.0
 11
2580.0
 21
-878.0
 31
0.0
1001
ACDBBLOCKREPETAG
1070
     1
1071
       13
1005
127310
  0
LINE
  5
127311
  8
OBJECT
 10
2574.9999999998622
 20
-757.99999999985096
 30
0.0
 11
2575.0
 21
-878.0
 31
0.0
1001
ACDBBLOCKREPETAG
1070
     1
1071
       15
1005
127311
  0
LINE
  5
127312
  8
OBJECT
 10
2574.9999908029849
 20
-757.99998602702181
 30
0.0
 11
2580.0
 21
-757.99998602702181
 31
0.0
1001
ACDBBLOCKREPETAG
1070
     1
1071
       16
1005
127312
  0
ARC
  5
127313
  8
OBJECT
 10
2700.6872746716731
 20
-749.40809941010752
 30
0.0
 40
170.6350503965856
 50
137.44134459184301
 51
149.91949581337221
1001
ACDBBLOCKREPETAG
1070
     1
1071
       17
1005
127313
  0
ARC
  5
127314
  8
OBJECT
 10
2618.8455987040511
 20
-705.88272669536457
 30
0.0
 40
78.072222021763665
 50
147.4551531038623
 51
164.6636599771798
1001
ACDBBLOCKREPETAG
1070
     1
1071
       18
1005
127314
  0
ARC
  5
127315
  8
OBJECT
 10
2585.7554349608731
 20
-696.0
 30
0.0
 40
43.55353926885617
 50
165.6884523007466
 51
194.3115476992534
1001
ACDBBLOCKREPETAG
1070
     1
1071
       19
1005
127315
  0
ARC
  5
127316
  8
OBJECT
 10
2700.6872746716731
 20
-642.59190058989225
 30
0.0
 40
170.6350503965856
 50
210.08050418662771
 51
222.55865540815699
1001
ACDBBLOCKREPETAG
1070
     1
1071
       20
1005
127316
  0
ARC
  5
127317
  8
OBJECT
 10
2618.8455987040511
 20
-686.11727330463521
 30
0.0
 40
78.072222021763665
 50
195.3363400228202
 51
212.5448468961377
1001
ACDBBLOCKREPETAG
1070
     1
1071
       21
1005
127317
  0
POINT
  5
127318
  8
DOTS
 10
2500.0
 20
-755.0
 30
0.0
1001
ACDBBLOCKREPETAG
1070
     1
1071
      187
1005
127318
  0
TEXT
  5
127319
  8
SLIM
 10
12032.5
 20
-2095.3333599999969
 30
0.0
 40
28.0
  1
※ 対応P寸法　　310＜320＞～440（10mm単位。＜＞内は下枝75の場合）
 41
0.75
  0
TEXT
  5
12731A
  8
SLIM
 10
12033.304
 20
-2142.000026666663
 30
0.0
 40
28.0
  1
※ 対応スラブ厚　150～（720-P）
 41
0.75
  0
TEXT
  5
12731B
  8
SLIM
 10
12111.5
 20
-2213.9999733333289
 30
0.0
 40
28.0
  1
国土交通大臣認定・（財）日本消防設備安全センター性能評定取得品
 41
0.75
  0
TEXT
  5
12731C
  8
SLIM
 10
12131.1
 20
-2260.6666399999958
 30
0.0
 40
28.0
  1
注）ご採用にあたり、認定書及び評定書の内容をご確認ください。
 41
0.75
  0
TEXT
  5
12731D
  8
SLIM
 10
10032.5
 20
-2095.3333599999969
 30
0.0
 40
28.0
  1
※ 対応P寸法　　310＜320＞～440（10mm単位。＜＞内は下枝75の場合）
 41
0.75
  0
TEXT
  5
12731E
  8
SLIM
 10
10033.304
 20
-2142.000026666663
 30
0.0
 40
28.0
  1
※ 対応スラブ厚　180～（720-P）
 41
0.75
  0
TEXT
  5
12731F
  8
SLIM
 10
10111.5
 20
-2213.9999733333289
 30
0.0
 40
28.0
  1
国土交通大臣認定・（財）日本消防設備安全センター性能評定取得品
 41
0.75
  0
TEXT
  5
127320
  8
SLIM
 10
10131.1
 20
-2260.6666399999958
 30
0.0
 40
28.0
  1
注）ご採用にあたり、認定書及び評定書の内容をご確認ください。
 41
0.75
  0
TEXT
  5
127321
  8
SLIM
 10
6026.9000000000005
 20
-2136.3333600000001
 30
0.0
 40
28.0
  1
 ※ 対応P寸法　　310＜320＞～460（10mm単位。＜＞内は下枝75の場合）
 41
0.75
  0
TEXT
  5
127322
  8
SLIM
 10
6035.8040000000001
 20
-2183.0000266666661
 30
0.0
 40
28.0
  1
※ 対応スラブ厚　150mm以上
 41
0.75
  0
TEXT
  5
127323
  8
SLIM
 10
6111.5
 20
-2254.9999733333329
 30
0.0
 40
28.0
  1
国土交通大臣認定・（財）日本消防設備安全センター性能評定取得品
 41
0.75
  0
TEXT
  5
127324
  8
SLIM
 10
6131.1000000000004
 20
-2301.666639999999
 30
0.0
 40
28.0
  1
注）ご採用にあたり、認定書及び評定書の内容をご確認ください。
 41
0.75
  0
TEXT
  5
127325
  8
SLIM
 10
4032.5
 20
-2102.9999999999968
 30
0.0
 40
28.0
  1
※ 対応P寸法　　310＜320＞～460（10mm単位。＜＞内は下枝75の場合）
 41
0.75
  0
TEXT
  5
127326
  8
SLIM
 10
2032.5
 20
-1828.999999999998
 30
0.0
 40
28.0
  1
※ 対応P寸法　　310＜320＞～460（10mm単位。＜＞内は下枝75の場合）
 41
0.75
  0
TEXT
  5
127327
  8
SLIM
 10
8178.4999999999973
 20
-1823.000026666665
 30
0.0
 40
28.0
  1
※ 対応P寸法　　310＜320＞～440（10mm単位）
 41
0.75
  0
TEXT
  5
127328
  8
SLIM
 10
8176.0998000000018
 20
-1869.666693333332
 30
0.0
 40
28.0
  1
※ 対応スラブ厚　180｛150｝～（680-P）
 41
0.75
  0
TEXT
  5
127329
  8
SLIM
 10
8211.8999999999978
 20
-1916.3333599999989
 30
0.0
 40
28.0
  1
＜＞内は下枝75、｛｝内はカンペイ立て管との組み合わせの場合
 41
0.75
  0
TEXT
  5
12732A
  8
SLIM
 10
8111.4999999999973
 20
-1988.3333066666651
 30
0.0
 40
28.0
  1
国土交通大臣認定・（財）日本消防設備安全センター性能評定取得品
 41
0.75
  0
TEXT
  5
12732B
  8
SLIM
 10
8131.1000000000013
 20
-2034.9999733333329
 30
0.0
 40
28.0
  1
注）ご採用にあたり、認定書及び評定書の内容をご確認ください。
 41
0.75
  0
TEXT
  5
12732C
  8
SLIM
 10
4353.75
 20
-2026.4999999999959
 30
0.0
 40
35.0
  1
両受けスタイル（W）
 41
0.75
  0
TEXT
  5
12732D
  8
SLIM
 10
10239.125
 20
-2026.4999999999959
 30
0.0
 40
35.0
  1
両受けスタイル（W）＋シンドカット
 41
0.75
  0
TEXT
  5
12732E
  8
SLIM
 10
12243.5
 20
-2026.4999999999959
 30
0.0
 40
35.0
  1
カンペイ君（WKP）＋シンドカット
 41
0.75
  0
TEXT
  5
12732F
  8
SLIM
 10
8241.625
 20
-1752.499999999998
 30
0.0
 40
35.0
  1
片受けスタイル（S）＋シンドカット
 41
0.75
  0
TEXT
  5
127330
  8
SLIM
 10
6358.1250000000009
 20
-2067.5
 30
0.0
 40
35.0
  1
カンペイ君（WKP）
 41
0.75
  0
TEXT
  5
127331
  8
SLIM
 10
2356.25
 20
-1752.499999999998
 30
0.0
 40
35.0
  1
片受けスタイル（S）
 41
0.75
  0
LINE
  5
127332
  8
OBJECT
 10
118.0
 20
-1362.9999999999991
 30
0.0
 11
118.0
 21
-1355.9999999999991
 31
0.0
1001
ACDBBLOCKREPETAG
1070
     1
1071
       34
1005
127332
  0
LINE
  5
127333
  8
OBJECT
 10
118.0
 20
-1355.9999999999991
 30
0.0
 11
242.0
 21
-1355.9999999999991
 31
0.0
1001
ACDBBLOCKREPETAG
1070
     1
1071
       35
1005
127333
  0
LINE
  5
127334
  8
OBJECT
 10
242.0
 20
-1355.9999999999991
 30
0.0
 11
242.0
 21
-1362.9999999999991
 31
0.0
1001
ACDBBLOCKREPETAG
1070
     1
1071
       36
1005
127334
  0
LINE
  5
127335
  8
OBJECT
 10
242.0
 20
-1362.9999999999991
 30
0.0
 11
118.0
 21
-1362.9999999999991
 31
0.0
1001
ACDBBLOCKREPETAG
1070
     1
1071
       37
1005
127335
  0
LINE
  5
127336
  8
OBJECT
 10
121.0
 20
-1362.9999999999991
 30
0.0
 11
121.0
 21
-1398.9999999999991
 31
0.0
1001
ACDBBLOCKREPETAG
1070
     1
1071
       38
1005
127336
  0
LINE
  5
127337
  8
OBJECT
 10
121.0
 20
-1398.9999999999991
 30
0.0
 11
239.0
 21
-1398.9999999999991
 31
0.0
1001
ACDBBLOCKREPETAG
1070
     1
1071
       39
1005
127337
  0
LINE
  5
127338
  8
OBJECT
 10
239.0
 20
-1398.9999999999991
 30
0.0
 11
239.0
 21
-1362.9999999999991
 31
0.0
1001
ACDBBLOCKREPETAG
1070
     1
1071
       40
1005
127338
  0
LINE
  5
127339
  8
OBJECT
 10
125.5
 20
-1402.9999999999991
 30
0.0
 11
125.5
 21
-1413.4999999999991
 31
0.0
1001
ACDBBLOCKREPETAG
1070
     1
1071
       41
1005
127339
  0
LINE
  5
12733A
  8
OBJECT
 10
234.5
 20
-1413.4999999999991
 30
0.0
 11
234.5
 21
-1402.9999999999991
 31
0.0
1001
ACDBBLOCKREPETAG
1070
     1
1071
       42
1005
12733A
  0
LINE
  5
12733B
  8
OBJECT
 10
234.5
 20
-1402.9999999999991
 30
0.0
 11
125.5
 21
-1402.9999999999991
 31
0.0
1001
ACDBBLOCKREPETAG
1070
     1
1071
       43
1005
12733B
  0
LINE
  5
12733C
  8
OBJECT
 10
121.0
 20
-1398.9999999999991
 30
0.0
 11
125.5
 21
-1402.9999999999991
 31
0.0
1001
ACDBBLOCKREPETAG
1070
     1
1071
       44
1005
12733C
  0
LINE
  5
12733D
  8
OBJECT
 10
239.0
 20
-1398.9999999999991
 30
0.0
 11
234.5
 21
-1402.9999999999991
 31
0.0
1001
ACDBBLOCKREPETAG
1070
     1
1071
       45
1005
12733D
  0
LINE
  5
12733E
  8
OBJECT
 10
130.5
 20
-1418.4999999999991
 30
0.0
 11
130.50000000000091
 21
-1439.65508008702
 31
0.0
1001
ACDBBLOCKREPETAG
1070
     1
1071
       46
1005
12733E
  0
LINE
  5
12733F
  8
OBJECT
 10
229.5
 20
-1418.4999999999991
 30
0.0
 11
229.5
 21
-1439.6550800870209
 31
0.0
1001
ACDBBLOCKREPETAG
1070
     1
1071
       47
1005
12733F
  0
LINE
  5
127340
  8
OBJECT
 10
125.5
 20
-1413.4999999999991
 30
0.0
 11
234.5
 21
-1413.4999999999991
 31
0.0
1001
ACDBBLOCKREPETAG
1070
     1
1071
       48
1005
127340
  0
LINE
  5
127341
  8
OBJECT
 10
130.5
 20
-1418.4999999999991
 30
0.0
 11
229.5
 21
-1418.4999999999991
 31
0.0
1001
ACDBBLOCKREPETAG
1070
     1
1071
       49
1005
127341
  0
LINE
  5
127342
  8
OBJECT
 10
125.5
 20
-1413.4999999999991
 30
0.0
 11
130.5
 21
-1418.4999999999991
 31
0.0
1001
ACDBBLOCKREPETAG
1070
     1
1071
       50
1005
127342
  0
LINE
  5
127343
  8
OBJECT
 10
229.5
 20
-1418.4999999999991
 30
0.0
 11
234.49999999999639
 21
-1413.4999999999991
 31
0.0
1001
ACDBBLOCKREPETAG
1070
     1
1071
       51
1005
127343
  0
INSERT
  5
127344
  8
SLIM
  2
*U3
 10
0.0
 20
0.0
 30
0.0
  0
LINE
  5
127345
  8
HIDDEN
 10
135.5
 20
-1407.9999999999991
 30
0.0
 11
224.5
 21
-1407.9999999999991
 31
0.0
1001
ACDBBLOCKREPETAG
1070
     1
1071
       65
1005
127345
  0
ARC
  5
127346
  8
OBJECT
 10
180.0
 20
-1495.9999999999991
 30
0.0
 40
50.0
 50
28.81994300016834
 51
318.52376955954998
1001
ACDBBLOCKREPETAG
1070
     1
1071
       49
1005
127346
  0
CIRCLE
  5
127347
  8
OBJECT
 10
180.0
 20
-1495.9999999999991
 30
0.0
 40
70.0
1001
ACDBBLOCKREPETAG
1070
     1
1071
       50
1005
127347
  0
CIRCLE
  5
127348
  8
OBJECT
 10
180.0
 20
-1495.9999999999991
 30
0.0
 40
75.0
1001
ACDBBLOCKREPETAG
1070
     1
1071
       51
1005
127348
  0
POINT
  5
127349
  8
DOTS
 10
180.0
 20
-1495.9999999999991
 30
0.0
1001
ACDBBLOCKREPETAG
1070
     1
1071
       63
1005
127349
  0
LINE
  5
12734A
  8
OBJECT
 10
223.80694712371769
 20
-1471.897066906698
 30
0.0
 11
212.5546219999996
 21
-1475.340343000003
 31
0.0
1001
ACDBBLOCKREPETAG
1070
     1
1071
      141
1005
12734A
  0
LINE
  5
12734B
  8
OBJECT
 10
198.22553374207919
 20
-1509.2072500986239
 30
0.0
 11
212.55462199999599
 21
-1475.340343000003
 31
0.0
1001
ACDBBLOCKREPETAG
1070
     1
1071
      143
1005
12734B
  0
ARC
  5
12734C
  8
OBJECT
 10
207.4351299990594
 20
-1513.103830238098
 30
0.0
 40
10.0
 50
157.06677829292309
 51
244.01473437026289
1001
ACDBBLOCKREPETAG
1070
     1
1071
      144
1005
12734C
  0
ARC
  5
12734D
  8
OBJECT
 10
205.5538625672925
 20
-1509.851160961872
 30
0.0
 40
7.0
 50
157.06677829292309
 51
244.01473377502219
1001
ACDBBLOCKREPETAG
1070
     1
1071
      145
1005
12734D
  0
LINE
  5
12734E
  8
OBJECT
 10
238.86769720860229
 20
-1533.876037614252
 30
0.0
 11
202.48688253356889
 21
-1516.143508176762
 31
0.0
1001
ACDBBLOCKREPETAG
1070
     1
1071
      154
1005
12734E
  0
LINE
  5
12734F
  8
OBJECT
 10
235.9167324445028
 20
-1538.1107947292589
 30
0.0
 11
203.05373004431021
 21
-1522.0928977334911
 31
0.0
1001
ACDBBLOCKREPETAG
1070
     1
1071
      155
1005
12734F
  0
ARC
  5
127350
  8
OBJECT
 10
184.75760589857131
 20
-1522.273755513954
 30
0.0
 40
63.739013211305632
 50
8.1694378253172513
 51
52.219052524698952
1001
ACDBBLOCKREPETAG
1070
     1
1071
      156
1005
127350
  0
LINE
  5
127351
  8
OBJECT
 10
485.0
 20
-898.99999999999943
 30
0.0
 11
485.0
 21
-891.9999999999992
 31
0.0
1001
ACDBBLOCKREPETAG
1070
     1
1071
       18
1005
127351
  0
LINE
  5
127352
  8
OBJECT
 10
485.0
 20
-891.9999999999992
 30
0.0
 11
595.0
 21
-891.9999999999992
 31
0.0
1001
ACDBBLOCKREPETAG
1070
     1
1071
       19
1005
127352
  0
LINE
  5
127353
  8
OBJECT
 10
595.0
 20
-891.9999999999992
 30
0.0
 11
595.0
 21
-898.99999999999943
 31
0.0
1001
ACDBBLOCKREPETAG
1070
     1
1071
       20
1005
127353
  0
LINE
  5
127354
  8
OBJECT
 10
595.0
 20
-898.99999999999943
 30
0.0
 11
485.0
 21
-898.99999999999943
 31
0.0
1001
ACDBBLOCKREPETAG
1070
     1
1071
       21
1005
127354
  0
LINE
  5
127355
  8
OBJECT
 10
488.0
 20
-898.99999999999943
 30
0.0
 11
488.0
 21
-934.99999999999875
 31
0.0
1001
ACDBBLOCKREPETAG
1070
     1
1071
       22
1005
127355
  0
LINE
  5
127356
  8
OBJECT
 10
488.0
 20
-934.99999999999875
 30
0.0
 11
592.0
 21
-934.99999999999875
 31
0.0
1001
ACDBBLOCKREPETAG
1070
     1
1071
       23
1005
127356
  0
LINE
  5
127357
  8
OBJECT
 10
592.0
 20
-934.99999999999875
 30
0.0
 11
592.0
 21
-898.99999999999943
 31
0.0
1001
ACDBBLOCKREPETAG
1070
     1
1071
       24
1005
127357
  0
LINE
  5
127358
  8
OBJECT
 10
492.49999999999989
 20
-938.99999999999909
 30
0.0
 11
492.49999999999989
 21
-947.49999999999875
 31
0.0
1001
ACDBBLOCKREPETAG
1070
     1
1071
       25
1005
127358
  0
LINE
  5
127359
  8
OBJECT
 10
587.5
 20
-947.49999999999955
 30
0.0
 11
587.5
 21
-938.99999999999909
 31
0.0
1001
ACDBBLOCKREPETAG
1070
     1
1071
       26
1005
127359
  0
LINE
  5
12735A
  8
OBJECT
 10
587.5
 20
-938.99999999999909
 30
0.0
 11
492.49999999999989
 21
-938.99999999999909
 31
0.0
1001
ACDBBLOCKREPETAG
1070
     1
1071
       27
1005
12735A
  0
LINE
  5
12735B
  8
OBJECT
 10
488.0
 20
-934.99999999999875
 30
0.0
 11
492.49999999999989
 21
-938.99999999999909
 31
0.0
1001
ACDBBLOCKREPETAG
1070
     1
1071
       28
1005
12735B
  0
LINE
  5
12735C
  8
OBJECT
 10
592.0
 20
-934.99999999999875
 30
0.0
 11
587.5
 21
-938.99999999999909
 31
0.0
1001
ACDBBLOCKREPETAG
1070
     1
1071
       29
1005
12735C
  0
LINE
  5
12735D
  8
OBJECT
 10
589.5
 20
-947.50000000000034
 30
0.0
 11
490.5
 21
-947.49999999999875
 31
0.0
1001
ACDBBLOCKREPETAG
1070
     1
1071
       30
1005
12735D
  0
LINE
  5
12735E
  8
OBJECT
 10
490.5
 20
-947.49999999999875
 30
0.0
 11
490.5000000000008
 21
-975.65508008701954
 31
0.0
1001
ACDBBLOCKREPETAG
1070
     1
1071
       31
1005
12735E
  0
LINE
  5
12735F
  8
OBJECT
 10
589.5
 20
-947.50000000000034
 30
0.0
 11
589.5000000000008
 21
-975.65508008702056
 31
0.0
1001
ACDBBLOCKREPETAG
1070
     1
1071
       32
1005
12735F
  0
INSERT
  5
127360
  8
SLIM
  2
*U4
 10
0.0
 20
0.0
 30
0.0
  0
LINE
  5
127361
  8
HIDDEN
 10
502.0
 20
-943.99999999999875
 30
0.0
 11
578.0
 21
-943.99999999999875
 31
0.0
1001
ACDBBLOCKREPETAG
1070
     1
1071
       57
1005
127361
  0
ARC
  5
127362
  8
OBJECT
 10
540.0
 20
-1031.9999999999991
 30
0.0
 40
50.0
 50
28.819943000169118
 51
318.52376955955111
1001
ACDBBLOCKREPETAG
1070
     1
1071
       49
1005
127362
  0
CIRCLE
  5
127363
  8
OBJECT
 10
540.0
 20
-1031.9999999999991
 30
0.0
 40
70.0
1001
ACDBBLOCKREPETAG
1070
     1
1071
       50
1005
127363
  0
CIRCLE
  5
127364
  8
OBJECT
 10
540.0
 20
-1031.9999999999991
 30
0.0
 40
75.0
1001
ACDBBLOCKREPETAG
1070
     1
1071
       51
1005
127364
  0
POINT
  5
127365
  8
DOTS
 10
540.0
 20
-1031.9999999999991
 30
0.0
1001
ACDBBLOCKREPETAG
1070
     1
1071
       63
1005
127365
  0
LINE
  5
127366
  8
OBJECT
 10
583.80694712371769
 20
-1007.897066906697
 30
0.0
 11
572.55462199999965
 21
-1011.340343000002
 31
0.0
1001
ACDBBLOCKREPETAG
1070
     1
1071
      141
1005
127366
  0
LINE
  5
127367
  8
OBJECT
 10
558.22553374207905
 20
-1045.2072500986239
 30
0.0
 11
572.55462199999602
 21
-1011.340343000002
 31
0.0
1001
ACDBBLOCKREPETAG
1070
     1
1071
      143
1005
127367
  0
ARC
  5
127368
  8
OBJECT
 10
567.43512999905943
 20
-1049.1038302380971
 30
0.0
 40
10.0
 50
157.06677829292209
 51
244.01473437026289
1001
ACDBBLOCKREPETAG
1070
     1
1071
      144
1005
127368
  0
ARC
  5
127369
  8
OBJECT
 10
565.55386256729241
 20
-1045.851160961872
 30
0.0
 40
7.0
 50
157.06677829292209
 51
244.0147337750206
1001
ACDBBLOCKREPETAG
1070
     1
1071
      145
1005
127369
  0
LINE
  5
12736A
  8
OBJECT
 10
598.86769720860241
 20
-1069.876037614252
 30
0.0
 11
562.48688253356875
 21
-1052.143508176762
 31
0.0
1001
ACDBBLOCKREPETAG
1070
     1
1071
      154
1005
12736A
  0
LINE
  5
12736B
  8
OBJECT
 10
595.91673244450271
 20
-1074.110794729258
 30
0.0
 11
563.05373004430999
 21
-1058.09289773349
 31
0.0
1001
ACDBBLOCKREPETAG
1070
     1
1071
      155
1005
12736B
  0
ARC
  5
12736C
  8
OBJECT
 10
544.75760589857111
 20
-1058.273755513954
 30
0.0
 40
63.739013211305632
 50
8.1694378253174822
 51
52.21905252470151
1001
ACDBBLOCKREPETAG
1070
     1
1071
      156
1005
12736C
  0
LINE
  5
12736D
  8
OBJECT
 10
133.0
 20
-898.99999999999943
 30
0.0
 11
133.0
 21
-891.9999999999992
 31
0.0
1001
ACDBBLOCKREPETAG
1070
     1
1071
        0
1005
12736D
  0
LINE
  5
12736E
  8
OBJECT
 10
133.0
 20
-891.9999999999992
 30
0.0
 11
227.0
 21
-891.9999999999992
 31
0.0
1001
ACDBBLOCKREPETAG
1070
     1
1071
        1
1005
12736E
  0
LINE
  5
12736F
  8
OBJECT
 10
227.0
 20
-891.9999999999992
 30
0.0
 11
227.0
 21
-898.99999999999943
 31
0.0
1001
ACDBBLOCKREPETAG
1070
     1
1071
        2
1005
12736F
  0
LINE
  5
127370
  8
OBJECT
 10
227.0
 20
-898.99999999999943
 30
0.0
 11
133.0
 21
-898.99999999999943
 31
0.0
1001
ACDBBLOCKREPETAG
1070
     1
1071
        3
1005
127370
  0
LINE
  5
127371
  8
OBJECT
 10
136.0
 20
-898.99999999999943
 30
0.0
 11
136.0
 21
-934.99999999999875
 31
0.0
1001
ACDBBLOCKREPETAG
1070
     1
1071
        4
1005
127371
  0
LINE
  5
127372
  8
OBJECT
 10
136.0
 20
-934.99999999999875
 30
0.0
 11
224.0
 21
-934.99999999999875
 31
0.0
1001
ACDBBLOCKREPETAG
1070
     1
1071
        5
1005
127372
  0
LINE
  5
127373
  8
OBJECT
 10
224.0
 20
-934.99999999999875
 30
0.0
 11
224.0
 21
-898.99999999999943
 31
0.0
1001
ACDBBLOCKREPETAG
1070
     1
1071
        6
1005
127373
  0
LINE
  5
127374
  8
OBJECT
 10
140.5
 20
-938.99999999999909
 30
0.0
 11
140.5
 21
-947.49999999999875
 31
0.0
1001
ACDBBLOCKREPETAG
1070
     1
1071
        7
1005
127374
  0
LINE
  5
127375
  8
OBJECT
 10
219.5
 20
-947.49999999999955
 30
0.0
 11
219.5
 21
-938.99999999999909
 31
0.0
1001
ACDBBLOCKREPETAG
1070
     1
1071
        8
1005
127375
  0
LINE
  5
127376
  8
OBJECT
 10
219.5
 20
-938.99999999999909
 30
0.0
 11
140.5
 21
-938.99999999999909
 31
0.0
1001
ACDBBLOCKREPETAG
1070
     1
1071
        9
1005
127376
  0
LINE
  5
127377
  8
OBJECT
 10
136.0
 20
-934.99999999999875
 30
0.0
 11
140.5
 21
-938.99999999999909
 31
0.0
1001
ACDBBLOCKREPETAG
1070
     1
1071
       10
1005
127377
  0
LINE
  5
127378
  8
OBJECT
 10
224.0
 20
-934.99999999999875
 30
0.0
 11
219.5
 21
-938.99999999999909
 31
0.0
1001
ACDBBLOCKREPETAG
1070
     1
1071
       11
1005
127378
  0
LINE
  5
127379
  8
OBJECT
 10
226.5
 20
-947.49999999999989
 30
0.0
 11
133.5
 21
-947.49999999999875
 31
0.0
1001
ACDBBLOCKREPETAG
1070
     1
1071
       12
1005
127379
  0
ARC
  5
12737A
  8
OBJECT
 10
133.5
 20
-950.49999999999829
 30
0.0
 40
3.0
 50
90.0
 51
180.0
1001
ACDBBLOCKREPETAG
1070
     1
1071
       13
1005
12737A
  0
LINE
  5
12737B
  8
OBJECT
 10
130.5
 20
-950.49999999999829
 30
0.0
 11
130.49999999999909
 21
-975.65508008702056
 31
0.0
1001
ACDBBLOCKREPETAG
1070
     1
1071
       15
1005
12737B
  0
LINE
  5
12737C
  8
OBJECT
 10
229.5
 20
-950.5
 30
0.0
 11
229.49999999999909
 21
-975.65508008701954
 31
0.0
1001
ACDBBLOCKREPETAG
1070
     1
1071
       16
1005
12737C
  0
ARC
  5
12737D
  8
OBJECT
 10
226.5
 20
-950.5
 30
0.0
 40
3.0
 50
0.0
 51
90.0
1001
ACDBBLOCKREPETAG
1070
     1
1071
       17
1005
12737D
  0
INSERT
  5
12737E
  8
SLIM
  2
*U5
 10
0.0
 20
0.0
 30
0.0
  0
LINE
  5
12737F
  8
HIDDEN
 10
150.0
 20
-943.99999999999875
 30
0.0
 11
210.0
 21
-943.99999999999875
 31
0.0
1001
ACDBBLOCKREPETAG
1070
     1
1071
       56
1005
12737F
  0
ARC
  5
127380
  8
OBJECT
 10
180.0
 20
-1031.9999999999991
 30
0.0
 40
50.0
 50
28.81994300016834
 51
318.52376955954998
1001
ACDBBLOCKREPETAG
1070
     1
1071
       49
1005
127380
  0
CIRCLE
  5
127381
  8
OBJECT
 10
180.0
 20
-1031.9999999999991
 30
0.0
 40
70.0
1001
ACDBBLOCKREPETAG
1070
     1
1071
       50
1005
127381
  0
CIRCLE
  5
127382
  8
OBJECT
 10
180.0
 20
-1031.9999999999991
 30
0.0
 40
75.0
1001
ACDBBLOCKREPETAG
1070
     1
1071
       51
1005
127382
  0
POINT
  5
127383
  8
DOTS
 10
180.0
 20
-1031.9999999999991
 30
0.0
1001
ACDBBLOCKREPETAG
1070
     1
1071
       63
1005
127383
  0
LINE
  5
127384
  8
OBJECT
 10
223.80694712371769
 20
-1007.897066906697
 30
0.0
 11
212.5546219999996
 21
-1011.340343000002
 31
0.0
1001
ACDBBLOCKREPETAG
1070
     1
1071
      141
1005
127384
  0
LINE
  5
127385
  8
OBJECT
 10
198.22553374207919
 20
-1045.2072500986239
 30
0.0
 11
212.55462199999599
 21
-1011.340343000002
 31
0.0
1001
ACDBBLOCKREPETAG
1070
     1
1071
      143
1005
127385
  0
ARC
  5
127386
  8
OBJECT
 10
207.4351299990594
 20
-1049.1038302380971
 30
0.0
 40
10.0
 50
157.06677829292309
 51
244.01473437026289
1001
ACDBBLOCKREPETAG
1070
     1
1071
      144
1005
127386
  0
ARC
  5
127387
  8
OBJECT
 10
205.5538625672925
 20
-1045.851160961872
 30
0.0
 40
7.0
 50
157.06677829292309
 51
244.01473377502219
1001
ACDBBLOCKREPETAG
1070
     1
1071
      145
1005
127387
  0
LINE
  5
127388
  8
OBJECT
 10
238.86769720860229
 20
-1069.876037614252
 30
0.0
 11
202.48688253356889
 21
-1052.143508176762
 31
0.0
1001
ACDBBLOCKREPETAG
1070
     1
1071
      154
1005
127388
  0
LINE
  5
127389
  8
OBJECT
 10
235.9167324445028
 20
-1074.110794729258
 30
0.0
 11
203.05373004431021
 21
-1058.09289773349
 31
0.0
1001
ACDBBLOCKREPETAG
1070
     1
1071
      155
1005
127389
  0
ARC
  5
12738A
  8
OBJECT
 10
184.75760589857131
 20
-1058.273755513954
 30
0.0
 40
63.739013211305632
 50
8.1694378253172513
 51
52.219052524698952
1001
ACDBBLOCKREPETAG
1070
     1
1071
      156
1005
12738A
  0
ARC
  5
12738B
  8
OBJECT
 10
12500.0
 20
-175.99999541468151
 30
0.0
 40
50.0
 50
298.81994300000417
 51
228.52376955964741
1001
ACDBBLOCKREPETAG
1070
     1
1071
      185
1005
12738B
  0
LINE
  5
12738C
  8
SLIM
 10
12427.30183005652
 20
-131.95483578426081
 30
0.0
 11
12455.954840369581
 21
-103.3018254712013
 31
0.0
1001
ACAD
1010
0.0
1020
0.0
1030
0.0
1001
ACDBBLOCKREPETAG
1070
     1
1071
      429
1005
12738C
  0
LINE
  5
12738D
  8
SLIM
 10
12419.486152070829
 20
-148.75076989101481
 30
0.0
 11
12428.8911593638
 21
-139.34576259805101
 31
0.0
1001
ACAD
1010
0.0
1020
0.0
1030
0.0
1001
ACDBBLOCKREPETAG
1070
     1
1071
      381
1005
12738D
  0
LINE
  5
12738E
  8
SLIM
 10
12463.345767183369
 20
-104.8911547784803
 30
0.0
 11
12472.75077447633
 21
-95.486147485516582
 31
0.0
1001
ACAD
1010
0.0
1020
0.0
1030
0.0
1001
ACDBBLOCKREPETAG
1070
     1
1071
      382
1005
12738E
  0
LINE
  5
12738F
  8
SLIM
 10
12416.35966799338
 20
-160.85751008954301
 30
0.0
 11
12423.0316308417
 21
-154.18554724121299
 31
0.0
1001
ACAD
1010
0.0
1020
0.0
1030
0.0
1001
ACDBBLOCKREPETAG
1070
     1
1071
      383
1005
12738F
  0
LINE
  5
127390
  8
SLIM
 10
12478.185551826529
 20
-99.031626256387483
 30
0.0
 11
12484.857514674861
 21
-92.359663408057429
 31
0.0
1001
ACAD
1010
0.0
1020
0.0
1030
0.0
1001
ACDBBLOCKREPETAG
1070
     1
1071
      384
1005
127390
  0
LINE
  5
127391
  8
SLIM
 10
12415.14405758905
 20
-171.05337661493741
 30
0.0
 11
12420.691234743779
 21
-165.50619946020811
 31
0.0
1001
ACAD
1010
0.0
1020
0.0
1030
0.0
1001
ACDBBLOCKREPETAG
1070
     1
1071
      385
1005
127391
  0
LINE
  5
127392
  8
SLIM
 10
12489.50620404553
 20
-96.69123015846148
 30
0.0
 11
12495.05338120026
 21
-91.144053003732253
 31
0.0
1001
ACAD
1010
0.0
1020
0.0
1030
0.0
1001
ACDBBLOCKREPETAG
1070
     1
1071
      386
1005
127392
  0
LINE
  5
127393
  8
SLIM
 10
12415.09796355746
 20
-180.07972676759269
 30
0.0
 11
12419.17769491037
 21
-175.99999541468151
 31
0.0
1001
ACAD
1010
0.0
1020
0.0
1030
0.0
1001
ACDBBLOCKREPETAG
1070
     1
1071
      387
1005
127393
  0
LINE
  5
127394
  8
SLIM
 10
12500.0
 20
-95.177690325059132
 30
0.0
 11
12504.0797313529
 21
-91.097958972153265
 31
0.0
1001
ACAD
1010
0.0
1020
0.0
1030
0.0
1001
ACDBBLOCKREPETAG
1070
     1
1071
      388
1005
127394
  0
LINE
  5
127395
  8
SLIM
 10
12419.17769491037
 20
-175.99999541468151
 30
0.0
 11
12420.00427028175
 21
-175.17342004330999
 31
0.0
1001
ACAD
1010
0.0
1020
0.0
1030
0.0
1001
ACDBBLOCKREPETAG
1070
     1
1071
      389
1005
127395
  0
LINE
  5
127396
  8
SLIM
 10
12499.173424628631
 20
-96.004265696428789
 30
0.0
 11
12500.0
 21
-95.177690325059146
 31
0.0
1001
ACAD
1010
0.0
1020
0.0
1030
0.0
1001
ACDBBLOCKREPETAG
1070
     1
1071
      390
1005
127396
  0
LINE
  5
127397
  8
SLIM
 10
12415.88997262086
 20
-188.2679738252624
 30
0.0
 11
12420.37908993235
 21
-183.77885651377261
 31
0.0
1001
ACAD
1010
0.0
1020
0.0
1030
0.0
1001
ACDBBLOCKREPETAG
1070
     1
1071
      391
1005
127397
  0
LINE
  5
127398
  8
SLIM
 10
12507.77886109909
 20
-96.379085347030724
 30
0.0
 11
12512.26797841058
 21
-91.889968035552343
 31
0.0
1001
ACAD
1010
0.0
1020
0.0
1030
0.0
1001
ACDBBLOCKREPETAG
1070
     1
1071
      392
1005
127398
  0
LINE
  5
127399
  8
SLIM
 10
12417.338265695151
 20
-195.7999368720495
 30
0.0
 11
12421.53614970347
 21
-191.6020528637238
 31
0.0
1001
ACAD
1010
0.0
1020
0.0
1030
0.0
1001
ACDBBLOCKREPETAG
1070
     1
1071
      393
1005
127399
  0
LINE
  5
12739A
  8
SLIM
 10
12515.60205744905
 20
-97.536145118149506
 30
0.0
 11
12519.799941457361
 21
-93.338261109834278
 31
0.0
1001
ACAD
1010
0.0
1020
0.0
1030
0.0
1001
ACDBBLOCKREPETAG
1070
     1
1071
      394
1005
12739A
  0
LINE
  5
12739B
  8
SLIM
 10
12419.331259406301
 20
-202.78719928196651
 30
0.0
 11
12423.317950993851
 21
-198.80050769441161
 31
0.0
1001
ACAD
1010
0.0
1020
0.0
1030
0.0
1001
ACDBBLOCKREPETAG
1070
     1
1071
      395
1005
12739B
  0
LINE
  5
12739C
  8
SLIM
 10
12522.800512279729
 20
-99.317946408531412
 30
0.0
 11
12526.787203867279
 21
-95.331254820986345
 31
0.0
1001
ACAD
1010
0.0
1020
0.0
1030
0.0
1001
ACDBBLOCKREPETAG
1070
     1
1071
      396
1005
12739C
  0
LINE
  5
12739D
  8
SLIM
 10
12421.795716318609
 20
-209.3029984907202
 30
0.0
 11
12425.62664068147
 21
-205.47207412786429
 31
0.0
1001
ACAD
1010
0.0
1020
0.0
1030
0.0
1001
ACDBBLOCKREPETAG
1070
     1
1071
      397
1005
12739D
  0
LINE
  5
12739E
  8
SLIM
 10
12529.47207871319
 20
-101.6266360961484
 30
0.0
 11
12533.303003076029
 21
-97.795711733301616
 31
0.0
1001
ACAD
1010
0.0
1020
0.0
1030
0.0
1001
ACDBBLOCKREPETAG
1070
     1
1071
      398
1005
12739E
  0
LINE
  5
12739F
  8
SLIM
 10
12424.681663531341
 20
-215.39730739906469
 30
0.0
 11
12428.397899414491
 21
-211.68107151591281
 31
0.0
1001
ACAD
1010
0.0
1020
0.0
1030
0.0
1001
ACDBBLOCKREPETAG
1070
     1
1071
      399
1005
12739F
  0
LINE
  5
1273A0
  8
SLIM
 10
12535.681076101229
 20
-104.3978948291695
 30
0.0
 11
12539.397311984379
 21
-100.6816589460261
 31
0.0
1001
ACAD
1010
0.0
1020
0.0
1030
0.0
1001
ACDBBLOCKREPETAG
1070
     1
1071
      400
1005
1273A0
  0
LINE
  5
1273A1
  8
SLIM
 10
12427.954461102419
 20
-221.1047659490537
 30
0.0
 11
12431.58829484775
 21
-217.47093220372389
 31
0.0
1001
ACAD
1010
0.0
1020
0.0
1030
0.0
1001
ACDBBLOCKREPETAG
1070
     1
1071
      401
1005
1273A1
  0
LINE
  5
1273A2
  8
SLIM
 10
12541.470936789039
 20
-107.588290262428
 30
0.0
 11
12545.104770534361
 21
-103.9544565171061
 31
0.0
1001
ACAD
1010
0.0
1020
0.0
1030
0.0
1001
ACDBBLOCKREPETAG
1070
     1
1071
      402
1005
1273A2
  0
LINE
  5
1273A3
  8
SLIM
 10
12431.59033196866
 20
-226.44915120388191
 30
0.0
 11
12435.16855767846
 21
-222.8709254940826
 31
0.0
1001
ACAD
1010
0.0
1020
0.0
1030
0.0
1001
ACDBBLOCKREPETAG
1070
     1
1071
      403
1005
1273A3
  0
LINE
  5
1273A4
  8
SLIM
 10
12546.8709300794
 20
-111.1685530931389
 30
0.0
 11
12550.449155789191
 21
-107.5903273833469
 31
0.0
1001
ACAD
1010
0.0
1020
0.0
1030
0.0
1001
ACDBBLOCKREPETAG
1070
     1
1071
      404
1005
1273A4
  0
LINE
  5
1273A5
  8
SLIM
 10
12435.573749692519
 20
-231.44598960108971
 30
0.0
 11
12439.119812975139
 21
-227.89992631846809
 31
0.0
1001
ACAD
1010
0.0
1020
0.0
1030
0.0
1001
ACDBBLOCKREPETAG
1070
     1
1071
      405
1005
1273A5
  0
LINE
  5
1273A6
  8
SLIM
 10
12553.019743878929
 20
-113.99999541468151
 30
0.0
 11
12555.445994186401
 21
-111.5737451072081
 31
0.0
1001
ACAD
1010
0.0
1020
0.0
1030
0.0
1001
ACDBBLOCKREPETAG
1070
     1
1071
      406
1005
1273A6
  0
LINE
  5
1273A7
  8
SLIM
 10
12439.895923599141
 20
-236.10407181554169
 30
0.0
 11
12443.431457505079
 21
-232.5685379096023
 31
0.0
1001
ACAD
1010
0.0
1020
0.0
1030
0.0
1001
ACDBBLOCKREPETAG
1070
     1
1071
      407
1005
1273A7
  0
LINE
  5
1273A8
  8
SLIM
 10
12444.55400581359
 20
-240.42624572215851
 30
0.0
 11
12448.10006909621
 21
-236.88018243953789
 31
0.0
1001
ACAD
1010
0.0
1020
0.0
1030
0.0
1001
ACDBBLOCKREPETAG
1070
     1
1071
      408
1005
1273A8
  0
LINE
  5
1273A9
  8
SLIM
 10
12449.5508442108
 20
-244.40966344601941
 30
0.0
 11
12453.1290699206
 21
-240.831437736222
 31
0.0
1001
ACAD
1010
0.0
1020
0.0
1030
0.0
1001
ACDBBLOCKREPETAG
1070
     1
1071
      409
1005
1273A9
  0
LINE
  5
1273AA
  8
SLIM
 10
12454.89522946563
 20
-248.04553431225989
 30
0.0
 11
12458.52906321095
 21
-244.41170056693321
 31
0.0
1001
ACAD
1010
0.0
1020
0.0
1030
0.0
1001
ACDBBLOCKREPETAG
1070
     1
1071
      410
1005
1273AA
  0
LINE
  5
1273AB
  8
SLIM
 10
12460.602688015621
 20
-251.3183318833396
 30
0.0
 11
12464.31892389876
 21
-247.60209600019189
 31
0.0
1001
ACAD
1010
0.0
1020
0.0
1030
0.0
1001
ACDBBLOCKREPETAG
1070
     1
1071
      411
1005
1273AB
  0
LINE
  5
1273AC
  8
SLIM
 10
12466.69699692396
 20
-254.2042790960638
 30
0.0
 11
12470.52792128681
 21
-250.3733547332132
 31
0.0
1001
ACAD
1010
0.0
1020
0.0
1030
0.0
1001
ACDBBLOCKREPETAG
1070
     1
1071
      412
1005
1273AC
  0
LINE
  5
1273AD
  8
SLIM
 10
12473.21279613271
 20
-256.66873600837869
 30
0.0
 11
12477.19948772026
 21
-252.68204442083049
 31
0.0
1001
ACAD
1010
0.0
1020
0.0
1030
0.0
1001
ACDBBLOCKREPETAG
1070
     1
1071
      413
1005
1273AD
  0
LINE
  5
1273AE
  8
SLIM
 10
12480.20005854263
 20
-258.66172971953029
 30
0.0
 11
12484.39794255095
 21
-254.4638457112128
 31
0.0
1001
ACAD
1010
0.0
1020
0.0
1030
0.0
1001
ACDBBLOCKREPETAG
1070
     1
1071
      414
1005
1273AE
  0
LINE
  5
1273AF
  8
SLIM
 10
12487.73202158942
 20
-260.11002279381171
 30
0.0
 11
12492.221138900901
 21
-255.62090548233189
 31
0.0
1001
ACAD
1010
0.0
1020
0.0
1030
0.0
1001
ACDBBLOCKREPETAG
1070
     1
1071
      415
1005
1273AF
  0
LINE
  5
1273B0
  8
SLIM
 10
12495.920268647091
 20
-260.90203185721009
 30
0.0
 11
12500.0
 21
-256.82230050430388
 31
0.0
1001
ACAD
1010
0.0
1020
0.0
1030
0.0
1001
ACDBBLOCKREPETAG
1070
     1
1071
      416
1005
1273B0
  0
LINE
  5
1273B1
  8
SLIM
 10
12500.0
 20
-256.82230050430388
 30
0.0
 11
12500.826575371369
 21
-255.99572513293049
 31
0.0
1001
ACAD
1010
0.0
1020
0.0
1030
0.0
1001
ACDBBLOCKREPETAG
1070
     1
1071
      417
1005
1273B1
  0
LINE
  5
1273B2
  8
SLIM
 10
12504.94661879974
 20
-260.85593782563058
 30
0.0
 11
12510.49379595447
 21
-255.3087606708975
 31
0.0
1001
ACAD
1010
0.0
1020
0.0
1030
0.0
1001
ACDBBLOCKREPETAG
1070
     1
1071
      418
1005
1273B2
  0
LINE
  5
1273B3
  8
SLIM
 10
12515.14248532513
 20
-259.64032742130519
 30
0.0
 11
12521.814448173471
 21
-252.9683645729709
 31
0.0
1001
ACAD
1010
0.0
1020
0.0
1030
0.0
1001
ACDBBLOCKREPETAG
1070
     1
1071
      419
1005
1273B3
  0
LINE
  5
1273B4
  8
SLIM
 10
12527.249225523659
 20
-256.51384334384568
 30
0.0
 11
12536.654232816631
 21
-247.10883605087631
 31
0.0
1001
ACAD
1010
0.0
1020
0.0
1030
0.0
1001
ACDBBLOCKREPETAG
1070
     1
1071
      420
1005
1273B4
  0
LINE
  5
1273B5
  8
SLIM
 10
12544.045159630419
 20
-248.6981653581594
 30
0.0
 11
12554.743329573899
 21
-237.99999541468151
 31
0.0
1001
ACAD
1010
0.0
1020
0.0
1030
0.0
1001
ACDBBLOCKREPETAG
1070
     1
1071
      421
1005
1273B5
  0
LINE
  5
1273B6
  8
CENTER
 10
12580.0
 20
-175.99999541468151
 30
0.0
 11
12400.0
 21
-175.99999541468151
 31
0.0
1001
ACDBBLOCKREPETAG
1070
     1
1071
      187
1005
1273B6
  0
LINE
  5
1273B7
  8
CENTER
 10
12500.0
 20
-275.99999541468162
 30
0.0
 11
12500.0
 21
-75.999995414681507
 31
0.0
1001
ACDBBLOCKREPETAG
1070
     1
1071
      188
1005
1273B7
  0
CIRCLE
  5
1273B8
  8
OBJECT
 10
12500.0
 20
-175.99999541468151
 30
0.0
 40
70.0
1001
ACDBBLOCKREPETAG
1070
     1
1071
      189
1005
1273B8
  0
CIRCLE
  5
1273B9
  8
OBJECT
 10
12500.0
 20
-175.99999541468151
 30
0.0
 40
77.0
1001
ACDBBLOCKREPETAG
1070
     1
1071
      190
1005
1273B9
  0
ARC
  5
1273BA
  8
OBJECT
 10
12500.0
 20
-175.99999541468151
 30
0.0
 40
80.0
 50
50.805032573897769
 51
309.19496742610232
1001
ACDBBLOCKREPETAG
1070
     1
1071
      191
1005
1273BA
  0
LINE
  5
1273BB
  8
OBJECT
 10
12545.661800227321
 20
-113.99999541468151
 30
0.0
 11
12580.0
 21
-113.99999541468151
 31
0.0
1001
ACDBBLOCKREPETAG
1070
     1
1071
      192
1005
1273BB
  0
LINE
  5
1273BC
  8
OBJECT
 10
12545.661800227321
 20
-237.99999541468151
 30
0.0
 11
12580.0
 21
-237.99999541468151
 31
0.0
1001
ACDBBLOCKREPETAG
1070
     1
1071
      193
1005
1273BC
  0
ARC
  5
1273BD
  8
OBJECT
 10
12500.0
 20
-175.99999541468151
 30
0.0
 40
85.0
 50
46.837102859853147
 51
313.16289714014681
1001
ACDBBLOCKREPETAG
1070
     1
1071
      202
1005
1273BD
  0
LINE
  5
1273BE
  8
OBJECT
 10
12524.1029330933
 20
-219.8069425383992
 30
0.0
 11
12520.659656999989
 21
-208.5546174146811
 31
0.0
1001
ACDBBLOCKREPETAG
1070
     1
1071
      321
1005
1273BE
  0
LINE
  5
1273BF
  8
OBJECT
 10
12486.79274990136
 20
-194.2255291567626
 30
0.0
 11
12520.659656999989
 21
-208.55461741467931
 31
0.0
1001
ACDBBLOCKREPETAG
1070
     1
1071
      323
1005
1273BF
  0
ARC
  5
1273C0
  8
OBJECT
 10
12482.8961697619
 20
-203.43512541373909
 30
0.0
 40
10.0
 50
67.066778292911366
 51
154.01473437031629
1001
ACDBBLOCKREPETAG
1070
     1
1071
      324
1005
1273C0
  0
ARC
  5
1273C1
  8
OBJECT
 10
12486.14883903812
 20
-201.55385798197401
 30
0.0
 40
7.0
 50
67.066778292911366
 51
154.0147337749826
1001
ACDBBLOCKREPETAG
1070
     1
1071
      325
1005
1273C1
  0
LINE
  5
1273C2
  8
OBJECT
 10
12469.4199755553
 20
-219.89888042286421
 30
0.0
 11
12479.856491823241
 21
-198.48687794825031
 31
0.0
1001
ACDBBLOCKREPETAG
1070
     1
1071
      353
1005
1273C2
  0
LINE
  5
1273C3
  8
OBJECT
 10
12465.29721690061
 20
-216.71813443350979
 30
0.0
 11
12473.90710226651
 21
-199.0537254589899
 31
0.0
1001
ACDBBLOCKREPETAG
1070
     1
1071
      354
1005
1273C3
  0
ARC
  5
1273C4
  8
OBJECT
 10
12476.57969530731
 20
-183.128932397526
 30
0.0
 40
60.031113246032611
 50
314.07020130422319
 51
322.33936106089681
1001
ACDBBLOCKREPETAG
1070
     1
1071
      355
1005
1273C4
  0
CIRCLE
  5
1273C5
  8
OBJECT
 10
12500.0
 20
-175.99999541468151
 30
0.0
 40
53.5
1001
ACDBBLOCKREPETAG
1070
     1
1071
      356
1005
1273C5
  0
POINT
  5
1273C6
  8
DOTS
 10
12500.0
 20
-175.99999541468151
 30
0.0
 50
270.0
1001
ACDBBLOCKREPETAG
1070
     1
1071
      365
1005
1273C6
  0
LINE
  5
1273C7
  8
OBJECT
 10
6524.1029330933043
 20
-219.8069425383992
 30
0.0
 11
6520.6596569999947
 21
-208.5546174146811
 31
0.0
1001
ACDBBLOCKREPETAG
1070
     1
1071
      300
1005
1273C7
  0
LINE
  5
1273C8
  8
OBJECT
 10
6486.7927499013749
 20
-194.2255291567626
 30
0.0
 11
6520.6596569999947
 21
-208.55461741467931
 31
0.0
1001
ACDBBLOCKREPETAG
1070
     1
1071
      302
1005
1273C8
  0
ARC
  5
1273C9
  8
OBJECT
 10
6482.8961697619015
 20
-203.43512541373909
 30
0.0
 40
10.0
 50
67.066778292911366
 51
154.0147343702935
1001
ACDBBLOCKREPETAG
1070
     1
1071
      303
1005
1273C9
  0
ARC
  5
1273CA
  8
OBJECT
 10
6486.1488390381273
 20
-201.55385798197401
 30
0.0
 40
7.0
 50
67.066778292911366
 51
154.0147337749826
1001
ACDBBLOCKREPETAG
1070
     1
1071
      304
1005
1273CA
  0
LINE
  5
1273CB
  8
OBJECT
 10
6469.4199755553009
 20
-219.89888042286421
 30
0.0
 11
6479.8564918232369
 21
-198.48687794825031
 31
0.0
1001
ACDBBLOCKREPETAG
1070
     1
1071
      341
1005
1273CB
  0
LINE
  5
1273CC
  8
OBJECT
 10
6465.2972169006089
 20
-216.71813443350979
 30
0.0
 11
6473.9071022665084
 21
-199.0537254589899
 31
0.0
1001
ACDBBLOCKREPETAG
1070
     1
1071
      342
1005
1273CC
  0
ARC
  5
1273CD
  8
OBJECT
 10
6476.5796953073141
 20
-183.128932397526
 30
0.0
 40
60.031113246032611
 50
314.07020130418567
 51
322.33936106089681
1001
ACDBBLOCKREPETAG
1070
     1
1071
      343
1005
1273CD
  0
CIRCLE
  5
1273CE
  8
OBJECT
 10
6500.0
 20
-175.99999541468151
 30
0.0
 40
53.5
1001
ACDBBLOCKREPETAG
1070
     1
1071
      344
1005
1273CE
  0
POINT
  5
1273CF
  8
DOTS
 10
6500.0
 20
-175.99999541468151
 30
0.0
 50
270.0
1001
ACDBBLOCKREPETAG
1070
     1
1071
      362
1005
1273CF
  0
ARC
  5
1273D0
  8
OBJECT
 10
6500.0
 20
-175.99999541468151
 30
0.0
 40
50.0
 50
298.81994300000417
 51
228.52376955965491
1001
ACDBBLOCKREPETAG
1070
     1
1071
        7
1005
1273D0
  0
LINE
  5
1273D1
  8
CENTER
 10
6580.0
 20
-175.99999541468151
 30
0.0
 11
6405.0
 21
-175.99999541468151
 31
0.0
1001
ACDBBLOCKREPETAG
1070
     1
1071
       14
1005
1273D1
  0
LINE
  5
1273D2
  8
CENTER
 10
6500.0
 20
-270.99999541468162
 30
0.0
 11
6500.0
 21
-80.999995414681507
 31
0.0
1001
ACDBBLOCKREPETAG
1070
     1
1071
       15
1005
1273D2
  0
CIRCLE
  5
1273D3
  8
OBJECT
 10
6500.0
 20
-175.99999541468151
 30
0.0
 40
70.0
1001
ACDBBLOCKREPETAG
1070
     1
1071
       16
1005
1273D3
  0
CIRCLE
  5
1273D4
  8
OBJECT
 10
6500.0
 20
-175.99999541468151
 30
0.0
 40
77.0
1001
ACDBBLOCKREPETAG
1070
     1
1071
       17
1005
1273D4
  0
ARC
  5
1273D5
  8
OBJECT
 10
6500.0
 20
-175.99999541468151
 30
0.0
 40
80.0
 50
50.80503257388439
 51
309.19496742611562
1001
ACDBBLOCKREPETAG
1070
     1
1071
       18
1005
1273D5
  0
LINE
  5
1273D6
  8
OBJECT
 10
6545.6618002273262
 20
-113.99999541468151
 30
0.0
 11
6580.0
 21
-113.99999541468151
 31
0.0
1001
ACDBBLOCKREPETAG
1070
     1
1071
       19
1005
1273D6
  0
LINE
  5
1273D7
  8
OBJECT
 10
6545.6618002273262
 20
-237.99999541468151
 30
0.0
 11
6580.0
 21
-237.99999541468151
 31
0.0
1001
ACDBBLOCKREPETAG
1070
     1
1071
       20
1005
1273D7
  0
LINE
  5
1273D8
  8
OBJECT
 10
12633.0
 20
-113.99999541468151
 30
0.0
 11
12640.0
 21
-113.99999541468151
 31
0.0
1001
ACDBBLOCKREPETAG
1070
     1
1071
       47
1005
1273D8
  0
LINE
  5
1273D9
  8
OBJECT
 10
12640.0
 20
-113.99999541468151
 30
0.0
 11
12640.0
 21
-237.99999541468151
 31
0.0
1001
ACDBBLOCKREPETAG
1070
     1
1071
       48
1005
1273D9
  0
LINE
  5
1273DA
  8
OBJECT
 10
12640.0
 20
-237.99999541468151
 30
0.0
 11
12633.0
 21
-237.99999541468151
 31
0.0
1001
ACDBBLOCKREPETAG
1070
     1
1071
       49
1005
1273DA
  0
LINE
  5
1273DB
  8
OBJECT
 10
12633.0
 20
-237.99999541468151
 30
0.0
 11
12633.0
 21
-113.99999541468151
 31
0.0
1001
ACDBBLOCKREPETAG
1070
     1
1071
       50
1005
1273DB
  0
LINE
  5
1273DC
  8
CENTER
 10
12655.0
 20
-175.99999541468151
 30
0.0
 11
12580.0
 21
-175.99999541468151
 31
0.0
1001
ACDBBLOCKREPETAG
1070
     1
1071
       51
1005
1273DC
  0
LINE
  5
1273DD
  8
OBJECT
 10
12633.0
 20
-116.99999541468151
 30
0.0
 11
12597.0
 21
-116.99999541468151
 31
0.0
1001
ACDBBLOCKREPETAG
1070
     1
1071
       52
1005
1273DD
  0
LINE
  5
1273DE
  8
OBJECT
 10
12597.0
 20
-116.99999541468151
 30
0.0
 11
12597.0
 21
-234.99999541468151
 31
0.0
1001
ACDBBLOCKREPETAG
1070
     1
1071
       53
1005
1273DE
  0
LINE
  5
1273DF
  8
OBJECT
 10
12597.0
 20
-234.99999541468151
 30
0.0
 11
12633.0
 21
-234.99999541468151
 31
0.0
1001
ACDBBLOCKREPETAG
1070
     1
1071
       54
1005
1273DF
  0
LINE
  5
1273E0
  8
OBJECT
 10
12593.0
 20
-121.49999541468151
 30
0.0
 11
12586.0
 21
-121.49999541468151
 31
0.0
1001
ACDBBLOCKREPETAG
1070
     1
1071
       55
1005
1273E0
  0
LINE
  5
1273E1
  8
OBJECT
 10
12586.0
 20
-230.49999541468151
 30
0.0
 11
12593.0
 21
-230.49999541468151
 31
0.0
1001
ACDBBLOCKREPETAG
1070
     1
1071
       56
1005
1273E1
  0
LINE
  5
1273E2
  8
OBJECT
 10
12593.0
 20
-230.49999541468151
 30
0.0
 11
12593.0
 21
-121.49999541468151
 31
0.0
1001
ACDBBLOCKREPETAG
1070
     1
1071
       57
1005
1273E2
  0
LINE
  5
1273E3
  8
OBJECT
 10
12597.0
 20
-116.99999541468151
 30
0.0
 11
12593.0
 21
-121.49999541468151
 31
0.0
1001
ACDBBLOCKREPETAG
1070
     1
1071
       58
1005
1273E3
  0
LINE
  5
1273E4
  8
OBJECT
 10
12597.0
 20
-234.99999541468151
 30
0.0
 11
12593.0
 21
-230.49999541468151
 31
0.0
1001
ACDBBLOCKREPETAG
1070
     1
1071
       59
1005
1273E4
  0
LINE
  5
1273E5
  8
OBJECT
 10
12583.0
 20
-113.99999541468151
 30
0.0
 11
12580.0
 21
-113.99999541468151
 31
0.0
1001
ACDBBLOCKREPETAG
1070
     1
1071
       60
1005
1273E5
  0
ARC
  5
1273E6
  8
OBJECT
 10
12583.0
 20
-116.99999541468151
 30
0.0
 40
3.0
 50
0.0
 51
90.0
1001
ACDBBLOCKREPETAG
1070
     1
1071
       61
1005
1273E6
  0
LINE
  5
1273E7
  8
OBJECT
 10
12580.0
 20
-237.99999541468151
 30
0.0
 11
12583.0
 21
-237.99999541468151
 31
0.0
1001
ACDBBLOCKREPETAG
1070
     1
1071
       62
1005
1273E7
  0
ARC
  5
1273E8
  8
OBJECT
 10
12583.0
 20
-234.99999541468151
 30
0.0
 40
3.0
 50
270.0
 51
0.0
1001
ACDBBLOCKREPETAG
1070
     1
1071
       63
1005
1273E8
  0
LINE
  5
1273E9
  8
OBJECT
 10
12586.0
 20
-234.99999541468151
 30
0.0
 11
12586.0
 21
-116.99999541468151
 31
0.0
1001
ACDBBLOCKREPETAG
1070
     1
1071
       64
1005
1273E9
  0
LINE
  5
1273EA
  8
HIDDEN
 10
12588.0
 20
-131.49999541468151
 30
0.0
 11
12588.0
 21
-220.49999541468151
 31
0.0
1001
ACDBBLOCKREPETAG
1070
     1
1071
       65
1005
1273EA
  0
LINE
  5
1273EB
  8
OBJECT
 10
6633.0
 20
-113.99999541468151
 30
0.0
 11
6640.0
 21
-113.99999541468151
 31
0.0
1001
ACDBBLOCKREPETAG
1070
     1
1071
       47
1005
1273EB
  0
LINE
  5
1273EC
  8
OBJECT
 10
6640.0
 20
-113.99999541468151
 30
0.0
 11
6640.0
 21
-237.99999541468151
 31
0.0
1001
ACDBBLOCKREPETAG
1070
     1
1071
       48
1005
1273EC
  0
LINE
  5
1273ED
  8
OBJECT
 10
6640.0
 20
-237.99999541468151
 30
0.0
 11
6633.0
 21
-237.99999541468151
 31
0.0
1001
ACDBBLOCKREPETAG
1070
     1
1071
       49
1005
1273ED
  0
LINE
  5
1273EE
  8
OBJECT
 10
6633.0
 20
-237.99999541468151
 30
0.0
 11
6633.0
 21
-113.99999541468151
 31
0.0
1001
ACDBBLOCKREPETAG
1070
     1
1071
       50
1005
1273EE
  0
LINE
  5
1273EF
  8
CENTER
 10
6655.0
 20
-175.99999541468151
 30
0.0
 11
6580.0
 21
-175.99999541468151
 31
0.0
1001
ACDBBLOCKREPETAG
1070
     1
1071
       51
1005
1273EF
  0
LINE
  5
1273F0
  8
OBJECT
 10
6633.0
 20
-116.99999541468151
 30
0.0
 11
6597.0
 21
-116.99999541468151
 31
0.0
1001
ACDBBLOCKREPETAG
1070
     1
1071
       52
1005
1273F0
  0
LINE
  5
1273F1
  8
OBJECT
 10
6597.0
 20
-116.99999541468151
 30
0.0
 11
6597.0
 21
-234.99999541468151
 31
0.0
1001
ACDBBLOCKREPETAG
1070
     1
1071
       53
1005
1273F1
  0
LINE
  5
1273F2
  8
OBJECT
 10
6597.0
 20
-234.99999541468151
 30
0.0
 11
6633.0
 21
-234.99999541468151
 31
0.0
1001
ACDBBLOCKREPETAG
1070
     1
1071
       54
1005
1273F2
  0
LINE
  5
1273F3
  8
OBJECT
 10
6593.0
 20
-121.49999541468151
 30
0.0
 11
6586.0
 21
-121.49999541468151
 31
0.0
1001
ACDBBLOCKREPETAG
1070
     1
1071
       55
1005
1273F3
  0
LINE
  5
1273F4
  8
OBJECT
 10
6586.0
 20
-230.49999541468151
 30
0.0
 11
6593.0
 21
-230.49999541468151
 31
0.0
1001
ACDBBLOCKREPETAG
1070
     1
1071
       56
1005
1273F4
  0
LINE
  5
1273F5
  8
OBJECT
 10
6593.0
 20
-230.49999541468151
 30
0.0
 11
6593.0
 21
-121.49999541468151
 31
0.0
1001
ACDBBLOCKREPETAG
1070
     1
1071
       57
1005
1273F5
  0
LINE
  5
1273F6
  8
OBJECT
 10
6597.0
 20
-116.99999541468151
 30
0.0
 11
6593.0
 21
-121.49999541468151
 31
0.0
1001
ACDBBLOCKREPETAG
1070
     1
1071
       58
1005
1273F6
  0
LINE
  5
1273F7
  8
OBJECT
 10
6597.0
 20
-234.99999541468151
 30
0.0
 11
6593.0
 21
-230.49999541468151
 31
0.0
1001
ACDBBLOCKREPETAG
1070
     1
1071
       59
1005
1273F7
  0
LINE
  5
1273F8
  8
OBJECT
 10
6583.0
 20
-113.99999541468151
 30
0.0
 11
6580.0
 21
-113.99999541468151
 31
0.0
1001
ACDBBLOCKREPETAG
1070
     1
1071
       60
1005
1273F8
  0
ARC
  5
1273F9
  8
OBJECT
 10
6583.0
 20
-116.99999541468151
 30
0.0
 40
3.0
 50
0.0
 51
90.0
1001
ACDBBLOCKREPETAG
1070
     1
1071
       61
1005
1273F9
  0
LINE
  5
1273FA
  8
OBJECT
 10
6580.0
 20
-237.99999541468151
 30
0.0
 11
6583.0
 21
-237.99999541468151
 31
0.0
1001
ACDBBLOCKREPETAG
1070
     1
1071
       62
1005
1273FA
  0
ARC
  5
1273FB
  8
OBJECT
 10
6583.0
 20
-234.99999541468151
 30
0.0
 40
3.0
 50
270.0
 51
0.0
1001
ACDBBLOCKREPETAG
1070
     1
1071
       63
1005
1273FB
  0
LINE
  5
1273FC
  8
OBJECT
 10
6586.0
 20
-234.99999541468151
 30
0.0
 11
6586.0
 21
-116.99999541468151
 31
0.0
1001
ACDBBLOCKREPETAG
1070
     1
1071
       64
1005
1273FC
  0
LINE
  5
1273FD
  8
HIDDEN
 10
6588.0
 20
-131.49999541468151
 30
0.0
 11
6588.0
 21
-220.49999541468151
 31
0.0
1001
ACDBBLOCKREPETAG
1070
     1
1071
       65
1005
1273FD
  0
ARC
  5
1273FE
  8
OBJECT
 10
10500.0
 20
-175.99999541468151
 30
0.0
 40
50.0
 50
298.81994300000417
 51
228.52376955964741
1001
ACDBBLOCKREPETAG
1070
     1
1071
      185
1005
1273FE
  0
LINE
  5
1273FF
  8
SLIM
 10
10427.30183005652
 20
-131.95483578426081
 30
0.0
 11
10455.954840369581
 21
-103.3018254712013
 31
0.0
1001
ACAD
1010
0.0
1020
0.0
1030
0.0
1001
ACDBBLOCKREPETAG
1070
     1
1071
      429
1005
1273FF
  0
LINE
  5
127400
  8
SLIM
 10
10419.48615207082
 20
-148.75076989101481
 30
0.0
 11
10428.8911593638
 21
-139.34576259805101
 31
0.0
1001
ACAD
1010
0.0
1020
0.0
1030
0.0
1001
ACDBBLOCKREPETAG
1070
     1
1071
      381
1005
127400
  0
LINE
  5
127401
  8
SLIM
 10
10463.34576718336
 20
-104.8911547784803
 30
0.0
 11
10472.75077447633
 21
-95.486147485516582
 31
0.0
1001
ACAD
1010
0.0
1020
0.0
1030
0.0
1001
ACDBBLOCKREPETAG
1070
     1
1071
      382
1005
127401
  0
LINE
  5
127402
  8
SLIM
 10
10416.35966799338
 20
-160.85751008954301
 30
0.0
 11
10423.03163084171
 21
-154.18554724121299
 31
0.0
1001
ACAD
1010
0.0
1020
0.0
1030
0.0
1001
ACDBBLOCKREPETAG
1070
     1
1071
      383
1005
127402
  0
LINE
  5
127403
  8
SLIM
 10
10478.185551826529
 20
-99.031626256387483
 30
0.0
 11
10484.857514674861
 21
-92.359663408057429
 31
0.0
1001
ACAD
1010
0.0
1020
0.0
1030
0.0
1001
ACDBBLOCKREPETAG
1070
     1
1071
      384
1005
127403
  0
LINE
  5
127404
  8
SLIM
 10
10415.14405758905
 20
-171.05337661493741
 30
0.0
 11
10420.691234743779
 21
-165.50619946020811
 31
0.0
1001
ACAD
1010
0.0
1020
0.0
1030
0.0
1001
ACDBBLOCKREPETAG
1070
     1
1071
      385
1005
127404
  0
LINE
  5
127405
  8
SLIM
 10
10489.50620404553
 20
-96.69123015846148
 30
0.0
 11
10495.05338120026
 21
-91.144053003732253
 31
0.0
1001
ACAD
1010
0.0
1020
0.0
1030
0.0
1001
ACDBBLOCKREPETAG
1070
     1
1071
      386
1005
127405
  0
LINE
  5
127406
  8
SLIM
 10
10415.09796355746
 20
-180.07972676759269
 30
0.0
 11
10419.17769491037
 21
-175.99999541468151
 31
0.0
1001
ACAD
1010
0.0
1020
0.0
1030
0.0
1001
ACDBBLOCKREPETAG
1070
     1
1071
      387
1005
127406
  0
LINE
  5
127407
  8
SLIM
 10
10500.0
 20
-95.177690325059132
 30
0.0
 11
10504.0797313529
 21
-91.097958972153265
 31
0.0
1001
ACAD
1010
0.0
1020
0.0
1030
0.0
1001
ACDBBLOCKREPETAG
1070
     1
1071
      388
1005
127407
  0
LINE
  5
127408
  8
SLIM
 10
10419.17769491037
 20
-175.99999541468151
 30
0.0
 11
10420.00427028175
 21
-175.17342004330999
 31
0.0
1001
ACAD
1010
0.0
1020
0.0
1030
0.0
1001
ACDBBLOCKREPETAG
1070
     1
1071
      389
1005
127408
  0
LINE
  5
127409
  8
SLIM
 10
10499.173424628631
 20
-96.004265696428789
 30
0.0
 11
10500.0
 21
-95.177690325059146
 31
0.0
1001
ACAD
1010
0.0
1020
0.0
1030
0.0
1001
ACDBBLOCKREPETAG
1070
     1
1071
      390
1005
127409
  0
LINE
  5
12740A
  8
SLIM
 10
10415.88997262086
 20
-188.2679738252624
 30
0.0
 11
10420.37908993235
 21
-183.77885651377261
 31
0.0
1001
ACAD
1010
0.0
1020
0.0
1030
0.0
1001
ACDBBLOCKREPETAG
1070
     1
1071
      391
1005
12740A
  0
LINE
  5
12740B
  8
SLIM
 10
10507.77886109909
 20
-96.379085347030724
 30
0.0
 11
10512.26797841056
 21
-91.889968035552343
 31
0.0
1001
ACAD
1010
0.0
1020
0.0
1030
0.0
1001
ACDBBLOCKREPETAG
1070
     1
1071
      392
1005
12740B
  0
LINE
  5
12740C
  8
SLIM
 10
10417.338265695151
 20
-195.7999368720495
 30
0.0
 11
10421.53614970347
 21
-191.6020528637238
 31
0.0
1001
ACAD
1010
0.0
1020
0.0
1030
0.0
1001
ACDBBLOCKREPETAG
1070
     1
1071
      393
1005
12740C
  0
LINE
  5
12740D
  8
SLIM
 10
10515.60205744905
 20
-97.536145118149506
 30
0.0
 11
10519.799941457361
 21
-93.338261109834278
 31
0.0
1001
ACAD
1010
0.0
1020
0.0
1030
0.0
1001
ACDBBLOCKREPETAG
1070
     1
1071
      394
1005
12740D
  0
LINE
  5
12740E
  8
SLIM
 10
10419.331259406301
 20
-202.78719928196651
 30
0.0
 11
10423.317950993851
 21
-198.80050769441161
 31
0.0
1001
ACAD
1010
0.0
1020
0.0
1030
0.0
1001
ACDBBLOCKREPETAG
1070
     1
1071
      395
1005
12740E
  0
LINE
  5
12740F
  8
SLIM
 10
10522.800512279729
 20
-99.317946408531412
 30
0.0
 11
10526.787203867279
 21
-95.331254820986345
 31
0.0
1001
ACAD
1010
0.0
1020
0.0
1030
0.0
1001
ACDBBLOCKREPETAG
1070
     1
1071
      396
1005
12740F
  0
LINE
  5
127410
  8
SLIM
 10
10421.795716318609
 20
-209.3029984907202
 30
0.0
 11
10425.62664068147
 21
-205.47207412786429
 31
0.0
1001
ACAD
1010
0.0
1020
0.0
1030
0.0
1001
ACDBBLOCKREPETAG
1070
     1
1071
      397
1005
127410
  0
LINE
  5
127411
  8
SLIM
 10
10529.47207871319
 20
-101.6266360961484
 30
0.0
 11
10533.303003076029
 21
-97.795711733301616
 31
0.0
1001
ACAD
1010
0.0
1020
0.0
1030
0.0
1001
ACDBBLOCKREPETAG
1070
     1
1071
      398
1005
127411
  0
LINE
  5
127412
  8
SLIM
 10
10424.681663531341
 20
-215.39730739906469
 30
0.0
 11
10428.397899414491
 21
-211.68107151591281
 31
0.0
1001
ACAD
1010
0.0
1020
0.0
1030
0.0
1001
ACDBBLOCKREPETAG
1070
     1
1071
      399
1005
127412
  0
LINE
  5
127413
  8
SLIM
 10
10535.681076101229
 20
-104.3978948291695
 30
0.0
 11
10539.397311984379
 21
-100.6816589460261
 31
0.0
1001
ACAD
1010
0.0
1020
0.0
1030
0.0
1001
ACDBBLOCKREPETAG
1070
     1
1071
      400
1005
127413
  0
LINE
  5
127414
  8
SLIM
 10
10427.954461102419
 20
-221.1047659490537
 30
0.0
 11
10431.58829484775
 21
-217.47093220372389
 31
0.0
1001
ACAD
1010
0.0
1020
0.0
1030
0.0
1001
ACDBBLOCKREPETAG
1070
     1
1071
      401
1005
127414
  0
LINE
  5
127415
  8
SLIM
 10
10541.470936789039
 20
-107.588290262428
 30
0.0
 11
10545.10477053437
 21
-103.9544565171061
 31
0.0
1001
ACAD
1010
0.0
1020
0.0
1030
0.0
1001
ACDBBLOCKREPETAG
1070
     1
1071
      402
1005
127415
  0
LINE
  5
127416
  8
SLIM
 10
10431.59033196866
 20
-226.44915120388191
 30
0.0
 11
10435.16855767846
 21
-222.8709254940826
 31
0.0
1001
ACAD
1010
0.0
1020
0.0
1030
0.0
1001
ACDBBLOCKREPETAG
1070
     1
1071
      403
1005
127416
  0
LINE
  5
127417
  8
SLIM
 10
10546.8709300794
 20
-111.1685530931389
 30
0.0
 11
10550.449155789191
 21
-107.5903273833469
 31
0.0
1001
ACAD
1010
0.0
1020
0.0
1030
0.0
1001
ACDBBLOCKREPETAG
1070
     1
1071
      404
1005
127417
  0
LINE
  5
127418
  8
SLIM
 10
10435.573749692519
 20
-231.44598960108971
 30
0.0
 11
10439.119812975139
 21
-227.89992631846809
 31
0.0
1001
ACAD
1010
0.0
1020
0.0
1030
0.0
1001
ACDBBLOCKREPETAG
1070
     1
1071
      405
1005
127418
  0
LINE
  5
127419
  8
SLIM
 10
10553.019743878929
 20
-113.99999541468151
 30
0.0
 11
10555.445994186401
 21
-111.5737451072081
 31
0.0
1001
ACAD
1010
0.0
1020
0.0
1030
0.0
1001
ACDBBLOCKREPETAG
1070
     1
1071
      406
1005
127419
  0
LINE
  5
12741A
  8
SLIM
 10
10439.895923599141
 20
-236.10407181554169
 30
0.0
 11
10443.431457505079
 21
-232.5685379096023
 31
0.0
1001
ACAD
1010
0.0
1020
0.0
1030
0.0
1001
ACDBBLOCKREPETAG
1070
     1
1071
      407
1005
12741A
  0
LINE
  5
12741B
  8
SLIM
 10
10444.55400581359
 20
-240.42624572215851
 30
0.0
 11
10448.10006909621
 21
-236.88018243953789
 31
0.0
1001
ACAD
1010
0.0
1020
0.0
1030
0.0
1001
ACDBBLOCKREPETAG
1070
     1
1071
      408
1005
12741B
  0
LINE
  5
12741C
  8
SLIM
 10
10449.5508442108
 20
-244.40966344601941
 30
0.0
 11
10453.1290699206
 21
-240.831437736222
 31
0.0
1001
ACAD
1010
0.0
1020
0.0
1030
0.0
1001
ACDBBLOCKREPETAG
1070
     1
1071
      409
1005
12741C
  0
LINE
  5
12741D
  8
SLIM
 10
10454.89522946563
 20
-248.04553431225989
 30
0.0
 11
10458.52906321095
 21
-244.41170056693321
 31
0.0
1001
ACAD
1010
0.0
1020
0.0
1030
0.0
1001
ACDBBLOCKREPETAG
1070
     1
1071
      410
1005
12741D
  0
LINE
  5
12741E
  8
SLIM
 10
10460.602688015621
 20
-251.3183318833396
 30
0.0
 11
10464.31892389876
 21
-247.60209600019189
 31
0.0
1001
ACAD
1010
0.0
1020
0.0
1030
0.0
1001
ACDBBLOCKREPETAG
1070
     1
1071
      411
1005
12741E
  0
LINE
  5
12741F
  8
SLIM
 10
10466.69699692396
 20
-254.2042790960638
 30
0.0
 11
10470.52792128681
 21
-250.3733547332132
 31
0.0
1001
ACAD
1010
0.0
1020
0.0
1030
0.0
1001
ACDBBLOCKREPETAG
1070
     1
1071
      412
1005
12741F
  0
LINE
  5
127420
  8
SLIM
 10
10473.212796132721
 20
-256.66873600837869
 30
0.0
 11
10477.19948772026
 21
-252.68204442083049
 31
0.0
1001
ACAD
1010
0.0
1020
0.0
1030
0.0
1001
ACDBBLOCKREPETAG
1070
     1
1071
      413
1005
127420
  0
LINE
  5
127421
  8
SLIM
 10
10480.20005854263
 20
-258.66172971953029
 30
0.0
 11
10484.39794255095
 21
-254.4638457112128
 31
0.0
1001
ACAD
1010
0.0
1020
0.0
1030
0.0
1001
ACDBBLOCKREPETAG
1070
     1
1071
      414
1005
127421
  0
LINE
  5
127422
  8
SLIM
 10
10487.73202158942
 20
-260.11002279381171
 30
0.0
 11
10492.221138900901
 21
-255.62090548233189
 31
0.0
1001
ACAD
1010
0.0
1020
0.0
1030
0.0
1001
ACDBBLOCKREPETAG
1070
     1
1071
      415
1005
127422
  0
LINE
  5
127423
  8
SLIM
 10
10495.920268647091
 20
-260.90203185721009
 30
0.0
 11
10500.0
 21
-256.82230050430388
 31
0.0
1001
ACAD
1010
0.0
1020
0.0
1030
0.0
1001
ACDBBLOCKREPETAG
1070
     1
1071
      416
1005
127423
  0
LINE
  5
127424
  8
SLIM
 10
10500.0
 20
-256.82230050430388
 30
0.0
 11
10500.826575371369
 21
-255.99572513293049
 31
0.0
1001
ACAD
1010
0.0
1020
0.0
1030
0.0
1001
ACDBBLOCKREPETAG
1070
     1
1071
      417
1005
127424
  0
LINE
  5
127425
  8
SLIM
 10
10504.94661879974
 20
-260.85593782563058
 30
0.0
 11
10510.49379595447
 21
-255.3087606708975
 31
0.0
1001
ACAD
1010
0.0
1020
0.0
1030
0.0
1001
ACDBBLOCKREPETAG
1070
     1
1071
      418
1005
127425
  0
LINE
  5
127426
  8
SLIM
 10
10515.14248532513
 20
-259.64032742130519
 30
0.0
 11
10521.814448173471
 21
-252.9683645729709
 31
0.0
1001
ACAD
1010
0.0
1020
0.0
1030
0.0
1001
ACDBBLOCKREPETAG
1070
     1
1071
      419
1005
127426
  0
LINE
  5
127427
  8
SLIM
 10
10527.249225523659
 20
-256.51384334384568
 30
0.0
 11
10536.654232816631
 21
-247.10883605087631
 31
0.0
1001
ACAD
1010
0.0
1020
0.0
1030
0.0
1001
ACDBBLOCKREPETAG
1070
     1
1071
      420
1005
127427
  0
LINE
  5
127428
  8
SLIM
 10
10544.045159630419
 20
-248.6981653581594
 30
0.0
 11
10554.743329573899
 21
-237.99999541468151
 31
0.0
1001
ACAD
1010
0.0
1020
0.0
1030
0.0
1001
ACDBBLOCKREPETAG
1070
     1
1071
      421
1005
127428
  0
LINE
  5
127429
  8
CENTER
 10
10580.0
 20
-175.99999541468151
 30
0.0
 11
10400.0
 21
-175.99999541468151
 31
0.0
1001
ACDBBLOCKREPETAG
1070
     1
1071
      187
1005
127429
  0
LINE
  5
12742A
  8
CENTER
 10
10500.0
 20
-275.99999541468162
 30
0.0
 11
10500.0
 21
-75.999995414681507
 31
0.0
1001
ACDBBLOCKREPETAG
1070
     1
1071
      188
1005
12742A
  0
CIRCLE
  5
12742B
  8
OBJECT
 10
10500.0
 20
-175.99999541468151
 30
0.0
 40
70.0
1001
ACDBBLOCKREPETAG
1070
     1
1071
      189
1005
12742B
  0
CIRCLE
  5
12742C
  8
OBJECT
 10
10500.0
 20
-175.99999541468151
 30
0.0
 40
77.0
1001
ACDBBLOCKREPETAG
1070
     1
1071
      190
1005
12742C
  0
ARC
  5
12742D
  8
OBJECT
 10
10500.0
 20
-175.99999541468151
 30
0.0
 40
80.0
 50
50.805032573897769
 51
309.19496742610232
1001
ACDBBLOCKREPETAG
1070
     1
1071
      191
1005
12742D
  0
LINE
  5
12742E
  8
OBJECT
 10
10545.661800227321
 20
-113.99999541468151
 30
0.0
 11
10580.0
 21
-113.99999541468151
 31
0.0
1001
ACDBBLOCKREPETAG
1070
     1
1071
      192
1005
12742E
  0
LINE
  5
12742F
  8
OBJECT
 10
10545.661800227321
 20
-237.99999541468151
 30
0.0
 11
10580.0
 21
-237.99999541468151
 31
0.0
1001
ACDBBLOCKREPETAG
1070
     1
1071
      193
1005
12742F
  0
ARC
  5
127430
  8
OBJECT
 10
10500.0
 20
-175.99999541468151
 30
0.0
 40
85.0
 50
46.837102859853147
 51
313.16289714014681
1001
ACDBBLOCKREPETAG
1070
     1
1071
      202
1005
127430
  0
LINE
  5
127431
  8
OBJECT
 10
10524.1029330933
 20
-219.8069425383992
 30
0.0
 11
10520.659656999989
 21
-208.5546174146811
 31
0.0
1001
ACDBBLOCKREPETAG
1070
     1
1071
      321
1005
127431
  0
LINE
  5
127432
  8
OBJECT
 10
10486.792749901369
 20
-194.2255291567626
 30
0.0
 11
10520.659656999989
 21
-208.55461741467931
 31
0.0
1001
ACDBBLOCKREPETAG
1070
     1
1071
      323
1005
127432
  0
ARC
  5
127433
  8
OBJECT
 10
10482.8961697619
 20
-203.43512541373909
 30
0.0
 40
10.0
 50
67.066778292911366
 51
154.01473437031629
1001
ACDBBLOCKREPETAG
1070
     1
1071
      324
1005
127433
  0
ARC
  5
127434
  8
OBJECT
 10
10486.14883903812
 20
-201.55385798197401
 30
0.0
 40
7.0
 50
67.066778292911366
 51
154.0147337749826
1001
ACDBBLOCKREPETAG
1070
     1
1071
      325
1005
127434
  0
LINE
  5
127435
  8
OBJECT
 10
10469.4199755553
 20
-219.89888042286421
 30
0.0
 11
10479.856491823241
 21
-198.48687794825031
 31
0.0
1001
ACDBBLOCKREPETAG
1070
     1
1071
      353
1005
127435
  0
LINE
  5
127436
  8
OBJECT
 10
10465.29721690061
 20
-216.71813443350979
 30
0.0
 11
10473.90710226651
 21
-199.0537254589899
 31
0.0
1001
ACDBBLOCKREPETAG
1070
     1
1071
      354
1005
127436
  0
ARC
  5
127437
  8
OBJECT
 10
10476.57969530731
 20
-183.128932397526
 30
0.0
 40
60.031113246032611
 50
314.07020130422319
 51
322.33936106089681
1001
ACDBBLOCKREPETAG
1070
     1
1071
      355
1005
127437
  0
CIRCLE
  5
127438
  8
OBJECT
 10
10500.0
 20
-175.99999541468151
 30
0.0
 40
53.5
1001
ACDBBLOCKREPETAG
1070
     1
1071
      356
1005
127438
  0
POINT
  5
127439
  8
DOTS
 10
10500.0
 20
-175.99999541468151
 30
0.0
 50
270.0
1001
ACDBBLOCKREPETAG
1070
     1
1071
      365
1005
127439
  0
LINE
  5
12743A
  8
OBJECT
 10
4524.1029330933043
 20
-219.8069425383992
 30
0.0
 11
4520.6596569999938
 21
-208.5546174146811
 31
0.0
1001
ACDBBLOCKREPETAG
1070
     1
1071
      300
1005
12743A
  0
LINE
  5
12743B
  8
OBJECT
 10
4486.7927499013749
 20
-194.2255291567626
 30
0.0
 11
4520.6596569999938
 21
-208.55461741467931
 31
0.0
1001
ACDBBLOCKREPETAG
1070
     1
1071
      302
1005
12743B
  0
ARC
  5
12743C
  8
OBJECT
 10
4482.8961697619006
 20
-203.43512541373909
 30
0.0
 40
10.0
 50
67.066778292911366
 51
154.0147343702935
1001
ACDBBLOCKREPETAG
1070
     1
1071
      303
1005
12743C
  0
ARC
  5
12743D
  8
OBJECT
 10
4486.1488390381273
 20
-201.55385798197401
 30
0.0
 40
7.0
 50
67.066778292911366
 51
154.0147337749826
1001
ACDBBLOCKREPETAG
1070
     1
1071
      304
1005
12743D
  0
LINE
  5
12743E
  8
OBJECT
 10
4469.4199755553018
 20
-219.89888042286421
 30
0.0
 11
4479.8564918232369
 21
-198.48687794825031
 31
0.0
1001
ACDBBLOCKREPETAG
1070
     1
1071
      341
1005
12743E
  0
LINE
  5
12743F
  8
OBJECT
 10
4465.2972169006089
 20
-216.71813443350979
 30
0.0
 11
4473.9071022665084
 21
-199.0537254589899
 31
0.0
1001
ACDBBLOCKREPETAG
1070
     1
1071
      342
1005
12743F
  0
ARC
  5
127440
  8
OBJECT
 10
4476.5796953073141
 20
-183.128932397526
 30
0.0
 40
60.031113246032611
 50
314.07020130418567
 51
322.33936106089681
1001
ACDBBLOCKREPETAG
1070
     1
1071
      343
1005
127440
  0
CIRCLE
  5
127441
  8
OBJECT
 10
4500.0
 20
-175.99999541468151
 30
0.0
 40
53.5
1001
ACDBBLOCKREPETAG
1070
     1
1071
      344
1005
127441
  0
POINT
  5
127442
  8
DOTS
 10
4500.0
 20
-175.99999541468151
 30
0.0
 50
270.0
1001
ACDBBLOCKREPETAG
1070
     1
1071
      362
1005
127442
  0
ARC
  5
127443
  8
OBJECT
 10
4500.0
 20
-175.99999541468151
 30
0.0
 40
50.0
 50
298.81994300000417
 51
228.52376955965491
1001
ACDBBLOCKREPETAG
1070
     1
1071
        7
1005
127443
  0
LINE
  5
127444
  8
CENTER
 10
4580.0
 20
-175.99999541468151
 30
0.0
 11
4405.0
 21
-175.99999541468151
 31
0.0
1001
ACDBBLOCKREPETAG
1070
     1
1071
       14
1005
127444
  0
LINE
  5
127445
  8
CENTER
 10
4500.0
 20
-270.99999541468162
 30
0.0
 11
4500.0
 21
-80.999995414681507
 31
0.0
1001
ACDBBLOCKREPETAG
1070
     1
1071
       15
1005
127445
  0
CIRCLE
  5
127446
  8
OBJECT
 10
4500.0
 20
-175.99999541468151
 30
0.0
 40
70.0
1001
ACDBBLOCKREPETAG
1070
     1
1071
       16
1005
127446
  0
CIRCLE
  5
127447
  8
OBJECT
 10
4500.0
 20
-175.99999541468151
 30
0.0
 40
77.0
1001
ACDBBLOCKREPETAG
1070
     1
1071
       17
1005
127447
  0
ARC
  5
127448
  8
OBJECT
 10
4500.0
 20
-175.99999541468151
 30
0.0
 40
80.0
 50
50.80503257388439
 51
309.19496742611562
1001
ACDBBLOCKREPETAG
1070
     1
1071
       18
1005
127448
  0
LINE
  5
127449
  8
OBJECT
 10
4545.6618002273244
 20
-113.99999541468151
 30
0.0
 11
4580.0
 21
-113.99999541468151
 31
0.0
1001
ACDBBLOCKREPETAG
1070
     1
1071
       19
1005
127449
  0
LINE
  5
12744A
  8
OBJECT
 10
4545.6618002273244
 20
-237.99999541468151
 30
0.0
 11
4580.0
 21
-237.99999541468151
 31
0.0
1001
ACDBBLOCKREPETAG
1070
     1
1071
       20
1005
12744A
  0
LINE
  5
12744B
  8
OBJECT
 10
10633.0
 20
-113.99999541468151
 30
0.0
 11
10640.0
 21
-113.99999541468151
 31
0.0
1001
ACDBBLOCKREPETAG
1070
     1
1071
       47
1005
12744B
  0
LINE
  5
12744C
  8
OBJECT
 10
10640.0
 20
-113.99999541468151
 30
0.0
 11
10640.0
 21
-237.99999541468151
 31
0.0
1001
ACDBBLOCKREPETAG
1070
     1
1071
       48
1005
12744C
  0
LINE
  5
12744D
  8
OBJECT
 10
10640.0
 20
-237.99999541468151
 30
0.0
 11
10633.0
 21
-237.99999541468151
 31
0.0
1001
ACDBBLOCKREPETAG
1070
     1
1071
       49
1005
12744D
  0
LINE
  5
12744E
  8
OBJECT
 10
10633.0
 20
-237.99999541468151
 30
0.0
 11
10633.0
 21
-113.99999541468151
 31
0.0
1001
ACDBBLOCKREPETAG
1070
     1
1071
       50
1005
12744E
  0
LINE
  5
12744F
  8
CENTER
 10
10655.0
 20
-175.99999541468151
 30
0.0
 11
10580.0
 21
-175.99999541468151
 31
0.0
1001
ACDBBLOCKREPETAG
1070
     1
1071
       51
1005
12744F
  0
LINE
  5
127450
  8
OBJECT
 10
10633.0
 20
-116.99999541468151
 30
0.0
 11
10597.0
 21
-116.99999541468151
 31
0.0
1001
ACDBBLOCKREPETAG
1070
     1
1071
       52
1005
127450
  0
LINE
  5
127451
  8
OBJECT
 10
10597.0
 20
-116.99999541468151
 30
0.0
 11
10597.0
 21
-234.99999541468151
 31
0.0
1001
ACDBBLOCKREPETAG
1070
     1
1071
       53
1005
127451
  0
LINE
  5
127452
  8
OBJECT
 10
10597.0
 20
-234.99999541468151
 30
0.0
 11
10633.0
 21
-234.99999541468151
 31
0.0
1001
ACDBBLOCKREPETAG
1070
     1
1071
       54
1005
127452
  0
LINE
  5
127453
  8
OBJECT
 10
10593.0
 20
-121.49999541468151
 30
0.0
 11
10586.0
 21
-121.49999541468151
 31
0.0
1001
ACDBBLOCKREPETAG
1070
     1
1071
       55
1005
127453
  0
LINE
  5
127454
  8
OBJECT
 10
10586.0
 20
-230.49999541468151
 30
0.0
 11
10593.0
 21
-230.49999541468151
 31
0.0
1001
ACDBBLOCKREPETAG
1070
     1
1071
       56
1005
127454
  0
LINE
  5
127455
  8
OBJECT
 10
10593.0
 20
-230.49999541468151
 30
0.0
 11
10593.0
 21
-121.49999541468151
 31
0.0
1001
ACDBBLOCKREPETAG
1070
     1
1071
       57
1005
127455
  0
LINE
  5
127456
  8
OBJECT
 10
10597.0
 20
-116.99999541468151
 30
0.0
 11
10593.0
 21
-121.49999541468151
 31
0.0
1001
ACDBBLOCKREPETAG
1070
     1
1071
       58
1005
127456
  0
LINE
  5
127457
  8
OBJECT
 10
10597.0
 20
-234.99999541468151
 30
0.0
 11
10593.0
 21
-230.49999541468151
 31
0.0
1001
ACDBBLOCKREPETAG
1070
     1
1071
       59
1005
127457
  0
LINE
  5
127458
  8
OBJECT
 10
10583.0
 20
-113.99999541468151
 30
0.0
 11
10580.0
 21
-113.99999541468151
 31
0.0
1001
ACDBBLOCKREPETAG
1070
     1
1071
       60
1005
127458
  0
ARC
  5
127459
  8
OBJECT
 10
10583.0
 20
-116.99999541468151
 30
0.0
 40
3.0
 50
0.0
 51
90.0
1001
ACDBBLOCKREPETAG
1070
     1
1071
       61
1005
127459
  0
LINE
  5
12745A
  8
OBJECT
 10
10580.0
 20
-237.99999541468151
 30
0.0
 11
10583.0
 21
-237.99999541468151
 31
0.0
1001
ACDBBLOCKREPETAG
1070
     1
1071
       62
1005
12745A
  0
ARC
  5
12745B
  8
OBJECT
 10
10583.0
 20
-234.99999541468151
 30
0.0
 40
3.0
 50
270.0
 51
0.0
1001
ACDBBLOCKREPETAG
1070
     1
1071
       63
1005
12745B
  0
LINE
  5
12745C
  8
OBJECT
 10
10586.0
 20
-234.99999541468151
 30
0.0
 11
10586.0
 21
-116.99999541468151
 31
0.0
1001
ACDBBLOCKREPETAG
1070
     1
1071
       64
1005
12745C
  0
LINE
  5
12745D
  8
HIDDEN
 10
10588.0
 20
-131.49999541468151
 30
0.0
 11
10588.0
 21
-220.49999541468151
 31
0.0
1001
ACDBBLOCKREPETAG
1070
     1
1071
       65
1005
12745D
  0
LINE
  5
12745E
  8
OBJECT
 10
4633.0
 20
-113.99999541468151
 30
0.0
 11
4640.0
 21
-113.99999541468151
 31
0.0
1001
ACDBBLOCKREPETAG
1070
     1
1071
       47
1005
12745E
  0
LINE
  5
12745F
  8
OBJECT
 10
4640.0
 20
-113.99999541468151
 30
0.0
 11
4640.0
 21
-237.99999541468151
 31
0.0
1001
ACDBBLOCKREPETAG
1070
     1
1071
       48
1005
12745F
  0
LINE
  5
127460
  8
OBJECT
 10
4640.0
 20
-237.99999541468151
 30
0.0
 11
4633.0
 21
-237.99999541468151
 31
0.0
1001
ACDBBLOCKREPETAG
1070
     1
1071
       49
1005
127460
  0
LINE
  5
127461
  8
OBJECT
 10
4633.0
 20
-237.99999541468151
 30
0.0
 11
4633.0
 21
-113.99999541468151
 31
0.0
1001
ACDBBLOCKREPETAG
1070
     1
1071
       50
1005
127461
  0
LINE
  5
127462
  8
CENTER
 10
4655.0
 20
-175.99999541468151
 30
0.0
 11
4580.0
 21
-175.99999541468151
 31
0.0
1001
ACDBBLOCKREPETAG
1070
     1
1071
       51
1005
127462
  0
LINE
  5
127463
  8
OBJECT
 10
4633.0
 20
-116.99999541468151
 30
0.0
 11
4597.0
 21
-116.99999541468151
 31
0.0
1001
ACDBBLOCKREPETAG
1070
     1
1071
       52
1005
127463
  0
LINE
  5
127464
  8
OBJECT
 10
4597.0
 20
-116.99999541468151
 30
0.0
 11
4597.0
 21
-234.99999541468151
 31
0.0
1001
ACDBBLOCKREPETAG
1070
     1
1071
       53
1005
127464
  0
LINE
  5
127465
  8
OBJECT
 10
4597.0
 20
-234.99999541468151
 30
0.0
 11
4633.0
 21
-234.99999541468151
 31
0.0
1001
ACDBBLOCKREPETAG
1070
     1
1071
       54
1005
127465
  0
LINE
  5
127466
  8
OBJECT
 10
4593.0
 20
-121.49999541468151
 30
0.0
 11
4586.0
 21
-121.49999541468151
 31
0.0
1001
ACDBBLOCKREPETAG
1070
     1
1071
       55
1005
127466
  0
LINE
  5
127467
  8
OBJECT
 10
4586.0
 20
-230.49999541468151
 30
0.0
 11
4593.0
 21
-230.49999541468151
 31
0.0
1001
ACDBBLOCKREPETAG
1070
     1
1071
       56
1005
127467
  0
LINE
  5
127468
  8
OBJECT
 10
4593.0
 20
-230.49999541468151
 30
0.0
 11
4593.0
 21
-121.49999541468151
 31
0.0
1001
ACDBBLOCKREPETAG
1070
     1
1071
       57
1005
127468
  0
LINE
  5
127469
  8
OBJECT
 10
4597.0
 20
-116.99999541468151
 30
0.0
 11
4593.0
 21
-121.49999541468151
 31
0.0
1001
ACDBBLOCKREPETAG
1070
     1
1071
       58
1005
127469
  0
LINE
  5
12746A
  8
OBJECT
 10
4597.0
 20
-234.99999541468151
 30
0.0
 11
4593.0
 21
-230.49999541468151
 31
0.0
1001
ACDBBLOCKREPETAG
1070
     1
1071
       59
1005
12746A
  0
LINE
  5
12746B
  8
OBJECT
 10
4583.0
 20
-113.99999541468151
 30
0.0
 11
4580.0
 21
-113.99999541468151
 31
0.0
1001
ACDBBLOCKREPETAG
1070
     1
1071
       60
1005
12746B
  0
ARC
  5
12746C
  8
OBJECT
 10
4583.0
 20
-116.99999541468151
 30
0.0
 40
3.0
 50
0.0
 51
90.0
1001
ACDBBLOCKREPETAG
1070
     1
1071
       61
1005
12746C
  0
LINE
  5
12746D
  8
OBJECT
 10
4580.0
 20
-237.99999541468151
 30
0.0
 11
4583.0
 21
-237.99999541468151
 31
0.0
1001
ACDBBLOCKREPETAG
1070
     1
1071
       62
1005
12746D
  0
ARC
  5
12746E
  8
OBJECT
 10
4583.0
 20
-234.99999541468151
 30
0.0
 40
3.0
 50
270.0
 51
0.0
1001
ACDBBLOCKREPETAG
1070
     1
1071
       63
1005
12746E
  0
LINE
  5
12746F
  8
OBJECT
 10
4586.0
 20
-234.99999541468151
 30
0.0
 11
4586.0
 21
-116.99999541468151
 31
0.0
1001
ACDBBLOCKREPETAG
1070
     1
1071
       64
1005
12746F
  0
LINE
  5
127470
  8
HIDDEN
 10
4588.0
 20
-131.49999541468151
 30
0.0
 11
4588.0
 21
-220.49999541468151
 31
0.0
1001
ACDBBLOCKREPETAG
1070
     1
1071
       65
1005
127470
  0
ARC
  5
127471
  8
OBJECT
 10
8500.0
 20
-175.99999541468151
 30
0.0
 40
50.0
 50
298.81994300000417
 51
228.52376955964741
1001
ACDBBLOCKREPETAG
1070
     1
1071
      185
1005
127471
  0
LINE
  5
127472
  8
SLIM
 10
8427.3018300565236
 20
-131.95483578426081
 30
0.0
 11
8455.9548403695826
 21
-103.3018254712013
 31
0.0
1001
ACAD
1010
0.0
1020
0.0
1030
0.0
1001
ACDBBLOCKREPETAG
1070
     1
1071
      429
1005
127472
  0
LINE
  5
127473
  8
SLIM
 10
8419.4861520708346
 20
-148.75076989101481
 30
0.0
 11
8428.8911593638004
 21
-139.34576259805101
 31
0.0
1001
ACAD
1010
0.0
1020
0.0
1030
0.0
1001
ACDBBLOCKREPETAG
1070
     1
1071
      381
1005
127473
  0
LINE
  5
127474
  8
SLIM
 10
8463.3457671833712
 20
-104.8911547784803
 30
0.0
 11
8472.7507744763334
 21
-95.486147485516582
 31
0.0
1001
ACAD
1010
0.0
1020
0.0
1030
0.0
1001
ACDBBLOCKREPETAG
1070
     1
1071
      382
1005
127474
  0
LINE
  5
127475
  8
SLIM
 10
8416.3596679933762
 20
-160.85751008954301
 30
0.0
 11
8423.0316308417041
 21
-154.18554724121299
 31
0.0
1001
ACAD
1010
0.0
1020
0.0
1030
0.0
1001
ACDBBLOCKREPETAG
1070
     1
1071
      383
1005
127475
  0
LINE
  5
127476
  8
SLIM
 10
8478.1855518265329
 20
-99.031626256387483
 30
0.0
 11
8484.8575146748626
 21
-92.359663408057429
 31
0.0
1001
ACAD
1010
0.0
1020
0.0
1030
0.0
1001
ACDBBLOCKREPETAG
1070
     1
1071
      384
1005
127476
  0
LINE
  5
127477
  8
SLIM
 10
8415.1440575890501
 20
-171.05337661493741
 30
0.0
 11
8420.691234743781
 21
-165.50619946020811
 31
0.0
1001
ACAD
1010
0.0
1020
0.0
1030
0.0
1001
ACDBBLOCKREPETAG
1070
     1
1071
      385
1005
127477
  0
LINE
  5
127478
  8
SLIM
 10
8489.5062040455286
 20
-96.69123015846148
 30
0.0
 11
8495.0533812002577
 21
-91.144053003732253
 31
0.0
1001
ACAD
1010
0.0
1020
0.0
1030
0.0
1001
ACDBBLOCKREPETAG
1070
     1
1071
      386
1005
127478
  0
LINE
  5
127479
  8
SLIM
 10
8415.0979635574658
 20
-180.07972676759269
 30
0.0
 11
8419.1776949103787
 21
-175.99999541468151
 31
0.0
1001
ACAD
1010
0.0
1020
0.0
1030
0.0
1001
ACDBBLOCKREPETAG
1070
     1
1071
      387
1005
127479
  0
LINE
  5
12747A
  8
SLIM
 10
8500.0
 20
-95.177690325059132
 30
0.0
 11
8504.0797313529074
 21
-91.097958972153265
 31
0.0
1001
ACAD
1010
0.0
1020
0.0
1030
0.0
1001
ACDBBLOCKREPETAG
1070
     1
1071
      388
1005
12747A
  0
LINE
  5
12747B
  8
SLIM
 10
8419.1776949103787
 20
-175.99999541468151
 30
0.0
 11
8420.0042702817464
 21
-175.17342004330999
 31
0.0
1001
ACAD
1010
0.0
1020
0.0
1030
0.0
1001
ACDBBLOCKREPETAG
1070
     1
1071
      389
1005
12747B
  0
LINE
  5
12747C
  8
SLIM
 10
8499.1734246286305
 20
-96.004265696428789
 30
0.0
 11
8500.0
 21
-95.177690325059146
 31
0.0
1001
ACAD
1010
0.0
1020
0.0
1030
0.0
1001
ACDBBLOCKREPETAG
1070
     1
1071
      390
1005
12747C
  0
LINE
  5
12747D
  8
SLIM
 10
8415.8899726208656
 20
-188.2679738252624
 30
0.0
 11
8420.3790899323576
 21
-183.77885651377261
 31
0.0
1001
ACAD
1010
0.0
1020
0.0
1030
0.0
1001
ACDBBLOCKREPETAG
1070
     1
1071
      391
1005
12747D
  0
LINE
  5
12747E
  8
SLIM
 10
8507.7788610990974
 20
-96.379085347030724
 30
0.0
 11
8512.2679784105767
 21
-91.889968035552343
 31
0.0
1001
ACAD
1010
0.0
1020
0.0
1030
0.0
1001
ACDBBLOCKREPETAG
1070
     1
1071
      392
1005
12747E
  0
LINE
  5
12747F
  8
SLIM
 10
8417.3382656951471
 20
-195.7999368720495
 30
0.0
 11
8421.5361497034737
 21
-191.6020528637238
 31
0.0
1001
ACAD
1010
0.0
1020
0.0
1030
0.0
1001
ACDBBLOCKREPETAG
1070
     1
1071
      393
1005
12747F
  0
LINE
  5
127480
  8
SLIM
 10
8515.6020574490485
 20
-97.536145118149506
 30
0.0
 11
8519.7999414573624
 21
-93.338261109834278
 31
0.0
1001
ACAD
1010
0.0
1020
0.0
1030
0.0
1001
ACDBBLOCKREPETAG
1070
     1
1071
      394
1005
127480
  0
LINE
  5
127481
  8
SLIM
 10
8419.3312594063045
 20
-202.78719928196651
 30
0.0
 11
8423.3179509938545
 21
-198.80050769441161
 31
0.0
1001
ACAD
1010
0.0
1020
0.0
1030
0.0
1001
ACDBBLOCKREPETAG
1070
     1
1071
      395
1005
127481
  0
LINE
  5
127482
  8
SLIM
 10
8522.8005122797367
 20
-99.317946408531412
 30
0.0
 11
8526.7872038672776
 21
-95.331254820986345
 31
0.0
1001
ACAD
1010
0.0
1020
0.0
1030
0.0
1001
ACDBBLOCKREPETAG
1070
     1
1071
      396
1005
127482
  0
LINE
  5
127483
  8
SLIM
 10
8421.7957163186147
 20
-209.3029984907202
 30
0.0
 11
8425.6266406814684
 21
-205.47207412786429
 31
0.0
1001
ACAD
1010
0.0
1020
0.0
1030
0.0
1001
ACDBBLOCKREPETAG
1070
     1
1071
      397
1005
127483
  0
LINE
  5
127484
  8
SLIM
 10
8529.4720787131864
 20
-101.6266360961484
 30
0.0
 11
8533.3030030760347
 21
-97.795711733301616
 31
0.0
1001
ACAD
1010
0.0
1020
0.0
1030
0.0
1001
ACDBBLOCKREPETAG
1070
     1
1071
      398
1005
127484
  0
LINE
  5
127485
  8
SLIM
 10
8424.6816635313407
 20
-215.39730739906469
 30
0.0
 11
8428.3978994144927
 21
-211.68107151591281
 31
0.0
1001
ACAD
1010
0.0
1020
0.0
1030
0.0
1001
ACDBBLOCKREPETAG
1070
     1
1071
      399
1005
127485
  0
LINE
  5
127486
  8
SLIM
 10
8535.6810761012348
 20
-104.3978948291695
 30
0.0
 11
8539.3973119843777
 21
-100.6816589460261
 31
0.0
1001
ACAD
1010
0.0
1020
0.0
1030
0.0
1001
ACDBBLOCKREPETAG
1070
     1
1071
      400
1005
127486
  0
LINE
  5
127487
  8
SLIM
 10
8427.9544611024212
 20
-221.1047659490537
 30
0.0
 11
8431.5882948477501
 21
-217.47093220372389
 31
0.0
1001
ACAD
1010
0.0
1020
0.0
1030
0.0
1001
ACDBBLOCKREPETAG
1070
     1
1071
      401
1005
127487
  0
LINE
  5
127488
  8
SLIM
 10
8541.4709367890428
 20
-107.588290262428
 30
0.0
 11
8545.1047705343717
 21
-103.9544565171061
 31
0.0
1001
ACAD
1010
0.0
1020
0.0
1030
0.0
1001
ACDBBLOCKREPETAG
1070
     1
1071
      402
1005
127488
  0
LINE
  5
127489
  8
SLIM
 10
8431.5903319686622
 20
-226.44915120388191
 30
0.0
 11
8435.1685576784603
 21
-222.8709254940826
 31
0.0
1001
ACAD
1010
0.0
1020
0.0
1030
0.0
1001
ACDBBLOCKREPETAG
1070
     1
1071
      403
1005
127489
  0
LINE
  5
12748A
  8
SLIM
 10
8546.8709300794035
 20
-111.1685530931389
 30
0.0
 11
8550.4491557891979
 21
-107.5903273833469
 31
0.0
1001
ACAD
1010
0.0
1020
0.0
1030
0.0
1001
ACDBBLOCKREPETAG
1070
     1
1071
      404
1005
12748A
  0
LINE
  5
12748B
  8
SLIM
 10
8435.5737496925212
 20
-231.44598960108971
 30
0.0
 11
8439.1198129751447
 21
-227.89992631846809
 31
0.0
1001
ACAD
1010
0.0
1020
0.0
1030
0.0
1001
ACDBBLOCKREPETAG
1070
     1
1071
      405
1005
12748B
  0
LINE
  5
12748C
  8
SLIM
 10
8553.0197438789328
 20
-113.99999541468151
 30
0.0
 11
8555.4459941864025
 21
-111.5737451072081
 31
0.0
1001
ACAD
1010
0.0
1020
0.0
1030
0.0
1001
ACDBBLOCKREPETAG
1070
     1
1071
      406
1005
12748C
  0
LINE
  5
12748D
  8
SLIM
 10
8439.8959235991388
 20
-236.10407181554169
 30
0.0
 11
8443.4314575050776
 21
-232.5685379096023
 31
0.0
1001
ACAD
1010
0.0
1020
0.0
1030
0.0
1001
ACDBBLOCKREPETAG
1070
     1
1071
      407
1005
12748D
  0
LINE
  5
12748E
  8
SLIM
 10
8444.5540058135903
 20
-240.42624572215851
 30
0.0
 11
8448.1000690962137
 21
-236.88018243953789
 31
0.0
1001
ACAD
1010
0.0
1020
0.0
1030
0.0
1001
ACDBBLOCKREPETAG
1070
     1
1071
      408
1005
12748E
  0
LINE
  5
12748F
  8
SLIM
 10
8449.5508442108003
 20
-244.40966344601941
 30
0.0
 11
8453.1290699205965
 21
-240.831437736222
 31
0.0
1001
ACAD
1010
0.0
1020
0.0
1030
0.0
1001
ACDBBLOCKREPETAG
1070
     1
1071
      409
1005
12748F
  0
LINE
  5
127490
  8
SLIM
 10
8454.8952294656283
 20
-248.04553431225989
 30
0.0
 11
8458.5290632109554
 21
-244.41170056693321
 31
0.0
1001
ACAD
1010
0.0
1020
0.0
1030
0.0
1001
ACDBBLOCKREPETAG
1070
     1
1071
      410
1005
127490
  0
LINE
  5
127491
  8
SLIM
 10
8460.6026880156169
 20
-251.3183318833396
 30
0.0
 11
8464.318923898767
 21
-247.60209600019189
 31
0.0
1001
ACAD
1010
0.0
1020
0.0
1030
0.0
1001
ACDBBLOCKREPETAG
1070
     1
1071
      411
1005
127491
  0
LINE
  5
127492
  8
SLIM
 10
8466.6969969239617
 20
-254.2042790960638
 30
0.0
 11
8470.5279212868136
 21
-250.3733547332132
 31
0.0
1001
ACAD
1010
0.0
1020
0.0
1030
0.0
1001
ACDBBLOCKREPETAG
1070
     1
1071
      412
1005
127492
  0
LINE
  5
127493
  8
SLIM
 10
8473.2127961327187
 20
-256.66873600837869
 30
0.0
 11
8477.1994877202687
 21
-252.68204442083049
 31
0.0
1001
ACAD
1010
0.0
1020
0.0
1030
0.0
1001
ACDBBLOCKREPETAG
1070
     1
1071
      413
1005
127493
  0
LINE
  5
127494
  8
SLIM
 10
8480.2000585426358
 20
-258.66172971953029
 30
0.0
 11
8484.3979425509551
 21
-254.4638457112128
 31
0.0
1001
ACAD
1010
0.0
1020
0.0
1030
0.0
1001
ACDBBLOCKREPETAG
1070
     1
1071
      414
1005
127494
  0
LINE
  5
127495
  8
SLIM
 10
8487.7320215894215
 20
-260.11002279381171
 30
0.0
 11
8492.2211389009026
 21
-255.62090548233189
 31
0.0
1001
ACAD
1010
0.0
1020
0.0
1030
0.0
1001
ACDBBLOCKREPETAG
1070
     1
1071
      415
1005
127495
  0
LINE
  5
127496
  8
SLIM
 10
8495.9202686470908
 20
-260.90203185721009
 30
0.0
 11
8500.0
 21
-256.82230050430388
 31
0.0
1001
ACAD
1010
0.0
1020
0.0
1030
0.0
1001
ACDBBLOCKREPETAG
1070
     1
1071
      416
1005
127496
  0
LINE
  5
127497
  8
SLIM
 10
8500.0
 20
-256.82230050430388
 30
0.0
 11
8500.8265753713731
 21
-255.99572513293049
 31
0.0
1001
ACAD
1010
0.0
1020
0.0
1030
0.0
1001
ACDBBLOCKREPETAG
1070
     1
1071
      417
1005
127497
  0
LINE
  5
127498
  8
SLIM
 10
8504.9466187997423
 20
-260.85593782563058
 30
0.0
 11
8510.493795954475
 21
-255.3087606708975
 31
0.0
1001
ACAD
1010
0.0
1020
0.0
1030
0.0
1001
ACDBBLOCKREPETAG
1070
     1
1071
      418
1005
127498
  0
LINE
  5
127499
  8
SLIM
 10
8515.1424853251374
 20
-259.64032742130519
 30
0.0
 11
8521.8144481734707
 21
-252.9683645729709
 31
0.0
1001
ACAD
1010
0.0
1020
0.0
1030
0.0
1001
ACDBBLOCKREPETAG
1070
     1
1071
      419
1005
127499
  0
LINE
  5
12749A
  8
SLIM
 10
8527.2492255236666
 20
-256.51384334384568
 30
0.0
 11
8536.6542328166342
 21
-247.10883605087631
 31
0.0
1001
ACAD
1010
0.0
1020
0.0
1030
0.0
1001
ACDBBLOCKREPETAG
1070
     1
1071
      420
1005
12749A
  0
LINE
  5
12749B
  8
SLIM
 10
8544.045159630421
 20
-248.6981653581594
 30
0.0
 11
8554.7433295738992
 21
-237.99999541468151
 31
0.0
1001
ACAD
1010
0.0
1020
0.0
1030
0.0
1001
ACDBBLOCKREPETAG
1070
     1
1071
      421
1005
12749B
  0
LINE
  5
12749C
  8
CENTER
 10
8580.0
 20
-175.99999541468151
 30
0.0
 11
8400.0
 21
-175.99999541468151
 31
0.0
1001
ACDBBLOCKREPETAG
1070
     1
1071
      187
1005
12749C
  0
LINE
  5
12749D
  8
CENTER
 10
8500.0
 20
-275.99999541468162
 30
0.0
 11
8500.0
 21
-75.999995414681507
 31
0.0
1001
ACDBBLOCKREPETAG
1070
     1
1071
      188
1005
12749D
  0
CIRCLE
  5
12749E
  8
OBJECT
 10
8500.0
 20
-175.99999541468151
 30
0.0
 40
70.0
1001
ACDBBLOCKREPETAG
1070
     1
1071
      189
1005
12749E
  0
CIRCLE
  5
12749F
  8
OBJECT
 10
8500.0
 20
-175.99999541468151
 30
0.0
 40
77.0
1001
ACDBBLOCKREPETAG
1070
     1
1071
      190
1005
12749F
  0
ARC
  5
1274A0
  8
OBJECT
 10
8500.0
 20
-175.99999541468151
 30
0.0
 40
80.0
 50
50.805032573897769
 51
309.19496742610232
1001
ACDBBLOCKREPETAG
1070
     1
1071
      191
1005
1274A0
  0
LINE
  5
1274A1
  8
OBJECT
 10
8545.6618002273262
 20
-113.99999541468151
 30
0.0
 11
8580.0
 21
-113.99999541468151
 31
0.0
1001
ACDBBLOCKREPETAG
1070
     1
1071
      192
1005
1274A1
  0
LINE
  5
1274A2
  8
OBJECT
 10
8545.6618002273262
 20
-237.99999541468151
 30
0.0
 11
8580.0
 21
-237.99999541468151
 31
0.0
1001
ACDBBLOCKREPETAG
1070
     1
1071
      193
1005
1274A2
  0
ARC
  5
1274A3
  8
OBJECT
 10
8500.0
 20
-175.99999541468151
 30
0.0
 40
85.0
 50
46.837102859853147
 51
313.16289714014681
1001
ACDBBLOCKREPETAG
1070
     1
1071
      202
1005
1274A3
  0
LINE
  5
1274A4
  8
OBJECT
 10
8524.1029330933015
 20
-219.8069425383992
 30
0.0
 11
8520.6596569999983
 21
-208.5546174146811
 31
0.0
1001
ACDBBLOCKREPETAG
1070
     1
1071
      321
1005
1274A4
  0
LINE
  5
1274A5
  8
OBJECT
 10
8486.7927499013731
 20
-194.2255291567626
 30
0.0
 11
8520.6596569999983
 21
-208.55461741467931
 31
0.0
1001
ACDBBLOCKREPETAG
1070
     1
1071
      323
1005
1274A5
  0
ARC
  5
1274A6
  8
OBJECT
 10
8482.8961697618979
 20
-203.43512541373909
 30
0.0
 40
10.0
 50
67.066778292911366
 51
154.01473437031629
1001
ACDBBLOCKREPETAG
1070
     1
1071
      324
1005
1274A6
  0
ARC
  5
1274A7
  8
OBJECT
 10
8486.1488390381255
 20
-201.55385798197401
 30
0.0
 40
7.0
 50
67.066778292911366
 51
154.0147337749826
1001
ACDBBLOCKREPETAG
1070
     1
1071
      325
1005
1274A7
  0
LINE
  5
1274A8
  8
OBJECT
 10
8469.4199755553018
 20
-219.89888042286421
 30
0.0
 11
8479.8564918232369
 21
-198.48687794825031
 31
0.0
1001
ACDBBLOCKREPETAG
1070
     1
1071
      353
1005
1274A8
  0
LINE
  5
1274A9
  8
OBJECT
 10
8465.2972169006116
 20
-216.71813443350979
 30
0.0
 11
8473.9071022665084
 21
-199.0537254589899
 31
0.0
1001
ACDBBLOCKREPETAG
1070
     1
1071
      354
1005
1274A9
  0
ARC
  5
1274AA
  8
OBJECT
 10
8476.5796953073132
 20
-183.128932397526
 30
0.0
 40
60.031113246032611
 50
314.07020130422319
 51
322.33936106089681
1001
ACDBBLOCKREPETAG
1070
     1
1071
      355
1005
1274AA
  0
CIRCLE
  5
1274AB
  8
OBJECT
 10
8500.0
 20
-175.99999541468151
 30
0.0
 40
53.5
1001
ACDBBLOCKREPETAG
1070
     1
1071
      356
1005
1274AB
  0
POINT
  5
1274AC
  8
DOTS
 10
8500.0
 20
-175.99999541468151
 30
0.0
 50
270.0
1001
ACDBBLOCKREPETAG
1070
     1
1071
      365
1005
1274AC
  0
LINE
  5
1274AD
  8
OBJECT
 10
2524.102933093302
 20
-219.8069425383992
 30
0.0
 11
2520.659656999997
 21
-208.5546174146811
 31
0.0
1001
ACDBBLOCKREPETAG
1070
     1
1071
      300
1005
1274AD
  0
LINE
  5
1274AE
  8
OBJECT
 10
2486.7927499013749
 20
-194.2255291567626
 30
0.0
 11
2520.659656999997
 21
-208.55461741467931
 31
0.0
1001
ACDBBLOCKREPETAG
1070
     1
1071
      302
1005
1274AE
  0
ARC
  5
1274AF
  8
OBJECT
 10
2482.896169761902
 20
-203.43512541373909
 30
0.0
 40
10.0
 50
67.066778292911366
 51
154.0147343702935
1001
ACDBBLOCKREPETAG
1070
     1
1071
      303
1005
1274AF
  0
ARC
  5
1274B0
  8
OBJECT
 10
2486.1488390381278
 20
-201.55385798197401
 30
0.0
 40
7.0
 50
67.066778292911366
 51
154.01473377497121
1001
ACDBBLOCKREPETAG
1070
     1
1071
      304
1005
1274B0
  0
LINE
  5
1274B1
  8
OBJECT
 10
2469.4199755553018
 20
-219.89888042286421
 30
0.0
 11
2479.8564918232369
 21
-198.48687794825031
 31
0.0
1001
ACDBBLOCKREPETAG
1070
     1
1071
      341
1005
1274B1
  0
LINE
  5
1274B2
  8
OBJECT
 10
2465.2972169006089
 20
-216.71813443350979
 30
0.0
 11
2473.9071022665089
 21
-199.0537254589899
 31
0.0
1001
ACDBBLOCKREPETAG
1070
     1
1071
      342
1005
1274B2
  0
ARC
  5
1274B3
  8
OBJECT
 10
2476.579695307315
 20
-183.128932397526
 30
0.0
 40
60.031113246032611
 50
314.07020130418567
 51
322.33936106091278
1001
ACDBBLOCKREPETAG
1070
     1
1071
      343
1005
1274B3
  0
CIRCLE
  5
1274B4
  8
OBJECT
 10
2500.0
 20
-175.99999541468151
 30
0.0
 40
53.5
1001
ACDBBLOCKREPETAG
1070
     1
1071
      344
1005
1274B4
  0
POINT
  5
1274B5
  8
DOTS
 10
2500.0
 20
-175.99999541468151
 30
0.0
 50
270.0
1001
ACDBBLOCKREPETAG
1070
     1
1071
      362
1005
1274B5
  0
ARC
  5
1274B6
  8
OBJECT
 10
2500.0
 20
-175.99999541468151
 30
0.0
 40
50.0
 50
298.81994300000417
 51
228.52376955967449
1001
ACDBBLOCKREPETAG
1070
     1
1071
        7
1005
1274B6
  0
LINE
  5
1274B7
  8
CENTER
 10
2580.0
 20
-175.99999541468151
 30
0.0
 11
2405.0
 21
-175.99999541468151
 31
0.0
1001
ACDBBLOCKREPETAG
1070
     1
1071
       14
1005
1274B7
  0
LINE
  5
1274B8
  8
CENTER
 10
2500.0
 20
-270.99999541468162
 30
0.0
 11
2500.0
 21
-80.999995414681507
 31
0.0
1001
ACDBBLOCKREPETAG
1070
     1
1071
       15
1005
1274B8
  0
CIRCLE
  5
1274B9
  8
OBJECT
 10
2500.0
 20
-175.99999541468151
 30
0.0
 40
70.0
1001
ACDBBLOCKREPETAG
1070
     1
1071
       16
1005
1274B9
  0
CIRCLE
  5
1274BA
  8
OBJECT
 10
2500.0
 20
-175.99999541468151
 30
0.0
 40
77.0
1001
ACDBBLOCKREPETAG
1070
     1
1071
       17
1005
1274BA
  0
ARC
  5
1274BB
  8
OBJECT
 10
2500.0
 20
-175.99999541468151
 30
0.0
 40
80.0
 50
50.805032573864182
 51
309.1949674261358
1001
ACDBBLOCKREPETAG
1070
     1
1071
       18
1005
1274BB
  0
LINE
  5
1274BC
  8
OBJECT
 10
2545.6618002273249
 20
-113.99999541468151
 30
0.0
 11
2580.0
 21
-113.99999541468151
 31
0.0
1001
ACDBBLOCKREPETAG
1070
     1
1071
       19
1005
1274BC
  0
LINE
  5
1274BD
  8
OBJECT
 10
2545.6618002273249
 20
-237.99999541468151
 30
0.0
 11
2580.0
 21
-237.99999541468151
 31
0.0
1001
ACDBBLOCKREPETAG
1070
     1
1071
       20
1005
1274BD
  0
LINE
  5
1274BE
  8
OBJECT
 10
8633.0
 20
-113.99999541468151
 30
0.0
 11
8640.0
 21
-113.99999541468151
 31
0.0
1001
ACDBBLOCKREPETAG
1070
     1
1071
       47
1005
1274BE
  0
LINE
  5
1274BF
  8
OBJECT
 10
8640.0
 20
-113.99999541468151
 30
0.0
 11
8640.0
 21
-237.99999541468151
 31
0.0
1001
ACDBBLOCKREPETAG
1070
     1
1071
       48
1005
1274BF
  0
LINE
  5
1274C0
  8
OBJECT
 10
8640.0
 20
-237.99999541468151
 30
0.0
 11
8633.0
 21
-237.99999541468151
 31
0.0
1001
ACDBBLOCKREPETAG
1070
     1
1071
       49
1005
1274C0
  0
LINE
  5
1274C1
  8
OBJECT
 10
8633.0
 20
-237.99999541468151
 30
0.0
 11
8633.0
 21
-113.99999541468151
 31
0.0
1001
ACDBBLOCKREPETAG
1070
     1
1071
       50
1005
1274C1
  0
LINE
  5
1274C2
  8
CENTER
 10
8655.0
 20
-175.99999541468151
 30
0.0
 11
8580.0
 21
-175.99999541468151
 31
0.0
1001
ACDBBLOCKREPETAG
1070
     1
1071
       51
1005
1274C2
  0
LINE
  5
1274C3
  8
OBJECT
 10
8633.0
 20
-116.99999541468151
 30
0.0
 11
8597.0
 21
-116.99999541468151
 31
0.0
1001
ACDBBLOCKREPETAG
1070
     1
1071
       52
1005
1274C3
  0
LINE
  5
1274C4
  8
OBJECT
 10
8597.0
 20
-116.99999541468151
 30
0.0
 11
8597.0
 21
-234.99999541468151
 31
0.0
1001
ACDBBLOCKREPETAG
1070
     1
1071
       53
1005
1274C4
  0
LINE
  5
1274C5
  8
OBJECT
 10
8597.0
 20
-234.99999541468151
 30
0.0
 11
8633.0
 21
-234.99999541468151
 31
0.0
1001
ACDBBLOCKREPETAG
1070
     1
1071
       54
1005
1274C5
  0
LINE
  5
1274C6
  8
OBJECT
 10
8593.0
 20
-121.49999541468151
 30
0.0
 11
8586.0
 21
-121.49999541468151
 31
0.0
1001
ACDBBLOCKREPETAG
1070
     1
1071
       55
1005
1274C6
  0
LINE
  5
1274C7
  8
OBJECT
 10
8586.0
 20
-230.49999541468151
 30
0.0
 11
8593.0
 21
-230.49999541468151
 31
0.0
1001
ACDBBLOCKREPETAG
1070
     1
1071
       56
1005
1274C7
  0
LINE
  5
1274C8
  8
OBJECT
 10
8593.0
 20
-230.49999541468151
 30
0.0
 11
8593.0
 21
-121.49999541468151
 31
0.0
1001
ACDBBLOCKREPETAG
1070
     1
1071
       57
1005
1274C8
  0
LINE
  5
1274C9
  8
OBJECT
 10
8597.0
 20
-116.99999541468151
 30
0.0
 11
8593.0
 21
-121.49999541468151
 31
0.0
1001
ACDBBLOCKREPETAG
1070
     1
1071
       58
1005
1274C9
  0
LINE
  5
1274CA
  8
OBJECT
 10
8597.0
 20
-234.99999541468151
 30
0.0
 11
8593.0
 21
-230.49999541468151
 31
0.0
1001
ACDBBLOCKREPETAG
1070
     1
1071
       59
1005
1274CA
  0
LINE
  5
1274CB
  8
OBJECT
 10
8583.0
 20
-113.99999541468151
 30
0.0
 11
8580.0
 21
-113.99999541468151
 31
0.0
1001
ACDBBLOCKREPETAG
1070
     1
1071
       60
1005
1274CB
  0
ARC
  5
1274CC
  8
OBJECT
 10
8583.0
 20
-116.99999541468151
 30
0.0
 40
3.0
 50
0.0
 51
90.0
1001
ACDBBLOCKREPETAG
1070
     1
1071
       61
1005
1274CC
  0
LINE
  5
1274CD
  8
OBJECT
 10
8580.0
 20
-237.99999541468151
 30
0.0
 11
8583.0
 21
-237.99999541468151
 31
0.0
1001
ACDBBLOCKREPETAG
1070
     1
1071
       62
1005
1274CD
  0
ARC
  5
1274CE
  8
OBJECT
 10
8583.0
 20
-234.99999541468151
 30
0.0
 40
3.0
 50
270.0
 51
0.0
1001
ACDBBLOCKREPETAG
1070
     1
1071
       63
1005
1274CE
  0
LINE
  5
1274CF
  8
OBJECT
 10
8586.0
 20
-234.99999541468151
 30
0.0
 11
8586.0
 21
-116.99999541468151
 31
0.0
1001
ACDBBLOCKREPETAG
1070
     1
1071
       64
1005
1274CF
  0
LINE
  5
1274D0
  8
HIDDEN
 10
8588.0
 20
-131.49999541468151
 30
0.0
 11
8588.0
 21
-220.49999541468151
 31
0.0
1001
ACDBBLOCKREPETAG
1070
     1
1071
       65
1005
1274D0
  0
LINE
  5
1274D1
  8
OBJECT
 10
2633.0
 20
-113.99999541468151
 30
0.0
 11
2640.0
 21
-113.99999541468151
 31
0.0
1001
ACDBBLOCKREPETAG
1070
     1
1071
       47
1005
1274D1
  0
LINE
  5
1274D2
  8
OBJECT
 10
2640.0
 20
-113.99999541468151
 30
0.0
 11
2640.0
 21
-237.99999541468151
 31
0.0
1001
ACDBBLOCKREPETAG
1070
     1
1071
       48
1005
1274D2
  0
LINE
  5
1274D3
  8
OBJECT
 10
2640.0
 20
-237.99999541468151
 30
0.0
 11
2633.0
 21
-237.99999541468151
 31
0.0
1001
ACDBBLOCKREPETAG
1070
     1
1071
       49
1005
1274D3
  0
LINE
  5
1274D4
  8
OBJECT
 10
2633.0
 20
-237.99999541468151
 30
0.0
 11
2633.0
 21
-113.99999541468151
 31
0.0
1001
ACDBBLOCKREPETAG
1070
     1
1071
       50
1005
1274D4
  0
LINE
  5
1274D5
  8
CENTER
 10
2655.0
 20
-175.99999541468151
 30
0.0
 11
2580.0
 21
-175.99999541468151
 31
0.0
1001
ACDBBLOCKREPETAG
1070
     1
1071
       51
1005
1274D5
  0
LINE
  5
1274D6
  8
OBJECT
 10
2633.0
 20
-116.99999541468151
 30
0.0
 11
2597.0
 21
-116.99999541468151
 31
0.0
1001
ACDBBLOCKREPETAG
1070
     1
1071
       52
1005
1274D6
  0
LINE
  5
1274D7
  8
OBJECT
 10
2597.0
 20
-116.99999541468151
 30
0.0
 11
2597.0
 21
-234.99999541468151
 31
0.0
1001
ACDBBLOCKREPETAG
1070
     1
1071
       53
1005
1274D7
  0
LINE
  5
1274D8
  8
OBJECT
 10
2597.0
 20
-234.99999541468151
 30
0.0
 11
2633.0
 21
-234.99999541468151
 31
0.0
1001
ACDBBLOCKREPETAG
1070
     1
1071
       54
1005
1274D8
  0
LINE
  5
1274D9
  8
OBJECT
 10
2593.0
 20
-121.49999541468151
 30
0.0
 11
2586.0
 21
-121.49999541468151
 31
0.0
1001
ACDBBLOCKREPETAG
1070
     1
1071
       55
1005
1274D9
  0
LINE
  5
1274DA
  8
OBJECT
 10
2586.0
 20
-230.49999541468151
 30
0.0
 11
2593.0
 21
-230.49999541468151
 31
0.0
1001
ACDBBLOCKREPETAG
1070
     1
1071
       56
1005
1274DA
  0
LINE
  5
1274DB
  8
OBJECT
 10
2593.0
 20
-230.49999541468151
 30
0.0
 11
2593.0
 21
-121.49999541468151
 31
0.0
1001
ACDBBLOCKREPETAG
1070
     1
1071
       57
1005
1274DB
  0
LINE
  5
1274DC
  8
OBJECT
 10
2597.0
 20
-116.99999541468151
 30
0.0
 11
2593.0
 21
-121.49999541468151
 31
0.0
1001
ACDBBLOCKREPETAG
1070
     1
1071
       58
1005
1274DC
  0
LINE
  5
1274DD
  8
OBJECT
 10
2597.0
 20
-234.99999541468151
 30
0.0
 11
2593.0
 21
-230.49999541468151
 31
0.0
1001
ACDBBLOCKREPETAG
1070
     1
1071
       59
1005
1274DD
  0
LINE
  5
1274DE
  8
OBJECT
 10
2583.0
 20
-113.99999541468151
 30
0.0
 11
2580.0
 21
-113.99999541468151
 31
0.0
1001
ACDBBLOCKREPETAG
1070
     1
1071
       60
1005
1274DE
  0
ARC
  5
1274DF
  8
OBJECT
 10
2583.0
 20
-116.99999541468151
 30
0.0
 40
3.0
 50
0.0
 51
90.0
1001
ACDBBLOCKREPETAG
1070
     1
1071
       61
1005
1274DF
  0
LINE
  5
1274E0
  8
OBJECT
 10
2580.0
 20
-237.99999541468151
 30
0.0
 11
2583.0
 21
-237.99999541468151
 31
0.0
1001
ACDBBLOCKREPETAG
1070
     1
1071
       62
1005
1274E0
  0
ARC
  5
1274E1
  8
OBJECT
 10
2583.0
 20
-234.99999541468151
 30
0.0
 40
3.0
 50
270.0
 51
0.0
1001
ACDBBLOCKREPETAG
1070
     1
1071
       63
1005
1274E1
  0
LINE
  5
1274E2
  8
OBJECT
 10
2586.0
 20
-234.99999541468151
 30
0.0
 11
2586.0
 21
-116.99999541468151
 31
0.0
1001
ACDBBLOCKREPETAG
1070
     1
1071
       64
1005
1274E2
  0
LINE
  5
1274E3
  8
HIDDEN
 10
2588.0
 20
-131.49999541468151
 30
0.0
 11
2588.0
 21
-220.49999541468151
 31
0.0
1001
ACDBBLOCKREPETAG
1070
     1
1071
       65
1005
1274E3
  0
LINE
  5
1274E4
  8
OBJECT
 10
12575.0
 20
-890.0
 30
0.0
 11
12575.0
 21
-1027.500000000065
 31
0.0
1001
ACDBBLOCKREPETAG
1070
     1
1071
        1
1005
1274E4
  0
LINE
  5
1274E5
  8
OBJECT
 10
12425.0
 20
-889.99999999999409
 30
0.0
 11
12425.0
 21
-1163.0
 31
0.0
1001
ACDBBLOCKREPETAG
1070
     1
1071
        3
1005
1274E5
  0
LINE
  5
1274E6
  8
CENTER
 10
12500.0
 20
-890.0
 30
0.0
 11
12500.0
 21
-1175.0
 31
0.0
1001
ACDBBLOCKREPETAG
1070
     1
1071
        6
1005
1274E6
  0
LINE
  5
1274E7
  8
OBJECT
 10
12419.999999999991
 20
-1175.0
 30
0.0
 11
12580.0
 21
-1175.0
 31
0.0
1001
ACDBBLOCKREPETAG
1070
     1
1071
        7
1005
1274E7
  0
LINE
  5
1274E8
  8
OBJECT
 10
12419.999999999991
 20
-1163.0
 30
0.0
 11
12580.0
 21
-1163.0
 31
0.0
1001
ACDBBLOCKREPETAG
1070
     1
1071
        8
1005
1274E8
  0
LINE
  5
1274E9
  8
OBJECT
 10
12419.999999999991
 20
-1163.0
 30
0.0
 11
12419.999999999991
 21
-1175.0
 31
0.0
1001
ACDBBLOCKREPETAG
1070
     1
1071
        9
1005
1274E9
  0
LINE
  5
1274EA
  8
OBJECT
 10
12580.0
 20
-1163.0
 30
0.0
 11
12580.0
 21
-1175.0
 31
0.0
1001
ACDBBLOCKREPETAG
1070
     1
1071
       10
1005
1274EA
  0
LINE
  5
1274EB
  8
OBJECT
 10
12633.0
 20
-1029.0
 30
0.0
 11
12640.0
 21
-1029.0
 31
0.0
1001
ACDBBLOCKREPETAG
1070
     1
1071
       23
1005
1274EB
  0
LINE
  5
1274EC
  8
OBJECT
 10
12640.0
 20
-1029.0
 30
0.0
 11
12640.0
 21
-1136.0
 31
0.0
1001
ACDBBLOCKREPETAG
1070
     1
1071
       24
1005
1274EC
  0
LINE
  5
1274ED
  8
OBJECT
 10
12584.5
 20
-1030.500000000065
 30
0.0
 11
12584.5
 21
-1133.5
 31
0.0
1001
ACDBBLOCKREPETAG
1070
     1
1071
       25
1005
1274ED
  0
ARC
  5
1274EE
  8
OBJECT
 10
12581.5
 20
-1030.500000000065
 30
0.0
 40
3.0
 50
0.0
 51
90.0
1001
ACDBBLOCKREPETAG
1070
     1
1071
       26
1005
1274EE
  0
LINE
  5
1274EF
  8
OBJECT
 10
12633.0
 20
-1136.0
 30
0.0
 11
12633.0
 21
-1029.0
 31
0.0
1001
ACDBBLOCKREPETAG
1070
     1
1071
       27
1005
1274EF
  0
LINE
  5
1274F0
  8
CENTER
 10
12655.0
 20
-1084.0
 30
0.0
 11
12541.344919912999
 21
-1084.000000000065
 31
0.0
1001
ACDBBLOCKREPETAG
1070
     1
1071
       28
1005
1274F0
  0
LINE
  5
1274F1
  8
OBJECT
 10
12633.0
 20
-1032.0
 30
0.0
 11
12597.0
 21
-1032.0
 31
0.0
1001
ACDBBLOCKREPETAG
1070
     1
1071
       29
1005
1274F1
  0
LINE
  5
1274F2
  8
OBJECT
 10
12597.0
 20
-1032.0
 30
0.0
 11
12597.0
 21
-1136.0
 31
0.0
1001
ACDBBLOCKREPETAG
1070
     1
1071
       30
1005
1274F2
  0
LINE
  5
1274F3
  8
OBJECT
 10
12597.0
 20
-1136.0
 30
0.0
 11
12640.0
 21
-1136.0
 31
0.0
1001
ACDBBLOCKREPETAG
1070
     1
1071
       31
1005
1274F3
  0
LINE
  5
1274F4
  8
OBJECT
 10
12593.0
 20
-1036.5
 30
0.0
 11
12584.5
 21
-1036.5
 31
0.0
1001
ACDBBLOCKREPETAG
1070
     1
1071
       32
1005
1274F4
  0
LINE
  5
1274F5
  8
OBJECT
 10
12584.5
 20
-1131.5
 30
0.0
 11
12593.0
 21
-1131.5
 31
0.0
1001
ACDBBLOCKREPETAG
1070
     1
1071
       33
1005
1274F5
  0
LINE
  5
1274F6
  8
OBJECT
 10
12593.0
 20
-1131.5
 30
0.0
 11
12593.0
 21
-1036.5
 31
0.0
1001
ACDBBLOCKREPETAG
1070
     1
1071
       34
1005
1274F6
  0
LINE
  5
1274F7
  8
OBJECT
 10
12597.0
 20
-1032.0
 30
0.0
 11
12593.0
 21
-1036.5
 31
0.0
1001
ACDBBLOCKREPETAG
1070
     1
1071
       35
1005
1274F7
  0
LINE
  5
1274F8
  8
OBJECT
 10
12597.0
 20
-1136.0
 30
0.0
 11
12593.0
 21
-1131.5
 31
0.0
1001
ACDBBLOCKREPETAG
1070
     1
1071
       36
1005
1274F8
  0
LINE
  5
1274F9
  8
HIDDEN
 10
12588.0
 20
-1046.0
 30
0.0
 11
12588.0
 21
-1122.0
 31
0.0
1001
ACDBBLOCKREPETAG
1070
     1
1071
       37
1005
1274F9
  0
ARC
  5
1274FA
  8
OBJECT
 10
12664.87827287877
 20
-1092.409507261229
 30
0.0
 40
110.86635228309
 50
144.1634274193047
 51
163.04035380434561
1001
ACDBBLOCKREPETAG
1070
     1
1071
       38
1005
1274FA
  0
ARC
  5
1274FB
  8
OBJECT
 10
12617.135988776899
 20
-1077.287749718449
 30
0.0
 40
60.791749880358971
 50
163.54720465221311
 51
179.72879698282691
1001
ACDBBLOCKREPETAG
1070
     1
1071
       39
1005
1274FB
  0
ARC
  5
1274FC
  8
OBJECT
 10
12617.13599565625
 20
-1083.7122497599
 30
0.0
 40
60.79175676209487
 50
180.2712034781452
 51
196.45277946052011
1001
ACDBBLOCKREPETAG
1070
     1
1071
       40
1005
1274FC
  0
ARC
  5
1274FD
  8
OBJECT
 10
12664.87827287877
 20
-1068.590492738836
 30
0.0
 40
110.8663522830916
 50
196.95964619565439
 51
215.8365725806953
1001
ACDBBLOCKREPETAG
1070
     1
1071
       41
1005
1274FD
  0
LINE
  5
1274FE
  8
OBJECT
 10
12556.344919912999
 20
-1077.0000000000359
 30
0.0
 11
12556.344919912999
 21
-1084.000000000033
 31
0.0
1001
ACDBBLOCKREPETAG
1070
     1
1071
       42
1005
1274FE
  0
LINE
  5
1274FF
  8
OBJECT
 10
12575.0
 20
-1027.500000000065
 30
0.0
 11
12581.5
 21
-1027.500000000065
 31
0.0
1001
ACDBBLOCKREPETAG
1070
     1
1071
       43
1005
1274FF
  0
LINE
  5
127500
  8
OBJECT
 10
12575.0
 20
-1133.5
 30
0.0
 11
12584.5
 21
-1133.5
 31
0.0
1001
ACDBBLOCKREPETAG
1070
     1
1071
       44
1005
127500
  0
LINE
  5
127501
  8
OBJECT
 10
12575.0
 20
-1133.5
 30
0.0
 11
12575.0
 21
-1163.0
 31
0.0
1001
ACDBBLOCKREPETAG
1070
     1
1071
        1
1005
1274E4
  0
POINT
  5
127502
  8
DOTS
 10
12500.0
 20
-1136.0
 30
0.0
  0
LINE
  5
127503
  8
DIM
 10
12665.0
 20
-696.0
 30
0.0
 11
12719.424581672751
 21
-696.0
 31
0.0
  0
LINE
  5
127504
  8
DIM
 10
12650.0
 20
-1136.0
 30
0.0
 11
12719.424581672751
 21
-1136.0
 31
0.0
  0
LINE
  5
127505
  8
DIM
 10
12709.424581672751
 20
-716.0
 30
0.0
 11
12709.424581672751
 21
-1116.0
 31
0.0
  0
INSERT
  5
127506
  8
DIM
  2
_OPEN30
 10
12709.424581672751
 20
-696.0
 30
0.0
 41
20.0
 42
20.0
 43
20.0
 50
90.0
  0
INSERT
  5
127507
  8
DIM
  2
_OPEN30
 10
12709.424581672751
 20
-1136.0
 30
0.0
 41
20.0
 42
20.0
 43
20.0
 50
270.0
  0
INSERT
  5
127508
  8
SLIM
  2
*U6
 10
0.0
 20
0.0
 30
0.0
  0
LINE
  5
127509
  8
OBJECT
 10
10575.0
 20
-890.0
 30
0.0
 11
10575.0
 21
-1027.500000000065
 31
0.0
1001
ACDBBLOCKREPETAG
1070
     1
1071
        1
1005
127509
  0
LINE
  5
12750A
  8
OBJECT
 10
10425.0
 20
-889.99999999999409
 30
0.0
 11
10425.0
 21
-1163.0
 31
0.0
1001
ACDBBLOCKREPETAG
1070
     1
1071
        3
1005
12750A
  0
LINE
  5
12750B
  8
CENTER
 10
10500.0
 20
-890.0
 30
0.0
 11
10500.0
 21
-1175.0
 31
0.0
1001
ACDBBLOCKREPETAG
1070
     1
1071
        6
1005
12750B
  0
LINE
  5
12750C
  8
OBJECT
 10
10420.0
 20
-1175.0
 30
0.0
 11
10580.0
 21
-1175.0
 31
0.0
1001
ACDBBLOCKREPETAG
1070
     1
1071
        7
1005
12750C
  0
LINE
  5
12750D
  8
OBJECT
 10
10420.0
 20
-1163.0
 30
0.0
 11
10580.0
 21
-1163.0
 31
0.0
1001
ACDBBLOCKREPETAG
1070
     1
1071
        8
1005
12750D
  0
LINE
  5
12750E
  8
OBJECT
 10
10420.0
 20
-1163.0
 30
0.0
 11
10420.0
 21
-1175.0
 31
0.0
1001
ACDBBLOCKREPETAG
1070
     1
1071
        9
1005
12750E
  0
LINE
  5
12750F
  8
OBJECT
 10
10580.0
 20
-1163.0
 30
0.0
 11
10580.0
 21
-1175.0
 31
0.0
1001
ACDBBLOCKREPETAG
1070
     1
1071
       10
1005
12750F
  0
LINE
  5
127510
  8
OBJECT
 10
10633.0
 20
-1029.0
 30
0.0
 11
10640.0
 21
-1029.0
 31
0.0
1001
ACDBBLOCKREPETAG
1070
     1
1071
       23
1005
127510
  0
LINE
  5
127511
  8
OBJECT
 10
10640.0
 20
-1029.0
 30
0.0
 11
10640.0
 21
-1136.0
 31
0.0
1001
ACDBBLOCKREPETAG
1070
     1
1071
       24
1005
127511
  0
LINE
  5
127512
  8
OBJECT
 10
10584.5
 20
-1030.500000000065
 30
0.0
 11
10584.5
 21
-1133.5
 31
0.0
1001
ACDBBLOCKREPETAG
1070
     1
1071
       25
1005
127512
  0
ARC
  5
127513
  8
OBJECT
 10
10581.5
 20
-1030.500000000065
 30
0.0
 40
3.0
 50
0.0
 51
90.0
1001
ACDBBLOCKREPETAG
1070
     1
1071
       26
1005
127513
  0
LINE
  5
127514
  8
OBJECT
 10
10633.0
 20
-1136.0
 30
0.0
 11
10633.0
 21
-1029.0
 31
0.0
1001
ACDBBLOCKREPETAG
1070
     1
1071
       27
1005
127514
  0
LINE
  5
127515
  8
CENTER
 10
10655.0
 20
-1084.0
 30
0.0
 11
10541.344919912999
 21
-1084.000000000065
 31
0.0
1001
ACDBBLOCKREPETAG
1070
     1
1071
       28
1005
127515
  0
LINE
  5
127516
  8
OBJECT
 10
10633.0
 20
-1032.0
 30
0.0
 11
10597.0
 21
-1032.0
 31
0.0
1001
ACDBBLOCKREPETAG
1070
     1
1071
       29
1005
127516
  0
LINE
  5
127517
  8
OBJECT
 10
10597.0
 20
-1032.0
 30
0.0
 11
10597.0
 21
-1136.0
 31
0.0
1001
ACDBBLOCKREPETAG
1070
     1
1071
       30
1005
127517
  0
LINE
  5
127518
  8
OBJECT
 10
10597.0
 20
-1136.0
 30
0.0
 11
10640.0
 21
-1136.0
 31
0.0
1001
ACDBBLOCKREPETAG
1070
     1
1071
       31
1005
127518
  0
LINE
  5
127519
  8
OBJECT
 10
10593.0
 20
-1036.5
 30
0.0
 11
10584.5
 21
-1036.5
 31
0.0
1001
ACDBBLOCKREPETAG
1070
     1
1071
       32
1005
127519
  0
LINE
  5
12751A
  8
OBJECT
 10
10584.5
 20
-1131.5
 30
0.0
 11
10593.0
 21
-1131.5
 31
0.0
1001
ACDBBLOCKREPETAG
1070
     1
1071
       33
1005
12751A
  0
LINE
  5
12751B
  8
OBJECT
 10
10593.0
 20
-1131.5
 30
0.0
 11
10593.0
 21
-1036.5
 31
0.0
1001
ACDBBLOCKREPETAG
1070
     1
1071
       34
1005
12751B
  0
LINE
  5
12751C
  8
OBJECT
 10
10597.0
 20
-1032.0
 30
0.0
 11
10593.0
 21
-1036.5
 31
0.0
1001
ACDBBLOCKREPETAG
1070
     1
1071
       35
1005
12751C
  0
LINE
  5
12751D
  8
OBJECT
 10
10597.0
 20
-1136.0
 30
0.0
 11
10593.0
 21
-1131.5
 31
0.0
1001
ACDBBLOCKREPETAG
1070
     1
1071
       36
1005
12751D
  0
LINE
  5
12751E
  8
HIDDEN
 10
10588.0
 20
-1046.0
 30
0.0
 11
10588.0
 21
-1122.0
 31
0.0
1001
ACDBBLOCKREPETAG
1070
     1
1071
       37
1005
12751E
  0
ARC
  5
12751F
  8
OBJECT
 10
10664.87827287877
 20
-1092.409507261229
 30
0.0
 40
110.86635228309
 50
144.1634274193047
 51
163.04035380434561
1001
ACDBBLOCKREPETAG
1070
     1
1071
       38
1005
12751F
  0
ARC
  5
127520
  8
OBJECT
 10
10617.135988776899
 20
-1077.287749718449
 30
0.0
 40
60.791749880358971
 50
163.54720465221311
 51
179.72879698282691
1001
ACDBBLOCKREPETAG
1070
     1
1071
       39
1005
127520
  0
ARC
  5
127521
  8
OBJECT
 10
10617.13599565625
 20
-1083.7122497599
 30
0.0
 40
60.79175676209487
 50
180.2712034781452
 51
196.45277946052011
1001
ACDBBLOCKREPETAG
1070
     1
1071
       40
1005
127521
  0
ARC
  5
127522
  8
OBJECT
 10
10664.87827287877
 20
-1068.590492738836
 30
0.0
 40
110.8663522830916
 50
196.95964619565439
 51
215.8365725806953
1001
ACDBBLOCKREPETAG
1070
     1
1071
       41
1005
127522
  0
LINE
  5
127523
  8
OBJECT
 10
10556.344919912999
 20
-1077.0000000000359
 30
0.0
 11
10556.344919912999
 21
-1084.000000000033
 31
0.0
1001
ACDBBLOCKREPETAG
1070
     1
1071
       42
1005
127523
  0
LINE
  5
127524
  8
OBJECT
 10
10575.0
 20
-1027.500000000065
 30
0.0
 11
10581.5
 21
-1027.500000000065
 31
0.0
1001
ACDBBLOCKREPETAG
1070
     1
1071
       43
1005
127524
  0
LINE
  5
127525
  8
OBJECT
 10
10575.0
 20
-1133.5
 30
0.0
 11
10584.5
 21
-1133.5
 31
0.0
1001
ACDBBLOCKREPETAG
1070
     1
1071
       44
1005
127525
  0
LINE
  5
127526
  8
OBJECT
 10
10575.0
 20
-1133.5
 30
0.0
 11
10575.0
 21
-1163.0
 31
0.0
1001
ACDBBLOCKREPETAG
1070
     1
1071
        1
1005
127509
  0
POINT
  5
127527
  8
DOTS
 10
10500.0
 20
-1136.0
 30
0.0
  0
LINE
  5
127528
  8
DIM
 10
10665.0
 20
-696.0
 30
0.0
 11
10719.424581672751
 21
-696.0
 31
0.0
  0
LINE
  5
127529
  8
DIM
 10
10650.0
 20
-1136.0
 30
0.0
 11
10719.424581672751
 21
-1136.0
 31
0.0
  0
LINE
  5
12752A
  8
DIM
 10
10709.424581672751
 20
-716.0
 30
0.0
 11
10709.424581672751
 21
-1116.0
 31
0.0
  0
INSERT
  5
12752B
  8
DIM
  2
_OPEN30
 10
10709.424581672751
 20
-696.0
 30
0.0
 41
20.0
 42
20.0
 43
20.0
 50
90.0
  0
INSERT
  5
12752C
  8
DIM
  2
_OPEN30
 10
10709.424581672751
 20
-1136.0
 30
0.0
 41
20.0
 42
20.0
 43
20.0
 50
270.0
  0
INSERT
  5
12752D
  8
SLIM
  2
*U7
 10
0.0
 20
0.0
 30
0.0
  0
LINE
  5
12752E
  8
OBJECT
 10
8575.0
 20
-890.0
 30
0.0
 11
8575.0
 21
-1027.500000000065
 31
0.0
1001
ACDBBLOCKREPETAG
1070
     1
1071
        1
1005
12752E
  0
LINE
  5
12752F
  8
OBJECT
 10
8425.0
 20
-889.99999999999409
 30
0.0
 11
8425.0
 21
-1163.0
 31
0.0
1001
ACDBBLOCKREPETAG
1070
     1
1071
        3
1005
12752F
  0
LINE
  5
127530
  8
CENTER
 10
8500.0
 20
-890.0
 30
0.0
 11
8500.0
 21
-1175.0
 31
0.0
1001
ACDBBLOCKREPETAG
1070
     1
1071
        6
1005
127530
  0
LINE
  5
127531
  8
OBJECT
 10
8420.0
 20
-1175.0
 30
0.0
 11
8580.0
 21
-1175.0
 31
0.0
1001
ACDBBLOCKREPETAG
1070
     1
1071
        7
1005
127531
  0
LINE
  5
127532
  8
OBJECT
 10
8420.0
 20
-1163.0
 30
0.0
 11
8580.0
 21
-1163.0
 31
0.0
1001
ACDBBLOCKREPETAG
1070
     1
1071
        8
1005
127532
  0
LINE
  5
127533
  8
OBJECT
 10
8420.0
 20
-1163.0
 30
0.0
 11
8420.0
 21
-1175.0
 31
0.0
1001
ACDBBLOCKREPETAG
1070
     1
1071
        9
1005
127533
  0
LINE
  5
127534
  8
OBJECT
 10
8580.0
 20
-1163.0
 30
0.0
 11
8580.0
 21
-1175.0
 31
0.0
1001
ACDBBLOCKREPETAG
1070
     1
1071
       10
1005
127534
  0
LINE
  5
127535
  8
OBJECT
 10
8633.0
 20
-1029.0
 30
0.0
 11
8640.0
 21
-1029.0
 31
0.0
1001
ACDBBLOCKREPETAG
1070
     1
1071
       23
1005
127535
  0
LINE
  5
127536
  8
OBJECT
 10
8640.0
 20
-1029.0
 30
0.0
 11
8640.0
 21
-1136.0
 31
0.0
1001
ACDBBLOCKREPETAG
1070
     1
1071
       24
1005
127536
  0
LINE
  5
127537
  8
OBJECT
 10
8584.5
 20
-1030.500000000065
 30
0.0
 11
8584.5
 21
-1133.5
 31
0.0
1001
ACDBBLOCKREPETAG
1070
     1
1071
       25
1005
127537
  0
ARC
  5
127538
  8
OBJECT
 10
8581.5
 20
-1030.500000000065
 30
0.0
 40
3.0
 50
0.0
 51
90.0
1001
ACDBBLOCKREPETAG
1070
     1
1071
       26
1005
127538
  0
LINE
  5
127539
  8
OBJECT
 10
8633.0
 20
-1136.0
 30
0.0
 11
8633.0
 21
-1029.0
 31
0.0
1001
ACDBBLOCKREPETAG
1070
     1
1071
       27
1005
127539
  0
LINE
  5
12753A
  8
CENTER
 10
8655.0
 20
-1084.0
 30
0.0
 11
8541.3449199130046
 21
-1084.000000000065
 31
0.0
1001
ACDBBLOCKREPETAG
1070
     1
1071
       28
1005
12753A
  0
LINE
  5
12753B
  8
OBJECT
 10
8633.0
 20
-1032.0
 30
0.0
 11
8597.0
 21
-1032.0
 31
0.0
1001
ACDBBLOCKREPETAG
1070
     1
1071
       29
1005
12753B
  0
LINE
  5
12753C
  8
OBJECT
 10
8597.0
 20
-1032.0
 30
0.0
 11
8597.0
 21
-1136.0
 31
0.0
1001
ACDBBLOCKREPETAG
1070
     1
1071
       30
1005
12753C
  0
LINE
  5
12753D
  8
OBJECT
 10
8597.0
 20
-1136.0
 30
0.0
 11
8640.0
 21
-1136.0
 31
0.0
1001
ACDBBLOCKREPETAG
1070
     1
1071
       31
1005
12753D
  0
LINE
  5
12753E
  8
OBJECT
 10
8593.0
 20
-1036.5
 30
0.0
 11
8584.5
 21
-1036.5
 31
0.0
1001
ACDBBLOCKREPETAG
1070
     1
1071
       32
1005
12753E
  0
LINE
  5
12753F
  8
OBJECT
 10
8584.5
 20
-1131.5
 30
0.0
 11
8593.0
 21
-1131.5
 31
0.0
1001
ACDBBLOCKREPETAG
1070
     1
1071
       33
1005
12753F
  0
LINE
  5
127540
  8
OBJECT
 10
8593.0
 20
-1131.5
 30
0.0
 11
8593.0
 21
-1036.5
 31
0.0
1001
ACDBBLOCKREPETAG
1070
     1
1071
       34
1005
127540
  0
LINE
  5
127541
  8
OBJECT
 10
8597.0
 20
-1032.0
 30
0.0
 11
8593.0
 21
-1036.5
 31
0.0
1001
ACDBBLOCKREPETAG
1070
     1
1071
       35
1005
127541
  0
LINE
  5
127542
  8
OBJECT
 10
8597.0
 20
-1136.0
 30
0.0
 11
8593.0
 21
-1131.5
 31
0.0
1001
ACDBBLOCKREPETAG
1070
     1
1071
       36
1005
127542
  0
LINE
  5
127543
  8
HIDDEN
 10
8588.0
 20
-1046.0
 30
0.0
 11
8588.0
 21
-1122.0
 31
0.0
1001
ACDBBLOCKREPETAG
1070
     1
1071
       37
1005
127543
  0
ARC
  5
127544
  8
OBJECT
 10
8664.8782728787737
 20
-1092.409507261229
 30
0.0
 40
110.86635228309
 50
144.1634274193047
 51
163.04035380434561
1001
ACDBBLOCKREPETAG
1070
     1
1071
       38
1005
127544
  0
ARC
  5
127545
  8
OBJECT
 10
8617.1359887769067
 20
-1077.287749718449
 30
0.0
 40
60.791749880358971
 50
163.54720465221311
 51
179.72879698282691
1001
ACDBBLOCKREPETAG
1070
     1
1071
       39
1005
127545
  0
ARC
  5
127546
  8
OBJECT
 10
8617.1359956562483
 20
-1083.7122497599
 30
0.0
 40
60.79175676209487
 50
180.2712034781452
 51
196.45277946052011
1001
ACDBBLOCKREPETAG
1070
     1
1071
       40
1005
127546
  0
ARC
  5
127547
  8
OBJECT
 10
8664.8782728787737
 20
-1068.590492738836
 30
0.0
 40
110.8663522830916
 50
196.95964619565439
 51
215.8365725806953
1001
ACDBBLOCKREPETAG
1070
     1
1071
       41
1005
127547
  0
LINE
  5
127548
  8
OBJECT
 10
8556.3449199130046
 20
-1077.0000000000359
 30
0.0
 11
8556.3449199130046
 21
-1084.000000000033
 31
0.0
1001
ACDBBLOCKREPETAG
1070
     1
1071
       42
1005
127548
  0
LINE
  5
127549
  8
OBJECT
 10
8575.0
 20
-1027.500000000065
 30
0.0
 11
8581.5
 21
-1027.500000000065
 31
0.0
1001
ACDBBLOCKREPETAG
1070
     1
1071
       43
1005
127549
  0
LINE
  5
12754A
  8
OBJECT
 10
8575.0
 20
-1133.5
 30
0.0
 11
8584.5
 21
-1133.5
 31
0.0
1001
ACDBBLOCKREPETAG
1070
     1
1071
       44
1005
12754A
  0
LINE
  5
12754B
  8
OBJECT
 10
8575.0
 20
-1133.5
 30
0.0
 11
8575.0
 21
-1163.0
 31
0.0
1001
ACDBBLOCKREPETAG
1070
     1
1071
        1
1005
12752E
  0
POINT
  5
12754C
  8
DOTS
 10
8500.0
 20
-1136.0
 30
0.0
  0
LINE
  5
12754D
  8
DIM
 10
8665.0
 20
-696.0
 30
0.0
 11
8719.4245816727544
 21
-696.0
 31
0.0
  0
LINE
  5
12754E
  8
DIM
 10
8650.0
 20
-1136.0
 30
0.0
 11
8719.4245816727544
 21
-1136.0
 31
0.0
  0
LINE
  5
12754F
  8
DIM
 10
8709.4245816727544
 20
-716.0
 30
0.0
 11
8709.4245816727544
 21
-1116.0
 31
0.0
  0
INSERT
  5
127550
  8
DIM
  2
_OPEN30
 10
8709.4245816727544
 20
-696.0
 30
0.0
 41
20.0
 42
20.0
 43
20.0
 50
90.0
  0
INSERT
  5
127551
  8
DIM
  2
_OPEN30
 10
8709.4245816727544
 20
-1136.0
 30
0.0
 41
20.0
 42
20.0
 43
20.0
 50
270.0
  0
INSERT
  5
127552
  8
SLIM
  2
*U8
 10
0.0
 20
0.0
 30
0.0
  0
LINE
  5
127553
  8
OBJECT
 10
6575.0
 20
-890.0
 30
0.0
 11
6575.0
 21
-1027.500000000065
 31
0.0
1001
ACDBBLOCKREPETAG
1070
     1
1071
        1
1005
127553
  0
LINE
  5
127554
  8
OBJECT
 10
6425.0
 20
-889.99999999999409
 30
0.0
 11
6425.0
 21
-1163.0
 31
0.0
1001
ACDBBLOCKREPETAG
1070
     1
1071
        3
1005
127554
  0
LINE
  5
127555
  8
CENTER
 10
6500.0
 20
-890.0
 30
0.0
 11
6500.0
 21
-1175.0
 31
0.0
1001
ACDBBLOCKREPETAG
1070
     1
1071
        6
1005
127555
  0
LINE
  5
127556
  8
OBJECT
 10
6420.0
 20
-1175.0
 30
0.0
 11
6580.0
 21
-1175.0
 31
0.0
1001
ACDBBLOCKREPETAG
1070
     1
1071
        7
1005
127556
  0
LINE
  5
127557
  8
OBJECT
 10
6420.0
 20
-1163.0
 30
0.0
 11
6580.0
 21
-1163.0
 31
0.0
1001
ACDBBLOCKREPETAG
1070
     1
1071
        8
1005
127557
  0
LINE
  5
127558
  8
OBJECT
 10
6420.0
 20
-1163.0
 30
0.0
 11
6420.0
 21
-1175.0
 31
0.0
1001
ACDBBLOCKREPETAG
1070
     1
1071
        9
1005
127558
  0
LINE
  5
127559
  8
OBJECT
 10
6580.0
 20
-1163.0
 30
0.0
 11
6580.0
 21
-1175.0
 31
0.0
1001
ACDBBLOCKREPETAG
1070
     1
1071
       10
1005
127559
  0
LINE
  5
12755A
  8
OBJECT
 10
6633.0
 20
-1029.0
 30
0.0
 11
6640.0
 21
-1029.0
 31
0.0
1001
ACDBBLOCKREPETAG
1070
     1
1071
       23
1005
12755A
  0
LINE
  5
12755B
  8
OBJECT
 10
6640.0
 20
-1029.0
 30
0.0
 11
6640.0
 21
-1136.0
 31
0.0
1001
ACDBBLOCKREPETAG
1070
     1
1071
       24
1005
12755B
  0
LINE
  5
12755C
  8
OBJECT
 10
6584.5
 20
-1030.500000000065
 30
0.0
 11
6584.5
 21
-1133.5
 31
0.0
1001
ACDBBLOCKREPETAG
1070
     1
1071
       25
1005
12755C
  0
ARC
  5
12755D
  8
OBJECT
 10
6581.5
 20
-1030.500000000065
 30
0.0
 40
3.0
 50
0.0
 51
90.0
1001
ACDBBLOCKREPETAG
1070
     1
1071
       26
1005
12755D
  0
LINE
  5
12755E
  8
OBJECT
 10
6633.0
 20
-1136.0
 30
0.0
 11
6633.0
 21
-1029.0
 31
0.0
1001
ACDBBLOCKREPETAG
1070
     1
1071
       27
1005
12755E
  0
LINE
  5
12755F
  8
CENTER
 10
6655.0
 20
-1084.0
 30
0.0
 11
6541.3449199130037
 21
-1084.000000000065
 31
0.0
1001
ACDBBLOCKREPETAG
1070
     1
1071
       28
1005
12755F
  0
LINE
  5
127560
  8
OBJECT
 10
6633.0
 20
-1032.0
 30
0.0
 11
6597.0
 21
-1032.0
 31
0.0
1001
ACDBBLOCKREPETAG
1070
     1
1071
       29
1005
127560
  0
LINE
  5
127561
  8
OBJECT
 10
6597.0
 20
-1032.0
 30
0.0
 11
6597.0
 21
-1136.0
 31
0.0
1001
ACDBBLOCKREPETAG
1070
     1
1071
       30
1005
127561
  0
LINE
  5
127562
  8
OBJECT
 10
6597.0
 20
-1136.0
 30
0.0
 11
6640.0
 21
-1136.0
 31
0.0
1001
ACDBBLOCKREPETAG
1070
     1
1071
       31
1005
127562
  0
LINE
  5
127563
  8
OBJECT
 10
6593.0
 20
-1036.5
 30
0.0
 11
6584.5
 21
-1036.5
 31
0.0
1001
ACDBBLOCKREPETAG
1070
     1
1071
       32
1005
127563
  0
LINE
  5
127564
  8
OBJECT
 10
6584.5
 20
-1131.5
 30
0.0
 11
6593.0
 21
-1131.5
 31
0.0
1001
ACDBBLOCKREPETAG
1070
     1
1071
       33
1005
127564
  0
LINE
  5
127565
  8
OBJECT
 10
6593.0
 20
-1131.5
 30
0.0
 11
6593.0
 21
-1036.5
 31
0.0
1001
ACDBBLOCKREPETAG
1070
     1
1071
       34
1005
127565
  0
LINE
  5
127566
  8
OBJECT
 10
6597.0
 20
-1032.0
 30
0.0
 11
6593.0
 21
-1036.5
 31
0.0
1001
ACDBBLOCKREPETAG
1070
     1
1071
       35
1005
127566
  0
LINE
  5
127567
  8
OBJECT
 10
6597.0
 20
-1136.0
 30
0.0
 11
6593.0
 21
-1131.5
 31
0.0
1001
ACDBBLOCKREPETAG
1070
     1
1071
       36
1005
127567
  0
LINE
  5
127568
  8
HIDDEN
 10
6588.0
 20
-1046.0
 30
0.0
 11
6588.0
 21
-1122.0
 31
0.0
1001
ACDBBLOCKREPETAG
1070
     1
1071
       37
1005
127568
  0
ARC
  5
127569
  8
OBJECT
 10
6664.8782728787719
 20
-1092.409507261229
 30
0.0
 40
110.86635228309
 50
144.1634274193047
 51
163.04035380434561
1001
ACDBBLOCKREPETAG
1070
     1
1071
       38
1005
127569
  0
ARC
  5
12756A
  8
OBJECT
 10
6617.1359887769049
 20
-1077.287749718449
 30
0.0
 40
60.791749880358971
 50
163.54720465221311
 51
179.72879698282651
1001
ACDBBLOCKREPETAG
1070
     1
1071
       39
1005
12756A
  0
ARC
  5
12756B
  8
OBJECT
 10
6617.1359956562474
 20
-1083.7122497599
 30
0.0
 40
60.79175676209487
 50
180.2712034781452
 51
196.45277946052011
1001
ACDBBLOCKREPETAG
1070
     1
1071
       40
1005
12756B
  0
ARC
  5
12756C
  8
OBJECT
 10
6664.8782728787719
 20
-1068.590492738836
 30
0.0
 40
110.8663522830916
 50
196.95964619565439
 51
215.8365725806953
1001
ACDBBLOCKREPETAG
1070
     1
1071
       41
1005
12756C
  0
LINE
  5
12756D
  8
OBJECT
 10
6556.3449199130064
 20
-1077.0000000000359
 30
0.0
 11
6556.3449199130064
 21
-1084.000000000033
 31
0.0
1001
ACDBBLOCKREPETAG
1070
     1
1071
       42
1005
12756D
  0
LINE
  5
12756E
  8
OBJECT
 10
6575.0
 20
-1027.500000000065
 30
0.0
 11
6581.5
 21
-1027.500000000065
 31
0.0
1001
ACDBBLOCKREPETAG
1070
     1
1071
       43
1005
12756E
  0
LINE
  5
12756F
  8
OBJECT
 10
6575.0
 20
-1133.5
 30
0.0
 11
6584.5
 21
-1133.5
 31
0.0
1001
ACDBBLOCKREPETAG
1070
     1
1071
       44
1005
12756F
  0
LINE
  5
127570
  8
OBJECT
 10
6575.0
 20
-1133.5
 30
0.0
 11
6575.0
 21
-1163.0
 31
0.0
1001
ACDBBLOCKREPETAG
1070
     1
1071
        1
1005
127553
  0
POINT
  5
127571
  8
DOTS
 10
6500.0
 20
-1136.0
 30
0.0
  0
LINE
  5
127572
  8
DIM
 10
6665.0
 20
-696.0
 30
0.0
 11
6719.4245816727562
 21
-696.0
 31
0.0
  0
LINE
  5
127573
  8
DIM
 10
6650.0
 20
-1136.0
 30
0.0
 11
6719.4245816727562
 21
-1136.0
 31
0.0
  0
LINE
  5
127574
  8
DIM
 10
6709.4245816727562
 20
-716.0
 30
0.0
 11
6709.4245816727562
 21
-1116.0
 31
0.0
  0
INSERT
  5
127575
  8
DIM
  2
_OPEN30
 10
6709.4245816727562
 20
-696.0
 30
0.0
 41
20.0
 42
20.0
 43
20.0
 50
90.0
  0
INSERT
  5
127576
  8
DIM
  2
_OPEN30
 10
6709.4245816727562
 20
-1136.0
 30
0.0
 41
20.0
 42
20.0
 43
20.0
 50
270.0
  0
INSERT
  5
127577
  8
SLIM
  2
*U9
 10
0.0
 20
0.0
 30
0.0
  0
LINE
  5
127578
  8
OBJECT
 10
4575.0
 20
-890.0
 30
0.0
 11
4575.0
 21
-1027.500000000065
 31
0.0
1001
ACDBBLOCKREPETAG
1070
     1
1071
        1
1005
127578
  0
LINE
  5
127579
  8
OBJECT
 10
4425.0
 20
-889.99999999999409
 30
0.0
 11
4425.0
 21
-1163.0
 31
0.0
1001
ACDBBLOCKREPETAG
1070
     1
1071
        3
1005
127579
  0
LINE
  5
12757A
  8
CENTER
 10
4500.0
 20
-890.0
 30
0.0
 11
4500.0
 21
-1175.0
 31
0.0
1001
ACDBBLOCKREPETAG
1070
     1
1071
        6
1005
12757A
  0
LINE
  5
12757B
  8
OBJECT
 10
4420.0
 20
-1175.0
 30
0.0
 11
4580.0
 21
-1175.0
 31
0.0
1001
ACDBBLOCKREPETAG
1070
     1
1071
        7
1005
12757B
  0
LINE
  5
12757C
  8
OBJECT
 10
4420.0
 20
-1163.0
 30
0.0
 11
4580.0
 21
-1163.0
 31
0.0
1001
ACDBBLOCKREPETAG
1070
     1
1071
        8
1005
12757C
  0
LINE
  5
12757D
  8
OBJECT
 10
4420.0
 20
-1163.0
 30
0.0
 11
4420.0
 21
-1175.0
 31
0.0
1001
ACDBBLOCKREPETAG
1070
     1
1071
        9
1005
12757D
  0
LINE
  5
12757E
  8
OBJECT
 10
4580.0
 20
-1163.0
 30
0.0
 11
4580.0
 21
-1175.0
 31
0.0
1001
ACDBBLOCKREPETAG
1070
     1
1071
       10
1005
12757E
  0
LINE
  5
12757F
  8
OBJECT
 10
4633.0
 20
-1029.0
 30
0.0
 11
4640.0
 21
-1029.0
 31
0.0
1001
ACDBBLOCKREPETAG
1070
     1
1071
       23
1005
12757F
  0
LINE
  5
127580
  8
OBJECT
 10
4640.0
 20
-1029.0
 30
0.0
 11
4640.0
 21
-1136.0
 31
0.0
1001
ACDBBLOCKREPETAG
1070
     1
1071
       24
1005
127580
  0
LINE
  5
127581
  8
OBJECT
 10
4584.5
 20
-1030.500000000065
 30
0.0
 11
4584.5
 21
-1133.5
 31
0.0
1001
ACDBBLOCKREPETAG
1070
     1
1071
       25
1005
127581
  0
ARC
  5
127582
  8
OBJECT
 10
4581.5
 20
-1030.500000000065
 30
0.0
 40
3.0
 50
0.0
 51
90.0
1001
ACDBBLOCKREPETAG
1070
     1
1071
       26
1005
127582
  0
LINE
  5
127583
  8
OBJECT
 10
4633.0
 20
-1136.0
 30
0.0
 11
4633.0
 21
-1029.0
 31
0.0
1001
ACDBBLOCKREPETAG
1070
     1
1071
       27
1005
127583
  0
LINE
  5
127584
  8
CENTER
 10
4655.0
 20
-1084.0
 30
0.0
 11
4541.3449199130037
 21
-1084.000000000065
 31
0.0
1001
ACDBBLOCKREPETAG
1070
     1
1071
       28
1005
127584
  0
LINE
  5
127585
  8
OBJECT
 10
4633.0
 20
-1032.0
 30
0.0
 11
4597.0
 21
-1032.0
 31
0.0
1001
ACDBBLOCKREPETAG
1070
     1
1071
       29
1005
127585
  0
LINE
  5
127586
  8
OBJECT
 10
4597.0
 20
-1032.0
 30
0.0
 11
4597.0
 21
-1136.0
 31
0.0
1001
ACDBBLOCKREPETAG
1070
     1
1071
       30
1005
127586
  0
LINE
  5
127587
  8
OBJECT
 10
4597.0
 20
-1136.0
 30
0.0
 11
4640.0
 21
-1136.0
 31
0.0
1001
ACDBBLOCKREPETAG
1070
     1
1071
       31
1005
127587
  0
LINE
  5
127588
  8
OBJECT
 10
4593.0
 20
-1036.5
 30
0.0
 11
4584.5
 21
-1036.5
 31
0.0
1001
ACDBBLOCKREPETAG
1070
     1
1071
       32
1005
127588
  0
LINE
  5
127589
  8
OBJECT
 10
4584.5
 20
-1131.5
 30
0.0
 11
4593.0
 21
-1131.5
 31
0.0
1001
ACDBBLOCKREPETAG
1070
     1
1071
       33
1005
127589
  0
LINE
  5
12758A
  8
OBJECT
 10
4593.0
 20
-1131.5
 30
0.0
 11
4593.0
 21
-1036.5
 31
0.0
1001
ACDBBLOCKREPETAG
1070
     1
1071
       34
1005
12758A
  0
LINE
  5
12758B
  8
OBJECT
 10
4597.0
 20
-1032.0
 30
0.0
 11
4593.0
 21
-1036.5
 31
0.0
1001
ACDBBLOCKREPETAG
1070
     1
1071
       35
1005
12758B
  0
LINE
  5
12758C
  8
OBJECT
 10
4597.0
 20
-1136.0
 30
0.0
 11
4593.0
 21
-1131.5
 31
0.0
1001
ACDBBLOCKREPETAG
1070
     1
1071
       36
1005
12758C
  0
LINE
  5
12758D
  8
HIDDEN
 10
4588.0
 20
-1046.0
 30
0.0
 11
4588.0
 21
-1122.0
 31
0.0
1001
ACDBBLOCKREPETAG
1070
     1
1071
       37
1005
12758D
  0
ARC
  5
12758E
  8
OBJECT
 10
4664.8782728787719
 20
-1092.409507261229
 30
0.0
 40
110.86635228309
 50
144.1634274193047
 51
163.04035380434561
1001
ACDBBLOCKREPETAG
1070
     1
1071
       38
1005
12758E
  0
ARC
  5
12758F
  8
OBJECT
 10
4617.1359887769049
 20
-1077.287749718449
 30
0.0
 40
60.791749880358971
 50
163.54720465221311
 51
179.72879698282651
1001
ACDBBLOCKREPETAG
1070
     1
1071
       39
1005
12758F
  0
ARC
  5
127590
  8
OBJECT
 10
4617.1359956562483
 20
-1083.7122497599
 30
0.0
 40
60.79175676209487
 50
180.2712034781452
 51
196.45277946052011
1001
ACDBBLOCKREPETAG
1070
     1
1071
       40
1005
127590
  0
ARC
  5
127591
  8
OBJECT
 10
4664.8782728787719
 20
-1068.590492738836
 30
0.0
 40
110.8663522830916
 50
196.95964619565439
 51
215.8365725806953
1001
ACDBBLOCKREPETAG
1070
     1
1071
       41
1005
127591
  0
LINE
  5
127592
  8
OBJECT
 10
4556.3449199130037
 20
-1077.0000000000359
 30
0.0
 11
4556.3449199130037
 21
-1084.000000000033
 31
0.0
1001
ACDBBLOCKREPETAG
1070
     1
1071
       42
1005
127592
  0
LINE
  5
127593
  8
OBJECT
 10
4575.0
 20
-1027.500000000065
 30
0.0
 11
4581.5
 21
-1027.500000000065
 31
0.0
1001
ACDBBLOCKREPETAG
1070
     1
1071
       43
1005
127593
  0
LINE
  5
127594
  8
OBJECT
 10
4575.0
 20
-1133.5
 30
0.0
 11
4584.5
 21
-1133.5
 31
0.0
1001
ACDBBLOCKREPETAG
1070
     1
1071
       44
1005
127594
  0
LINE
  5
127595
  8
OBJECT
 10
4575.0
 20
-1133.5
 30
0.0
 11
4575.0
 21
-1163.0
 31
0.0
1001
ACDBBLOCKREPETAG
1070
     1
1071
        1
1005
127578
  0
POINT
  5
127596
  8
DOTS
 10
4500.0
 20
-1136.0
 30
0.0
  0
LINE
  5
127597
  8
DIM
 10
4665.0
 20
-696.0
 30
0.0
 11
4719.4245816727571
 21
-696.0
 31
0.0
  0
LINE
  5
127598
  8
DIM
 10
4650.0
 20
-1136.0
 30
0.0
 11
4719.4245816727571
 21
-1136.0
 31
0.0
  0
LINE
  5
127599
  8
DIM
 10
4709.4245816727562
 20
-716.0
 30
0.0
 11
4709.4245816727562
 21
-1116.0
 31
0.0
  0
INSERT
  5
12759A
  8
DIM
  2
_OPEN30
 10
4709.4245816727562
 20
-696.0
 30
0.0
 41
20.0
 42
20.0
 43
20.0
 50
90.0
  0
INSERT
  5
12759B
  8
DIM
  2
_OPEN30
 10
4709.4245816727562
 20
-1136.0
 30
0.0
 41
20.0
 42
20.0
 43
20.0
 50
270.0
  0
INSERT
  5
12759C
  8
SLIM
  2
*U10
 10
0.0
 20
0.0
 30
0.0
  0
POLYLINE
  5
12759D
  8
HIDDEN
 66
     1
 10
0.0
 20
0.0
 30
0.0
 70
     1
1001
ACDBBLOCKREPETAG
1070
     1
1071
      105
1005
0
  0
VERTEX
  5
128260
  8
HIDDEN
 10
359.99999999987779
 20
-799.99999999999818
 30
0.0
  0
VERTEX
  5
128261
  8
HIDDEN
 10
719.99999999975603
 20
-799.99999999999818
 30
0.0
  0
VERTEX
  5
128262
  8
HIDDEN
 10
719.99999999975603
 20
-1263.9999999998399
 30
0.0
  0
VERTEX
  5
128263
  8
HIDDEN
 10
359.99999999987779
 20
-1263.9999999998399
 30
0.0
  0
SEQEND
  5
128264
  8
HIDDEN
  0
POLYLINE
  5
12759E
  8
HIDDEN
 66
     1
 10
0.0
 20
0.0
 30
0.0
 70
     1
1001
ACDBBLOCKREPETAG
1070
     1
1071
      110
1005
0
  0
VERTEX
  5
128265
  8
HIDDEN
 10
-0.0000000000002274
 20
-799.99999999999818
 30
0.0
  0
VERTEX
  5
128266
  8
HIDDEN
 10
359.99999999987779
 20
-799.99999999999818
 30
0.0
  0
VERTEX
  5
128267
  8
HIDDEN
 10
359.99999999987779
 20
-1263.9999999998399
 30
0.0
  0
VERTEX
  5
128268
  8
HIDDEN
 10
-0.0000000000002274
 20
-1263.9999999998399
 30
0.0
  0
SEQEND
  5
128269
  8
HIDDEN
  0
POLYLINE
  5
12759F
  8
HIDDEN
 66
     1
 10
0.0
 20
0.0
 30
0.0
 70
     1
1001
ACDBBLOCKREPETAG
1070
     1
1071
      125
1005
0
  0
VERTEX
  5
12826A
  8
HIDDEN
 10
-0.0000000000002274
 20
-1263.9999999998399
 30
0.0
  0
VERTEX
  5
12826B
  8
HIDDEN
 10
359.99999999987779
 20
-1263.9999999998399
 30
0.0
  0
VERTEX
  5
12826C
  8
HIDDEN
 10
359.99999999987779
 20
-1727.999999999681
 30
0.0
  0
VERTEX
  5
12826D
  8
HIDDEN
 10
-0.0000000000002274
 20
-1727.999999999681
 30
0.0
  0
SEQEND
  5
12826E
  8
HIDDEN
  0
POLYLINE
  5
1275A0
  8
HIDDEN
 66
     1
 10
0.0
 20
0.0
 30
0.0
 70
     1
1001
ACDBBLOCKREPETAG
1070
     1
1071
      110
1005
0
  0
VERTEX
  5
12826F
  8
HIDDEN
 10
-0.0000000000002274
 20
0.0000000000009095
 30
0.0
  0
VERTEX
  5
128270
  8
HIDDEN
 10
359.99999999987779
 20
0.0000000000009095
 30
0.0
  0
VERTEX
  5
128271
  8
HIDDEN
 10
359.99999999987779
 20
-463.99999999984078
 30
0.0
  0
VERTEX
  5
128272
  8
HIDDEN
 10
-0.0000000000002274
 20
-463.99999999984078
 30
0.0
  0
SEQEND
  5
128273
  8
HIDDEN
  0
INSERT
  5
1275A1
  8
SLIM
  2
*U11
 10
0.0
 20
0.0
 30
0.0
  0
LINE
  5
1275A2
  8
OBJECT
 10
118.00000000004179
 20
-99.000000000171866
 30
0.0
 11
118.00000000004179
 21
-92.000000000171852
 31
0.0
1001
ACDBBLOCKREPETAG
1070
     1
1071
       39
1005
1275A2
  0
LINE
  5
1275A3
  8
OBJECT
 10
118.00000000004179
 20
-92.000000000171852
 30
0.0
 11
242.00000000004181
 21
-92.000000000171852
 31
0.0
1001
ACDBBLOCKREPETAG
1070
     1
1071
       40
1005
1275A3
  0
LINE
  5
1275A4
  8
OBJECT
 10
242.00000000004181
 20
-92.000000000171852
 30
0.0
 11
242.00000000004181
 21
-99.000000000171866
 31
0.0
1001
ACDBBLOCKREPETAG
1070
     1
1071
       41
1005
1275A4
  0
LINE
  5
1275A5
  8
OBJECT
 10
242.00000000004181
 20
-99.000000000171866
 30
0.0
 11
118.00000000004179
 21
-99.000000000171866
 31
0.0
1001
ACDBBLOCKREPETAG
1070
     1
1071
       42
1005
1275A5
  0
LINE
  5
1275A6
  8
OBJECT
 10
121.00000000004179
 20
-99.000000000171866
 30
0.0
 11
121.00000000004179
 21
-135.00000000017181
 31
0.0
1001
ACDBBLOCKREPETAG
1070
     1
1071
       43
1005
1275A6
  0
LINE
  5
1275A7
  8
OBJECT
 10
121.00000000004179
 20
-135.00000000017181
 30
0.0
 11
239.00000000004181
 21
-135.00000000017181
 31
0.0
1001
ACDBBLOCKREPETAG
1070
     1
1071
       44
1005
1275A7
  0
LINE
  5
1275A8
  8
OBJECT
 10
239.00000000004181
 20
-135.00000000017181
 30
0.0
 11
239.00000000004181
 21
-99.000000000171866
 31
0.0
1001
ACDBBLOCKREPETAG
1070
     1
1071
       45
1005
1275A8
  0
LINE
  5
1275A9
  8
OBJECT
 10
125.50000000004179
 20
-139.00000000017181
 30
0.0
 11
125.50000000004179
 21
-146.00000000017181
 31
0.0
1001
ACDBBLOCKREPETAG
1070
     1
1071
       46
1005
1275A9
  0
LINE
  5
1275AA
  8
OBJECT
 10
234.50000000004181
 20
-146.00000000017181
 30
0.0
 11
234.50000000004181
 21
-139.00000000017181
 31
0.0
1001
ACDBBLOCKREPETAG
1070
     1
1071
       47
1005
1275AA
  0
LINE
  5
1275AB
  8
OBJECT
 10
234.50000000004181
 20
-139.00000000017181
 30
0.0
 11
125.50000000004179
 21
-139.00000000017181
 31
0.0
1001
ACDBBLOCKREPETAG
1070
     1
1071
       48
1005
1275AB
  0
LINE
  5
1275AC
  8
OBJECT
 10
121.00000000004179
 20
-135.00000000017181
 30
0.0
 11
125.50000000004179
 21
-139.00000000017181
 31
0.0
1001
ACDBBLOCKREPETAG
1070
     1
1071
       49
1005
1275AC
  0
LINE
  5
1275AD
  8
OBJECT
 10
239.00000000004181
 20
-135.00000000017181
 30
0.0
 11
234.50000000004181
 21
-139.00000000017181
 31
0.0
1001
ACDBBLOCKREPETAG
1070
     1
1071
       50
1005
1275AD
  0
LINE
  5
1275AE
  8
OBJECT
 10
118.00000000004179
 20
-149.00000000017101
 30
0.0
 11
118.00000000004179
 21
-152.00000000017181
 31
0.0
1001
ACDBBLOCKREPETAG
1070
     1
1071
       51
1005
1275AE
  0
ARC
  5
1275AF
  8
OBJECT
 10
121.00000000004179
 20
-149.00000000017101
 30
0.0
 40
3.0
 50
90.0
 51
180.0
1001
ACDBBLOCKREPETAG
1070
     1
1071
       52
1005
1275AF
  0
LINE
  5
1275B0
  8
OBJECT
 10
242.00000000004181
 20
-152.00000000017181
 30
0.0
 11
242.00000000004181
 21
-149.0000000001728
 31
0.0
1001
ACDBBLOCKREPETAG
1070
     1
1071
       53
1005
1275B0
  0
ARC
  5
1275B1
  8
OBJECT
 10
239.00000000004181
 20
-149.0000000001728
 30
0.0
 40
3.0
 50
0.0
 51
90.0
1001
ACDBBLOCKREPETAG
1070
     1
1071
       54
1005
1275B1
  0
LINE
  5
1275B2
  8
OBJECT
 10
239.00000000004181
 20
-146.0000000001728
 30
0.0
 11
121.00000000004179
 21
-146.00000000017101
 31
0.0
1001
ACDBBLOCKREPETAG
1070
     1
1071
       55
1005
1275B2
  0
LINE
  5
1275B3
  8
HIDDEN
 10
135.50000000004181
 20
-144.00000000017189
 30
0.0
 11
224.50000000004181
 21
-144.00000000017189
 31
0.0
1001
ACDBBLOCKREPETAG
1070
     1
1071
      426
1005
1275B3
  0
ARC
  5
1275B4
  8
OBJECT
 10
180.00000000004181
 20
-232.00000000017189
 30
0.0
 40
50.0
 50
28.819943000140022
 51
318.52376955951968
1001
ACDBBLOCKREPETAG
1070
     1
1071
       49
1005
1275B4
  0
CIRCLE
  5
1275B5
  8
OBJECT
 10
180.00000000004181
 20
-232.00000000017189
 30
0.0
 40
70.0
1001
ACDBBLOCKREPETAG
1070
     1
1071
       50
1005
1275B5
  0
CIRCLE
  5
1275B6
  8
OBJECT
 10
180.00000000004181
 20
-232.00000000017189
 30
0.0
 40
77.0
1001
ACDBBLOCKREPETAG
1070
     1
1071
       51
1005
1275B6
  0
ARC
  5
1275B7
  8
OBJECT
 10
180.00000000004181
 20
-232.00000000017189
 30
0.0
 40
80.0
 50
140.80503257377961
 51
39.194967426220252
1001
ACDBBLOCKREPETAG
1070
     1
1071
       52
1005
1275B7
  0
LINE
  5
1275B8
  8
OBJECT
 10
118.00000000004179
 20
-186.3381997728473
 30
0.0
 11
118.00000000004179
 21
-152.00000000017181
 31
0.0
1001
ACDBBLOCKREPETAG
1070
     1
1071
       53
1005
1275B8
  0
LINE
  5
1275B9
  8
OBJECT
 10
242.00000000004181
 20
-186.3381997728473
 30
0.0
 11
242.00000000004181
 21
-152.00000000017181
 31
0.0
1001
ACDBBLOCKREPETAG
1070
     1
1071
       54
1005
1275B9
  0
LINE
  5
1275BA
  8
OBJECT
 10
223.8069471237595
 20
-207.89706690687029
 30
0.0
 11
212.55462200004149
 21
-211.34034300017541
 31
0.0
1001
ACDBBLOCKREPETAG
1070
     1
1071
      141
1005
1275BA
  0
LINE
  5
1275BB
  8
OBJECT
 10
198.22553374212291
 20
-245.207250098797
 30
0.0
 11
212.5546220000397
 21
-211.34034300017541
 31
0.0
1001
ACDBBLOCKREPETAG
1070
     1
1071
      143
1005
1275BB
  0
ARC
  5
1275BC
  8
OBJECT
 10
207.43512999909939
 20
-249.10383023827021
 30
0.0
 40
10.0
 50
157.066778292897
 51
244.01473437020459
1001
ACDBBLOCKREPETAG
1070
     1
1071
      144
1005
1275BC
  0
ARC
  5
1275BD
  8
OBJECT
 10
205.55386256733439
 20
-245.85116096204459
 30
0.0
 40
7.0
 50
157.066778292897
 51
244.0147337750746
1001
ACDBBLOCKREPETAG
1070
     1
1071
      145
1005
1275BD
  0
LINE
  5
1275BE
  8
OBJECT
 10
223.89888500822451
 20
-262.58002444487028
 30
0.0
 11
202.4868825336107
 21
-252.143508176935
 31
0.0
1001
ACDBBLOCKREPETAG
1070
     1
1071
      154
1005
1275BE
  0
LINE
  5
1275BF
  8
OBJECT
 10
220.71813901887009
 20
-266.70278309956279
 30
0.0
 11
203.0537300443502
 21
-258.09289773366339
 31
0.0
1001
ACDBBLOCKREPETAG
1070
     1
1071
      155
1005
1275BF
  0
ARC
  5
1275C0
  8
OBJECT
 10
187.12893698288639
 20
-255.42030469285689
 30
0.0
 40
60.031113246032611
 50
44.070201304186917
 51
52.339361060978852
1001
ACDBBLOCKREPETAG
1070
     1
1071
      156
1005
1275C0
  0
CIRCLE
  5
1275C1
  8
OBJECT
 10
180.00000000004181
 20
-232.00000000017189
 30
0.0
 40
53.5
1001
ACDBBLOCKREPETAG
1070
     1
1071
      157
1005
1275C1
  0
POINT
  5
1275C2
  8
DOTS
 10
180.00000000004181
 20
-232.00000000017189
 30
0.0
1001
ACDBBLOCKREPETAG
1070
     1
1071
      162
1005
1275C2
  0
TEXT
  5
1275C3
  8
SLIM
 10
97.714285714225042
 20
-1707.9999999996919
 30
0.0
 40
48.0
  1
A3000
 41
0.75
1001
ACDBBLOCKREPETAG
1070
     1
1071
      119
1005
0
  0
TEXT
  5
1275C4
  8
SLIM
 10
457.71428571410308
 20
-1243.9999999998499
 30
0.0
 40
48.0
  1
A2000
 41
0.75
1001
ACDBBLOCKREPETAG
1070
     1
1071
      119
1005
0
  0
TEXT
  5
1275C5
  8
SLIM
 10
101.1428571427964
 20
-1243.9999999998499
 30
0.0
 40
48.0
  1
A1000
 41
0.75
1001
ACDBBLOCKREPETAG
1070
     1
1071
      119
1005
0
  0
TEXT
  5
1275C6
  8
SLIM
 10
0.000003566523219
 20
-775.9999954146823
 30
0.0
 40
79.999999999972701
  1
下部枝管バリエーション
 41
0.75
1001
ACDBBLOCKREPETAG
1070
     1
1071
      119
1005
120BCB
  0
LINE
  5
1275C7
  8
DIM
 10
12404.999999999991
 20
-1135.9999999999991
 30
0.0
 11
12333.11645607577
 21
-1135.9999999999991
 31
0.0
  0
LINE
  5
1275C8
  8
DIM
 10
12423.042232104959
 20
-1425.999999999997
 30
0.0
 11
12333.11645607577
 21
-1425.999999999997
 31
0.0
  0
LINE
  5
1275C9
  8
DIM
 10
12343.11645607577
 20
-1155.9999999999991
 30
0.0
 11
12343.11645607577
 21
-1405.999999999997
 31
0.0
  0
INSERT
  5
1275CA
  8
DIM
  2
_OPEN30
 10
12343.11645607577
 20
-1135.9999999999991
 30
0.0
 41
20.0
 42
20.0
 43
20.0
 50
90.0
  0
INSERT
  5
1275CB
  8
DIM
  2
_OPEN30
 10
12343.11645607577
 20
-1425.999999999997
 30
0.0
 41
20.0
 42
20.0
 43
20.0
 50
270.0
  0
INSERT
  5
1275CC
  8
SLIM
  2
*U12
 10
0.0
 20
0.0
 30
0.0
  0
LINE
  5
1275CD
  8
DIM
 10
10404.999999999991
 20
-1135.9999999999991
 30
0.0
 11
10333.11645607577
 21
-1135.9999999999991
 31
0.0
  0
LINE
  5
1275CE
  8
DIM
 10
10423.042232104959
 20
-1425.999999999997
 30
0.0
 11
10333.11645607577
 21
-1425.999999999997
 31
0.0
  0
LINE
  5
1275CF
  8
DIM
 10
10343.11645607577
 20
-1155.9999999999991
 30
0.0
 11
10343.11645607577
 21
-1405.999999999997
 31
0.0
  0
INSERT
  5
1275D0
  8
DIM
  2
_OPEN30
 10
10343.11645607577
 20
-1135.9999999999991
 30
0.0
 41
20.0
 42
20.0
 43
20.0
 50
90.0
  0
INSERT
  5
1275D1
  8
DIM
  2
_OPEN30
 10
10343.11645607577
 20
-1425.999999999997
 30
0.0
 41
20.0
 42
20.0
 43
20.0
 50
270.0
  0
INSERT
  5
1275D2
  8
SLIM
  2
*U13
 10
0.0
 20
0.0
 30
0.0
  0
LINE
  5
1275D3
  8
DIM
 10
8404.9999999999927
 20
-1135.9999999999991
 30
0.0
 11
8333.1164560757734
 21
-1135.9999999999991
 31
0.0
  0
LINE
  5
1275D4
  8
DIM
 10
8423.0422321049627
 20
-1385.9999999999991
 30
0.0
 11
8333.1164560757734
 21
-1385.9999999999991
 31
0.0
  0
LINE
  5
1275D5
  8
DIM
 10
8343.1164560757734
 20
-1155.9999999999991
 30
0.0
 11
8343.1164560757734
 21
-1365.9999999999991
 31
0.0
  0
INSERT
  5
1275D6
  8
DIM
  2
_OPEN30
 10
8343.1164560757734
 20
-1135.9999999999991
 30
0.0
 41
20.0
 42
20.0
 43
20.0
 50
90.0
  0
INSERT
  5
1275D7
  8
DIM
  2
_OPEN30
 10
8343.1164560757734
 20
-1385.9999999999991
 30
0.0
 41
20.0
 42
20.0
 43
20.0
 50
270.0
  0
INSERT
  5
1275D8
  8
SLIM
  2
*U14
 10
0.0
 20
0.0
 30
0.0
  0
LINE
  5
1275D9
  8
OBJECT
 10
2575.0
 20
-890.0
 30
0.0
 11
2575.0
 21
-1027.500000000065
 31
0.0
1001
ACDBBLOCKREPETAG
1070
     1
1071
        1
1005
1275D9
  0
LINE
  5
1275DA
  8
OBJECT
 10
2425.0
 20
-889.99999999999409
 30
0.0
 11
2425.0
 21
-1163.0
 31
0.0
1001
ACDBBLOCKREPETAG
1070
     1
1071
        3
1005
1275DA
  0
LINE
  5
1275DB
  8
CENTER
 10
2500.0
 20
-890.0
 30
0.0
 11
2500.0
 21
-1175.0
 31
0.0
1001
ACDBBLOCKREPETAG
1070
     1
1071
        6
1005
1275DB
  0
LINE
  5
1275DC
  8
OBJECT
 10
2420.0
 20
-1175.0
 30
0.0
 11
2580.0
 21
-1175.0
 31
0.0
1001
ACDBBLOCKREPETAG
1070
     1
1071
        7
1005
1275DC
  0
LINE
  5
1275DD
  8
OBJECT
 10
2420.0
 20
-1163.0
 30
0.0
 11
2580.0
 21
-1163.0
 31
0.0
1001
ACDBBLOCKREPETAG
1070
     1
1071
        8
1005
1275DD
  0
LINE
  5
1275DE
  8
OBJECT
 10
2420.0
 20
-1163.0
 30
0.0
 11
2420.0
 21
-1175.0
 31
0.0
1001
ACDBBLOCKREPETAG
1070
     1
1071
        9
1005
1275DE
  0
LINE
  5
1275DF
  8
OBJECT
 10
2580.0
 20
-1163.0
 30
0.0
 11
2580.0
 21
-1175.0
 31
0.0
1001
ACDBBLOCKREPETAG
1070
     1
1071
       10
1005
1275DF
  0
LINE
  5
1275E0
  8
OBJECT
 10
2633.0
 20
-1029.0
 30
0.0
 11
2640.0
 21
-1029.0
 31
0.0
1001
ACDBBLOCKREPETAG
1070
     1
1071
       23
1005
1275E0
  0
LINE
  5
1275E1
  8
OBJECT
 10
2640.0
 20
-1029.0
 30
0.0
 11
2640.0
 21
-1136.0
 31
0.0
1001
ACDBBLOCKREPETAG
1070
     1
1071
       24
1005
1275E1
  0
LINE
  5
1275E2
  8
OBJECT
 10
2584.5
 20
-1030.500000000065
 30
0.0
 11
2584.5
 21
-1133.5
 31
0.0
1001
ACDBBLOCKREPETAG
1070
     1
1071
       25
1005
1275E2
  0
ARC
  5
1275E3
  8
OBJECT
 10
2581.5
 20
-1030.500000000065
 30
0.0
 40
3.0
 50
0.0
 51
90.0
1001
ACDBBLOCKREPETAG
1070
     1
1071
       26
1005
1275E3
  0
LINE
  5
1275E4
  8
OBJECT
 10
2633.0
 20
-1136.0
 30
0.0
 11
2633.0
 21
-1029.0
 31
0.0
1001
ACDBBLOCKREPETAG
1070
     1
1071
       27
1005
1275E4
  0
LINE
  5
1275E5
  8
CENTER
 10
2655.0
 20
-1084.0
 30
0.0
 11
2541.344919913005
 21
-1084.000000000065
 31
0.0
1001
ACDBBLOCKREPETAG
1070
     1
1071
       28
1005
1275E5
  0
LINE
  5
1275E6
  8
OBJECT
 10
2633.0
 20
-1032.0
 30
0.0
 11
2597.0
 21
-1032.0
 31
0.0
1001
ACDBBLOCKREPETAG
1070
     1
1071
       29
1005
1275E6
  0
LINE
  5
1275E7
  8
OBJECT
 10
2597.0
 20
-1032.0
 30
0.0
 11
2597.0
 21
-1136.0
 31
0.0
1001
ACDBBLOCKREPETAG
1070
     1
1071
       30
1005
1275E7
  0
LINE
  5
1275E8
  8
OBJECT
 10
2597.0
 20
-1136.0
 30
0.0
 11
2640.0
 21
-1136.0
 31
0.0
1001
ACDBBLOCKREPETAG
1070
     1
1071
       31
1005
1275E8
  0
LINE
  5
1275E9
  8
OBJECT
 10
2593.0
 20
-1036.5
 30
0.0
 11
2584.5
 21
-1036.5
 31
0.0
1001
ACDBBLOCKREPETAG
1070
     1
1071
       32
1005
1275E9
  0
LINE
  5
1275EA
  8
OBJECT
 10
2584.5
 20
-1131.5
 30
0.0
 11
2593.0
 21
-1131.5
 31
0.0
1001
ACDBBLOCKREPETAG
1070
     1
1071
       33
1005
1275EA
  0
LINE
  5
1275EB
  8
OBJECT
 10
2593.0
 20
-1131.5
 30
0.0
 11
2593.0
 21
-1036.5
 31
0.0
1001
ACDBBLOCKREPETAG
1070
     1
1071
       34
1005
1275EB
  0
LINE
  5
1275EC
  8
OBJECT
 10
2597.0
 20
-1032.0
 30
0.0
 11
2593.0
 21
-1036.5
 31
0.0
1001
ACDBBLOCKREPETAG
1070
     1
1071
       35
1005
1275EC
  0
LINE
  5
1275ED
  8
OBJECT
 10
2597.0
 20
-1136.0
 30
0.0
 11
2593.0
 21
-1131.5
 31
0.0
1001
ACDBBLOCKREPETAG
1070
     1
1071
       36
1005
1275ED
  0
LINE
  5
1275EE
  8
HIDDEN
 10
2588.0
 20
-1046.0
 30
0.0
 11
2588.0
 21
-1122.0
 31
0.0
1001
ACDBBLOCKREPETAG
1070
     1
1071
       37
1005
1275EE
  0
ARC
  5
1275EF
  8
OBJECT
 10
2664.8782728787751
 20
-1092.409507261229
 30
0.0
 40
110.86635228309
 50
144.1634274193047
 51
163.040353804338
1001
ACDBBLOCKREPETAG
1070
     1
1071
       38
1005
1275EF
  0
ARC
  5
1275F0
  8
OBJECT
 10
2617.1359887769072
 20
-1077.287749718449
 30
0.0
 40
60.791749880358971
 50
163.5472046522205
 51
179.72879698282679
1001
ACDBBLOCKREPETAG
1070
     1
1071
       39
1005
1275F0
  0
ARC
  5
1275F1
  8
OBJECT
 10
2617.1359956562478
 20
-1083.7122497599
 30
0.0
 40
60.79175676209487
 50
180.2712034781452
 51
196.45277946052761
1001
ACDBBLOCKREPETAG
1070
     1
1071
       40
1005
1275F1
  0
ARC
  5
1275F2
  8
OBJECT
 10
2664.8782728787751
 20
-1068.590492738836
 30
0.0
 40
110.8663522830916
 50
196.95964619566189
 51
215.8365725806953
1001
ACDBBLOCKREPETAG
1070
     1
1071
       41
1005
1275F2
  0
LINE
  5
1275F3
  8
OBJECT
 10
2556.344919913005
 20
-1077.0000000000359
 30
0.0
 11
2556.344919913005
 21
-1084.000000000033
 31
0.0
1001
ACDBBLOCKREPETAG
1070
     1
1071
       42
1005
1275F3
  0
LINE
  5
1275F4
  8
OBJECT
 10
2575.0
 20
-1027.500000000065
 30
0.0
 11
2581.5
 21
-1027.500000000065
 31
0.0
1001
ACDBBLOCKREPETAG
1070
     1
1071
       43
1005
1275F4
  0
LINE
  5
1275F5
  8
OBJECT
 10
2575.0
 20
-1133.5
 30
0.0
 11
2584.5
 21
-1133.5
 31
0.0
1001
ACDBBLOCKREPETAG
1070
     1
1071
       44
1005
1275F5
  0
LINE
  5
1275F6
  8
OBJECT
 10
2575.0
 20
-1133.5
 30
0.0
 11
2575.0
 21
-1163.0
 31
0.0
1001
ACDBBLOCKREPETAG
1070
     1
1071
        1
1005
1275D9
  0
POINT
  5
1275F7
  8
DOTS
 10
2500.0
 20
-1136.0
 30
0.0
  0
LINE
  5
1275F8
  8
DIM
 10
2665.0
 20
-696.0
 30
0.0
 11
2719.424581672758
 21
-696.0
 31
0.0
  0
LINE
  5
1275F9
  8
DIM
 10
2650.0
 20
-1136.0
 30
0.0
 11
2719.4245816727562
 21
-1136.0
 31
0.0
  0
LINE
  5
1275FA
  8
DIM
 10
2709.4245816727571
 20
-716.0
 30
0.0
 11
2709.4245816727562
 21
-1116.0
 31
0.0
  0
INSERT
  5
1275FB
  8
DIM
  2
_OPEN30
 10
2709.4245816727571
 20
-696.0
 30
0.0
 41
20.0
 42
20.0
 43
20.0
 50
90.0
  0
INSERT
  5
1275FC
  8
DIM
  2
_OPEN30
 10
2709.4245816727562
 20
-1136.0
 30
0.0
 41
20.0
 42
20.0
 43
20.0
 50
270.0
  0
INSERT
  5
1275FD
  8
SLIM
  2
*U15
 10
0.0
 20
0.0
 30
0.0
  0
LINE
  5
1275FE
  8
CENTER
 10
4977.0
 20
-3925.9999999999959
 30
0.0
 11
4823.0
 21
-3925.9999999999959
 31
0.0
1001
ACDBBLOCKREPETAG
1070
     1
1071
       17
1005
1275FE
  0
CIRCLE
  5
1275FF
  8
OBJECT
 10
4900.0
 20
-3925.9999999999959
 30
0.0
 40
41.5
1001
ACDBBLOCKREPETAG
1070
     1
1071
       18
1005
1275FF
  0
CIRCLE
  5
127600
  8
OBJECT
 10
4900.0
 20
-3925.9999999999959
 30
0.0
 40
54.0
1001
ACDBBLOCKREPETAG
1070
     1
1071
       19
1005
127600
  0
ARC
  5
127601
  8
OBJECT
 10
4900.0
 20
-3925.9999999999959
 30
0.0
 40
62.0
 50
287.89655112921122
 51
252.1034488707887
1001
ACDBBLOCKREPETAG
1070
     1
1071
       20
1005
127601
  0
LINE
  5
127602
  8
OBJECT
 10
4880.947441116743
 20
-3984.9999999999968
 30
0.0
 11
4919.052558883257
 21
-3984.9999999999968
 31
0.0
1001
ACDBBLOCKREPETAG
1070
     1
1071
       21
1005
127602
  0
POINT
  5
127603
  8
DOTS
 10
4900.0
 20
-3984.9999999999968
 30
0.0
1001
ACDBBLOCKREPETAG
1070
     1
1071
       23
1005
127603
  0
LINE
  5
127604
  8
OBJECT
 10
4633.0
 20
-3863.9999999999968
 30
0.0
 11
4640.0
 21
-3863.9999999999968
 31
0.0
1001
ACDBBLOCKREPETAG
1070
     1
1071
       46
1005
127604
  0
LINE
  5
127605
  8
OBJECT
 10
4640.0
 20
-3863.9999999999968
 30
0.0
 11
4640.0
 21
-3984.9999999999968
 31
0.0
1001
ACDBBLOCKREPETAG
1070
     1
1071
       47
1005
127605
  0
LINE
  5
127606
  8
OBJECT
 10
4633.0
 20
-3984.9999999999968
 30
0.0
 11
4633.0
 21
-3863.9999999999968
 31
0.0
1001
ACDBBLOCKREPETAG
1070
     1
1071
       48
1005
127606
  0
LINE
  5
127607
  8
CENTER
 10
4655.0
 20
-3925.9999999999959
 30
0.0
 11
4541.3449199130037
 21
-3926.0000000000618
 31
0.0
1001
ACDBBLOCKREPETAG
1070
     1
1071
       49
1005
127607
  0
LINE
  5
127608
  8
OBJECT
 10
4633.0
 20
-3866.9999999999968
 30
0.0
 11
4597.0
 21
-3866.9999999999968
 31
0.0
1001
ACDBBLOCKREPETAG
1070
     1
1071
       50
1005
127608
  0
LINE
  5
127609
  8
OBJECT
 10
4597.0
 20
-3866.9999999999968
 30
0.0
 11
4597.0
 21
-3984.9999999999968
 31
0.0
1001
ACDBBLOCKREPETAG
1070
     1
1071
       51
1005
127609
  0
LINE
  5
12760A
  8
OBJECT
 10
4597.0
 20
-3984.9999999999968
 30
0.0
 11
4640.0
 21
-3984.9999999999968
 31
0.0
1001
ACDBBLOCKREPETAG
1070
     1
1071
       52
1005
12760A
  0
LINE
  5
12760B
  8
OBJECT
 10
4593.0
 20
-3871.4999999999968
 30
0.0
 11
4582.5
 21
-3871.4999999999968
 31
0.0
1001
ACDBBLOCKREPETAG
1070
     1
1071
       53
1005
12760B
  0
LINE
  5
12760C
  8
OBJECT
 10
4582.5
 20
-3980.4999999999968
 30
0.0
 11
4593.0
 21
-3980.4999999999968
 31
0.0
1001
ACDBBLOCKREPETAG
1070
     1
1071
       54
1005
12760C
  0
LINE
  5
12760D
  8
OBJECT
 10
4593.0
 20
-3980.4999999999968
 30
0.0
 11
4593.0
 21
-3871.4999999999968
 31
0.0
1001
ACDBBLOCKREPETAG
1070
     1
1071
       55
1005
12760D
  0
LINE
  5
12760E
  8
OBJECT
 10
4597.0
 20
-3866.9999999999968
 30
0.0
 11
4593.0
 21
-3871.4999999999968
 31
0.0
1001
ACDBBLOCKREPETAG
1070
     1
1071
       56
1005
12760E
  0
LINE
  5
12760F
  8
OBJECT
 10
4597.0
 20
-3984.9999999999968
 30
0.0
 11
4593.0
 21
-3980.4999999999968
 31
0.0
1001
ACDBBLOCKREPETAG
1070
     1
1071
       57
1005
12760F
  0
LINE
  5
127610
  8
HIDDEN
 10
4588.0
 20
-3881.4999999999959
 30
0.0
 11
4588.0
 21
-3970.4999999999959
 31
0.0
1001
ACDBBLOCKREPETAG
1070
     1
1071
       58
1005
127610
  0
ARC
  5
127611
  8
OBJECT
 10
4664.8782728787719
 20
-3941.4095072612258
 30
0.0
 40
110.86635228309
 50
144.16342741928889
 51
163.04035380433939
1001
ACDBBLOCKREPETAG
1070
     1
1071
       59
1005
127611
  0
ARC
  5
127612
  8
OBJECT
 10
4617.1359887769049
 20
-3926.2877497184459
 30
0.0
 40
60.791749880358971
 50
163.54720465221931
 51
179.72879698282651
1001
ACDBBLOCKREPETAG
1070
     1
1071
       60
1005
127612
  0
ARC
  5
127613
  8
OBJECT
 10
4617.1359956562483
 20
-3932.712249759898
 30
0.0
 40
60.79175676209487
 50
180.2712034781452
 51
196.4527794605265
1001
ACDBBLOCKREPETAG
1070
     1
1071
       61
1005
127613
  0
ARC
  5
127614
  8
OBJECT
 10
4664.8782728787719
 20
-3917.5904927388328
 30
0.0
 40
110.8663522830916
 50
196.9596461956605
 51
215.83657258071111
1001
ACDBBLOCKREPETAG
1070
     1
1071
       62
1005
127614
  0
LINE
  5
127615
  8
OBJECT
 10
4556.3449199130037
 20
-3926.0000000000332
 30
0.0
 11
4556.3449199130037
 21
-3933.0000000000291
 31
0.0
1001
ACDBBLOCKREPETAG
1070
     1
1071
       63
1005
127615
  0
LINE
  5
127616
  8
OBJECT
 10
4574.9999999998336
 20
-3876.500000000291
 30
0.0
 11
4577.4999999998363
 21
-3876.500000000291
 31
0.0
1001
ACDBBLOCKREPETAG
1070
     1
1071
       65
1005
127616
  0
LINE
  5
127617
  8
OBJECT
 10
4574.9999999998327
 20
-3982.4999999997672
 30
0.0
 11
4579.4999999998308
 21
-3982.4999999997672
 31
0.0
1001
ACDBBLOCKREPETAG
1070
     1
1071
       66
1005
127617
  0
LINE
  5
127618
  8
OBJECT
 10
4579.4999999998308
 20
-3982.4999999997672
 30
0.0
 11
4577.4999999998363
 21
-3876.500000000291
 31
0.0
1001
ACDBBLOCKREPETAG
1070
     1
1071
       67
1005
127618
  0
LINE
  5
127619
  8
OBJECT
 10
4579.4999999998308
 20
-3982.4999999997672
 30
0.0
 11
4582.5
 21
-3980.4999999999968
 31
0.0
1001
ACDBBLOCKREPETAG
1070
     1
1071
       68
1005
127619
  0
LINE
  5
12761A
  8
OBJECT
 10
4582.5
 20
-3980.4999999999968
 30
0.0
 11
4582.5
 21
-3871.4999999999968
 31
0.0
1001
ACDBBLOCKREPETAG
1070
     1
1071
       69
1005
12761A
  0
LINE
  5
12761B
  8
OBJECT
 10
4582.5
 20
-3871.4999999999968
 30
0.0
 11
4577.4999999998363
 21
-3876.500000000291
 31
0.0
1001
ACDBBLOCKREPETAG
1070
     1
1071
       70
1005
12761B
  0
LINE
  5
12761C
  8
OBJECT
 10
4633.0000000000009
 20
-3517.9999999999968
 30
0.0
 11
4640.0000000000018
 21
-3517.9999999999968
 31
0.0
1001
ACDBBLOCKREPETAG
1070
     1
1071
       38
1005
12761C
  0
LINE
  5
12761D
  8
OBJECT
 10
4640.0000000000018
 20
-3517.9999999999968
 30
0.0
 11
4640.0
 21
-3641.9999999999968
 31
0.0
1001
ACDBBLOCKREPETAG
1070
     1
1071
       39
1005
12761D
  0
LINE
  5
12761E
  8
OBJECT
 10
4640.0
 20
-3641.9999999999968
 30
0.0
 11
4633.0
 21
-3641.9999999999968
 31
0.0
1001
ACDBBLOCKREPETAG
1070
     1
1071
       40
1005
12761E
  0
LINE
  5
12761F
  8
OBJECT
 10
4633.0
 20
-3641.9999999999968
 30
0.0
 11
4633.0000000000009
 21
-3517.9999999999968
 31
0.0
1001
ACDBBLOCKREPETAG
1070
     1
1071
       41
1005
12761F
  0
LINE
  5
127620
  8
CENTER
 10
4655.0
 20
-3579.9999999999959
 30
0.0
 11
4580.0
 21
-3579.9999999999959
 31
0.0
1001
ACDBBLOCKREPETAG
1070
     1
1071
       42
1005
127620
  0
LINE
  5
127621
  8
OBJECT
 10
4633.0000000000009
 20
-3520.9999999999968
 30
0.0
 11
4597.0000000000018
 21
-3520.9999999999968
 31
0.0
1001
ACDBBLOCKREPETAG
1070
     1
1071
       43
1005
127621
  0
LINE
  5
127622
  8
OBJECT
 10
4597.0000000000018
 20
-3520.9999999999968
 30
0.0
 11
4597.0
 21
-3638.9999999999991
 31
0.0
1001
ACDBBLOCKREPETAG
1070
     1
1071
       44
1005
127622
  0
LINE
  5
127623
  8
OBJECT
 10
4597.0
 20
-3638.9999999999991
 30
0.0
 11
4633.0
 21
-3638.9999999999991
 31
0.0
1001
ACDBBLOCKREPETAG
1070
     1
1071
       45
1005
127623
  0
LINE
  5
127624
  8
OBJECT
 10
4593.0000000000018
 20
-3525.4999999999968
 30
0.0
 11
4582.5000000000018
 21
-3525.4999999999968
 31
0.0
1001
ACDBBLOCKREPETAG
1070
     1
1071
       46
1005
127624
  0
LINE
  5
127625
  8
OBJECT
 10
4582.5
 20
-3634.4999999999959
 30
0.0
 11
4593.0
 21
-3634.4999999999959
 31
0.0
1001
ACDBBLOCKREPETAG
1070
     1
1071
       47
1005
127625
  0
LINE
  5
127626
  8
OBJECT
 10
4593.0
 20
-3634.4999999999959
 30
0.0
 11
4593.0000000000018
 21
-3525.4999999999968
 31
0.0
1001
ACDBBLOCKREPETAG
1070
     1
1071
       48
1005
127626
  0
LINE
  5
127627
  8
OBJECT
 10
4597.0000000000018
 20
-3520.9999999999968
 30
0.0
 11
4593.0000000000018
 21
-3525.4999999999968
 31
0.0
1001
ACDBBLOCKREPETAG
1070
     1
1071
       49
1005
127627
  0
LINE
  5
127628
  8
OBJECT
 10
4597.0
 20
-3638.9999999999991
 30
0.0
 11
4593.0
 21
-3634.4999999999959
 31
0.0
1001
ACDBBLOCKREPETAG
1070
     1
1071
       50
1005
127628
  0
LINE
  5
127629
  8
HIDDEN
 10
4588.0
 20
-3535.4999999999959
 30
0.0
 11
4588.0
 21
-3624.4999999999959
 31
0.0
1001
ACDBBLOCKREPETAG
1070
     1
1071
       51
1005
127629
  0
LINE
  5
12762A
  8
OBJECT
 10
4577.5000000000018
 20
-3530.4999999999959
 30
0.0
 11
4556.3449199129791
 21
-3530.4999999999959
 31
0.0
1001
ACDBBLOCKREPETAG
1070
     1
1071
       52
1005
12762A
  0
LINE
  5
12762B
  8
OBJECT
 10
4577.4999999999991
 20
-3629.4999999999968
 30
0.0
 11
4556.3449199129791
 21
-3629.4999999999968
 31
0.0
1001
ACDBBLOCKREPETAG
1070
     1
1071
       53
1005
12762B
  0
LINE
  5
12762C
  8
OBJECT
 10
4582.5000000000018
 20
-3525.4999999999968
 30
0.0
 11
4582.5
 21
-3634.4999999999959
 31
0.0
1001
ACDBBLOCKREPETAG
1070
     1
1071
       54
1005
12762C
  0
LINE
  5
12762D
  8
OBJECT
 10
4577.5000000000018
 20
-3530.4999999999959
 30
0.0
 11
4577.4999999999991
 21
-3629.4999999999968
 31
0.0
1001
ACDBBLOCKREPETAG
1070
     1
1071
       55
1005
12762D
  0
LINE
  5
12762E
  8
OBJECT
 10
4582.5000000000018
 20
-3525.4999999999968
 30
0.0
 11
4577.5000000000018
 21
-3530.4999999999959
 31
0.0
1001
ACDBBLOCKREPETAG
1070
     1
1071
       56
1005
12762E
  0
LINE
  5
12762F
  8
OBJECT
 10
4577.4999999999991
 20
-3629.4999999999968
 30
0.0
 11
4582.5
 21
-3634.4999999999941
 31
0.0
1001
ACDBBLOCKREPETAG
1070
     1
1071
       57
1005
12762F
  0
CIRCLE
  5
127630
  8
OBJECT
 10
3900.0
 20
-3932.9999999999959
 30
0.0
 40
35.5
1001
ACDBBLOCKREPETAG
1070
     1
1071
       11
1005
127630
  0
LINE
  5
127631
  8
CENTER
 10
3830.0
 20
-3932.9999999999959
 30
0.0
 11
3970.0
 21
-3932.9999999999959
 31
0.0
1001
ACDBBLOCKREPETAG
1070
     1
1071
       12
1005
127631
  0
CIRCLE
  5
127632
  8
OBJECT
 10
3900.0
 20
-3932.9999999999959
 30
0.0
 40
47.0
1001
ACDBBLOCKREPETAG
1070
     1
1071
       14
1005
127632
  0
ARC
  5
127633
  8
OBJECT
 10
3900.0
 20
-3932.9999999999959
 30
0.0
 40
55.0
 50
289.01126526008892
 51
250.98873473991111
1001
ACDBBLOCKREPETAG
1070
     1
1071
       15
1005
127633
  0
LINE
  5
127634
  8
OBJECT
 10
3882.0835271328319
 20
-3984.9999999999968
 30
0.0
 11
3917.9164728671672
 21
-3984.9999999999968
 31
0.0
1001
ACDBBLOCKREPETAG
1070
     1
1071
       16
1005
127634
  0
POINT
  5
127635
  8
DOTS
 10
3900.0
 20
-3984.9999999999968
 30
0.0
1001
ACDBBLOCKREPETAG
1070
     1
1071
       24
1005
127635
  0
LINE
  5
127636
  8
OBJECT
 10
3633.0
 20
-3877.9999999999959
 30
0.0
 11
3640.0
 21
-3877.9999999999959
 31
0.0
1001
ACDBBLOCKREPETAG
1070
     1
1071
       23
1005
127636
  0
LINE
  5
127637
  8
OBJECT
 10
3640.0
 20
-3877.9999999999959
 30
0.0
 11
3640.0
 21
-3984.9999999999968
 31
0.0
1001
ACDBBLOCKREPETAG
1070
     1
1071
       24
1005
127637
  0
LINE
  5
127638
  8
OBJECT
 10
3584.5
 20
-3879.5000000000618
 30
0.0
 11
3584.5
 21
-3982.4999999999968
 31
0.0
1001
ACDBBLOCKREPETAG
1070
     1
1071
       25
1005
127638
  0
ARC
  5
127639
  8
OBJECT
 10
3581.5
 20
-3879.5000000000618
 30
0.0
 40
3.0
 50
0.0
 51
90.0
1001
ACDBBLOCKREPETAG
1070
     1
1071
       26
1005
127639
  0
LINE
  5
12763A
  8
OBJECT
 10
3633.0
 20
-3984.9999999999968
 30
0.0
 11
3633.0
 21
-3877.9999999999959
 31
0.0
1001
ACDBBLOCKREPETAG
1070
     1
1071
       27
1005
12763A
  0
LINE
  5
12763B
  8
CENTER
 10
3655.0
 20
-3932.9999999999959
 30
0.0
 11
3541.3449199130041
 21
-3933.0000000000618
 31
0.0
1001
ACDBBLOCKREPETAG
1070
     1
1071
       28
1005
12763B
  0
LINE
  5
12763C
  8
OBJECT
 10
3633.0
 20
-3880.9999999999968
 30
0.0
 11
3597.0
 21
-3880.9999999999968
 31
0.0
1001
ACDBBLOCKREPETAG
1070
     1
1071
       29
1005
12763C
  0
LINE
  5
12763D
  8
OBJECT
 10
3597.0
 20
-3880.9999999999968
 30
0.0
 11
3597.0
 21
-3984.9999999999968
 31
0.0
1001
ACDBBLOCKREPETAG
1070
     1
1071
       30
1005
12763D
  0
LINE
  5
12763E
  8
OBJECT
 10
3597.0
 20
-3984.9999999999968
 30
0.0
 11
3640.0
 21
-3984.9999999999968
 31
0.0
1001
ACDBBLOCKREPETAG
1070
     1
1071
       31
1005
12763E
  0
LINE
  5
12763F
  8
OBJECT
 10
3593.0
 20
-3885.4999999999959
 30
0.0
 11
3584.5
 21
-3885.4999999999959
 31
0.0
1001
ACDBBLOCKREPETAG
1070
     1
1071
       32
1005
12763F
  0
LINE
  5
127640
  8
OBJECT
 10
3584.5
 20
-3980.4999999999968
 30
0.0
 11
3593.0
 21
-3980.4999999999968
 31
0.0
1001
ACDBBLOCKREPETAG
1070
     1
1071
       33
1005
127640
  0
LINE
  5
127641
  8
OBJECT
 10
3593.0
 20
-3980.4999999999968
 30
0.0
 11
3593.0
 21
-3885.4999999999959
 31
0.0
1001
ACDBBLOCKREPETAG
1070
     1
1071
       34
1005
127641
  0
LINE
  5
127642
  8
OBJECT
 10
3597.0
 20
-3880.9999999999968
 30
0.0
 11
3593.0
 21
-3885.4999999999959
 31
0.0
1001
ACDBBLOCKREPETAG
1070
     1
1071
       35
1005
127642
  0
LINE
  5
127643
  8
OBJECT
 10
3597.0
 20
-3984.9999999999968
 30
0.0
 11
3593.0
 21
-3980.4999999999968
 31
0.0
1001
ACDBBLOCKREPETAG
1070
     1
1071
       36
1005
127643
  0
LINE
  5
127644
  8
HIDDEN
 10
3588.0
 20
-3894.9999999999968
 30
0.0
 11
3588.0
 21
-3970.9999999999959
 31
0.0
1001
ACDBBLOCKREPETAG
1070
     1
1071
       37
1005
127644
  0
ARC
  5
127645
  8
OBJECT
 10
3664.8782728787742
 20
-3941.4095072612258
 30
0.0
 40
110.86635228309
 50
144.16342741928889
 51
163.04035380433169
1001
ACDBBLOCKREPETAG
1070
     1
1071
       38
1005
127645
  0
ARC
  5
127646
  8
OBJECT
 10
3617.1359887769072
 20
-3926.2877497184459
 30
0.0
 40
60.791749880358971
 50
163.5472046522267
 51
179.72879698282679
1001
ACDBBLOCKREPETAG
1070
     1
1071
       39
1005
127646
  0
ARC
  5
127647
  8
OBJECT
 10
3617.1359956562478
 20
-3932.712249759898
 30
0.0
 40
60.79175676209487
 50
180.2712034781452
 51
196.4527794605338
1001
ACDBBLOCKREPETAG
1070
     1
1071
       40
1005
127647
  0
ARC
  5
127648
  8
OBJECT
 10
3664.8782728787742
 20
-3917.5904927388328
 30
0.0
 40
110.8663522830916
 50
196.95964619566811
 51
215.83657258071111
1001
ACDBBLOCKREPETAG
1070
     1
1071
       41
1005
127648
  0
LINE
  5
127649
  8
OBJECT
 10
3556.3449199130041
 20
-3926.0000000000332
 30
0.0
 11
3556.3449199130041
 21
-3933.0000000000291
 31
0.0
1001
ACDBBLOCKREPETAG
1070
     1
1071
       42
1005
127649
  0
LINE
  5
12764A
  8
OBJECT
 10
3574.9999999999991
 20
-3876.5000000000618
 30
0.0
 11
3581.5
 21
-3876.5000000000618
 31
0.0
1001
ACDBBLOCKREPETAG
1070
     1
1071
       43
1005
12764A
  0
LINE
  5
12764B
  8
OBJECT
 10
3574.9999999999991
 20
-3982.4999999999968
 30
0.0
 11
3584.5
 21
-3982.4999999999968
 31
0.0
1001
ACDBBLOCKREPETAG
1070
     1
1071
       44
1005
12764B
  0
LINE
  5
12764C
  8
OBJECT
 10
3633.0
 20
-3524.9999999999968
 30
0.0
 11
3640.0
 21
-3524.9999999999968
 31
0.0
1001
ACDBBLOCKREPETAG
1070
     1
1071
       20
1005
12764C
  0
LINE
  5
12764D
  8
OBJECT
 10
3640.0
 20
-3524.9999999999968
 30
0.0
 11
3640.0
 21
-3634.9999999999968
 31
0.0
1001
ACDBBLOCKREPETAG
1070
     1
1071
       21
1005
12764D
  0
LINE
  5
12764E
  8
OBJECT
 10
3640.0
 20
-3634.9999999999968
 30
0.0
 11
3633.0
 21
-3634.9999999999968
 31
0.0
1001
ACDBBLOCKREPETAG
1070
     1
1071
       22
1005
12764E
  0
LINE
  5
12764F
  8
OBJECT
 10
3633.0
 20
-3634.9999999999968
 30
0.0
 11
3633.0
 21
-3524.9999999999968
 31
0.0
1001
ACDBBLOCKREPETAG
1070
     1
1071
       23
1005
12764F
  0
LINE
  5
127650
  8
CENTER
 10
3655.0
 20
-3579.9999999999959
 30
0.0
 11
3580.0
 21
-3579.9999999999959
 31
0.0
1001
ACDBBLOCKREPETAG
1070
     1
1071
       24
1005
127650
  0
LINE
  5
127651
  8
OBJECT
 10
3633.0
 20
-3527.9999999999968
 30
0.0
 11
3597.0
 21
-3527.9999999999968
 31
0.0
1001
ACDBBLOCKREPETAG
1070
     1
1071
       25
1005
127651
  0
LINE
  5
127652
  8
OBJECT
 10
3597.0
 20
-3527.9999999999968
 30
0.0
 11
3597.0
 21
-3631.9999999999968
 31
0.0
1001
ACDBBLOCKREPETAG
1070
     1
1071
       26
1005
127652
  0
LINE
  5
127653
  8
OBJECT
 10
3597.0
 20
-3631.9999999999968
 30
0.0
 11
3633.0
 21
-3631.9999999999968
 31
0.0
1001
ACDBBLOCKREPETAG
1070
     1
1071
       27
1005
127653
  0
LINE
  5
127654
  8
OBJECT
 10
3593.0
 20
-3532.4999999999968
 30
0.0
 11
3584.5
 21
-3532.4999999999968
 31
0.0
1001
ACDBBLOCKREPETAG
1070
     1
1071
       28
1005
127654
  0
LINE
  5
127655
  8
OBJECT
 10
3584.5
 20
-3627.4999999999959
 30
0.0
 11
3593.0
 21
-3627.4999999999959
 31
0.0
1001
ACDBBLOCKREPETAG
1070
     1
1071
       29
1005
127655
  0
LINE
  5
127656
  8
OBJECT
 10
3593.0
 20
-3627.4999999999959
 30
0.0
 11
3593.0
 21
-3532.4999999999968
 31
0.0
1001
ACDBBLOCKREPETAG
1070
     1
1071
       30
1005
127656
  0
LINE
  5
127657
  8
OBJECT
 10
3597.0
 20
-3527.9999999999968
 30
0.0
 11
3593.0
 21
-3532.4999999999968
 31
0.0
1001
ACDBBLOCKREPETAG
1070
     1
1071
       31
1005
127657
  0
LINE
  5
127658
  8
OBJECT
 10
3597.0
 20
-3631.9999999999968
 30
0.0
 11
3593.0
 21
-3627.4999999999959
 31
0.0
1001
ACDBBLOCKREPETAG
1070
     1
1071
       32
1005
127658
  0
LINE
  5
127659
  8
OBJECT
 10
3584.4999999999982
 20
-3629.4999999999968
 30
0.0
 11
3584.5
 21
-3530.4999999999959
 31
0.0
1001
ACDBBLOCKREPETAG
1070
     1
1071
       33
1005
127659
  0
LINE
  5
12765A
  8
HIDDEN
 10
3588.0
 20
-3541.9999999999968
 30
0.0
 11
3588.0
 21
-3617.9999999999968
 31
0.0
1001
ACDBBLOCKREPETAG
1070
     1
1071
       34
1005
12765A
  0
LINE
  5
12765B
  8
OBJECT
 10
3584.5
 20
-3530.4999999999959
 30
0.0
 11
3556.3449199129791
 21
-3530.4999999999959
 31
0.0
1001
ACDBBLOCKREPETAG
1070
     1
1071
       35
1005
12765B
  0
LINE
  5
12765C
  8
OBJECT
 10
3584.4999999999982
 20
-3629.4999999999968
 30
0.0
 11
3556.3449199129791
 21
-3629.4999999999968
 31
0.0
1001
ACDBBLOCKREPETAG
1070
     1
1071
       36
1005
12765C
  0
LINE
  5
12765D
  8
CENTER
 10
2838.0
 20
-3940.9999999999959
 30
0.0
 11
2962.0
 21
-3940.9999999999959
 31
0.0
1001
ACDBBLOCKREPETAG
1070
     1
1071
        0
1005
12765D
  0
CIRCLE
  5
12765E
  8
OBJECT
 10
2900.0
 20
-3940.9999999999959
 30
0.0
 40
28.0
1001
ACDBBLOCKREPETAG
1070
     1
1071
        2
1005
12765E
  0
CIRCLE
  5
12765F
  8
OBJECT
 10
2900.0
 20
-3940.9999999999959
 30
0.0
 40
39.0
1001
ACDBBLOCKREPETAG
1070
     1
1071
        3
1005
12765F
  0
ARC
  5
127660
  8
OBJECT
 10
2900.0
 20
-3940.9999999999959
 30
0.0
 40
47.0
 50
290.58196921144412
 51
249.41803078855591
1001
ACDBBLOCKREPETAG
1070
     1
1071
        4
1005
127660
  0
LINE
  5
127661
  8
OBJECT
 10
2883.4772883581418
 20
-3984.9999999999968
 30
0.0
 11
2916.5227116418569
 21
-3984.9999999999968
 31
0.0
1001
ACDBBLOCKREPETAG
1070
     1
1071
        5
1005
127661
  0
ARC
  5
127662
  8
OBJECT
 10
2900.0
 20
-3925.9999999999932
 30
0.0
 40
49.5
 50
0.0
 51
180.0
1001
ACDBBLOCKREPETAG
1070
     1
1071
        6
1005
127662
  0
LINE
  5
127663
  8
OBJECT
 10
2850.5000000000032
 20
-3925.9999999999932
 30
0.0
 11
2850.5000000000032
 21
-3932.9999999999959
 31
0.0
1001
ACDBBLOCKREPETAG
1070
     1
1071
        7
1005
127663
  0
LINE
  5
127664
  8
OBJECT
 10
2949.5000000000068
 20
-3925.9999999999932
 30
0.0
 11
2949.5000000000068
 21
-3932.9999999999959
 31
0.0
1001
ACDBBLOCKREPETAG
1070
     1
1071
        8
1005
127664
  0
ARC
  5
127665
  8
OBJECT
 10
2900.0
 20
-3932.9999999999959
 30
0.0
 40
49.5
 50
180.0
 51
202.66956385104879
1001
ACDBBLOCKREPETAG
1070
     1
1071
        9
1005
127665
  0
ARC
  5
127666
  8
OBJECT
 10
2900.0
 20
-3932.9999999999959
 30
0.0
 40
49.5
 50
337.33043614895121
 51
0.0
1001
ACDBBLOCKREPETAG
1070
     1
1071
       10
1005
127666
  0
POINT
  5
127667
  8
DOTS
 10
2900.0
 20
-3984.9999999999968
 30
0.0
1001
ACDBBLOCKREPETAG
1070
     1
1071
       25
1005
127667
  0
LINE
  5
127668
  8
OBJECT
 10
2633.0
 20
-3893.9999999999959
 30
0.0
 11
2640.0
 21
-3893.9999999999959
 31
0.0
1001
ACDBBLOCKREPETAG
1070
     1
1071
        0
1005
127668
  0
LINE
  5
127669
  8
OBJECT
 10
2640.0
 20
-3893.9999999999959
 30
0.0
 11
2640.0
 21
-3984.9999999999968
 31
0.0
1001
ACDBBLOCKREPETAG
1070
     1
1071
        1
1005
127669
  0
LINE
  5
12766A
  8
OBJECT
 10
2584.5
 20
-3879.5000000000618
 30
0.0
 11
2584.5
 21
-3982.4999999999968
 31
0.0
1001
ACDBBLOCKREPETAG
1070
     1
1071
        2
1005
12766A
  0
ARC
  5
12766B
  8
OBJECT
 10
2581.5
 20
-3879.5000000000618
 30
0.0
 40
3.0
 50
0.0
 51
90.0
1001
ACDBBLOCKREPETAG
1070
     1
1071
        3
1005
12766B
  0
LINE
  5
12766C
  8
OBJECT
 10
2633.0
 20
-3984.9999999999968
 30
0.0
 11
2633.0
 21
-3893.9999999999959
 31
0.0
1001
ACDBBLOCKREPETAG
1070
     1
1071
        4
1005
12766C
  0
LINE
  5
12766D
  8
CENTER
 10
2655.0
 20
-3940.9999999999959
 30
0.0
 11
2541.911823713584
 21
-3940.9999999999959
 31
0.0
1001
ACDBBLOCKREPETAG
1070
     1
1071
        5
1005
12766D
  0
LINE
  5
12766E
  8
OBJECT
 10
2633.0
 20
-3896.9999999999968
 30
0.0
 11
2596.9999999999991
 21
-3896.9999999999968
 31
0.0
1001
ACDBBLOCKREPETAG
1070
     1
1071
        6
1005
12766E
  0
LINE
  5
12766F
  8
OBJECT
 10
2596.9999999999991
 20
-3896.9999999999968
 30
0.0
 11
2596.9999999999991
 21
-3984.9999999999968
 31
0.0
1001
ACDBBLOCKREPETAG
1070
     1
1071
        7
1005
12766F
  0
LINE
  5
127670
  8
OBJECT
 10
2596.9999999999991
 20
-3984.9999999999968
 30
0.0
 11
2640.0
 21
-3984.9999999999968
 31
0.0
1001
ACDBBLOCKREPETAG
1070
     1
1071
        8
1005
127670
  0
LINE
  5
127671
  8
OBJECT
 10
2593.0
 20
-3901.4999999999968
 30
0.0
 11
2584.5
 21
-3901.4999999999968
 31
0.0
1001
ACDBBLOCKREPETAG
1070
     1
1071
        9
1005
127671
  0
LINE
  5
127672
  8
OBJECT
 10
2584.5
 20
-3980.4999999999968
 30
0.0
 11
2593.0
 21
-3980.4999999999968
 31
0.0
1001
ACDBBLOCKREPETAG
1070
     1
1071
       10
1005
127672
  0
LINE
  5
127673
  8
OBJECT
 10
2593.0
 20
-3980.4999999999968
 30
0.0
 11
2593.0
 21
-3901.4999999999968
 31
0.0
1001
ACDBBLOCKREPETAG
1070
     1
1071
       11
1005
127673
  0
LINE
  5
127674
  8
OBJECT
 10
2596.9999999999991
 20
-3896.9999999999968
 30
0.0
 11
2593.0
 21
-3901.4999999999968
 31
0.0
1001
ACDBBLOCKREPETAG
1070
     1
1071
       12
1005
127674
  0
LINE
  5
127675
  8
OBJECT
 10
2596.9999999999991
 20
-3984.9999999999968
 30
0.0
 11
2593.0
 21
-3980.4999999999968
 31
0.0
1001
ACDBBLOCKREPETAG
1070
     1
1071
       13
1005
127675
  0
LINE
  5
127676
  8
HIDDEN
 10
2588.0
 20
-3910.9999999999959
 30
0.0
 11
2588.0
 21
-3970.9999999999959
 31
0.0
1001
ACDBBLOCKREPETAG
1070
     1
1071
       14
1005
127676
  0
ARC
  5
127677
  8
OBJECT
 10
2664.8782728787751
 20
-3941.4095072612258
 30
0.0
 40
110.86635228309
 50
144.1634274191434
 51
163.04035380433169
1001
ACDBBLOCKREPETAG
1070
     1
1071
       15
1005
127677
  0
ARC
  5
127678
  8
OBJECT
 10
2617.1359887769072
 20
-3926.2877497184459
 30
0.0
 40
60.791749880358971
 50
163.5472046522267
 51
179.72879698282679
1001
ACDBBLOCKREPETAG
1070
     1
1071
       16
1005
127678
  0
ARC
  5
127679
  8
OBJECT
 10
2617.1359956562478
 20
-3932.712249759898
 30
0.0
 40
60.79175676209487
 50
180.2712034781452
 51
196.4527794605338
1001
ACDBBLOCKREPETAG
1070
     1
1071
       17
1005
127679
  0
ARC
  5
12767A
  8
OBJECT
 10
2664.8782728787751
 20
-3917.5904927388328
 30
0.0
 40
110.8663522830916
 50
196.95964619566811
 51
215.8365725808566
1001
ACDBBLOCKREPETAG
1070
     1
1071
       18
1005
12767A
  0
LINE
  5
12767B
  8
OBJECT
 10
2556.3449199130041
 20
-3926.0000000000332
 30
0.0
 11
2556.3449199130041
 21
-3933.0000000000291
 31
0.0
1001
ACDBBLOCKREPETAG
1070
     1
1071
       19
1005
12767B
  0
LINE
  5
12767C
  8
OBJECT
 10
2575.0
 20
-3876.5000000000618
 30
0.0
 11
2581.5
 21
-3876.5000000000618
 31
0.0
1001
ACDBBLOCKREPETAG
1070
     1
1071
       20
1005
12767C
  0
LINE
  5
12767D
  8
OBJECT
 10
2575.0
 20
-3982.4999999999968
 30
0.0
 11
2584.5
 21
-3982.4999999999968
 31
0.0
1001
ACDBBLOCKREPETAG
1070
     1
1071
       21
1005
12767D
  0
LINE
  5
12767E
  8
OBJECT
 10
2633.0
 20
-3532.9999999999959
 30
0.0
 11
2640.0
 21
-3532.9999999999959
 31
0.0
1001
ACDBBLOCKREPETAG
1070
     1
1071
        0
1005
12767E
  0
LINE
  5
12767F
  8
OBJECT
 10
2640.0
 20
-3532.9999999999959
 30
0.0
 11
2640.0
 21
-3626.9999999999968
 31
0.0
1001
ACDBBLOCKREPETAG
1070
     1
1071
        1
1005
12767F
  0
LINE
  5
127680
  8
OBJECT
 10
2640.0
 20
-3626.9999999999968
 30
0.0
 11
2633.0
 21
-3626.9999999999968
 31
0.0
1001
ACDBBLOCKREPETAG
1070
     1
1071
        2
1005
127680
  0
LINE
  5
127681
  8
OBJECT
 10
2633.0
 20
-3626.9999999999968
 30
0.0
 11
2633.0
 21
-3532.9999999999959
 31
0.0
1001
ACDBBLOCKREPETAG
1070
     1
1071
        3
1005
127681
  0
LINE
  5
127682
  8
CENTER
 10
2655.0
 20
-3579.9999999999959
 30
0.0
 11
2580.0
 21
-3579.9999999999959
 31
0.0
1001
ACDBBLOCKREPETAG
1070
     1
1071
        4
1005
127682
  0
LINE
  5
127683
  8
OBJECT
 10
2633.0
 20
-3535.9999999999959
 30
0.0
 11
2596.9999999999991
 21
-3535.9999999999959
 31
0.0
1001
ACDBBLOCKREPETAG
1070
     1
1071
        5
1005
127683
  0
LINE
  5
127684
  8
OBJECT
 10
2596.9999999999991
 20
-3535.9999999999959
 30
0.0
 11
2596.9999999999991
 21
-3623.9999999999968
 31
0.0
1001
ACDBBLOCKREPETAG
1070
     1
1071
        6
1005
127684
  0
LINE
  5
127685
  8
OBJECT
 10
2596.9999999999991
 20
-3623.9999999999968
 30
0.0
 11
2633.0
 21
-3623.9999999999968
 31
0.0
1001
ACDBBLOCKREPETAG
1070
     1
1071
        7
1005
127685
  0
LINE
  5
127686
  8
OBJECT
 10
2593.0
 20
-3540.4999999999968
 30
0.0
 11
2584.5
 21
-3540.4999999999968
 31
0.0
1001
ACDBBLOCKREPETAG
1070
     1
1071
        8
1005
127686
  0
LINE
  5
127687
  8
OBJECT
 10
2584.5
 20
-3619.4999999999968
 30
0.0
 11
2593.0
 21
-3619.4999999999968
 31
0.0
1001
ACDBBLOCKREPETAG
1070
     1
1071
        9
1005
127687
  0
LINE
  5
127688
  8
OBJECT
 10
2593.0
 20
-3619.4999999999968
 30
0.0
 11
2593.0
 21
-3540.4999999999968
 31
0.0
1001
ACDBBLOCKREPETAG
1070
     1
1071
       10
1005
127688
  0
LINE
  5
127689
  8
OBJECT
 10
2596.9999999999991
 20
-3535.9999999999959
 30
0.0
 11
2593.0
 21
-3540.4999999999968
 31
0.0
1001
ACDBBLOCKREPETAG
1070
     1
1071
       11
1005
127689
  0
LINE
  5
12768A
  8
OBJECT
 10
2596.9999999999991
 20
-3623.9999999999968
 30
0.0
 11
2593.0
 21
-3619.4999999999968
 31
0.0
1001
ACDBBLOCKREPETAG
1070
     1
1071
       12
1005
12768A
  0
LINE
  5
12768B
  8
OBJECT
 10
2584.4999999999991
 20
-3626.4999999999959
 30
0.0
 11
2584.5
 21
-3533.4999999999959
 31
0.0
1001
ACDBBLOCKREPETAG
1070
     1
1071
       13
1005
12768B
  0
ARC
  5
12768C
  8
OBJECT
 10
2581.5
 20
-3533.4999999999959
 30
0.0
 40
3.0
 50
0.0
 51
90.0
1001
ACDBBLOCKREPETAG
1070
     1
1071
       14
1005
12768C
  0
LINE
  5
12768D
  8
HIDDEN
 10
2588.0
 20
-3549.9999999999968
 30
0.0
 11
2588.0
 21
-3609.9999999999968
 31
0.0
1001
ACDBBLOCKREPETAG
1070
     1
1071
       15
1005
12768D
  0
LINE
  5
12768E
  8
OBJECT
 10
2581.5
 20
-3530.4999999999959
 30
0.0
 11
2556.3449199129791
 21
-3530.4999999999959
 31
0.0
1001
ACDBBLOCKREPETAG
1070
     1
1071
       17
1005
12768E
  0
LINE
  5
12768F
  8
OBJECT
 10
2581.4999999999991
 20
-3629.4999999999968
 30
0.0
 11
2556.3449199129791
 21
-3629.4999999999968
 31
0.0
1001
ACDBBLOCKREPETAG
1070
     1
1071
       18
1005
12768F
  0
ARC
  5
127690
  8
OBJECT
 10
2581.4999999999991
 20
-3626.4999999999959
 30
0.0
 40
3.0
 50
270.0
 51
0.0
1001
ACDBBLOCKREPETAG
1070
     1
1071
       19
1005
127690
  0
LINE
  5
127691
  8
OBJECT
 10
12633.0
 20
-634.0
 30
0.0
 11
12640.0
 21
-634.0
 31
0.0
1001
ACDBBLOCKREPETAG
1070
     1
1071
       45
1005
127691
  0
LINE
  5
127692
  8
OBJECT
 10
12640.0
 20
-634.0
 30
0.0
 11
12640.0
 21
-755.0
 31
0.0
1001
ACDBBLOCKREPETAG
1070
     1
1071
       46
1005
127692
  0
LINE
  5
127693
  8
OBJECT
 10
12633.0
 20
-755.0
 30
0.0
 11
12633.0
 21
-634.0
 31
0.0
1001
ACDBBLOCKREPETAG
1070
     1
1071
       47
1005
127693
  0
LINE
  5
127694
  8
CENTER
 10
12655.0
 20
-696.0
 30
0.0
 11
12571.0
 21
-696.0
 31
0.0
1001
ACDBBLOCKREPETAG
1070
     1
1071
       48
1005
127694
  0
LINE
  5
127695
  8
OBJECT
 10
12633.0
 20
-637.0
 30
0.0
 11
12597.0
 21
-637.0
 31
0.0
1001
ACDBBLOCKREPETAG
1070
     1
1071
       49
1005
127695
  0
LINE
  5
127696
  8
OBJECT
 10
12597.0
 20
-637.0
 30
0.0
 11
12597.0
 21
-755.0
 31
0.0
1001
ACDBBLOCKREPETAG
1070
     1
1071
       50
1005
127696
  0
LINE
  5
127697
  8
OBJECT
 10
12597.0
 20
-755.0
 30
0.0
 11
12640.0
 21
-755.0
 31
0.0
1001
ACDBBLOCKREPETAG
1070
     1
1071
       51
1005
127697
  0
LINE
  5
127698
  8
OBJECT
 10
12593.0
 20
-641.5
 30
0.0
 11
12586.0
 21
-641.5
 31
0.0
1001
ACDBBLOCKREPETAG
1070
     1
1071
       52
1005
127698
  0
LINE
  5
127699
  8
OBJECT
 10
12586.0
 20
-750.49999999999989
 30
0.0
 11
12593.0
 21
-750.49999999999989
 31
0.0
1001
ACDBBLOCKREPETAG
1070
     1
1071
       53
1005
127699
  0
LINE
  5
12769A
  8
OBJECT
 10
12593.0
 20
-750.49999999999989
 30
0.0
 11
12593.0
 21
-641.5
 31
0.0
1001
ACDBBLOCKREPETAG
1070
     1
1071
       54
1005
12769A
  0
LINE
  5
12769B
  8
OBJECT
 10
12597.0
 20
-637.0
 30
0.0
 11
12593.0
 21
-641.5
 31
0.0
1001
ACDBBLOCKREPETAG
1070
     1
1071
       55
1005
12769B
  0
LINE
  5
12769C
  8
OBJECT
 10
12597.0
 20
-755.0
 30
0.0
 11
12593.0
 21
-750.49999999999989
 31
0.0
1001
ACDBBLOCKREPETAG
1070
     1
1071
       56
1005
12769C
  0
LINE
  5
12769D
  8
OBJECT
 10
12583.0
 20
-634.0
 30
0.0
 11
12580.0
 21
-634.0
 31
0.0
1001
ACDBBLOCKREPETAG
1070
     1
1071
       57
1005
12769D
  0
ARC
  5
12769E
  8
OBJECT
 10
12583.0
 20
-637.0
 30
0.0
 40
3.0
 50
0.0
 51
90.0
1001
ACDBBLOCKREPETAG
1070
     1
1071
       58
1005
12769E
  0
LINE
  5
12769F
  8
OBJECT
 10
12580.0
 20
-758.0
 30
0.0
 11
12583.0
 21
-758.0
 31
0.0
1001
ACDBBLOCKREPETAG
1070
     1
1071
       59
1005
12769F
  0
ARC
  5
1276A0
  8
OBJECT
 10
12583.0
 20
-755.0
 30
0.0
 40
3.0
 50
270.0
 51
0.0
1001
ACDBBLOCKREPETAG
1070
     1
1071
       60
1005
1276A0
  0
LINE
  5
1276A1
  8
OBJECT
 10
12586.0
 20
-755.0
 30
0.0
 11
12586.0
 21
-637.0
 31
0.0
1001
ACDBBLOCKREPETAG
1070
     1
1071
       61
1005
1276A1
  0
LINE
  5
1276A2
  8
HIDDEN
 10
12588.0
 20
-651.5
 30
0.0
 11
12588.0
 21
-740.5
 31
0.0
1001
ACDBBLOCKREPETAG
1070
     1
1071
       63
1005
1276A2
  0
LINE
  5
1276A3
  8
OBJECT
 10
10633.0
 20
-634.0
 30
0.0
 11
10640.0
 21
-634.0
 31
0.0
1001
ACDBBLOCKREPETAG
1070
     1
1071
       45
1005
1276A3
  0
LINE
  5
1276A4
  8
OBJECT
 10
10640.0
 20
-634.0
 30
0.0
 11
10640.0
 21
-755.0
 31
0.0
1001
ACDBBLOCKREPETAG
1070
     1
1071
       46
1005
1276A4
  0
LINE
  5
1276A5
  8
OBJECT
 10
10633.0
 20
-755.0
 30
0.0
 11
10633.0
 21
-634.0
 31
0.0
1001
ACDBBLOCKREPETAG
1070
     1
1071
       47
1005
1276A5
  0
LINE
  5
1276A6
  8
CENTER
 10
10655.0
 20
-696.0
 30
0.0
 11
10571.0
 21
-696.0
 31
0.0
1001
ACDBBLOCKREPETAG
1070
     1
1071
       48
1005
1276A6
  0
LINE
  5
1276A7
  8
OBJECT
 10
10633.0
 20
-637.0
 30
0.0
 11
10597.0
 21
-637.0
 31
0.0
1001
ACDBBLOCKREPETAG
1070
     1
1071
       49
1005
1276A7
  0
LINE
  5
1276A8
  8
OBJECT
 10
10597.0
 20
-637.0
 30
0.0
 11
10597.0
 21
-755.0
 31
0.0
1001
ACDBBLOCKREPETAG
1070
     1
1071
       50
1005
1276A8
  0
LINE
  5
1276A9
  8
OBJECT
 10
10597.0
 20
-755.0
 30
0.0
 11
10640.0
 21
-755.0
 31
0.0
1001
ACDBBLOCKREPETAG
1070
     1
1071
       51
1005
1276A9
  0
LINE
  5
1276AA
  8
OBJECT
 10
10593.0
 20
-641.5
 30
0.0
 11
10586.0
 21
-641.5
 31
0.0
1001
ACDBBLOCKREPETAG
1070
     1
1071
       52
1005
1276AA
  0
LINE
  5
1276AB
  8
OBJECT
 10
10586.0
 20
-750.49999999999989
 30
0.0
 11
10593.0
 21
-750.49999999999989
 31
0.0
1001
ACDBBLOCKREPETAG
1070
     1
1071
       53
1005
1276AB
  0
LINE
  5
1276AC
  8
OBJECT
 10
10593.0
 20
-750.49999999999989
 30
0.0
 11
10593.0
 21
-641.5
 31
0.0
1001
ACDBBLOCKREPETAG
1070
     1
1071
       54
1005
1276AC
  0
LINE
  5
1276AD
  8
OBJECT
 10
10597.0
 20
-637.0
 30
0.0
 11
10593.0
 21
-641.5
 31
0.0
1001
ACDBBLOCKREPETAG
1070
     1
1071
       55
1005
1276AD
  0
LINE
  5
1276AE
  8
OBJECT
 10
10597.0
 20
-755.0
 30
0.0
 11
10593.0
 21
-750.49999999999989
 31
0.0
1001
ACDBBLOCKREPETAG
1070
     1
1071
       56
1005
1276AE
  0
LINE
  5
1276AF
  8
OBJECT
 10
10583.0
 20
-634.0
 30
0.0
 11
10580.0
 21
-634.0
 31
0.0
1001
ACDBBLOCKREPETAG
1070
     1
1071
       57
1005
1276AF
  0
ARC
  5
1276B0
  8
OBJECT
 10
10583.0
 20
-637.0
 30
0.0
 40
3.0
 50
0.0
 51
90.0
1001
ACDBBLOCKREPETAG
1070
     1
1071
       58
1005
1276B0
  0
LINE
  5
1276B1
  8
OBJECT
 10
10580.0
 20
-758.0
 30
0.0
 11
10583.0
 21
-758.0
 31
0.0
1001
ACDBBLOCKREPETAG
1070
     1
1071
       59
1005
1276B1
  0
ARC
  5
1276B2
  8
OBJECT
 10
10583.0
 20
-755.0
 30
0.0
 40
3.0
 50
270.0
 51
0.0
1001
ACDBBLOCKREPETAG
1070
     1
1071
       60
1005
1276B2
  0
LINE
  5
1276B3
  8
OBJECT
 10
10586.0
 20
-755.0
 30
0.0
 11
10586.0
 21
-637.0
 31
0.0
1001
ACDBBLOCKREPETAG
1070
     1
1071
       61
1005
1276B3
  0
LINE
  5
1276B4
  8
HIDDEN
 10
10588.0
 20
-651.5
 30
0.0
 11
10588.0
 21
-740.5
 31
0.0
1001
ACDBBLOCKREPETAG
1070
     1
1071
       63
1005
1276B4
  0
LINE
  5
1276B5
  8
OBJECT
 10
8633.0
 20
-634.0
 30
0.0
 11
8640.0
 21
-634.0
 31
0.0
1001
ACDBBLOCKREPETAG
1070
     1
1071
       45
1005
1276B5
  0
LINE
  5
1276B6
  8
OBJECT
 10
8640.0
 20
-634.0
 30
0.0
 11
8640.0
 21
-755.0
 31
0.0
1001
ACDBBLOCKREPETAG
1070
     1
1071
       46
1005
1276B6
  0
LINE
  5
1276B7
  8
OBJECT
 10
8633.0
 20
-755.0
 30
0.0
 11
8633.0
 21
-634.0
 31
0.0
1001
ACDBBLOCKREPETAG
1070
     1
1071
       47
1005
1276B7
  0
LINE
  5
1276B8
  8
CENTER
 10
8655.0
 20
-696.0
 30
0.0
 11
8571.0
 21
-696.0
 31
0.0
1001
ACDBBLOCKREPETAG
1070
     1
1071
       48
1005
1276B8
  0
LINE
  5
1276B9
  8
OBJECT
 10
8633.0
 20
-637.0
 30
0.0
 11
8597.0
 21
-637.0
 31
0.0
1001
ACDBBLOCKREPETAG
1070
     1
1071
       49
1005
1276B9
  0
LINE
  5
1276BA
  8
OBJECT
 10
8597.0
 20
-637.0
 30
0.0
 11
8597.0
 21
-755.0
 31
0.0
1001
ACDBBLOCKREPETAG
1070
     1
1071
       50
1005
1276BA
  0
LINE
  5
1276BB
  8
OBJECT
 10
8597.0
 20
-755.0
 30
0.0
 11
8640.0
 21
-755.0
 31
0.0
1001
ACDBBLOCKREPETAG
1070
     1
1071
       51
1005
1276BB
  0
LINE
  5
1276BC
  8
OBJECT
 10
8593.0
 20
-641.5
 30
0.0
 11
8586.0
 21
-641.5
 31
0.0
1001
ACDBBLOCKREPETAG
1070
     1
1071
       52
1005
1276BC
  0
LINE
  5
1276BD
  8
OBJECT
 10
8586.0
 20
-750.49999999999989
 30
0.0
 11
8593.0
 21
-750.49999999999989
 31
0.0
1001
ACDBBLOCKREPETAG
1070
     1
1071
       53
1005
1276BD
  0
LINE
  5
1276BE
  8
OBJECT
 10
8593.0
 20
-750.49999999999989
 30
0.0
 11
8593.0
 21
-641.5
 31
0.0
1001
ACDBBLOCKREPETAG
1070
     1
1071
       54
1005
1276BE
  0
LINE
  5
1276BF
  8
OBJECT
 10
8597.0
 20
-637.0
 30
0.0
 11
8593.0
 21
-641.5
 31
0.0
1001
ACDBBLOCKREPETAG
1070
     1
1071
       55
1005
1276BF
  0
LINE
  5
1276C0
  8
OBJECT
 10
8597.0
 20
-755.0
 30
0.0
 11
8593.0
 21
-750.49999999999989
 31
0.0
1001
ACDBBLOCKREPETAG
1070
     1
1071
       56
1005
1276C0
  0
LINE
  5
1276C1
  8
OBJECT
 10
8583.0
 20
-634.0
 30
0.0
 11
8580.0
 21
-634.0
 31
0.0
1001
ACDBBLOCKREPETAG
1070
     1
1071
       57
1005
1276C1
  0
ARC
  5
1276C2
  8
OBJECT
 10
8583.0
 20
-637.0
 30
0.0
 40
3.0
 50
0.0
 51
90.0
1001
ACDBBLOCKREPETAG
1070
     1
1071
       58
1005
1276C2
  0
LINE
  5
1276C3
  8
OBJECT
 10
8580.0
 20
-758.0
 30
0.0
 11
8583.0
 21
-758.0
 31
0.0
1001
ACDBBLOCKREPETAG
1070
     1
1071
       59
1005
1276C3
  0
ARC
  5
1276C4
  8
OBJECT
 10
8583.0
 20
-755.0
 30
0.0
 40
3.0
 50
270.0
 51
0.0
1001
ACDBBLOCKREPETAG
1070
     1
1071
       60
1005
1276C4
  0
LINE
  5
1276C5
  8
OBJECT
 10
8586.0
 20
-755.0
 30
0.0
 11
8586.0
 21
-637.0
 31
0.0
1001
ACDBBLOCKREPETAG
1070
     1
1071
       61
1005
1276C5
  0
LINE
  5
1276C6
  8
HIDDEN
 10
8588.0
 20
-651.5
 30
0.0
 11
8588.0
 21
-740.5
 31
0.0
1001
ACDBBLOCKREPETAG
1070
     1
1071
       63
1005
1276C6
  0
LINE
  5
1276C7
  8
OBJECT
 10
6633.0
 20
-634.0
 30
0.0
 11
6640.0
 21
-634.0
 31
0.0
1001
ACDBBLOCKREPETAG
1070
     1
1071
       45
1005
1276C7
  0
LINE
  5
1276C8
  8
OBJECT
 10
6640.0
 20
-634.0
 30
0.0
 11
6640.0
 21
-755.0
 31
0.0
1001
ACDBBLOCKREPETAG
1070
     1
1071
       46
1005
1276C8
  0
LINE
  5
1276C9
  8
OBJECT
 10
6633.0
 20
-755.0
 30
0.0
 11
6633.0
 21
-634.0
 31
0.0
1001
ACDBBLOCKREPETAG
1070
     1
1071
       47
1005
1276C9
  0
LINE
  5
1276CA
  8
CENTER
 10
6655.0
 20
-696.0
 30
0.0
 11
6571.0
 21
-696.0
 31
0.0
1001
ACDBBLOCKREPETAG
1070
     1
1071
       48
1005
1276CA
  0
LINE
  5
1276CB
  8
OBJECT
 10
6633.0
 20
-637.0
 30
0.0
 11
6597.0
 21
-637.0
 31
0.0
1001
ACDBBLOCKREPETAG
1070
     1
1071
       49
1005
1276CB
  0
LINE
  5
1276CC
  8
OBJECT
 10
6597.0
 20
-637.0
 30
0.0
 11
6597.0
 21
-755.0
 31
0.0
1001
ACDBBLOCKREPETAG
1070
     1
1071
       50
1005
1276CC
  0
LINE
  5
1276CD
  8
OBJECT
 10
6597.0
 20
-755.0
 30
0.0
 11
6640.0
 21
-755.0
 31
0.0
1001
ACDBBLOCKREPETAG
1070
     1
1071
       51
1005
1276CD
  0
LINE
  5
1276CE
  8
OBJECT
 10
6593.0
 20
-641.5
 30
0.0
 11
6586.0
 21
-641.5
 31
0.0
1001
ACDBBLOCKREPETAG
1070
     1
1071
       52
1005
1276CE
  0
LINE
  5
1276CF
  8
OBJECT
 10
6586.0
 20
-750.49999999999989
 30
0.0
 11
6593.0
 21
-750.49999999999989
 31
0.0
1001
ACDBBLOCKREPETAG
1070
     1
1071
       53
1005
1276CF
  0
LINE
  5
1276D0
  8
OBJECT
 10
6593.0
 20
-750.49999999999989
 30
0.0
 11
6593.0
 21
-641.5
 31
0.0
1001
ACDBBLOCKREPETAG
1070
     1
1071
       54
1005
1276D0
  0
LINE
  5
1276D1
  8
OBJECT
 10
6597.0
 20
-637.0
 30
0.0
 11
6593.0
 21
-641.5
 31
0.0
1001
ACDBBLOCKREPETAG
1070
     1
1071
       55
1005
1276D1
  0
LINE
  5
1276D2
  8
OBJECT
 10
6597.0
 20
-755.0
 30
0.0
 11
6593.0
 21
-750.49999999999989
 31
0.0
1001
ACDBBLOCKREPETAG
1070
     1
1071
       56
1005
1276D2
  0
LINE
  5
1276D3
  8
OBJECT
 10
6583.0
 20
-634.0
 30
0.0
 11
6580.0
 21
-634.0
 31
0.0
1001
ACDBBLOCKREPETAG
1070
     1
1071
       57
1005
1276D3
  0
ARC
  5
1276D4
  8
OBJECT
 10
6583.0
 20
-637.0
 30
0.0
 40
3.0
 50
0.0
 51
90.0
1001
ACDBBLOCKREPETAG
1070
     1
1071
       58
1005
1276D4
  0
LINE
  5
1276D5
  8
OBJECT
 10
6580.0
 20
-758.0
 30
0.0
 11
6583.0
 21
-758.0
 31
0.0
1001
ACDBBLOCKREPETAG
1070
     1
1071
       59
1005
1276D5
  0
ARC
  5
1276D6
  8
OBJECT
 10
6583.0
 20
-755.0
 30
0.0
 40
3.0
 50
270.0
 51
0.0
1001
ACDBBLOCKREPETAG
1070
     1
1071
       60
1005
1276D6
  0
LINE
  5
1276D7
  8
OBJECT
 10
6586.0
 20
-755.0
 30
0.0
 11
6586.0
 21
-637.0
 31
0.0
1001
ACDBBLOCKREPETAG
1070
     1
1071
       61
1005
1276D7
  0
LINE
  5
1276D8
  8
HIDDEN
 10
6588.0
 20
-651.5
 30
0.0
 11
6588.0
 21
-740.5
 31
0.0
1001
ACDBBLOCKREPETAG
1070
     1
1071
       63
1005
1276D8
  0
LINE
  5
1276D9
  8
OBJECT
 10
4633.0
 20
-634.0
 30
0.0
 11
4640.0
 21
-634.0
 31
0.0
1001
ACDBBLOCKREPETAG
1070
     1
1071
       45
1005
1276D9
  0
LINE
  5
1276DA
  8
OBJECT
 10
4640.0
 20
-634.0
 30
0.0
 11
4640.0
 21
-755.0
 31
0.0
1001
ACDBBLOCKREPETAG
1070
     1
1071
       46
1005
1276DA
  0
LINE
  5
1276DB
  8
OBJECT
 10
4633.0
 20
-755.0
 30
0.0
 11
4633.0
 21
-634.0
 31
0.0
1001
ACDBBLOCKREPETAG
1070
     1
1071
       47
1005
1276DB
  0
LINE
  5
1276DC
  8
CENTER
 10
4655.0
 20
-696.0
 30
0.0
 11
4571.0
 21
-696.0
 31
0.0
1001
ACDBBLOCKREPETAG
1070
     1
1071
       48
1005
1276DC
  0
LINE
  5
1276DD
  8
OBJECT
 10
4633.0
 20
-637.0
 30
0.0
 11
4597.0
 21
-637.0
 31
0.0
1001
ACDBBLOCKREPETAG
1070
     1
1071
       49
1005
1276DD
  0
LINE
  5
1276DE
  8
OBJECT
 10
4597.0
 20
-637.0
 30
0.0
 11
4597.0
 21
-755.0
 31
0.0
1001
ACDBBLOCKREPETAG
1070
     1
1071
       50
1005
1276DE
  0
LINE
  5
1276DF
  8
OBJECT
 10
4597.0
 20
-755.0
 30
0.0
 11
4640.0
 21
-755.0
 31
0.0
1001
ACDBBLOCKREPETAG
1070
     1
1071
       51
1005
1276DF
  0
LINE
  5
1276E0
  8
OBJECT
 10
4593.0
 20
-641.5
 30
0.0
 11
4586.0
 21
-641.5
 31
0.0
1001
ACDBBLOCKREPETAG
1070
     1
1071
       52
1005
1276E0
  0
LINE
  5
1276E1
  8
OBJECT
 10
4586.0
 20
-750.49999999999989
 30
0.0
 11
4593.0
 21
-750.49999999999989
 31
0.0
1001
ACDBBLOCKREPETAG
1070
     1
1071
       53
1005
1276E1
  0
LINE
  5
1276E2
  8
OBJECT
 10
4593.0
 20
-750.49999999999989
 30
0.0
 11
4593.0
 21
-641.5
 31
0.0
1001
ACDBBLOCKREPETAG
1070
     1
1071
       54
1005
1276E2
  0
LINE
  5
1276E3
  8
OBJECT
 10
4597.0
 20
-637.0
 30
0.0
 11
4593.0
 21
-641.5
 31
0.0
1001
ACDBBLOCKREPETAG
1070
     1
1071
       55
1005
1276E3
  0
LINE
  5
1276E4
  8
OBJECT
 10
4597.0
 20
-755.0
 30
0.0
 11
4593.0
 21
-750.49999999999989
 31
0.0
1001
ACDBBLOCKREPETAG
1070
     1
1071
       56
1005
1276E4
  0
LINE
  5
1276E5
  8
OBJECT
 10
4583.0
 20
-634.0
 30
0.0
 11
4580.0
 21
-634.0
 31
0.0
1001
ACDBBLOCKREPETAG
1070
     1
1071
       57
1005
1276E5
  0
ARC
  5
1276E6
  8
OBJECT
 10
4583.0
 20
-637.0
 30
0.0
 40
3.0
 50
0.0
 51
90.0
1001
ACDBBLOCKREPETAG
1070
     1
1071
       58
1005
1276E6
  0
LINE
  5
1276E7
  8
OBJECT
 10
4580.0
 20
-758.0
 30
0.0
 11
4583.0
 21
-758.0
 31
0.0
1001
ACDBBLOCKREPETAG
1070
     1
1071
       59
1005
1276E7
  0
ARC
  5
1276E8
  8
OBJECT
 10
4583.0
 20
-755.0
 30
0.0
 40
3.0
 50
270.0
 51
0.0
1001
ACDBBLOCKREPETAG
1070
     1
1071
       60
1005
1276E8
  0
LINE
  5
1276E9
  8
OBJECT
 10
4586.0
 20
-755.0
 30
0.0
 11
4586.0
 21
-637.0
 31
0.0
1001
ACDBBLOCKREPETAG
1070
     1
1071
       61
1005
1276E9
  0
LINE
  5
1276EA
  8
HIDDEN
 10
4588.0
 20
-651.5
 30
0.0
 11
4588.0
 21
-740.5
 31
0.0
1001
ACDBBLOCKREPETAG
1070
     1
1071
       63
1005
1276EA
  0
LINE
  5
1276EB
  8
SLIM
 10
10414.999999999991
 20
-1152.2369265471771
 30
0.0
 11
10431.23692654717
 21
-1136.0
 31
0.0
1001
ACAD
1010
0.0
1020
0.0
1030
0.0
  0
LINE
  5
1276EC
  8
SLIM
 10
10414.999999999991
 20
-1170.197438789314
 30
0.0
 11
10449.19743878931
 21
-1136.0
 31
0.0
1001
ACAD
1010
0.0
1020
0.0
1030
0.0
  0
LINE
  5
1276ED
  8
SLIM
 10
10414.999999999991
 20
-1188.1579510314509
 30
0.0
 11
10467.15795103144
 21
-1136.0
 31
0.0
1001
ACAD
1010
0.0
1020
0.0
1030
0.0
  0
LINE
  5
1276EE
  8
SLIM
 10
10414.999999999991
 20
-1206.1184632735881
 30
0.0
 11
10485.11846327358
 21
-1136.0
 31
0.0
1001
ACAD
1010
0.0
1020
0.0
1030
0.0
  0
LINE
  5
1276EF
  8
SLIM
 10
10415.0
 20
-1224.0789755157259
 30
0.0
 11
10503.07897551572
 21
-1136.0
 31
0.0
1001
ACAD
1010
0.0
1020
0.0
1030
0.0
  0
LINE
  5
1276F0
  8
SLIM
 10
10415.0
 20
-1242.0394877578631
 30
0.0
 11
10521.03948775786
 21
-1136.0
 31
0.0
1001
ACAD
1010
0.0
1020
0.0
1030
0.0
  0
LINE
  5
1276F1
  8
SLIM
 10
10415.283600749561
 20
-1259.716399250442
 30
0.0
 11
10539.0
 21
-1136.0
 31
0.0
1001
ACAD
1010
0.0
1020
0.0
1030
0.0
  0
LINE
  5
1276F2
  8
SLIM
 10
10417.49791047804
 20
-1275.4626017640981
 30
0.0
 11
10556.96051224214
 21
-1136.0
 31
0.0
1001
ACAD
1010
0.0
1020
0.0
1030
0.0
  0
LINE
  5
1276F3
  8
SLIM
 10
10419.71222020652
 20
-1291.208804277753
 30
0.0
 11
10574.921024484271
 21
-1136.0
 31
0.0
1001
ACAD
1010
0.0
1020
0.0
1030
0.0
  0
LINE
  5
1276F4
  8
SLIM
 10
10421.926529935001
 20
-1306.9550067914081
 30
0.0
 11
10585.000000000009
 21
-1143.8815367264081
 31
0.0
1001
ACAD
1010
0.0
1020
0.0
1030
0.0
  0
LINE
  5
1276F5
  8
SLIM
 10
10424.140839663491
 20
-1322.7012093050639
 30
0.0
 11
10585.0
 21
-1161.8420489685479
 31
0.0
1001
ACAD
1010
0.0
1020
0.0
1030
0.0
  0
LINE
  5
1276F6
  8
SLIM
 10
10426.355149391969
 20
-1338.447411818719
 30
0.0
 11
10585.0
 21
-1179.8025612106869
 31
0.0
1001
ACAD
1010
0.0
1020
0.0
1030
0.0
  0
LINE
  5
1276F7
  8
SLIM
 10
10428.56945912045
 20
-1354.193614332374
 30
0.0
 11
10585.0
 21
-1197.763073452827
 31
0.0
1001
ACAD
1010
0.0
1020
0.0
1030
0.0
  0
LINE
  5
1276F8
  8
SLIM
 10
10430.78376884894
 20
-1369.93981684603
 30
0.0
 11
10585.0
 21
-1215.723585694966
 31
0.0
1001
ACAD
1010
0.0
1020
0.0
1030
0.0
  0
LINE
  5
1276F9
  8
SLIM
 10
10432.998078577421
 20
-1385.686019359686
 30
0.0
 11
10585.0
 21
-1233.684097937105
 31
0.0
1001
ACAD
1010
0.0
1020
0.0
1030
0.0
  0
LINE
  5
1276FA
  8
SLIM
 10
10432.999999999991
 20
-1403.6446101792519
 30
0.0
 11
10585.0
 21
-1251.6446101792451
 31
0.0
1001
ACAD
1010
0.0
1020
0.0
1030
0.0
  0
LINE
  5
1276FB
  8
SLIM
 10
10432.999999999991
 20
-1421.60512242139
 30
0.0
 11
10583.05183715436
 21
-1271.5532852670169
 31
0.0
1001
ACAD
1010
0.0
1020
0.0
1030
0.0
  0
LINE
  5
1276FC
  8
SLIM
 10
10446.565634663521
 20
-1425.999999999997
 30
0.0
 11
10580.112844242019
 21
-1292.4527904215049
 31
0.0
1001
ACAD
1010
0.0
1020
0.0
1030
0.0
  0
LINE
  5
1276FD
  8
SLIM
 10
10464.52614690566
 20
-1425.999999999997
 30
0.0
 11
10577.17385132967
 21
-1313.352295575992
 31
0.0
1001
ACAD
1010
0.0
1020
0.0
1030
0.0
  0
LINE
  5
1276FE
  8
SLIM
 10
10482.4866591478
 20
-1425.999999999998
 30
0.0
 11
10574.23485841732
 21
-1334.2518007304791
 31
0.0
1001
ACAD
1010
0.0
1020
0.0
1030
0.0
  0
LINE
  5
1276FF
  8
SLIM
 10
10500.44717138994
 20
-1425.9999999999991
 30
0.0
 11
10571.29586550497
 21
-1355.151305884966
 31
0.0
1001
ACAD
1010
0.0
1020
0.0
1030
0.0
  0
LINE
  5
127700
  8
SLIM
 10
10518.40768363206
 20
-1425.9999999999991
 30
0.0
 11
10568.35687259262
 21
-1376.0508110394539
 31
0.0
1001
ACAD
1010
0.0
1020
0.0
1030
0.0
  0
LINE
  5
127701
  8
SLIM
 10
10536.368195874211
 20
-1425.9999999999991
 30
0.0
 11
10567.000000000009
 21
-1395.368195874202
 31
0.0
1001
ACAD
1010
0.0
1020
0.0
1030
0.0
  0
LINE
  5
127702
  8
SLIM
 10
10554.328708116351
 20
-1426.0
 30
0.0
 11
10567.000000000009
 21
-1413.328708116341
 31
0.0
1001
ACAD
1010
0.0
1020
0.0
1030
0.0
  0
LINE
  5
127703
  8
OBJECT
 10
10432.999999999991
 20
-1425.999999999997
 30
0.0
 11
10567.000000000009
 21
-1426.0
 31
0.0
1001
ACDBBLOCKREPETAG
1070
     1
1071
        1
1005
127703
  0
LINE
  5
127704
  8
OBJECT
 10
10414.999999999991
 20
-1136.0
 30
0.0
 11
10415.0
 21
-1257.6996828091419
 31
0.0
1001
ACDBBLOCKREPETAG
1070
     1
1071
        2
1005
127704
  0
LINE
  5
127705
  8
OBJECT
 10
10585.000000000009
 20
-1136.0
 30
0.0
 11
10585.0
 21
-1257.6996828091731
 31
0.0
1001
ACDBBLOCKREPETAG
1070
     1
1071
        3
1005
127705
  0
LINE
  5
127706
  8
OBJECT
 10
10415.0
 20
-1257.6996828091419
 30
0.0
 11
10432.999999999991
 21
-1385.6996828090821
 31
0.0
1001
ACDBBLOCKREPETAG
1070
     1
1071
        4
1005
127706
  0
LINE
  5
127707
  8
OBJECT
 10
10567.000000000009
 20
-1385.6996828091289
 30
0.0
 11
10585.0
 21
-1257.6996828091731
 31
0.0
1001
ACDBBLOCKREPETAG
1070
     1
1071
        5
1005
127707
  0
LINE
  5
127708
  8
OBJECT
 10
10585.000000000009
 20
-1136.0
 30
0.0
 11
10414.999999999991
 21
-1136.0
 31
0.0
1001
ACDBBLOCKREPETAG
1070
     1
1071
        6
1005
127708
  0
LINE
  5
127709
  8
OBJECT
 10
10432.999999999991
 20
-1385.6996828090821
 30
0.0
 11
10432.999999999991
 21
-1425.999999999997
 31
0.0
1001
ACDBBLOCKREPETAG
1070
     1
1071
        8
1005
127709
  0
LINE
  5
12770A
  8
OBJECT
 10
10567.000000000009
 20
-1385.6996828091289
 30
0.0
 11
10567.000000000009
 21
-1426.0
 31
0.0
1001
ACDBBLOCKREPETAG
1070
     1
1071
        9
1005
12770A
  0
LINE
  5
12770B
  8
SLIM
 10
8414.9999999999909
 20
-1152.2369265471759
 30
0.0
 11
8431.2369265471698
 21
-1135.9999999999991
 31
0.0
1001
GRADIENTCOLOR1ACI
1070
     5
1001
GRADIENTCOLOR2ACI
1070
     2
1001
ACAD
1010
0.0
1020
0.0
1030
0.0
  0
LINE
  5
12770C
  8
SLIM
 10
8414.9999999999945
 20
-1170.1974387893131
 30
0.0
 11
8449.1974387893097
 21
-1135.9999999999991
 31
0.0
1001
GRADIENTCOLOR1ACI
1070
     5
1001
GRADIENTCOLOR2ACI
1070
     2
1001
ACAD
1010
0.0
1020
0.0
1030
0.0
  0
LINE
  5
12770D
  8
SLIM
 10
8414.9999999999964
 20
-1188.15795103145
 30
0.0
 11
8467.1579510314441
 21
-1135.9999999999991
 31
0.0
1001
GRADIENTCOLOR1ACI
1070
     5
1001
GRADIENTCOLOR2ACI
1070
     2
1001
ACAD
1010
0.0
1020
0.0
1030
0.0
  0
LINE
  5
12770E
  8
SLIM
 10
8414.9999999999964
 20
-1206.1184632735881
 30
0.0
 11
8485.1184632735858
 21
-1135.9999999999991
 31
0.0
1001
GRADIENTCOLOR1ACI
1070
     5
1001
GRADIENTCOLOR2ACI
1070
     2
1001
ACAD
1010
0.0
1020
0.0
1030
0.0
  0
LINE
  5
12770F
  8
SLIM
 10
8414.9999999999964
 20
-1224.078975515725
 30
0.0
 11
8503.0789755157257
 21
-1135.9999999999991
 31
0.0
1001
GRADIENTCOLOR1ACI
1070
     5
1001
GRADIENTCOLOR2ACI
1070
     2
1001
ACAD
1010
0.0
1020
0.0
1030
0.0
  0
LINE
  5
127710
  8
SLIM
 10
8414.9999999999964
 20
-1242.0394877578619
 30
0.0
 11
8521.0394877578619
 21
-1135.9999999999991
 31
0.0
1001
GRADIENTCOLOR1ACI
1070
     5
1001
GRADIENTCOLOR2ACI
1070
     2
1001
ACAD
1010
0.0
1020
0.0
1030
0.0
  0
LINE
  5
127711
  8
SLIM
 10
8415.2836007495571
 20
-1259.716399250442
 30
0.0
 11
8539.0
 21
-1135.9999999999991
 31
0.0
1001
GRADIENTCOLOR1ACI
1070
     5
1001
GRADIENTCOLOR2ACI
1070
     2
1001
ACAD
1010
0.0
1020
0.0
1030
0.0
  0
LINE
  5
127712
  8
SLIM
 10
8417.4979104780377
 20
-1275.4626017640969
 30
0.0
 11
8556.9605122421381
 21
-1135.9999999999991
 31
0.0
1001
GRADIENTCOLOR1ACI
1070
     5
1001
GRADIENTCOLOR2ACI
1070
     2
1001
ACAD
1010
0.0
1020
0.0
1030
0.0
  0
LINE
  5
127713
  8
SLIM
 10
8419.7122202065257
 20
-1291.208804277753
 30
0.0
 11
8574.9210244842725
 21
-1135.9999999999991
 31
0.0
1001
GRADIENTCOLOR1ACI
1070
     5
1001
GRADIENTCOLOR2ACI
1070
     2
1001
ACAD
1010
0.0
1020
0.0
1030
0.0
  0
LINE
  5
127714
  8
SLIM
 10
8421.9265299350063
 20
-1306.955006791409
 30
0.0
 11
8585.0000000000055
 21
-1143.8815367264081
 31
0.0
1001
GRADIENTCOLOR1ACI
1070
     5
1001
GRADIENTCOLOR2ACI
1070
     2
1001
ACAD
1010
0.0
1020
0.0
1030
0.0
  0
LINE
  5
127715
  8
SLIM
 10
8424.1408396634924
 20
-1322.7012093050639
 30
0.0
 11
8585.0000000000055
 21
-1161.842048968547
 31
0.0
1001
GRADIENTCOLOR1ACI
1070
     5
1001
GRADIENTCOLOR2ACI
1070
     2
1001
ACAD
1010
0.0
1020
0.0
1030
0.0
  0
LINE
  5
127716
  8
SLIM
 10
8426.3551493919713
 20
-1338.44741181872
 30
0.0
 11
8585.0000000000055
 21
-1179.802561210686
 31
0.0
1001
GRADIENTCOLOR1ACI
1070
     5
1001
GRADIENTCOLOR2ACI
1070
     2
1001
ACAD
1010
0.0
1020
0.0
1030
0.0
  0
LINE
  5
127717
  8
SLIM
 10
8428.5694591204538
 20
-1354.193614332376
 30
0.0
 11
8585.0000000000018
 21
-1197.7630734528259
 31
0.0
1001
GRADIENTCOLOR1ACI
1070
     5
1001
GRADIENTCOLOR2ACI
1070
     2
1001
ACAD
1010
0.0
1020
0.0
1030
0.0
  0
LINE
  5
127718
  8
SLIM
 10
8430.7837688489362
 20
-1369.9398168460309
 30
0.0
 11
8585.0000000000018
 21
-1215.7235856949651
 31
0.0
1001
GRADIENTCOLOR1ACI
1070
     5
1001
GRADIENTCOLOR2ACI
1070
     2
1001
ACAD
1010
0.0
1020
0.0
1030
0.0
  0
LINE
  5
127719
  8
SLIM
 10
8432.9980785774169
 20
-1385.686019359687
 30
0.0
 11
8585.0000000000018
 21
-1233.6840979371041
 31
0.0
1001
GRADIENTCOLOR1ACI
1070
     5
1001
GRADIENTCOLOR2ACI
1070
     2
1001
ACAD
1010
0.0
1020
0.0
1030
0.0
  0
LINE
  5
12771A
  8
SLIM
 10
8443.0
 20
-1393.644610179244
 30
0.0
 11
8450.6446101792462
 21
-1385.9999999999991
 31
0.0
1001
GRADIENTCOLOR1ACI
1070
     5
1001
GRADIENTCOLOR2ACI
1070
     2
1001
ACAD
1010
0.0
1020
0.0
1030
0.0
  0
LINE
  5
12771B
  8
SLIM
 10
8450.6446101792462
 20
-1385.9999999999991
 30
0.0
 11
8585.0
 21
-1251.644610179244
 31
0.0
1001
GRADIENTCOLOR1ACI
1070
     5
1001
GRADIENTCOLOR2ACI
1070
     2
1001
ACAD
1010
0.0
1020
0.0
1030
0.0
  0
LINE
  5
12771C
  8
SLIM
 10
8444.6051224213843
 20
-1409.9999999999991
 30
0.0
 11
8468.6051224213825
 21
-1385.9999999999991
 31
0.0
1001
GRADIENTCOLOR1ACI
1070
     5
1001
GRADIENTCOLOR2ACI
1070
     2
1001
ACAD
1010
0.0
1020
0.0
1030
0.0
  0
LINE
  5
12771D
  8
SLIM
 10
8468.6051224213825
 20
-1385.9999999999991
 30
0.0
 11
8583.0518371543658
 21
-1271.5532852670169
 31
0.0
1001
GRADIENTCOLOR1ACI
1070
     5
1001
GRADIENTCOLOR2ACI
1070
     2
1001
ACAD
1010
0.0
1020
0.0
1030
0.0
  0
LINE
  5
12771E
  8
SLIM
 10
8462.5656346635205
 20
-1409.9999999999991
 30
0.0
 11
8486.5656346635205
 21
-1385.9999999999991
 31
0.0
1001
GRADIENTCOLOR1ACI
1070
     5
1001
GRADIENTCOLOR2ACI
1070
     2
1001
ACAD
1010
0.0
1020
0.0
1030
0.0
  0
LINE
  5
12771F
  8
SLIM
 10
8486.5656346635205
 20
-1385.9999999999991
 30
0.0
 11
8580.1128442420159
 21
-1292.4527904215049
 31
0.0
1001
GRADIENTCOLOR1ACI
1070
     5
1001
GRADIENTCOLOR2ACI
1070
     2
1001
ACAD
1010
0.0
1020
0.0
1030
0.0
  0
LINE
  5
127720
  8
SLIM
 10
8480.5261469056604
 20
-1409.9999999999991
 30
0.0
 11
8504.5261469056604
 21
-1385.9999999999991
 31
0.0
1001
GRADIENTCOLOR1ACI
1070
     5
1001
GRADIENTCOLOR2ACI
1070
     2
1001
ACAD
1010
0.0
1020
0.0
1030
0.0
  0
LINE
  5
127721
  8
SLIM
 10
8504.5261469056604
 20
-1385.9999999999991
 30
0.0
 11
8577.1738513296659
 21
-1313.3522955759929
 31
0.0
1001
GRADIENTCOLOR1ACI
1070
     5
1001
GRADIENTCOLOR2ACI
1070
     2
1001
ACAD
1010
0.0
1020
0.0
1030
0.0
  0
LINE
  5
127722
  8
SLIM
 10
8498.4866591477985
 20
-1409.9999999999991
 30
0.0
 11
8522.4866591478003
 21
-1385.9999999999991
 31
0.0
1001
GRADIENTCOLOR1ACI
1070
     5
1001
GRADIENTCOLOR2ACI
1070
     2
1001
ACAD
1010
0.0
1020
0.0
1030
0.0
  0
LINE
  5
127723
  8
SLIM
 10
8522.4866591478003
 20
-1385.9999999999991
 30
0.0
 11
8574.234858417316
 21
-1334.2518007304809
 31
0.0
1001
GRADIENTCOLOR1ACI
1070
     5
1001
GRADIENTCOLOR2ACI
1070
     2
1001
ACAD
1010
0.0
1020
0.0
1030
0.0
  0
LINE
  5
127724
  8
SLIM
 10
8516.4471713899384
 20
-1409.9999999999991
 30
0.0
 11
8540.4471713899366
 21
-1385.9999999999991
 31
0.0
1001
GRADIENTCOLOR1ACI
1070
     5
1001
GRADIENTCOLOR2ACI
1070
     2
1001
ACAD
1010
0.0
1020
0.0
1030
0.0
  0
LINE
  5
127725
  8
SLIM
 10
8540.4471713899366
 20
-1385.9999999999991
 30
0.0
 11
8571.2958655049661
 21
-1355.1513058849689
 31
0.0
1001
GRADIENTCOLOR1ACI
1070
     5
1001
GRADIENTCOLOR2ACI
1070
     2
1001
ACAD
1010
0.0
1020
0.0
1030
0.0
  0
LINE
  5
127726
  8
SLIM
 10
8534.4076836320746
 20
-1409.9999999999991
 30
0.0
 11
8557.0
 21
-1387.4076836320739
 31
0.0
1001
GRADIENTCOLOR1ACI
1070
     5
1001
GRADIENTCOLOR2ACI
1070
     2
1001
ACAD
1010
0.0
1020
0.0
1030
0.0
  0
LINE
  5
127727
  8
SLIM
 10
8558.4076836320746
 20
-1385.9999999999991
 30
0.0
 11
8568.3568725926179
 21
-1376.0508110394569
 31
0.0
1001
GRADIENTCOLOR1ACI
1070
     5
1001
GRADIENTCOLOR2ACI
1070
     2
1001
ACAD
1010
0.0
1020
0.0
1030
0.0
  0
LINE
  5
127728
  8
SLIM
 10
8552.3681958742145
 20
-1409.9999999999991
 30
0.0
 11
8557.0
 21
-1405.368195874212
 31
0.0
1001
GRADIENTCOLOR1ACI
1070
     5
1001
GRADIENTCOLOR2ACI
1070
     2
1001
ACAD
1010
0.0
1020
0.0
1030
0.0
  0
LINE
  5
127729
  8
OBJECT
 10
8443.0
 20
-1409.9999999999991
 30
0.0
 11
8557.0
 21
-1409.9999999999991
 31
0.0
1001
ACDBBLOCKREPETAG
1070
     1
1071
        1
1005
0
  0
LINE
  5
12772A
  8
OBJECT
 10
8433.0422321049627
 20
-1385.9999999999991
 30
0.0
 11
8566.9577678950409
 21
-1385.9999999999991
 31
0.0
1001
ACDBBLOCKREPETAG
1070
     1
1071
        2
1005
0
  0
LINE
  5
12772B
  8
OBJECT
 10
8443.0
 20
-1409.9999999999991
 30
0.0
 11
8443.0
 21
-1385.9999999999991
 31
0.0
1001
ACDBBLOCKREPETAG
1070
     1
1071
        3
1005
0
  0
LINE
  5
12772C
  8
OBJECT
 10
8557.0
 20
-1409.9999999999991
 30
0.0
 11
8557.0
 21
-1385.9999999999991
 31
0.0
1001
ACDBBLOCKREPETAG
1070
     1
1071
        4
1005
0
  0
LINE
  5
12772D
  8
OBJECT
 10
8414.9999999999909
 20
-1135.9999999999991
 30
0.0
 11
8415.0
 21
-1257.699682809143
 31
0.0
1001
ACDBBLOCKREPETAG
1070
     1
1071
        5
1005
0
  0
LINE
  5
12772E
  8
OBJECT
 10
8585.0000000000055
 20
-1135.9999999999991
 30
0.0
 11
8585.0
 21
-1257.6996828091719
 31
0.0
1001
ACDBBLOCKREPETAG
1070
     1
1071
        6
1005
0
  0
LINE
  5
12772F
  8
OBJECT
 10
8415.0
 20
-1257.699682809143
 30
0.0
 11
8433.0422321049627
 21
-1385.9999999999991
 31
0.0
1001
ACDBBLOCKREPETAG
1070
     1
1071
        7
1005
0
  0
LINE
  5
127730
  8
OBJECT
 10
8566.9577678950409
 20
-1385.9999999999991
 30
0.0
 11
8585.0
 21
-1257.6996828091719
 31
0.0
1001
ACDBBLOCKREPETAG
1070
     1
1071
        8
1005
0
  0
LINE
  5
127731
  8
OBJECT
 10
8585.0000000000055
 20
-1135.9999999999991
 30
0.0
 11
8414.9999999999909
 21
-1135.9999999999991
 31
0.0
1001
ACDBBLOCKREPETAG
1070
     1
1071
        9
1005
0
  0
LINE
  5
127732
  8
SLIM
 10
12414.999999999991
 20
-1152.2369265471771
 30
0.0
 11
12431.23692654717
 21
-1136.0
 31
0.0
1001
ACAD
1010
0.0
1020
0.0
1030
0.0
  0
LINE
  5
127733
  8
SLIM
 10
12414.999999999991
 20
-1170.197438789314
 30
0.0
 11
12449.19743878931
 21
-1136.0
 31
0.0
1001
ACAD
1010
0.0
1020
0.0
1030
0.0
  0
LINE
  5
127734
  8
SLIM
 10
12414.999999999991
 20
-1188.1579510314509
 30
0.0
 11
12467.15795103144
 21
-1136.0
 31
0.0
1001
ACAD
1010
0.0
1020
0.0
1030
0.0
  0
LINE
  5
127735
  8
SLIM
 10
12414.999999999991
 20
-1206.1184632735881
 30
0.0
 11
12485.11846327358
 21
-1136.0
 31
0.0
1001
ACAD
1010
0.0
1020
0.0
1030
0.0
  0
LINE
  5
127736
  8
SLIM
 10
12415.0
 20
-1224.0789755157259
 30
0.0
 11
12503.07897551572
 21
-1136.0
 31
0.0
1001
ACAD
1010
0.0
1020
0.0
1030
0.0
  0
LINE
  5
127737
  8
SLIM
 10
12415.0
 20
-1242.0394877578631
 30
0.0
 11
12521.03948775786
 21
-1136.0
 31
0.0
1001
ACAD
1010
0.0
1020
0.0
1030
0.0
  0
LINE
  5
127738
  8
SLIM
 10
12415.283600749561
 20
-1259.716399250442
 30
0.0
 11
12539.0
 21
-1136.0
 31
0.0
1001
ACAD
1010
0.0
1020
0.0
1030
0.0
  0
LINE
  5
127739
  8
SLIM
 10
12417.49791047804
 20
-1275.4626017640981
 30
0.0
 11
12556.96051224214
 21
-1136.0
 31
0.0
1001
ACAD
1010
0.0
1020
0.0
1030
0.0
  0
LINE
  5
12773A
  8
SLIM
 10
12419.71222020652
 20
-1291.208804277753
 30
0.0
 11
12574.921024484271
 21
-1136.0
 31
0.0
1001
ACAD
1010
0.0
1020
0.0
1030
0.0
  0
LINE
  5
12773B
  8
SLIM
 10
12421.92652993501
 20
-1306.9550067914081
 30
0.0
 11
12585.000000000009
 21
-1143.8815367264081
 31
0.0
1001
ACAD
1010
0.0
1020
0.0
1030
0.0
  0
LINE
  5
12773C
  8
SLIM
 10
12424.140839663491
 20
-1322.7012093050639
 30
0.0
 11
12585.0
 21
-1161.8420489685479
 31
0.0
1001
ACAD
1010
0.0
1020
0.0
1030
0.0
  0
LINE
  5
12773D
  8
SLIM
 10
12426.35514939196
 20
-1338.447411818719
 30
0.0
 11
12585.0
 21
-1179.8025612106869
 31
0.0
1001
ACAD
1010
0.0
1020
0.0
1030
0.0
  0
LINE
  5
12773E
  8
SLIM
 10
12428.56945912045
 20
-1354.193614332374
 30
0.0
 11
12585.0
 21
-1197.763073452827
 31
0.0
1001
ACAD
1010
0.0
1020
0.0
1030
0.0
  0
LINE
  5
12773F
  8
SLIM
 10
12430.78376884894
 20
-1369.93981684603
 30
0.0
 11
12585.0
 21
-1215.723585694966
 31
0.0
1001
ACAD
1010
0.0
1020
0.0
1030
0.0
  0
LINE
  5
127740
  8
SLIM
 10
12432.998078577421
 20
-1385.686019359686
 30
0.0
 11
12585.0
 21
-1233.684097937105
 31
0.0
1001
ACAD
1010
0.0
1020
0.0
1030
0.0
  0
LINE
  5
127741
  8
SLIM
 10
12432.999999999991
 20
-1403.6446101792519
 30
0.0
 11
12585.0
 21
-1251.6446101792451
 31
0.0
1001
ACAD
1010
0.0
1020
0.0
1030
0.0
  0
LINE
  5
127742
  8
SLIM
 10
12432.999999999991
 20
-1421.60512242139
 30
0.0
 11
12583.05183715436
 21
-1271.5532852670169
 31
0.0
1001
ACAD
1010
0.0
1020
0.0
1030
0.0
  0
LINE
  5
127743
  8
SLIM
 10
12446.565634663521
 20
-1425.999999999997
 30
0.0
 11
12580.11284424201
 21
-1292.4527904215049
 31
0.0
1001
ACAD
1010
0.0
1020
0.0
1030
0.0
  0
LINE
  5
127744
  8
SLIM
 10
12464.52614690566
 20
-1425.999999999997
 30
0.0
 11
12577.17385132967
 21
-1313.352295575992
 31
0.0
1001
ACAD
1010
0.0
1020
0.0
1030
0.0
  0
LINE
  5
127745
  8
SLIM
 10
12482.4866591478
 20
-1425.999999999998
 30
0.0
 11
12574.23485841732
 21
-1334.2518007304791
 31
0.0
1001
ACAD
1010
0.0
1020
0.0
1030
0.0
  0
LINE
  5
127746
  8
SLIM
 10
12500.44717138994
 20
-1425.9999999999991
 30
0.0
 11
12571.29586550497
 21
-1355.151305884966
 31
0.0
1001
ACAD
1010
0.0
1020
0.0
1030
0.0
  0
LINE
  5
127747
  8
SLIM
 10
12518.40768363208
 20
-1425.9999999999991
 30
0.0
 11
12568.35687259262
 21
-1376.0508110394539
 31
0.0
1001
ACAD
1010
0.0
1020
0.0
1030
0.0
  0
LINE
  5
127748
  8
SLIM
 10
12536.368195874211
 20
-1425.9999999999991
 30
0.0
 11
12567.000000000009
 21
-1395.368195874202
 31
0.0
1001
ACAD
1010
0.0
1020
0.0
1030
0.0
  0
LINE
  5
127749
  8
SLIM
 10
12554.328708116351
 20
-1426.0
 30
0.0
 11
12567.000000000009
 21
-1413.328708116341
 31
0.0
1001
ACAD
1010
0.0
1020
0.0
1030
0.0
  0
LINE
  5
12774A
  8
OBJECT
 10
12432.999999999991
 20
-1425.999999999997
 30
0.0
 11
12567.000000000009
 21
-1426.0
 31
0.0
1001
ACDBBLOCKREPETAG
1070
     1
1071
        1
1005
12774A
  0
LINE
  5
12774B
  8
OBJECT
 10
12414.999999999991
 20
-1136.0
 30
0.0
 11
12415.0
 21
-1257.6996828091419
 31
0.0
1001
ACDBBLOCKREPETAG
1070
     1
1071
        2
1005
12774B
  0
LINE
  5
12774C
  8
OBJECT
 10
12585.000000000009
 20
-1136.0
 30
0.0
 11
12585.0
 21
-1257.6996828091731
 31
0.0
1001
ACDBBLOCKREPETAG
1070
     1
1071
        3
1005
12774C
  0
LINE
  5
12774D
  8
OBJECT
 10
12415.0
 20
-1257.6996828091419
 30
0.0
 11
12432.999999999991
 21
-1385.6996828090821
 31
0.0
1001
ACDBBLOCKREPETAG
1070
     1
1071
        4
1005
12774D
  0
LINE
  5
12774E
  8
OBJECT
 10
12567.000000000009
 20
-1385.6996828091289
 30
0.0
 11
12585.0
 21
-1257.6996828091731
 31
0.0
1001
ACDBBLOCKREPETAG
1070
     1
1071
        5
1005
12774E
  0
LINE
  5
12774F
  8
OBJECT
 10
12585.000000000009
 20
-1136.0
 30
0.0
 11
12414.999999999991
 21
-1136.0
 31
0.0
1001
ACDBBLOCKREPETAG
1070
     1
1071
        6
1005
12774F
  0
LINE
  5
127750
  8
OBJECT
 10
12432.999999999991
 20
-1385.6996828090821
 30
0.0
 11
12432.999999999991
 21
-1425.999999999997
 31
0.0
1001
ACDBBLOCKREPETAG
1070
     1
1071
        8
1005
127750
  0
LINE
  5
127751
  8
OBJECT
 10
12567.000000000009
 20
-1385.6996828091289
 30
0.0
 11
12567.000000000009
 21
-1426.0
 31
0.0
1001
ACDBBLOCKREPETAG
1070
     1
1071
        9
1005
127751
  0
TEXT
  5
127752
  8
SLIM
 10
149.1428571427966
 20
-443.99999999984971
 30
0.0
 40
48.0
  1
A3
 41
0.75
1001
ACDBBLOCKREPETAG
1070
     1
1071
      119
1005
0
  0
LINE
  5
127753
  8
OBJECT
 10
2633.0
 20
-634.0
 30
0.0
 11
2640.0
 21
-634.0
 31
0.0
1001
ACDBBLOCKREPETAG
1070
     1
1071
       45
1005
127753
  0
LINE
  5
127754
  8
OBJECT
 10
2640.0
 20
-634.0
 30
0.0
 11
2640.0
 21
-755.0
 31
0.0
1001
ACDBBLOCKREPETAG
1070
     1
1071
       46
1005
127754
  0
LINE
  5
127755
  8
OBJECT
 10
2633.0
 20
-755.0
 30
0.0
 11
2633.0
 21
-634.0
 31
0.0
1001
ACDBBLOCKREPETAG
1070
     1
1071
       47
1005
127755
  0
LINE
  5
127756
  8
CENTER
 10
2655.0
 20
-696.0
 30
0.0
 11
2571.0
 21
-696.0
 31
0.0
1001
ACDBBLOCKREPETAG
1070
     1
1071
       48
1005
127756
  0
LINE
  5
127757
  8
OBJECT
 10
2633.0
 20
-637.0
 30
0.0
 11
2597.0
 21
-637.0
 31
0.0
1001
ACDBBLOCKREPETAG
1070
     1
1071
       49
1005
127757
  0
LINE
  5
127758
  8
OBJECT
 10
2597.0
 20
-637.0
 30
0.0
 11
2597.0
 21
-755.0
 31
0.0
1001
ACDBBLOCKREPETAG
1070
     1
1071
       50
1005
127758
  0
LINE
  5
127759
  8
OBJECT
 10
2597.0
 20
-755.0
 30
0.0
 11
2640.0
 21
-755.0
 31
0.0
1001
ACDBBLOCKREPETAG
1070
     1
1071
       51
1005
127759
  0
LINE
  5
12775A
  8
OBJECT
 10
2593.0
 20
-641.5
 30
0.0
 11
2586.0
 21
-641.5
 31
0.0
1001
ACDBBLOCKREPETAG
1070
     1
1071
       52
1005
12775A
  0
LINE
  5
12775B
  8
OBJECT
 10
2586.0
 20
-750.49999999999989
 30
0.0
 11
2593.0
 21
-750.49999999999989
 31
0.0
1001
ACDBBLOCKREPETAG
1070
     1
1071
       53
1005
12775B
  0
LINE
  5
12775C
  8
OBJECT
 10
2593.0
 20
-750.49999999999989
 30
0.0
 11
2593.0
 21
-641.5
 31
0.0
1001
ACDBBLOCKREPETAG
1070
     1
1071
       54
1005
12775C
  0
LINE
  5
12775D
  8
OBJECT
 10
2597.0
 20
-637.0
 30
0.0
 11
2593.0
 21
-641.5
 31
0.0
1001
ACDBBLOCKREPETAG
1070
     1
1071
       55
1005
12775D
  0
LINE
  5
12775E
  8
OBJECT
 10
2597.0
 20
-755.0
 30
0.0
 11
2593.0
 21
-750.49999999999989
 31
0.0
1001
ACDBBLOCKREPETAG
1070
     1
1071
       56
1005
12775E
  0
LINE
  5
12775F
  8
OBJECT
 10
2583.0
 20
-634.0
 30
0.0
 11
2580.0
 21
-634.0
 31
0.0
1001
ACDBBLOCKREPETAG
1070
     1
1071
       57
1005
12775F
  0
ARC
  5
127760
  8
OBJECT
 10
2583.0
 20
-637.0
 30
0.0
 40
3.0
 50
0.0
 51
90.0
1001
ACDBBLOCKREPETAG
1070
     1
1071
       58
1005
127760
  0
LINE
  5
127761
  8
OBJECT
 10
2580.0
 20
-758.0
 30
0.0
 11
2583.0
 21
-758.0
 31
0.0
1001
ACDBBLOCKREPETAG
1070
     1
1071
       59
1005
127761
  0
ARC
  5
127762
  8
OBJECT
 10
2583.0
 20
-755.0
 30
0.0
 40
3.0
 50
270.0
 51
0.0
1001
ACDBBLOCKREPETAG
1070
     1
1071
       60
1005
127762
  0
LINE
  5
127763
  8
OBJECT
 10
2586.0
 20
-755.0
 30
0.0
 11
2586.0
 21
-637.0
 31
0.0
1001
ACDBBLOCKREPETAG
1070
     1
1071
       61
1005
127763
  0
LINE
  5
127764
  8
HIDDEN
 10
2588.0
 20
-651.5
 30
0.0
 11
2588.0
 21
-740.5
 31
0.0
1001
ACDBBLOCKREPETAG
1070
     1
1071
       63
1005
127764
  0
TEXT
  5
127765
  8
SLIM
 10
0.0000035665234464
 20
24.000004585317608
 30
0.0
 40
79.999999999972701
  1
上部枝管
 41
0.75
1001
ACDBBLOCKREPETAG
1070
     1
1071
      119
1005
120BCB
  0
LINE
  5
127766
  8
DIM
 10
2650.0
 20
-3626.9999999999968
 30
0.0
 11
2728.479620594459
 21
-3626.9999999999968
 31
0.0
  0
LINE
  5
127767
  8
DIM
 10
2650.0
 20
-3532.9999999999959
 30
0.0
 11
2728.479620594459
 21
-3532.9999999999959
 31
0.0
  0
LINE
  5
127768
  8
DIM
 10
2718.479620594459
 20
-3606.9999999999968
 30
0.0
 11
2718.479620594459
 21
-3552.9999999999968
 31
0.0
  0
INSERT
  5
127769
  8
DIM
  2
_OPEN30
 10
2718.479620594459
 20
-3626.9999999999968
 30
0.0
 41
20.0
 42
20.0
 43
20.0
 50
270.0
  0
INSERT
  5
12776A
  8
DIM
  2
_OPEN30
 10
2718.479620594459
 20
-3532.9999999999959
 30
0.0
 41
20.0
 42
20.0
 43
20.0
 50
90.0
  0
INSERT
  5
12776B
  8
SLIM
  2
*U16
 10
0.0
 20
0.0
 30
0.0
  0
LINE
  5
12776C
  8
DIM
 10
2650.0
 20
-3984.9999999999991
 30
0.0
 11
2726.8409284037339
 21
-3984.9999999999991
 31
0.0
  0
LINE
  5
12776D
  8
DIM
 10
2665.0
 20
-3940.9999999999991
 30
0.0
 11
2726.8409284037339
 21
-3940.9999999999991
 31
0.0
  0
LINE
  5
12776E
  8
DIM
 10
2716.8409284037339
 20
-4004.9999999999991
 30
0.0
 11
2716.8409284037339
 21
-4024.9999999999968
 31
0.0
  0
LINE
  5
12776F
  8
DIM
 10
2716.8409284037339
 20
-3920.9999999999968
 30
0.0
 11
2716.8409284037339
 21
-3900.9999999999982
 31
0.0
  0
LINE
  5
127770
  8
DIM
 10
2716.8409284037339
 20
-3984.9999999999991
 30
0.0
 11
2716.8409284037339
 21
-3940.9999999999991
 31
0.0
  0
INSERT
  5
127771
  8
DIM
  2
_OPEN30
 10
2716.8409284037339
 20
-3984.9999999999991
 30
0.0
 41
20.0
 42
20.0
 43
20.0
 50
90.0
  0
INSERT
  5
127772
  8
DIM
  2
_OPEN30
 10
2716.8409284037339
 20
-3940.9999999999991
 30
0.0
 41
20.0
 42
20.0
 43
20.0
 50
270.0
  0
INSERT
  5
127773
  8
SLIM
  2
*U17
 10
0.0
 20
0.0
 30
0.0
  0
LINE
  5
127774
  8
DIM
 10
2500.0
 20
-3479.9999999999959
 30
0.0
 11
2500.0
 21
-3442.2081219844458
 31
0.0
  0
LINE
  5
127775
  8
DIM
 10
2640.0
 20
-3522.9999999999959
 30
0.0
 11
2640.0
 21
-3442.2081219844458
 31
0.0
  0
LINE
  5
127776
  8
DIM
 10
2520.0
 20
-3452.208121984444
 30
0.0
 11
2620.0
 21
-3452.208121984444
 31
0.0
  0
INSERT
  5
127777
  8
DIM
  2
_OPEN30
 10
2500.0
 20
-3452.208121984444
 30
0.0
 41
20.0
 42
20.0
 43
20.0
 50
180.0
  0
INSERT
  5
127778
  8
DIM
  2
_OPEN30
 10
2640.0
 20
-3452.208121984444
 30
0.0
 41
20.0
 42
20.0
 43
20.0
  0
INSERT
  5
127779
  8
SLIM
  2
*U18
 10
0.0
 20
0.0
 30
0.0
  0
TEXT
  5
12777A
  8
SLIM
 10
3270.9999999999991
 20
-3357.50001604727
 30
0.0
 40
40.0
  1
C寸法
 41
0.75
  0
TEXT
  5
12777B
  8
SLIM
 10
3270.9999999999991
 20
-3287.5000160472709
 30
0.0
 40
40.0
  1
B寸法
 41
0.75
  0
TEXT
  5
12777C
  8
SLIM
 10
3270.2857142857151
 20
-3217.5000160472709
 30
0.0
 40
40.0
  1
A寸法
 41
0.75
  0
TEXT
  5
12777D
  8
SLIM
 10
3669.2857142857142
 20
-3357.50001604727
 30
0.0
 40
40.0
  1
140
 41
0.75
  0
TEXT
  5
12777E
  8
SLIM
 10
3409.2857142857151
 20
-3357.50001604727
 30
0.0
 40
40.0
  1
140
 41
0.75
  0
TEXT
  5
12777F
  8
SLIM
 10
3539.2857142857151
 20
-3357.50001604727
 30
0.0
 40
40.0
  1
140
 41
0.75
  0
TEXT
  5
127780
  8
SLIM
 10
3681.4285714285711
 20
-3287.5000160472709
 30
0.0
 40
40.0
  1
59
 41
0.75
  0
TEXT
  5
127781
  8
SLIM
 10
3420.0
 20
-3287.5000160472709
 30
0.0
 40
40.0
  1
44
 41
0.75
  0
TEXT
  5
127782
  8
SLIM
 10
3550.7142857142849
 20
-3287.5000160472709
 30
0.0
 40
40.0
  1
52
 41
0.75
  0
TEXT
  5
127783
  8
SLIM
 10
3471.0
 20
-3092.5000160472709
 30
0.0
 40
40.0
  1
横枝管サイズ
 41
0.75
  0
TEXT
  5
127784
  8
SLIM
 10
3654.8571428571422
 20
-3147.5000160472709
 30
0.0
 40
30.0
  1
75（3）
 41
0.75
  0
TEXT
  5
127785
  8
SLIM
 10
3524.8571428571422
 20
-3147.5000160472709
 30
0.0
 40
30.0
  1
65（2）
 41
0.75
  0
TEXT
  5
127786
  8
SLIM
 10
3397.0
 20
-3147.5000160472709
 30
0.0
 40
30.0
  1
50（1）
 41
0.75
  0
TEXT
  5
127787
  8
SLIM
 10
3668.5714285714289
 20
-3217.5000160472709
 30
0.0
 40
40.0
  1
124
 41
0.75
  0
TEXT
  5
127788
  8
SLIM
 10
3420.0
 20
-3217.5000160472709
 30
0.0
 40
40.0
  1
94
 41
0.75
  0
TEXT
  5
127789
  8
SLIM
 10
3542.142857142856
 20
-3217.5000160472709
 30
0.0
 40
40.0
  1
110
 41
0.75
  0
TEXT
  5
12778A
  8
SLIM
 10
2349.9999999999991
 20
-3117.5000000000009
 30
0.0
 40
75.0
  1
下部枝管サイズ毎の形状
 41
0.75
  0
TEXT
  5
12778B
  8
SLIM
 10
4394.25
 20
-4102.4999999999973
 30
0.0
 40
35.0
  1
通常枝75（3）
 41
0.75
  0
TEXT
  5
12778C
  8
SLIM
 10
3394.2499999999991
 20
-4102.4999999999973
 30
0.0
 40
35.0
  1
通常枝65（2）
 41
0.75
  0
TEXT
  5
12778D
  8
SLIM
 10
2396.75
 20
-4102.4999999999973
 30
0.0
 40
35.0
  1
通常枝50（1）
 41
0.75
  0
TEXT
  5
12778E
  8
SLIM
 10
2337.75
 20
282.50000000000011
 30
0.0
 40
35.0
  1
（枝管サイズ毎に寸法が異なります。管底の位置は全サイズで同じです）
 41
0.75
  0
TEXT
  5
12778F
  8
SLIM
 10
2350.0
 20
532.5
 30
0.0
 40
75.0
  1
側面図の代表機種
 41
0.75
  0
TEXT
  5
127790
  8
SLIM
 10
2350.0
 20
369.99999999999989
 30
0.0
 40
100.0
  1
4SLT2-A3-A2000-P440
 41
0.75
  0
TEXT
  5
127791
  8
SLIM
 10
0.0
 20
670.0
 30
0.0
 40
100.0
  1
4SLT2-A3-AX000-PXXX-S
 41
0.75
  0
TEXT
  5
127792
  8
SLIM
 10
0.0
 20
520.0
 30
0.0
 40
100.0
  1
4SLT2-A3-AX000-PXXX-W
 41
0.75
  0
LINE
  5
127793
  8
OBJECT
 10
12585.999999999991
 20
-1508.9999999999991
 30
0.0
 11
12585.999999999991
 21
-1518.9999999999991
 31
0.0
1001
ACDBBLOCKREPETAG
1070
     1
1071
      121
1005
127793
  0
LINE
  5
127794
  8
OBJECT
 10
12569.999999999991
 20
-1508.9999999999991
 30
0.0
 11
12569.999999999991
 21
-1518.9999999999991
 31
0.0
1001
ACDBBLOCKREPETAG
1070
     1
1071
      122
1005
127794
  0
LINE
  5
127795
  8
OBJECT
 10
12585.999999999991
 20
-1518.9999999999991
 30
0.0
 11
12569.999999999991
 21
-1518.9999999999991
 31
0.0
1001
ACDBBLOCKREPETAG
1070
     1
1071
      123
1005
127795
  0
LINE
  5
127796
  8
OBJECT
 10
12590.0
 20
-1469.9999999999959
 30
0.0
 11
12424.0
 21
-1469.9999999999959
 31
0.0
1001
ACDBBLOCKREPETAG
1070
     1
1071
      124
1005
127796
  0
LINE
  5
127797
  8
OBJECT
 10
12590.0
 20
-1484.9999999999991
 30
0.0
 11
12590.0
 21
-1469.9999999999959
 31
0.0
1001
ACDBBLOCKREPETAG
1070
     1
1071
      125
1005
127797
  0
LINE
  5
127798
  8
OBJECT
 10
12424.0
 20
-1484.9999999999991
 30
0.0
 11
12590.0
 21
-1484.9999999999991
 31
0.0
1001
ACDBBLOCKREPETAG
1070
     1
1071
      126
1005
127798
  0
LINE
  5
127799
  8
OBJECT
 10
12567.49999999998
 20
-1484.9999999999991
 30
0.0
 11
12567.49999999998
 21
-1494.9999999999991
 31
0.0
1001
ACDBBLOCKREPETAG
1070
     1
1071
      127
1005
127799
  0
LINE
  5
12779A
  8
OBJECT
 10
12572.999999999991
 20
-1494.9999999999991
 30
0.0
 11
12572.999999999991
 21
-1484.9999999999991
 31
0.0
1001
ACDBBLOCKREPETAG
1070
     1
1071
      128
1005
12779A
  0
LINE
  5
12779B
  8
OBJECT
 10
12582.999999999991
 20
-1494.9999999999991
 30
0.0
 11
12582.999999999991
 21
-1484.9999999999991
 31
0.0
1001
ACDBBLOCKREPETAG
1070
     1
1071
      129
1005
12779B
  0
LINE
  5
12779C
  8
OBJECT
 10
12424.0
 20
-1494.9999999999991
 30
0.0
 11
12424.0
 21
-1508.9999999999959
 31
0.0
1001
ACDBBLOCKREPETAG
1070
     1
1071
      130
1005
12779C
  0
LINE
  5
12779D
  8
OBJECT
 10
12590.0
 20
-1494.9999999999991
 30
0.0
 11
12590.0
 21
-1508.9999999999959
 31
0.0
1001
ACDBBLOCKREPETAG
1070
     1
1071
      131
1005
12779D
  0
LINE
  5
12779E
  8
OBJECT
 10
12424.0
 20
-1508.9999999999959
 30
0.0
 11
12590.0
 21
-1508.9999999999959
 31
0.0
1001
ACDBBLOCKREPETAG
1070
     1
1071
      132
1005
12779E
  0
LINE
  5
12779F
  8
OBJECT
 10
12424.0
 20
-1494.9999999999991
 30
0.0
 11
12590.0
 21
-1494.9999999999991
 31
0.0
1001
ACDBBLOCKREPETAG
1070
     1
1071
      133
1005
12779F
  0
LINE
  5
1277A0
  8
OBJECT
 10
12432.49999999998
 20
-1484.9999999999991
 30
0.0
 11
12432.49999999998
 21
-1494.9999999999991
 31
0.0
1001
ACDBBLOCKREPETAG
1070
     1
1071
      134
1005
1277A0
  0
LINE
  5
1277A1
  8
OBJECT
 10
12434.0
 20
-1433.9999999999959
 30
0.0
 11
12565.999999999991
 21
-1433.9999999999959
 31
0.0
1001
ACDBBLOCKREPETAG
1070
     1
1071
      135
1005
1277A1
  0
LINE
  5
1277A2
  8
OBJECT
 10
12424.0
 20
-1484.9999999999991
 30
0.0
 11
12424.0
 21
-1469.9999999999959
 31
0.0
1001
ACDBBLOCKREPETAG
1070
     1
1071
      136
1005
1277A2
  0
LINE
  5
1277A3
  8
HIDDEN
 10
12443.0
 20
-1444.9999999999991
 30
0.0
 11
12557.0
 21
-1444.9999999999991
 31
0.0
1001
ACDBBLOCKREPETAG
1070
     1
1071
      137
1005
1277A3
  0
LINE
  5
1277A4
  8
OBJECT
 10
12586.999999999991
 20
-1468.2
 30
0.0
 11
12586.999999999991
 21
-1469.9999999999991
 31
0.0
1001
ACDBBLOCKREPETAG
1070
     1
1071
      138
1005
1277A4
  0
LINE
  5
1277A5
  8
OBJECT
 10
12568.999999999991
 20
-1468.2
 30
0.0
 11
12568.999999999991
 21
-1469.9999999999991
 31
0.0
1001
ACDBBLOCKREPETAG
1070
     1
1071
      139
1005
1277A5
  0
LINE
  5
1277A6
  8
OBJECT
 10
12572.249999999991
 20
-1458.4999999999991
 30
0.0
 11
12583.749999999991
 21
-1458.4999999999991
 31
0.0
1001
ACDBBLOCKREPETAG
1070
     1
1071
      140
1005
1277A6
  0
LINE
  5
1277A7
  8
OBJECT
 10
12572.249999999991
 20
-1458.4999999999991
 30
0.0
 11
12572.249999999991
 21
-1468.2
 31
0.0
1001
ACDBBLOCKREPETAG
1070
     1
1071
      141
1005
1277A7
  0
LINE
  5
1277A8
  8
OBJECT
 10
12583.749999999991
 20
-1458.4999999999991
 30
0.0
 11
12583.749999999991
 21
-1468.2
 31
0.0
1001
ACDBBLOCKREPETAG
1070
     1
1071
      142
1005
1277A8
  0
LINE
  5
1277A9
  8
OBJECT
 10
12431.99999999998
 20
-1550.0
 30
0.0
 11
12567.99999999998
 21
-1550.0
 31
0.0
1001
ACDBBLOCKREPETAG
1070
     1
1071
      143
1005
1277A9
  0
LINE
  5
1277AA
  8
OBJECT
 10
12431.99999999998
 20
-1550.0
 30
0.0
 11
12431.99999999998
 21
-1508.9999999999991
 31
0.0
1001
ACDBBLOCKREPETAG
1070
     1
1071
      144
1005
1277AA
  0
LINE
  5
1277AB
  8
OBJECT
 10
12567.99999999998
 20
-1550.0
 30
0.0
 11
12567.99999999998
 21
-1508.9999999999991
 31
0.0
1001
ACDBBLOCKREPETAG
1070
     1
1071
      145
1005
1277AB
  0
LINE
  5
1277AC
  8
OBJECT
 10
12586.999999999991
 20
-1468.2
 30
0.0
 11
12568.999999999991
 21
-1468.2
 31
0.0
1001
ACDBBLOCKREPETAG
1070
     1
1071
      146
1005
1277AC
  0
LINE
  5
1277AD
  8
CENTER
 10
12500.0
 20
-1174.9999999999991
 30
0.0
 11
12500.0
 21
-1564.9999999999991
 31
0.0
1001
ACDBBLOCKREPETAG
1070
     1
1071
      147
1005
1277AD
  0
LINE
  5
1277AE
  8
OBJECT
 10
12425.0
 20
-1174.9999999999991
 30
0.0
 11
12425.0
 21
-1256.9999999999959
 31
0.0
1001
ACDBBLOCKREPETAG
1070
     1
1071
      148
1005
1277AE
  0
LINE
  5
1277AF
  8
OBJECT
 10
12575.0
 20
-1174.9999999999991
 30
0.0
 11
12575.0
 21
-1256.999999999992
 31
0.0
1001
ACDBBLOCKREPETAG
1070
     1
1071
      149
1005
1277AF
  0
LINE
  5
1277B0
  8
OBJECT
 10
12425.0
 20
-1256.9999999999959
 30
0.0
 11
12575.0
 21
-1256.999999999992
 31
0.0
1001
ACDBBLOCKREPETAG
1070
     1
1071
      150
1005
1277B0
  0
LINE
  5
1277B1
  8
OBJECT
 10
12443.0
 20
-1433.9999999999959
 30
0.0
 11
12443.0
 21
-1384.999999999992
 31
0.0
1001
ACDBBLOCKREPETAG
1070
     1
1071
      151
1005
1277B1
  0
LINE
  5
1277B2
  8
OBJECT
 10
12557.0
 20
-1384.999999999992
 30
0.0
 11
12443.0
 21
-1384.999999999992
 31
0.0
1001
ACDBBLOCKREPETAG
1070
     1
1071
      152
1005
1277B2
  0
LINE
  5
1277B3
  8
OBJECT
 10
12557.0
 20
-1384.999999999992
 30
0.0
 11
12557.0
 21
-1433.9999999999959
 31
0.0
1001
ACDBBLOCKREPETAG
1070
     1
1071
      153
1005
1277B3
  0
LINE
  5
1277B4
  8
OBJECT
 10
12425.0
 20
-1256.9999999999959
 30
0.0
 11
12443.0
 21
-1384.999999999992
 31
0.0
1001
ACDBBLOCKREPETAG
1070
     1
1071
      154
1005
1277B4
  0
LINE
  5
1277B5
  8
OBJECT
 10
12557.0
 20
-1384.999999999992
 30
0.0
 11
12575.0
 21
-1256.999999999992
 31
0.0
1001
ACDBBLOCKREPETAG
1070
     1
1071
      155
1005
1277B5
  0
LINE
  5
1277B6
  8
OBJECT
 10
12434.0
 20
-1469.9999999999959
 30
0.0
 11
12434.0
 21
-1433.9999999999959
 31
0.0
1001
ACDBBLOCKREPETAG
1070
     1
1071
      156
1005
1277B6
  0
LINE
  5
1277B7
  8
OBJECT
 10
12566.0
 20
-1469.9999999999959
 30
0.0
 11
12565.999999999991
 21
-1433.9999999999959
 31
0.0
1001
ACDBBLOCKREPETAG
1070
     1
1071
      157
1005
1277B7
  0
LINE
  5
1277B8
  8
OBJECT
 10
12454.75
 20
-1459.699999999993
 30
0.0
 11
12467.25
 21
-1459.699999999993
 31
0.0
1001
ACDBBLOCKREPETAG
1070
     1
1071
      158
1005
1277B8
  0
LINE
  5
1277B9
  8
OBJECT
 10
12446.0
 20
-1469.9999999999959
 30
0.0
 11
12446.0
 21
-1467.699999999996
 31
0.0
1001
ACDBBLOCKREPETAG
1070
     1
1071
      159
1005
1277B9
  0
LINE
  5
1277BA
  8
OBJECT
 10
12476.0
 20
-1469.9999999999959
 30
0.0
 11
12476.0
 21
-1467.699999999996
 31
0.0
1001
ACDBBLOCKREPETAG
1070
     1
1071
      160
1005
1277BA
  0
LINE
  5
1277BB
  8
OBJECT
 10
12454.75
 20
-1459.699999999993
 30
0.0
 11
12454.75
 21
-1467.699999999996
 31
0.0
1001
ACDBBLOCKREPETAG
1070
     1
1071
      161
1005
1277BB
  0
LINE
  5
1277BC
  8
OBJECT
 10
12467.25
 20
-1459.699999999993
 30
0.0
 11
12467.25
 21
-1467.699999999996
 31
0.0
1001
ACDBBLOCKREPETAG
1070
     1
1071
      162
1005
1277BC
  0
LINE
  5
1277BD
  8
OBJECT
 10
12446.0
 20
-1467.699999999996
 30
0.0
 11
12476.0
 21
-1467.699999999996
 31
0.0
1001
ACDBBLOCKREPETAG
1070
     1
1071
      163
1005
1277BD
  0
LINE
  5
1277BE
  8
OBJECT
 10
12453.0
 20
-1508.9999999999959
 30
0.0
 11
12453.0
 21
-1518.9999999999959
 31
0.0
1001
ACDBBLOCKREPETAG
1070
     1
1071
      164
1005
1277BE
  0
LINE
  5
1277BF
  8
OBJECT
 10
12469.0
 20
-1508.9999999999959
 30
0.0
 11
12469.0
 21
-1518.9999999999959
 31
0.0
1001
ACDBBLOCKREPETAG
1070
     1
1071
      165
1005
1277BF
  0
LINE
  5
1277C0
  8
OBJECT
 10
12453.0
 20
-1518.9999999999959
 30
0.0
 11
12469.0
 21
-1518.9999999999959
 31
0.0
1001
ACDBBLOCKREPETAG
1070
     1
1071
      166
1005
1277C0
  0
LINE
  5
1277C1
  8
OBJECT
 10
12466.0
 20
-1494.9999999999959
 30
0.0
 11
12466.0
 21
-1484.9999999999959
 31
0.0
1001
ACDBBLOCKREPETAG
1070
     1
1071
      167
1005
1277C1
  0
LINE
  5
1277C2
  8
OBJECT
 10
12456.0
 20
-1494.9999999999959
 30
0.0
 11
12456.0
 21
-1484.9999999999959
 31
0.0
1001
ACDBBLOCKREPETAG
1070
     1
1071
      168
1005
1277C2
  0
LINE
  5
1277C3
  8
OBJECT
 10
10590.0
 20
-1469.9999999999959
 30
0.0
 11
10424.0
 21
-1469.9999999999959
 31
0.0
1001
ACDBBLOCKREPETAG
1070
     1
1071
       12
1005
1277C3
  0
LINE
  5
1277C4
  8
OBJECT
 10
10566.0
 20
-1433.9999999999959
 30
0.0
 11
10434.0
 21
-1433.9999999999959
 31
0.0
1001
ACDBBLOCKREPETAG
1070
     1
1071
       13
1005
1277C4
  0
LINE
  5
1277C5
  8
OBJECT
 10
10590.0
 20
-1485.0
 30
0.0
 11
10590.0
 21
-1469.9999999999959
 31
0.0
1001
ACDBBLOCKREPETAG
1070
     1
1071
       14
1005
1277C5
  0
LINE
  5
1277C6
  8
OBJECT
 10
10424.0
 20
-1485.0
 30
0.0
 11
10590.0
 21
-1485.0
 31
0.0
1001
ACDBBLOCKREPETAG
1070
     1
1071
       15
1005
1277C6
  0
LINE
  5
1277C7
  8
OBJECT
 10
10567.49999999998
 20
-1485.0
 30
0.0
 11
10567.49999999998
 21
-1495.0
 31
0.0
1001
ACDBBLOCKREPETAG
1070
     1
1071
       16
1005
1277C7
  0
LINE
  5
1277C8
  8
OBJECT
 10
10424.0
 20
-1495.0
 30
0.0
 11
10424.0
 21
-1508.9999999999959
 31
0.0
1001
ACDBBLOCKREPETAG
1070
     1
1071
       17
1005
1277C8
  0
LINE
  5
1277C9
  8
OBJECT
 10
10590.0
 20
-1495.0
 30
0.0
 11
10590.0
 21
-1508.9999999999959
 31
0.0
1001
ACDBBLOCKREPETAG
1070
     1
1071
       18
1005
1277C9
  0
LINE
  5
1277CA
  8
OBJECT
 10
10424.0
 20
-1508.9999999999959
 30
0.0
 11
10590.0
 21
-1508.9999999999959
 31
0.0
1001
ACDBBLOCKREPETAG
1070
     1
1071
       19
1005
1277CA
  0
LINE
  5
1277CB
  8
OBJECT
 10
10424.0
 20
-1495.0
 30
0.0
 11
10590.0
 21
-1495.0
 31
0.0
1001
ACDBBLOCKREPETAG
1070
     1
1071
       20
1005
1277CB
  0
LINE
  5
1277CC
  8
OBJECT
 10
10432.49999999998
 20
-1485.0
 30
0.0
 11
10432.49999999998
 21
-1495.0
 31
0.0
1001
ACDBBLOCKREPETAG
1070
     1
1071
       21
1005
1277CC
  0
LINE
  5
1277CD
  8
OBJECT
 10
10424.0
 20
-1485.0
 30
0.0
 11
10424.0
 21
-1469.9999999999959
 31
0.0
1001
ACDBBLOCKREPETAG
1070
     1
1071
       22
1005
1277CD
  0
LINE
  5
1277CE
  8
HIDDEN
 10
10443.0
 20
-1445.0
 30
0.0
 11
10557.0
 21
-1445.0
 31
0.0
1001
ACDBBLOCKREPETAG
1070
     1
1071
       23
1005
1277CE
  0
LINE
  5
1277CF
  8
CENTER
 10
10500.0
 20
-1175.0
 30
0.0
 11
10500.0
 21
-1523.9999999999959
 31
0.0
1001
ACDBBLOCKREPETAG
1070
     1
1071
       24
1005
1277CF
  0
LINE
  5
1277D0
  8
OBJECT
 10
10425.0
 20
-1175.0
 30
0.0
 11
10425.0
 21
-1256.9999999999959
 31
0.0
1001
ACDBBLOCKREPETAG
1070
     1
1071
       25
1005
1277D0
  0
LINE
  5
1277D1
  8
OBJECT
 10
10575.0
 20
-1175.0
 30
0.0
 11
10575.0
 21
-1256.999999999993
 31
0.0
1001
ACDBBLOCKREPETAG
1070
     1
1071
       26
1005
1277D1
  0
LINE
  5
1277D2
  8
OBJECT
 10
10425.0
 20
-1256.9999999999959
 30
0.0
 11
10575.0
 21
-1256.999999999993
 31
0.0
1001
ACDBBLOCKREPETAG
1070
     1
1071
       27
1005
1277D2
  0
LINE
  5
1277D3
  8
OBJECT
 10
10557.0
 20
-1433.9999999999959
 30
0.0
 11
10557.0
 21
-1384.999999999992
 31
0.0
1001
ACDBBLOCKREPETAG
1070
     1
1071
       28
1005
1277D3
  0
LINE
  5
1277D4
  8
OBJECT
 10
10443.0
 20
-1433.9999999999959
 30
0.0
 11
10443.0
 21
-1384.999999999992
 31
0.0
1001
ACDBBLOCKREPETAG
1070
     1
1071
       29
1005
1277D4
  0
LINE
  5
1277D5
  8
OBJECT
 10
10557.0
 20
-1384.999999999992
 30
0.0
 11
10443.0
 21
-1384.999999999992
 31
0.0
1001
ACDBBLOCKREPETAG
1070
     1
1071
       30
1005
1277D5
  0
LINE
  5
1277D6
  8
OBJECT
 10
10425.0
 20
-1256.9999999999959
 30
0.0
 11
10443.0
 21
-1384.999999999992
 31
0.0
1001
ACDBBLOCKREPETAG
1070
     1
1071
       31
1005
1277D6
  0
LINE
  5
1277D7
  8
OBJECT
 10
10557.0
 20
-1384.999999999992
 30
0.0
 11
10575.0
 21
-1256.999999999993
 31
0.0
1001
ACDBBLOCKREPETAG
1070
     1
1071
       32
1005
1277D7
  0
LINE
  5
1277D8
  8
OBJECT
 10
10434.0
 20
-1433.9999999999959
 30
0.0
 11
10434.0
 21
-1469.9999999999959
 31
0.0
1001
ACDBBLOCKREPETAG
1070
     1
1071
       33
1005
1277D8
  0
LINE
  5
1277D9
  8
OBJECT
 10
10566.0
 20
-1433.9999999999959
 30
0.0
 11
10566.0
 21
-1469.9999999999959
 31
0.0
1001
ACDBBLOCKREPETAG
1070
     1
1071
       34
1005
1277D9
  0
LINE
  5
1277DA
  8
OBJECT
 10
10582.999999999991
 20
-1494.9999999999959
 30
0.0
 11
10582.999999999991
 21
-1484.9999999999959
 31
0.0
1001
ACDBBLOCKREPETAG
1070
     1
1071
       35
1005
1277DA
  0
LINE
  5
1277DB
  8
OBJECT
 10
10572.999999999991
 20
-1494.9999999999959
 30
0.0
 11
10572.999999999991
 21
-1484.9999999999959
 31
0.0
1001
ACDBBLOCKREPETAG
1070
     1
1071
       36
1005
1277DB
  0
LINE
  5
1277DC
  8
OBJECT
 10
10568.99999999998
 20
-1464.9999999999959
 30
0.0
 11
10568.99999999998
 21
-1469.9999999999959
 31
0.0
1001
ACDBBLOCKREPETAG
1070
     1
1071
       37
1005
1277DC
  0
LINE
  5
1277DD
  8
OBJECT
 10
10587.0
 20
-1464.9999999999959
 30
0.0
 11
10587.0
 21
-1469.9999999999959
 31
0.0
1001
ACDBBLOCKREPETAG
1070
     1
1071
       38
1005
1277DD
  0
LINE
  5
1277DE
  8
OBJECT
 10
10587.0
 20
-1464.9999999999959
 30
0.0
 11
10568.99999999998
 21
-1464.9999999999959
 31
0.0
1001
ACDBBLOCKREPETAG
1070
     1
1071
       39
1005
1277DE
  0
LINE
  5
1277DF
  8
OBJECT
 10
10573.0
 20
-1516.9999999999959
 30
0.0
 11
10573.0
 21
-1519.9999999999959
 31
0.0
1001
ACDBBLOCKREPETAG
1070
     1
1071
       40
1005
1277DF
  0
LINE
  5
1277E0
  8
OBJECT
 10
10573.0
 20
-1519.9999999999959
 30
0.0
 11
10583.0
 21
-1519.9999999999959
 31
0.0
1001
ACDBBLOCKREPETAG
1070
     1
1071
       41
1005
1277E0
  0
LINE
  5
1277E1
  8
OBJECT
 10
10568.18504542377
 20
-1516.9999999999959
 30
0.0
 11
10587.814954576221
 21
-1516.9999999999959
 31
0.0
1001
ACDBBLOCKREPETAG
1070
     1
1071
       42
1005
1277E1
  0
LINE
  5
1277E2
  8
OBJECT
 10
10583.0
 20
-1519.9999999999959
 30
0.0
 11
10583.0
 21
-1516.9999999999959
 31
0.0
1001
ACDBBLOCKREPETAG
1070
     1
1071
       43
1005
1277E2
  0
LINE
  5
1277E3
  8
OBJECT
 10
10568.18503599129
 20
-1508.9999868402549
 30
0.0
 11
10568.18503599129
 21
-1516.9999868402549
 31
0.0
1001
ACDBBLOCKREPETAG
1070
     1
1071
       44
1005
1277E3
  0
LINE
  5
1277E4
  8
OBJECT
 10
10573.0925013592
 20
-1508.9999868402549
 30
0.0
 11
10573.0925013592
 21
-1516.9999868402549
 31
0.0
1001
ACDBBLOCKREPETAG
1070
     1
1071
       45
1005
1277E4
  0
LINE
  5
1277E5
  8
OBJECT
 10
10582.90743209502
 20
-1508.9999868402549
 30
0.0
 11
10582.90743209502
 21
-1516.9999868402549
 31
0.0
1001
ACDBBLOCKREPETAG
1070
     1
1071
       46
1005
1277E5
  0
LINE
  5
1277E6
  8
OBJECT
 10
10587.81499155279
 20
-1508.9999868402549
 30
0.0
 11
10587.81499155279
 21
-1516.9999868402549
 31
0.0
1001
ACDBBLOCKREPETAG
1070
     1
1071
       47
1005
1277E6
  0
LINE
  5
1277E7
  8
OBJECT
 10
10468.5
 20
-1464.9999999999959
 30
0.0
 11
10451.999999999991
 21
-1464.9999999999959
 31
0.0
1001
ACDBBLOCKREPETAG
1070
     1
1071
       48
1005
1277E7
  0
LINE
  5
1277E8
  8
OBJECT
 10
10476.0
 20
-1469.9999999999959
 30
0.0
 11
10476.0
 21
-1467.9999999999959
 31
0.0
1001
ACDBBLOCKREPETAG
1070
     1
1071
       49
1005
1277E8
  0
LINE
  5
1277E9
  8
OBJECT
 10
10466.0
 20
-1494.9999999999959
 30
0.0
 11
10466.0
 21
-1484.9999999999959
 31
0.0
1001
ACDBBLOCKREPETAG
1070
     1
1071
       50
1005
1277E9
  0
LINE
  5
1277EA
  8
OBJECT
 10
10456.0
 20
-1494.9999999999959
 30
0.0
 11
10456.0
 21
-1484.9999999999959
 31
0.0
1001
ACDBBLOCKREPETAG
1070
     1
1071
       51
1005
1277EA
  0
LINE
  5
1277EB
  8
OBJECT
 10
10451.999999999991
 20
-1464.9999999999959
 30
0.0
 11
10451.999999999991
 21
-1469.9999999999959
 31
0.0
1001
ACDBBLOCKREPETAG
1070
     1
1071
       52
1005
1277EB
  0
LINE
  5
1277EC
  8
OBJECT
 10
10456.0
 20
-1516.9999999999959
 30
0.0
 11
10456.0
 21
-1519.9999999999959
 31
0.0
1001
ACDBBLOCKREPETAG
1070
     1
1071
       53
1005
1277EC
  0
LINE
  5
1277ED
  8
OBJECT
 10
10456.0
 20
-1519.9999999999959
 30
0.0
 11
10466.0
 21
-1519.9999999999959
 31
0.0
1001
ACDBBLOCKREPETAG
1070
     1
1071
       54
1005
1277ED
  0
LINE
  5
1277EE
  8
OBJECT
 10
10451.18504542377
 20
-1516.9999999999959
 30
0.0
 11
10470.814954576221
 21
-1516.9999999999959
 31
0.0
1001
ACDBBLOCKREPETAG
1070
     1
1071
       55
1005
1277EE
  0
LINE
  5
1277EF
  8
OBJECT
 10
10466.0
 20
-1519.9999999999959
 30
0.0
 11
10466.0
 21
-1516.9999999999959
 31
0.0
1001
ACDBBLOCKREPETAG
1070
     1
1071
       56
1005
1277EF
  0
LINE
  5
1277F0
  8
OBJECT
 10
10476.0
 20
-1467.9999999999959
 30
0.0
 11
10468.5
 21
-1464.9999999999959
 31
0.0
1001
ACDBBLOCKREPETAG
1070
     1
1071
       57
1005
1277F0
  0
LINE
  5
1277F1
  8
OBJECT
 10
10451.18503599129
 20
-1508.9999868402549
 30
0.0
 11
10451.18503599129
 21
-1516.9999868402549
 31
0.0
1001
ACDBBLOCKREPETAG
1070
     1
1071
       58
1005
1277F1
  0
LINE
  5
1277F2
  8
OBJECT
 10
10456.0925013592
 20
-1508.9999868402549
 30
0.0
 11
10456.0925013592
 21
-1516.9999868402549
 31
0.0
1001
ACDBBLOCKREPETAG
1070
     1
1071
       59
1005
1277F2
  0
LINE
  5
1277F3
  8
OBJECT
 10
10465.90743209502
 20
-1508.9999868402549
 30
0.0
 11
10465.90743209502
 21
-1516.9999868402549
 31
0.0
1001
ACDBBLOCKREPETAG
1070
     1
1071
       60
1005
1277F3
  0
LINE
  5
1277F4
  8
OBJECT
 10
10470.81499155279
 20
-1508.9999868402549
 30
0.0
 11
10470.81499155279
 21
-1516.9999868402549
 31
0.0
1001
ACDBBLOCKREPETAG
1070
     1
1071
       61
1005
1277F4
  0
LINE
  5
1277F5
  8
OBJECT
 10
8443.0
 20
-1484.9999999999959
 30
0.0
 11
8557.0
 21
-1484.9999999999959
 31
0.0
1001
ACDBBLOCKREPETAG
1070
     1
1071
        0
1005
1277F5
  0
LINE
  5
1277F6
  8
OBJECT
 10
8443.0
 20
-1484.9999999999959
 30
0.0
 11
8443.0
 21
-1384.9999999999959
 31
0.0
1001
ACDBBLOCKREPETAG
1070
     1
1071
        1
1005
1277F6
  0
LINE
  5
1277F7
  8
OBJECT
 10
8557.0
 20
-1484.9999999999959
 30
0.0
 11
8557.0
 21
-1384.9999999999959
 31
0.0
1001
ACDBBLOCKREPETAG
1070
     1
1071
        2
1005
1277F7
  0
LINE
  5
1277F8
  8
OBJECT
 10
8443.0
 20
-1384.9999999999959
 30
0.0
 11
8557.0
 21
-1384.9999999999959
 31
0.0
1001
ACDBBLOCKREPETAG
1070
     1
1071
        3
1005
1277F8
  0
LINE
  5
1277F9
  8
HIDDEN
 10
8450.0
 20
-1384.9999999999959
 30
0.0
 11
8450.0
 21
-1484.9999999999959
 31
0.0
1001
ACDBBLOCKREPETAG
1070
     1
1071
        4
1005
1277F9
  0
LINE
  5
1277FA
  8
HIDDEN
 10
8550.0
 20
-1384.9999999999959
 30
0.0
 11
8550.0
 21
-1484.9999999999959
 31
0.0
1001
ACDBBLOCKREPETAG
1070
     1
1071
        5
1005
1277FA
  0
LINE
  5
1277FB
  8
CENTER
 10
8500.0
 20
-1175.0
 30
0.0
 11
8500.0
 21
-1499.9999999999959
 31
0.0
1001
ACDBBLOCKREPETAG
1070
     1
1071
        6
1005
1277FB
  0
LINE
  5
1277FC
  8
OBJECT
 10
8425.0
 20
-1175.0
 30
0.0
 11
8425.0
 21
-1256.9999999999959
 31
0.0
1001
ACDBBLOCKREPETAG
1070
     1
1071
        7
1005
1277FC
  0
LINE
  5
1277FD
  8
OBJECT
 10
8575.0
 20
-1175.0
 30
0.0
 11
8575.0
 21
-1256.9999999999959
 31
0.0
1001
ACDBBLOCKREPETAG
1070
     1
1071
        8
1005
1277FD
  0
LINE
  5
1277FE
  8
OBJECT
 10
8425.0
 20
-1256.9999999999959
 30
0.0
 11
8575.0
 21
-1256.9999999999959
 31
0.0
1001
ACDBBLOCKREPETAG
1070
     1
1071
        9
1005
1277FE
  0
LINE
  5
1277FF
  8
OBJECT
 10
8425.0
 20
-1256.9999999999959
 30
0.0
 11
8443.0
 21
-1384.9999999999959
 31
0.0
1001
ACDBBLOCKREPETAG
1070
     1
1071
       10
1005
1277FF
  0
LINE
  5
127800
  8
OBJECT
 10
8557.0
 20
-1384.9999999999959
 30
0.0
 11
8575.0
 21
-1256.9999999999959
 31
0.0
1001
ACDBBLOCKREPETAG
1070
     1
1071
       11
1005
127800
  0
LINE
  5
127801
  8
OBJECT
 10
6585.9999999999927
 20
-1508.9999999999991
 30
0.0
 11
6585.9999999999927
 21
-1518.9999999999991
 31
0.0
1001
ACDBBLOCKREPETAG
1070
     1
1071
      121
1005
127801
  0
LINE
  5
127802
  8
OBJECT
 10
6569.9999999999927
 20
-1508.9999999999991
 30
0.0
 11
6569.9999999999927
 21
-1518.9999999999991
 31
0.0
1001
ACDBBLOCKREPETAG
1070
     1
1071
      122
1005
127802
  0
LINE
  5
127803
  8
OBJECT
 10
6585.9999999999927
 20
-1518.9999999999991
 30
0.0
 11
6569.9999999999927
 21
-1518.9999999999991
 31
0.0
1001
ACDBBLOCKREPETAG
1070
     1
1071
      123
1005
127803
  0
LINE
  5
127804
  8
OBJECT
 10
6590.0
 20
-1469.9999999999959
 30
0.0
 11
6424.0
 21
-1469.9999999999959
 31
0.0
1001
ACDBBLOCKREPETAG
1070
     1
1071
      124
1005
127804
  0
LINE
  5
127805
  8
OBJECT
 10
6590.0
 20
-1484.9999999999991
 30
0.0
 11
6590.0
 21
-1469.9999999999959
 31
0.0
1001
ACDBBLOCKREPETAG
1070
     1
1071
      125
1005
127805
  0
LINE
  5
127806
  8
OBJECT
 10
6424.0
 20
-1484.9999999999991
 30
0.0
 11
6590.0
 21
-1484.9999999999991
 31
0.0
1001
ACDBBLOCKREPETAG
1070
     1
1071
      126
1005
127806
  0
LINE
  5
127807
  8
OBJECT
 10
6567.4999999999873
 20
-1484.9999999999991
 30
0.0
 11
6567.4999999999873
 21
-1494.9999999999991
 31
0.0
1001
ACDBBLOCKREPETAG
1070
     1
1071
      127
1005
127807
  0
LINE
  5
127808
  8
OBJECT
 10
6572.9999999999927
 20
-1494.9999999999991
 30
0.0
 11
6572.9999999999927
 21
-1484.9999999999991
 31
0.0
1001
ACDBBLOCKREPETAG
1070
     1
1071
      128
1005
127808
  0
LINE
  5
127809
  8
OBJECT
 10
6582.9999999999927
 20
-1494.9999999999991
 30
0.0
 11
6582.9999999999927
 21
-1484.9999999999991
 31
0.0
1001
ACDBBLOCKREPETAG
1070
     1
1071
      129
1005
127809
  0
LINE
  5
12780A
  8
OBJECT
 10
6424.0
 20
-1494.9999999999991
 30
0.0
 11
6424.0
 21
-1508.9999999999959
 31
0.0
1001
ACDBBLOCKREPETAG
1070
     1
1071
      130
1005
12780A
  0
LINE
  5
12780B
  8
OBJECT
 10
6590.0
 20
-1494.9999999999991
 30
0.0
 11
6590.0
 21
-1508.9999999999959
 31
0.0
1001
ACDBBLOCKREPETAG
1070
     1
1071
      131
1005
12780B
  0
LINE
  5
12780C
  8
OBJECT
 10
6424.0
 20
-1508.9999999999959
 30
0.0
 11
6590.0
 21
-1508.9999999999959
 31
0.0
1001
ACDBBLOCKREPETAG
1070
     1
1071
      132
1005
12780C
  0
LINE
  5
12780D
  8
OBJECT
 10
6424.0
 20
-1494.9999999999991
 30
0.0
 11
6590.0
 21
-1494.9999999999991
 31
0.0
1001
ACDBBLOCKREPETAG
1070
     1
1071
      133
1005
12780D
  0
LINE
  5
12780E
  8
OBJECT
 10
6432.4999999999864
 20
-1484.9999999999991
 30
0.0
 11
6432.4999999999864
 21
-1494.9999999999991
 31
0.0
1001
ACDBBLOCKREPETAG
1070
     1
1071
      134
1005
12780E
  0
LINE
  5
12780F
  8
OBJECT
 10
6434.0
 20
-1433.9999999999959
 30
0.0
 11
6565.9999999999918
 21
-1433.9999999999959
 31
0.0
1001
ACDBBLOCKREPETAG
1070
     1
1071
      135
1005
12780F
  0
LINE
  5
127810
  8
OBJECT
 10
6424.0
 20
-1484.9999999999991
 30
0.0
 11
6424.0
 21
-1469.9999999999959
 31
0.0
1001
ACDBBLOCKREPETAG
1070
     1
1071
      136
1005
127810
  0
LINE
  5
127811
  8
HIDDEN
 10
6443.0
 20
-1444.9999999999991
 30
0.0
 11
6557.0
 21
-1444.9999999999991
 31
0.0
1001
ACDBBLOCKREPETAG
1070
     1
1071
      137
1005
127811
  0
LINE
  5
127812
  8
OBJECT
 10
6586.9999999999927
 20
-1468.2
 30
0.0
 11
6586.9999999999927
 21
-1469.9999999999991
 31
0.0
1001
ACDBBLOCKREPETAG
1070
     1
1071
      138
1005
127812
  0
LINE
  5
127813
  8
OBJECT
 10
6568.9999999999909
 20
-1468.2
 30
0.0
 11
6568.9999999999909
 21
-1469.9999999999991
 31
0.0
1001
ACDBBLOCKREPETAG
1070
     1
1071
      139
1005
127813
  0
LINE
  5
127814
  8
OBJECT
 10
6572.2499999999927
 20
-1458.4999999999991
 30
0.0
 11
6583.7499999999927
 21
-1458.4999999999991
 31
0.0
1001
ACDBBLOCKREPETAG
1070
     1
1071
      140
1005
127814
  0
LINE
  5
127815
  8
OBJECT
 10
6572.2499999999927
 20
-1458.4999999999991
 30
0.0
 11
6572.2499999999927
 21
-1468.2
 31
0.0
1001
ACDBBLOCKREPETAG
1070
     1
1071
      141
1005
127815
  0
LINE
  5
127816
  8
OBJECT
 10
6583.7499999999927
 20
-1458.4999999999991
 30
0.0
 11
6583.7499999999927
 21
-1468.2
 31
0.0
1001
ACDBBLOCKREPETAG
1070
     1
1071
      142
1005
127816
  0
LINE
  5
127817
  8
OBJECT
 10
6431.9999999999873
 20
-1550.0
 30
0.0
 11
6567.9999999999873
 21
-1550.0
 31
0.0
1001
ACDBBLOCKREPETAG
1070
     1
1071
      143
1005
127817
  0
LINE
  5
127818
  8
OBJECT
 10
6431.9999999999873
 20
-1550.0
 30
0.0
 11
6431.9999999999873
 21
-1508.9999999999991
 31
0.0
1001
ACDBBLOCKREPETAG
1070
     1
1071
      144
1005
127818
  0
LINE
  5
127819
  8
OBJECT
 10
6567.9999999999873
 20
-1550.0
 30
0.0
 11
6567.9999999999873
 21
-1508.9999999999991
 31
0.0
1001
ACDBBLOCKREPETAG
1070
     1
1071
      145
1005
127819
  0
LINE
  5
12781A
  8
OBJECT
 10
6586.9999999999927
 20
-1468.2
 30
0.0
 11
6568.9999999999909
 21
-1468.2
 31
0.0
1001
ACDBBLOCKREPETAG
1070
     1
1071
      146
1005
12781A
  0
LINE
  5
12781B
  8
CENTER
 10
6500.0
 20
-1174.9999999999991
 30
0.0
 11
6500.0
 21
-1564.9999999999991
 31
0.0
1001
ACDBBLOCKREPETAG
1070
     1
1071
      147
1005
12781B
  0
LINE
  5
12781C
  8
OBJECT
 10
6425.0
 20
-1174.9999999999991
 30
0.0
 11
6425.0
 21
-1256.9999999999959
 31
0.0
1001
ACDBBLOCKREPETAG
1070
     1
1071
      148
1005
12781C
  0
LINE
  5
12781D
  8
OBJECT
 10
6575.0
 20
-1174.9999999999991
 30
0.0
 11
6575.0
 21
-1256.999999999992
 31
0.0
1001
ACDBBLOCKREPETAG
1070
     1
1071
      149
1005
12781D
  0
LINE
  5
12781E
  8
OBJECT
 10
6425.0
 20
-1256.9999999999959
 30
0.0
 11
6575.0
 21
-1256.999999999992
 31
0.0
1001
ACDBBLOCKREPETAG
1070
     1
1071
      150
1005
12781E
  0
LINE
  5
12781F
  8
OBJECT
 10
6443.0
 20
-1433.9999999999959
 30
0.0
 11
6443.0
 21
-1384.999999999992
 31
0.0
1001
ACDBBLOCKREPETAG
1070
     1
1071
      151
1005
12781F
  0
LINE
  5
127820
  8
OBJECT
 10
6557.0
 20
-1384.999999999992
 30
0.0
 11
6443.0
 21
-1384.999999999992
 31
0.0
1001
ACDBBLOCKREPETAG
1070
     1
1071
      152
1005
127820
  0
LINE
  5
127821
  8
OBJECT
 10
6557.0
 20
-1384.999999999992
 30
0.0
 11
6557.0
 21
-1433.9999999999959
 31
0.0
1001
ACDBBLOCKREPETAG
1070
     1
1071
      153
1005
127821
  0
LINE
  5
127822
  8
OBJECT
 10
6425.0
 20
-1256.9999999999959
 30
0.0
 11
6443.0
 21
-1384.999999999992
 31
0.0
1001
ACDBBLOCKREPETAG
1070
     1
1071
      154
1005
127822
  0
LINE
  5
127823
  8
OBJECT
 10
6557.0
 20
-1384.999999999992
 30
0.0
 11
6575.0
 21
-1256.999999999992
 31
0.0
1001
ACDBBLOCKREPETAG
1070
     1
1071
      155
1005
127823
  0
LINE
  5
127824
  8
OBJECT
 10
6434.0
 20
-1469.9999999999959
 30
0.0
 11
6434.0
 21
-1433.9999999999959
 31
0.0
1001
ACDBBLOCKREPETAG
1070
     1
1071
      156
1005
127824
  0
LINE
  5
127825
  8
OBJECT
 10
6566.0
 20
-1469.9999999999959
 30
0.0
 11
6565.9999999999918
 21
-1433.9999999999959
 31
0.0
1001
ACDBBLOCKREPETAG
1070
     1
1071
      157
1005
127825
  0
LINE
  5
127826
  8
OBJECT
 10
6454.75
 20
-1459.699999999993
 30
0.0
 11
6467.2499999999991
 21
-1459.699999999993
 31
0.0
1001
ACDBBLOCKREPETAG
1070
     1
1071
      158
1005
127826
  0
LINE
  5
127827
  8
OBJECT
 10
6446.0
 20
-1469.9999999999959
 30
0.0
 11
6446.0
 21
-1467.699999999996
 31
0.0
1001
ACDBBLOCKREPETAG
1070
     1
1071
      159
1005
127827
  0
LINE
  5
127828
  8
OBJECT
 10
6476.0
 20
-1469.9999999999959
 30
0.0
 11
6476.0
 21
-1467.699999999996
 31
0.0
1001
ACDBBLOCKREPETAG
1070
     1
1071
      160
1005
127828
  0
LINE
  5
127829
  8
OBJECT
 10
6454.75
 20
-1459.699999999993
 30
0.0
 11
6454.75
 21
-1467.699999999996
 31
0.0
1001
ACDBBLOCKREPETAG
1070
     1
1071
      161
1005
127829
  0
LINE
  5
12782A
  8
OBJECT
 10
6467.2499999999991
 20
-1459.699999999993
 30
0.0
 11
6467.2499999999991
 21
-1467.699999999996
 31
0.0
1001
ACDBBLOCKREPETAG
1070
     1
1071
      162
1005
12782A
  0
LINE
  5
12782B
  8
OBJECT
 10
6446.0
 20
-1467.699999999996
 30
0.0
 11
6476.0
 21
-1467.699999999996
 31
0.0
1001
ACDBBLOCKREPETAG
1070
     1
1071
      163
1005
12782B
  0
LINE
  5
12782C
  8
OBJECT
 10
6453.0
 20
-1508.9999999999959
 30
0.0
 11
6453.0
 21
-1518.9999999999959
 31
0.0
1001
ACDBBLOCKREPETAG
1070
     1
1071
      164
1005
12782C
  0
LINE
  5
12782D
  8
OBJECT
 10
6469.0
 20
-1508.9999999999959
 30
0.0
 11
6469.0
 21
-1518.9999999999959
 31
0.0
1001
ACDBBLOCKREPETAG
1070
     1
1071
      165
1005
12782D
  0
LINE
  5
12782E
  8
OBJECT
 10
6453.0
 20
-1518.9999999999959
 30
0.0
 11
6469.0
 21
-1518.9999999999959
 31
0.0
1001
ACDBBLOCKREPETAG
1070
     1
1071
      166
1005
12782E
  0
LINE
  5
12782F
  8
OBJECT
 10
6466.0
 20
-1494.9999999999959
 30
0.0
 11
6466.0
 21
-1484.9999999999959
 31
0.0
1001
ACDBBLOCKREPETAG
1070
     1
1071
      167
1005
12782F
  0
LINE
  5
127830
  8
OBJECT
 10
6456.0
 20
-1494.9999999999959
 30
0.0
 11
6456.0
 21
-1484.9999999999959
 31
0.0
1001
ACDBBLOCKREPETAG
1070
     1
1071
      168
1005
127830
  0
LINE
  5
127831
  8
OBJECT
 10
4590.0
 20
-1469.9999999999959
 30
0.0
 11
4424.0
 21
-1469.9999999999959
 31
0.0
1001
ACDBBLOCKREPETAG
1070
     1
1071
       12
1005
127831
  0
LINE
  5
127832
  8
OBJECT
 10
4566.0
 20
-1433.9999999999959
 30
0.0
 11
4434.0
 21
-1433.9999999999959
 31
0.0
1001
ACDBBLOCKREPETAG
1070
     1
1071
       13
1005
127832
  0
LINE
  5
127833
  8
OBJECT
 10
4590.0
 20
-1485.0
 30
0.0
 11
4590.0
 21
-1469.9999999999959
 31
0.0
1001
ACDBBLOCKREPETAG
1070
     1
1071
       14
1005
127833
  0
LINE
  5
127834
  8
OBJECT
 10
4424.0
 20
-1485.0
 30
0.0
 11
4590.0
 21
-1485.0
 31
0.0
1001
ACDBBLOCKREPETAG
1070
     1
1071
       15
1005
127834
  0
LINE
  5
127835
  8
OBJECT
 10
4567.4999999999864
 20
-1485.0
 30
0.0
 11
4567.4999999999864
 21
-1495.0
 31
0.0
1001
ACDBBLOCKREPETAG
1070
     1
1071
       16
1005
127835
  0
LINE
  5
127836
  8
OBJECT
 10
4424.0
 20
-1495.0
 30
0.0
 11
4424.0
 21
-1508.9999999999959
 31
0.0
1001
ACDBBLOCKREPETAG
1070
     1
1071
       17
1005
127836
  0
LINE
  5
127837
  8
OBJECT
 10
4590.0
 20
-1495.0
 30
0.0
 11
4590.0
 21
-1508.9999999999959
 31
0.0
1001
ACDBBLOCKREPETAG
1070
     1
1071
       18
1005
127837
  0
LINE
  5
127838
  8
OBJECT
 10
4424.0
 20
-1508.9999999999959
 30
0.0
 11
4590.0
 21
-1508.9999999999959
 31
0.0
1001
ACDBBLOCKREPETAG
1070
     1
1071
       19
1005
127838
  0
LINE
  5
127839
  8
OBJECT
 10
4424.0
 20
-1495.0
 30
0.0
 11
4590.0
 21
-1495.0
 31
0.0
1001
ACDBBLOCKREPETAG
1070
     1
1071
       20
1005
127839
  0
LINE
  5
12783A
  8
OBJECT
 10
4432.4999999999854
 20
-1485.0
 30
0.0
 11
4432.4999999999854
 21
-1495.0
 31
0.0
1001
ACDBBLOCKREPETAG
1070
     1
1071
       21
1005
12783A
  0
LINE
  5
12783B
  8
OBJECT
 10
4424.0
 20
-1485.0
 30
0.0
 11
4424.0
 21
-1469.9999999999959
 31
0.0
1001
ACDBBLOCKREPETAG
1070
     1
1071
       22
1005
12783B
  0
LINE
  5
12783C
  8
HIDDEN
 10
4443.0
 20
-1445.0
 30
0.0
 11
4557.0
 21
-1445.0
 31
0.0
1001
ACDBBLOCKREPETAG
1070
     1
1071
       23
1005
12783C
  0
LINE
  5
12783D
  8
CENTER
 10
4500.0
 20
-1175.0
 30
0.0
 11
4500.0
 21
-1523.9999999999959
 31
0.0
1001
ACDBBLOCKREPETAG
1070
     1
1071
       24
1005
12783D
  0
LINE
  5
12783E
  8
OBJECT
 10
4425.0
 20
-1175.0
 30
0.0
 11
4425.0
 21
-1256.9999999999959
 31
0.0
1001
ACDBBLOCKREPETAG
1070
     1
1071
       25
1005
12783E
  0
LINE
  5
12783F
  8
OBJECT
 10
4575.0
 20
-1175.0
 30
0.0
 11
4575.0
 21
-1256.999999999993
 31
0.0
1001
ACDBBLOCKREPETAG
1070
     1
1071
       26
1005
12783F
  0
LINE
  5
127840
  8
OBJECT
 10
4425.0
 20
-1256.9999999999959
 30
0.0
 11
4575.0
 21
-1256.999999999993
 31
0.0
1001
ACDBBLOCKREPETAG
1070
     1
1071
       27
1005
127840
  0
LINE
  5
127841
  8
OBJECT
 10
4557.0
 20
-1433.9999999999959
 30
0.0
 11
4557.0
 21
-1384.999999999992
 31
0.0
1001
ACDBBLOCKREPETAG
1070
     1
1071
       28
1005
127841
  0
LINE
  5
127842
  8
OBJECT
 10
4443.0
 20
-1433.9999999999959
 30
0.0
 11
4443.0
 21
-1384.999999999992
 31
0.0
1001
ACDBBLOCKREPETAG
1070
     1
1071
       29
1005
127842
  0
LINE
  5
127843
  8
OBJECT
 10
4557.0
 20
-1384.999999999992
 30
0.0
 11
4443.0
 21
-1384.999999999992
 31
0.0
1001
ACDBBLOCKREPETAG
1070
     1
1071
       30
1005
127843
  0
LINE
  5
127844
  8
OBJECT
 10
4425.0
 20
-1256.9999999999959
 30
0.0
 11
4443.0
 21
-1384.999999999992
 31
0.0
1001
ACDBBLOCKREPETAG
1070
     1
1071
       31
1005
127844
  0
LINE
  5
127845
  8
OBJECT
 10
4557.0
 20
-1384.999999999992
 30
0.0
 11
4575.0
 21
-1256.999999999993
 31
0.0
1001
ACDBBLOCKREPETAG
1070
     1
1071
       32
1005
127845
  0
LINE
  5
127846
  8
OBJECT
 10
4434.0
 20
-1433.9999999999959
 30
0.0
 11
4434.0
 21
-1469.9999999999959
 31
0.0
1001
ACDBBLOCKREPETAG
1070
     1
1071
       33
1005
127846
  0
LINE
  5
127847
  8
OBJECT
 10
4566.0
 20
-1433.9999999999959
 30
0.0
 11
4566.0
 21
-1469.9999999999959
 31
0.0
1001
ACDBBLOCKREPETAG
1070
     1
1071
       34
1005
127847
  0
LINE
  5
127848
  8
OBJECT
 10
4582.9999999999927
 20
-1494.9999999999959
 30
0.0
 11
4582.9999999999927
 21
-1484.9999999999959
 31
0.0
1001
ACDBBLOCKREPETAG
1070
     1
1071
       35
1005
127848
  0
LINE
  5
127849
  8
OBJECT
 10
4572.9999999999918
 20
-1494.9999999999959
 30
0.0
 11
4572.9999999999918
 21
-1484.9999999999959
 31
0.0
1001
ACDBBLOCKREPETAG
1070
     1
1071
       36
1005
127849
  0
LINE
  5
12784A
  8
OBJECT
 10
4568.9999999999864
 20
-1464.9999999999959
 30
0.0
 11
4568.9999999999864
 21
-1469.9999999999959
 31
0.0
1001
ACDBBLOCKREPETAG
1070
     1
1071
       37
1005
12784A
  0
LINE
  5
12784B
  8
OBJECT
 10
4587.0
 20
-1464.9999999999959
 30
0.0
 11
4587.0
 21
-1469.9999999999959
 31
0.0
1001
ACDBBLOCKREPETAG
1070
     1
1071
       38
1005
12784B
  0
LINE
  5
12784C
  8
OBJECT
 10
4587.0
 20
-1464.9999999999959
 30
0.0
 11
4568.9999999999864
 21
-1464.9999999999959
 31
0.0
1001
ACDBBLOCKREPETAG
1070
     1
1071
       39
1005
12784C
  0
LINE
  5
12784D
  8
OBJECT
 10
4573.0
 20
-1516.9999999999959
 30
0.0
 11
4573.0
 21
-1519.9999999999959
 31
0.0
1001
ACDBBLOCKREPETAG
1070
     1
1071
       40
1005
12784D
  0
LINE
  5
12784E
  8
OBJECT
 10
4573.0
 20
-1519.9999999999959
 30
0.0
 11
4583.0
 21
-1519.9999999999959
 31
0.0
1001
ACDBBLOCKREPETAG
1070
     1
1071
       41
1005
12784E
  0
LINE
  5
12784F
  8
OBJECT
 10
4568.185045423772
 20
-1516.9999999999959
 30
0.0
 11
4587.814954576219
 21
-1516.9999999999959
 31
0.0
1001
ACDBBLOCKREPETAG
1070
     1
1071
       42
1005
12784F
  0
LINE
  5
127850
  8
OBJECT
 10
4583.0
 20
-1519.9999999999959
 30
0.0
 11
4583.0
 21
-1516.9999999999959
 31
0.0
1001
ACDBBLOCKREPETAG
1070
     1
1071
       43
1005
127850
  0
LINE
  5
127851
  8
OBJECT
 10
4568.1850359912942
 20
-1508.9999868402549
 30
0.0
 11
4568.1850359912942
 21
-1516.9999868402549
 31
0.0
1001
ACDBBLOCKREPETAG
1070
     1
1071
       44
1005
127851
  0
LINE
  5
127852
  8
OBJECT
 10
4573.0925013591968
 20
-1508.9999868402549
 30
0.0
 11
4573.0925013591968
 21
-1516.9999868402549
 31
0.0
1001
ACDBBLOCKREPETAG
1070
     1
1071
       45
1005
127852
  0
LINE
  5
127853
  8
OBJECT
 10
4582.907432095024
 20
-1508.9999868402549
 30
0.0
 11
4582.907432095024
 21
-1516.9999868402549
 31
0.0
1001
ACDBBLOCKREPETAG
1070
     1
1071
       46
1005
127853
  0
LINE
  5
127854
  8
OBJECT
 10
4587.8149915527974
 20
-1508.9999868402549
 30
0.0
 11
4587.8149915527974
 21
-1516.9999868402549
 31
0.0
1001
ACDBBLOCKREPETAG
1070
     1
1071
       47
1005
127854
  0
LINE
  5
127855
  8
OBJECT
 10
4468.5
 20
-1464.9999999999959
 30
0.0
 11
4451.9999999999909
 21
-1464.9999999999959
 31
0.0
1001
ACDBBLOCKREPETAG
1070
     1
1071
       48
1005
127855
  0
LINE
  5
127856
  8
OBJECT
 10
4476.0
 20
-1469.9999999999959
 30
0.0
 11
4476.0
 21
-1467.9999999999959
 31
0.0
1001
ACDBBLOCKREPETAG
1070
     1
1071
       49
1005
127856
  0
LINE
  5
127857
  8
OBJECT
 10
4466.0
 20
-1494.9999999999959
 30
0.0
 11
4466.0
 21
-1484.9999999999959
 31
0.0
1001
ACDBBLOCKREPETAG
1070
     1
1071
       50
1005
127857
  0
LINE
  5
127858
  8
OBJECT
 10
4456.0
 20
-1494.9999999999959
 30
0.0
 11
4456.0
 21
-1484.9999999999959
 31
0.0
1001
ACDBBLOCKREPETAG
1070
     1
1071
       51
1005
127858
  0
LINE
  5
127859
  8
OBJECT
 10
4451.9999999999909
 20
-1464.9999999999959
 30
0.0
 11
4451.9999999999909
 21
-1469.9999999999959
 31
0.0
1001
ACDBBLOCKREPETAG
1070
     1
1071
       52
1005
127859
  0
LINE
  5
12785A
  8
OBJECT
 10
4456.0
 20
-1516.9999999999959
 30
0.0
 11
4456.0
 21
-1519.9999999999959
 31
0.0
1001
ACDBBLOCKREPETAG
1070
     1
1071
       53
1005
12785A
  0
LINE
  5
12785B
  8
OBJECT
 10
4456.0
 20
-1519.9999999999959
 30
0.0
 11
4466.0
 21
-1519.9999999999959
 31
0.0
1001
ACDBBLOCKREPETAG
1070
     1
1071
       54
1005
12785B
  0
LINE
  5
12785C
  8
OBJECT
 10
4451.185045423772
 20
-1516.9999999999959
 30
0.0
 11
4470.8149545762208
 21
-1516.9999999999959
 31
0.0
1001
ACDBBLOCKREPETAG
1070
     1
1071
       55
1005
12785C
  0
LINE
  5
12785D
  8
OBJECT
 10
4466.0
 20
-1519.9999999999959
 30
0.0
 11
4466.0
 21
-1516.9999999999959
 31
0.0
1001
ACDBBLOCKREPETAG
1070
     1
1071
       56
1005
12785D
  0
LINE
  5
12785E
  8
OBJECT
 10
4476.0
 20
-1467.9999999999959
 30
0.0
 11
4468.5
 21
-1464.9999999999959
 31
0.0
1001
ACDBBLOCKREPETAG
1070
     1
1071
       57
1005
12785E
  0
LINE
  5
12785F
  8
OBJECT
 10
4451.1850359912933
 20
-1508.9999868402549
 30
0.0
 11
4451.1850359912933
 21
-1516.9999868402549
 31
0.0
1001
ACDBBLOCKREPETAG
1070
     1
1071
       58
1005
12785F
  0
LINE
  5
127860
  8
OBJECT
 10
4456.0925013591996
 20
-1508.9999868402549
 30
0.0
 11
4456.0925013591996
 21
-1516.9999868402549
 31
0.0
1001
ACDBBLOCKREPETAG
1070
     1
1071
       59
1005
127860
  0
LINE
  5
127861
  8
OBJECT
 10
4465.907432095024
 20
-1508.9999868402549
 30
0.0
 11
4465.907432095024
 21
-1516.9999868402549
 31
0.0
1001
ACDBBLOCKREPETAG
1070
     1
1071
       60
1005
127861
  0
LINE
  5
127862
  8
OBJECT
 10
4470.8149915527974
 20
-1508.9999868402549
 30
0.0
 11
4470.8149915527974
 21
-1516.9999868402549
 31
0.0
1001
ACDBBLOCKREPETAG
1070
     1
1071
       61
1005
127862
  0
LINE
  5
127863
  8
CENTER
 10
12409.0
 20
-1758.9999999999959
 30
0.0
 11
12605.0
 21
-1758.9999999999959
 31
0.0
1001
ACDBBLOCKREPETAG
1070
     1
1071
       10
1005
127863
  0
LINE
  5
127864
  8
CENTER
 10
12500.0
 20
-1667.7253355707801
 30
0.0
 11
12500.0
 21
-1850.274664429212
 31
0.0
1001
ACDBBLOCKREPETAG
1070
     1
1071
       11
1005
127864
  0
CIRCLE
  5
127865
  8
OBJECT
 10
12500.0
 20
-1758.9999999999959
 30
0.0
 40
50.0
1001
ACDBBLOCKREPETAG
1070
     1
1071
       12
1005
127865
  0
CIRCLE
  5
127866
  8
OBJECT
 10
12500.0
 20
-1758.9999999999959
 30
0.0
 40
60.0
1001
ACDBBLOCKREPETAG
1070
     1
1071
       13
1005
127866
  0
CIRCLE
  5
127867
  8
OBJECT
 10
12500.0
 20
-1758.9999999999959
 30
0.0
 40
68.0
1001
ACDBBLOCKREPETAG
1070
     1
1071
       14
1005
127867
  0
ARC
  5
127868
  8
OBJECT
 10
12577.5
 20
-1758.9999999999959
 30
0.0
 40
12.0
 50
272.10542627221611
 51
87.894573727783893
1001
ACDBBLOCKREPETAG
1070
     1
1071
       15
1005
127868
  0
ARC
  5
127869
  8
OBJECT
 10
12578.49193548386
 20
-1732.0182271895239
 30
0.0
 40
15.0
 50
198.97051877965251
 51
267.89457372778372
1001
ACDBBLOCKREPETAG
1070
     1
1071
       16
1005
127869
  0
ARC
  5
12786A
  8
OBJECT
 10
12578.49193548386
 20
-1785.981772810464
 30
0.0
 40
15.0
 50
92.105426272216135
 51
161.02948122034729
1001
ACDBBLOCKREPETAG
1070
     1
1071
       17
1005
12786A
  0
CIRCLE
  5
12786B
  8
SLIM
 10
12578.0
 20
-1758.9999999999959
 30
0.0
 40
8.0
1001
ACDBBLOCKREPETAG
1070
     1
1071
       18
1005
12786B
  0
POLYLINE
  5
12786C
  8
SLIM
 66
     1
 10
0.0
 20
0.0
 30
0.0
 70
     1
1001
ACDBBLOCKREPETAG
1070
     1
1071
       19
1005
12786C
  0
VERTEX
  5
128274
  8
SLIM
 10
12575.690598923229
 20
-1754.9999999999959
 30
0.0
  0
VERTEX
  5
128275
  8
SLIM
 10
12573.38119784648
 20
-1758.9999999999959
 30
0.0
  0
VERTEX
  5
128276
  8
SLIM
 10
12575.690598923229
 20
-1762.9999999999959
 30
0.0
  0
VERTEX
  5
128277
  8
SLIM
 10
12580.309401076751
 20
-1762.9999999999959
 30
0.0
  0
VERTEX
  5
128278
  8
SLIM
 10
12582.618802153511
 20
-1758.9999999999959
 30
0.0
  0
VERTEX
  5
128279
  8
SLIM
 10
12580.309401076751
 20
-1754.9999999999959
 30
0.0
  0
SEQEND
  5
12827A
  8
SLIM
  0
ARC
  5
12786D
  8
OBJECT
 10
12461.25
 20
-1691.8830312067
 30
0.0
 40
12.0
 50
32.105426272130188
 51
207.89457372768319
1001
ACDBBLOCKREPETAG
1070
     1
1071
       20
1005
12786D
  0
ARC
  5
12786E
  8
OBJECT
 10
12437.38713156505
 20
-1704.514876283989
 30
0.0
 40
15.0
 50
318.97051877944762
 51
27.89457372768311
1001
ACDBBLOCKREPETAG
1070
     1
1071
       21
1005
12786E
  0
ARC
  5
12786F
  8
OBJECT
 10
12484.120932951069
 20
-1677.533103473517
 30
0.0
 40
15.0
 50
212.10542627213019
 51
281.02948122044069
1001
ACDBBLOCKREPETAG
1070
     1
1071
       22
1005
12786F
  0
CIRCLE
  5
127870
  8
SLIM
 10
12461.0
 20
-1691.4500185048089
 30
0.0
 40
7.9999999999999982
1001
ACDBBLOCKREPETAG
1070
     1
1071
       23
1005
127870
  0
POLYLINE
  5
127871
  8
SLIM
 66
     1
 10
0.0
 20
0.0
 30
0.0
 70
     1
1001
ACDBBLOCKREPETAG
1070
     1
1071
       24
1005
127871
  0
VERTEX
  5
12827B
  8
SLIM
 10
12458.69059892324
 20
-1695.450018504808
 30
0.0
  0
VERTEX
  5
12827C
  8
SLIM
 10
12463.309401076751
 20
-1695.450018504808
 30
0.0
  0
VERTEX
  5
12827D
  8
SLIM
 10
12465.618802153511
 20
-1691.4500185048089
 30
0.0
  0
VERTEX
  5
12827E
  8
SLIM
 10
12463.309401076751
 20
-1687.4500185048089
 30
0.0
  0
VERTEX
  5
12827F
  8
SLIM
 10
12458.69059892324
 20
-1687.4500185048089
 30
0.0
  0
VERTEX
  5
128280
  8
SLIM
 10
12456.38119784648
 20
-1691.4500185048089
 30
0.0
  0
SEQEND
  5
128281
  8
SLIM
  0
ARC
  5
127872
  8
OBJECT
 10
12461.25
 20
-1826.1169687932891
 30
0.0
 40
12.0
 50
152.10542627231681
 51
327.89457372786978
1001
ACDBBLOCKREPETAG
1070
     1
1071
       25
1005
127872
  0
ARC
  5
127873
  8
OBJECT
 10
12484.120932951069
 20
-1840.4668965264721
 30
0.0
 40
15.0
 50
78.970518779559228
 51
147.89457372786981
1001
ACDBBLOCKREPETAG
1070
     1
1071
       26
1005
127873
  0
ARC
  5
127874
  8
OBJECT
 10
12437.38713156505
 20
-1813.485123716004
 30
0.0
 40
15.0
 50
332.10542627231678
 51
41.029481220552412
1001
ACDBBLOCKREPETAG
1070
     1
1071
       27
1005
127874
  0
CIRCLE
  5
127875
  8
SLIM
 10
12461.0
 20
-1826.5499814951829
 30
0.0
 40
8.0
1001
ACDBBLOCKREPETAG
1070
     1
1071
       28
1005
127875
  0
POLYLINE
  5
127876
  8
SLIM
 66
     1
 10
0.0
 20
0.0
 30
0.0
 70
     1
1001
ACDBBLOCKREPETAG
1070
     1
1071
       29
1005
127876
  0
VERTEX
  5
128282
  8
SLIM
 10
12465.618802153511
 20
-1826.54998149518
 30
0.0
  0
VERTEX
  5
128283
  8
SLIM
 10
12463.309401076751
 20
-1822.5499814951829
 30
0.0
  0
VERTEX
  5
128284
  8
SLIM
 10
12458.69059892324
 20
-1822.54998149518
 30
0.0
  0
VERTEX
  5
128285
  8
SLIM
 10
12456.38119784648
 20
-1826.5499814951829
 30
0.0
  0
VERTEX
  5
128286
  8
SLIM
 10
12458.69059892322
 20
-1830.54998149518
 30
0.0
  0
VERTEX
  5
128287
  8
SLIM
 10
12463.309401076751
 20
-1830.5499814951841
 30
0.0
  0
SEQEND
  5
128288
  8
SLIM
  0
ARC
  5
127877
  8
OBJECT
 10
12500.0
 20
-1758.9999999999959
 30
0.0
 40
76.0
 50
34.863837954171863
 51
85.136162045732945
1001
ACDBBLOCKREPETAG
1070
     1
1071
       42
1005
127877
  0
ARC
  5
127878
  8
OBJECT
 10
12500.0
 20
-1758.9999999999959
 30
0.0
 40
76.0
 50
154.86383795430939
 51
205.1361620456905
1001
ACDBBLOCKREPETAG
1070
     1
1071
       43
1005
127878
  0
ARC
  5
127879
  8
OBJECT
 10
12500.0
 20
-1758.9999999999959
 30
0.0
 40
76.0
 50
274.86383795426718
 51
325.13616204582797
1001
ACDBBLOCKREPETAG
1070
     1
1071
       44
1005
127879
  0
ARC
  5
12787A
  8
OBJECT
 10
12578.0
 20
-1758.9999999999959
 30
0.0
 40
12.0
 50
325.13616204582797
 51
34.863837954171863
1001
ACDBBLOCKREPETAG
1070
     1
1071
       45
1005
12787A
  0
LINE
  5
12787B
  8
OBJECT
 10
12587.84615384616
 20
-1752.140462520134
 30
0.0
 11
12562.35897435904
 21
-1715.556262627535
 31
0.0
1001
ACDBBLOCKREPETAG
1070
     1
1071
       46
1005
12787B
  0
LINE
  5
12787C
  8
OBJECT
 10
12587.846153846171
 20
-1765.859537479857
 30
0.0
 11
12562.35897435904
 21
-1802.4437373724591
 31
0.0
1001
ACDBBLOCKREPETAG
1070
     1
1071
       47
1005
12787C
  0
ARC
  5
12787D
  8
OBJECT
 10
12461.0
 20
-1691.4500185048109
 30
0.0
 40
12.0
 50
85.136162045942811
 51
154.86383795410001
1001
ACDBBLOCKREPETAG
1070
     1
1071
       48
1005
12787D
  0
LINE
  5
12787E
  8
OBJECT
 10
12450.13638936114
 20
-1686.3527678843909
 30
0.0
 11
12431.19713262058
 21
-1726.7174127373471
 31
0.0
1001
ACDBBLOCKREPETAG
1070
     1
1071
       49
1005
12787E
  0
LINE
  5
12787F
  8
OBJECT
 10
12462.017456792681
 20
-1679.4932304045269
 30
0.0
 11
12506.443893020371
 21
-1683.273675364886
 31
0.0
1001
ACDBBLOCKREPETAG
1070
     1
1071
       50
1005
12787F
  0
ARC
  5
127880
  8
OBJECT
 10
12461.0
 20
-1826.549981495182
 30
0.0
 40
12.0
 50
205.13616204589991
 51
274.8638379540572
1001
ACDBBLOCKREPETAG
1070
     1
1071
       51
1005
127880
  0
LINE
  5
127881
  8
OBJECT
 10
12462.01745679269
 20
-1838.506769595464
 30
0.0
 11
12506.44389302036
 21
-1834.7263246351069
 31
0.0
1001
ACDBBLOCKREPETAG
1070
     1
1071
       52
1005
127881
  0
LINE
  5
127882
  8
OBJECT
 10
12450.13638936114
 20
-1831.647232115605
 30
0.0
 11
12431.19713262058
 21
-1791.282587262642
 31
0.0
1001
ACDBBLOCKREPETAG
1070
     1
1071
       53
1005
127882
  0
LINE
  5
127883
  8
CENTER
 10
10409.0
 20
-1758.9999999999959
 30
0.0
 11
10605.0
 21
-1758.9999999999959
 31
0.0
1001
ACDBBLOCKREPETAG
1070
     1
1071
        0
1005
127883
  0
LINE
  5
127884
  8
CENTER
 10
10500.0
 20
-1667.7253355707801
 30
0.0
 11
10500.0
 21
-1850.274664429212
 31
0.0
1001
ACDBBLOCKREPETAG
1070
     1
1071
        1
1005
127884
  0
CIRCLE
  5
127885
  8
OBJECT
 10
10500.0
 20
-1758.9999999999959
 30
0.0
 40
50.0
1001
ACDBBLOCKREPETAG
1070
     1
1071
        2
1005
127885
  0
CIRCLE
  5
127886
  8
OBJECT
 10
10500.0
 20
-1758.9999999999959
 30
0.0
 40
62.0
1001
ACDBBLOCKREPETAG
1070
     1
1071
        3
1005
127886
  0
CIRCLE
  5
127887
  8
SLIM
 10
10578.0
 20
-1758.9999999999959
 30
0.0
 40
5.0
1001
ACDBBLOCKREPETAG
1070
     1
1071
        4
1005
127887
  0
POLYLINE
  5
127888
  8
SLIM
 66
     1
 10
0.0
 20
0.0
 30
0.0
 70
     1
1001
ACDBBLOCKREPETAG
1070
     1
1071
        5
1005
127888
  0
VERTEX
  5
128289
  8
SLIM
 10
10573.092522711881
 20
-1750.4999999999959
 30
0.0
  0
VERTEX
  5
12828A
  8
SLIM
 10
10568.18504542377
 20
-1758.9999999999959
 30
0.0
  0
VERTEX
  5
12828B
  8
SLIM
 10
10573.092522711881
 20
-1767.4999999999959
 30
0.0
  0
VERTEX
  5
12828C
  8
SLIM
 10
10582.90747728811
 20
-1767.4999999999959
 30
0.0
  0
VERTEX
  5
12828D
  8
SLIM
 10
10587.814954576221
 20
-1758.9999999999959
 30
0.0
  0
VERTEX
  5
12828E
  8
SLIM
 10
10582.90747728811
 20
-1750.4999999999959
 30
0.0
  0
SEQEND
  5
12828F
  8
SLIM
  0
CIRCLE
  5
127889
  8
SLIM
 10
10461.0
 20
-1691.4500185048089
 30
0.0
 40
4.9999999999999991
1001
ACDBBLOCKREPETAG
1070
     1
1071
        6
1005
127889
  0
POLYLINE
  5
12788A
  8
SLIM
 66
     1
 10
0.0
 20
0.0
 30
0.0
 70
     1
1001
ACDBBLOCKREPETAG
1070
     1
1071
        7
1005
12788A
  0
VERTEX
  5
128290
  8
SLIM
 10
10456.092522711881
 20
-1699.9500185048089
 30
0.0
  0
VERTEX
  5
128291
  8
SLIM
 10
10465.90747728811
 20
-1699.9500185048089
 30
0.0
  0
VERTEX
  5
128292
  8
SLIM
 10
10470.814954576221
 20
-1691.4500185048089
 30
0.0
  0
VERTEX
  5
128293
  8
SLIM
 10
10465.90747728811
 20
-1682.9500185048089
 30
0.0
  0
VERTEX
  5
128294
  8
SLIM
 10
10456.092522711881
 20
-1682.9500185048089
 30
0.0
  0
VERTEX
  5
128295
  8
SLIM
 10
10451.18504542377
 20
-1691.4500185048089
 30
0.0
  0
SEQEND
  5
128296
  8
SLIM
  0
CIRCLE
  5
12788B
  8
SLIM
 10
10461.0
 20
-1826.5499814951829
 30
0.0
 40
5.0
1001
ACDBBLOCKREPETAG
1070
     1
1071
        8
1005
12788B
  0
POLYLINE
  5
12788C
  8
SLIM
 66
     1
 10
0.0
 20
0.0
 30
0.0
 70
     1
1001
ACDBBLOCKREPETAG
1070
     1
1071
        9
1005
12788C
  0
VERTEX
  5
128297
  8
SLIM
 10
10470.814954576221
 20
-1826.5499814951829
 30
0.0
  0
VERTEX
  5
128298
  8
SLIM
 10
10465.907477288099
 20
-1818.04998149518
 30
0.0
  0
VERTEX
  5
128299
  8
SLIM
 10
10456.092522711881
 20
-1818.0499814951841
 30
0.0
  0
VERTEX
  5
12829A
  8
SLIM
 10
10451.18504542377
 20
-1826.54998149518
 30
0.0
  0
VERTEX
  5
12829B
  8
SLIM
 10
10456.092522711881
 20
-1835.0499814951829
 30
0.0
  0
VERTEX
  5
12829C
  8
SLIM
 10
10465.90747728811
 20
-1835.04998149518
 30
0.0
  0
SEQEND
  5
12829D
  8
SLIM
  0
ARC
  5
12788D
  8
OBJECT
 10
10500.0
 20
-1758.9999999999959
 30
0.0
 40
76.0
 50
34.863837954171863
 51
85.136162045732945
1001
ACDBBLOCKREPETAG
1070
     1
1071
       30
1005
12788D
  0
ARC
  5
12788E
  8
OBJECT
 10
10500.0
 20
-1758.9999999999959
 30
0.0
 40
76.0
 50
154.86383795430939
 51
205.1361620456905
1001
ACDBBLOCKREPETAG
1070
     1
1071
       31
1005
12788E
  0
ARC
  5
12788F
  8
OBJECT
 10
10500.0
 20
-1758.9999999999959
 30
0.0
 40
76.0
 50
274.86383795426718
 51
325.13616204582797
1001
ACDBBLOCKREPETAG
1070
     1
1071
       32
1005
12788F
  0
ARC
  5
127890
  8
OBJECT
 10
10578.0
 20
-1758.9999999999959
 30
0.0
 40
12.0
 50
325.13616204582797
 51
34.863837954171863
1001
ACDBBLOCKREPETAG
1070
     1
1071
       33
1005
127890
  0
LINE
  5
127891
  8
OBJECT
 10
10587.84615384616
 20
-1752.140462520134
 30
0.0
 11
10562.35897435904
 21
-1715.556262627535
 31
0.0
1001
ACDBBLOCKREPETAG
1070
     1
1071
       34
1005
127891
  0
LINE
  5
127892
  8
OBJECT
 10
10587.846153846171
 20
-1765.859537479857
 30
0.0
 11
10562.35897435904
 21
-1802.4437373724591
 31
0.0
1001
ACDBBLOCKREPETAG
1070
     1
1071
       35
1005
127892
  0
ARC
  5
127893
  8
OBJECT
 10
10461.0
 20
-1691.4500185048109
 30
0.0
 40
12.0
 50
85.136162045942811
 51
154.86383795410001
1001
ACDBBLOCKREPETAG
1070
     1
1071
       36
1005
127893
  0
LINE
  5
127894
  8
OBJECT
 10
10450.13638936114
 20
-1686.3527678843909
 30
0.0
 11
10431.19713262058
 21
-1726.7174127373471
 31
0.0
1001
ACDBBLOCKREPETAG
1070
     1
1071
       37
1005
127894
  0
LINE
  5
127895
  8
OBJECT
 10
10462.017456792681
 20
-1679.4932304045269
 30
0.0
 11
10506.443893020371
 21
-1683.273675364886
 31
0.0
1001
ACDBBLOCKREPETAG
1070
     1
1071
       38
1005
127895
  0
ARC
  5
127896
  8
OBJECT
 10
10461.0
 20
-1826.549981495182
 30
0.0
 40
12.0
 50
205.13616204589991
 51
274.8638379540572
1001
ACDBBLOCKREPETAG
1070
     1
1071
       39
1005
127896
  0
LINE
  5
127897
  8
OBJECT
 10
10462.01745679269
 20
-1838.506769595464
 30
0.0
 11
10506.44389302036
 21
-1834.7263246351069
 31
0.0
1001
ACDBBLOCKREPETAG
1070
     1
1071
       40
1005
127897
  0
LINE
  5
127898
  8
OBJECT
 10
10450.13638936114
 20
-1831.647232115605
 30
0.0
 11
10431.19713262058
 21
-1791.282587262642
 31
0.0
1001
ACDBBLOCKREPETAG
1070
     1
1071
       41
1005
127898
  0
LINE
  5
127899
  8
CENTER
 10
6409.0
 20
-1800.0
 30
0.0
 11
6605.0
 21
-1800.0
 31
0.0
1001
ACDBBLOCKREPETAG
1070
     1
1071
       10
1005
127899
  0
LINE
  5
12789A
  8
CENTER
 10
6500.0
 20
-1708.725335570783
 30
0.0
 11
6500.0
 21
-1891.274664429216
 31
0.0
1001
ACDBBLOCKREPETAG
1070
     1
1071
       11
1005
12789A
  0
CIRCLE
  5
12789B
  8
OBJECT
 10
6500.0
 20
-1800.0
 30
0.0
 40
50.0
1001
ACDBBLOCKREPETAG
1070
     1
1071
       12
1005
12789B
  0
CIRCLE
  5
12789C
  8
OBJECT
 10
6500.0
 20
-1800.0
 30
0.0
 40
60.0
1001
ACDBBLOCKREPETAG
1070
     1
1071
       13
1005
12789C
  0
CIRCLE
  5
12789D
  8
OBJECT
 10
6500.0
 20
-1800.0
 30
0.0
 40
68.0
1001
ACDBBLOCKREPETAG
1070
     1
1071
       14
1005
12789D
  0
ARC
  5
12789E
  8
OBJECT
 10
6577.5
 20
-1800.0
 30
0.0
 40
12.0
 50
272.10542627221611
 51
87.894573727783893
1001
ACDBBLOCKREPETAG
1070
     1
1071
       15
1005
12789E
  0
ARC
  5
12789F
  8
OBJECT
 10
6578.4919354838639
 20
-1773.018227189528
 30
0.0
 40
15.0
 50
198.97051877963551
 51
267.89457372778372
1001
ACDBBLOCKREPETAG
1070
     1
1071
       16
1005
12789F
  0
ARC
  5
1278A0
  8
OBJECT
 10
6578.4919354838639
 20
-1826.9817728104681
 30
0.0
 40
15.0
 50
92.105426272216135
 51
161.02948122036429
1001
ACDBBLOCKREPETAG
1070
     1
1071
       17
1005
1278A0
  0
CIRCLE
  5
1278A1
  8
SLIM
 10
6578.0
 20
-1800.0
 30
0.0
 40
8.0
1001
ACDBBLOCKREPETAG
1070
     1
1071
       18
1005
1278A1
  0
POLYLINE
  5
1278A2
  8
SLIM
 66
     1
 10
0.0
 20
0.0
 30
0.0
 70
     1
1001
ACDBBLOCKREPETAG
1070
     1
1071
       19
1005
1278A2
  0
VERTEX
  5
12829E
  8
SLIM
 10
6575.6905989232318
 20
-1796.0
 30
0.0
  0
VERTEX
  5
12829F
  8
SLIM
 10
6573.3811978464792
 20
-1800.0
 30
0.0
  0
VERTEX
  5
1282A0
  8
SLIM
 10
6575.6905989232318
 20
-1803.9999999999991
 30
0.0
  0
VERTEX
  5
1282A1
  8
SLIM
 10
6580.3094010767518
 20
-1803.9999999999991
 30
0.0
  0
VERTEX
  5
1282A2
  8
SLIM
 10
6582.6188021535127
 20
-1800.0
 30
0.0
  0
VERTEX
  5
1282A3
  8
SLIM
 10
6580.3094010767518
 20
-1796.0
 30
0.0
  0
SEQEND
  5
1282A4
  8
SLIM
  0
ARC
  5
1278A3
  8
OBJECT
 10
6461.2499999999991
 20
-1732.883031206703
 30
0.0
 40
12.0
 50
32.105426272157878
 51
207.89457372770741
1001
ACDBBLOCKREPETAG
1070
     1
1071
       20
1005
1278A3
  0
ARC
  5
1278A4
  8
OBJECT
 10
6437.3871315650549
 20
-1745.514876283992
 30
0.0
 40
15.0
 50
318.97051877944762
 51
27.894573727707481
1001
ACDBBLOCKREPETAG
1070
     1
1071
       21
1005
1278A4
  0
ARC
  5
1278A5
  8
OBJECT
 10
6484.1209329510693
 20
-1718.53310347352
 30
0.0
 40
15.0
 50
212.1054262721579
 51
281.02948122044069
1001
ACDBBLOCKREPETAG
1070
     1
1071
       22
1005
1278A5
  0
CIRCLE
  5
1278A6
  8
SLIM
 10
6461.0
 20
-1732.4500185048121
 30
0.0
 40
7.9999999999999982
1001
ACDBBLOCKREPETAG
1070
     1
1071
       23
1005
1278A6
  0
POLYLINE
  5
1278A7
  8
SLIM
 66
     1
 10
0.0
 20
0.0
 30
0.0
 70
     1
1001
ACDBBLOCKREPETAG
1070
     1
1071
       24
1005
1278A7
  0
VERTEX
  5
1282A5
  8
SLIM
 10
6458.69059892324
 20
-1736.4500185048121
 30
0.0
  0
VERTEX
  5
1282A6
  8
SLIM
 10
6463.3094010767518
 20
-1736.4500185048121
 30
0.0
  0
VERTEX
  5
1282A7
  8
SLIM
 10
6465.6188021535136
 20
-1732.4500185048121
 30
0.0
  0
VERTEX
  5
1282A8
  8
SLIM
 10
6463.3094010767518
 20
-1728.4500185048121
 30
0.0
  0
VERTEX
  5
1282A9
  8
SLIM
 10
6458.69059892324
 20
-1728.4500185048121
 30
0.0
  0
VERTEX
  5
1282AA
  8
SLIM
 10
6456.3811978464801
 20
-1732.4500185048121
 30
0.0
  0
SEQEND
  5
1282AB
  8
SLIM
  0
ARC
  5
1278A8
  8
OBJECT
 10
6461.2499999999991
 20
-1867.116968793292
 30
0.0
 40
12.0
 50
152.1054262722925
 51
327.89457372784221
1001
ACDBBLOCKREPETAG
1070
     1
1071
       25
1005
1278A8
  0
ARC
  5
1278A9
  8
OBJECT
 10
6484.1209329510693
 20
-1881.466896526475
 30
0.0
 40
15.0
 50
78.970518779559228
 51
147.8945737278421
1001
ACDBBLOCKREPETAG
1070
     1
1071
       26
1005
1278A9
  0
ARC
  5
1278AA
  8
OBJECT
 10
6437.3871315650549
 20
-1854.485123716006
 30
0.0
 40
15.0
 50
332.1054262722925
 51
41.029481220552412
1001
ACDBBLOCKREPETAG
1070
     1
1071
       27
1005
1278AA
  0
CIRCLE
  5
1278AB
  8
SLIM
 10
6461.0
 20
-1867.549981495187
 30
0.0
 40
8.0
1001
ACDBBLOCKREPETAG
1070
     1
1071
       28
1005
1278AB
  0
POLYLINE
  5
1278AC
  8
SLIM
 66
     1
 10
0.0
 20
0.0
 30
0.0
 70
     1
1001
ACDBBLOCKREPETAG
1070
     1
1071
       29
1005
1278AC
  0
VERTEX
  5
1282AC
  8
SLIM
 10
6465.6188021535136
 20
-1867.5499814951829
 30
0.0
  0
VERTEX
  5
1282AD
  8
SLIM
 10
6463.3094010767518
 20
-1863.549981495187
 30
0.0
  0
VERTEX
  5
1282AE
  8
SLIM
 10
6458.69059892324
 20
-1863.549981495182
 30
0.0
  0
VERTEX
  5
1282AF
  8
SLIM
 10
6456.3811978464801
 20
-1867.549981495187
 30
0.0
  0
VERTEX
  5
1282B0
  8
SLIM
 10
6458.6905989232328
 20
-1871.549981495182
 30
0.0
  0
VERTEX
  5
1282B1
  8
SLIM
 10
6463.3094010767518
 20
-1871.549981495187
 30
0.0
  0
SEQEND
  5
1282B2
  8
SLIM
  0
ARC
  5
1278AD
  8
OBJECT
 10
6500.0
 20
-1800.0
 30
0.0
 40
76.0
 50
34.863837954142063
 51
85.136162045732945
1001
ACDBBLOCKREPETAG
1070
     1
1071
       42
1005
1278AD
  0
ARC
  5
1278AE
  8
OBJECT
 10
6500.0
 20
-1800.0
 30
0.0
 40
76.0
 50
154.86383795430939
 51
205.1361620456905
1001
ACDBBLOCKREPETAG
1070
     1
1071
       43
1005
1278AE
  0
ARC
  5
1278AF
  8
OBJECT
 10
6500.0
 20
-1800.0
 30
0.0
 40
76.0
 50
274.86383795426718
 51
325.13616204585799
1001
ACDBBLOCKREPETAG
1070
     1
1071
       44
1005
1278AF
  0
ARC
  5
1278B0
  8
OBJECT
 10
6578.0
 20
-1800.0
 30
0.0
 40
12.0
 50
325.13616204585799
 51
34.863837954142063
1001
ACDBBLOCKREPETAG
1070
     1
1071
       45
1005
1278B0
  0
LINE
  5
1278B1
  8
OBJECT
 10
6587.8461538461661
 20
-1793.1404625201369
 30
0.0
 11
6562.3589743590492
 21
-1756.556262627538
 31
0.0
1001
ACDBBLOCKREPETAG
1070
     1
1071
       46
1005
1278B1
  0
LINE
  5
1278B2
  8
OBJECT
 10
6587.8461538461688
 20
-1806.8595374798599
 30
0.0
 11
6562.3589743590492
 21
-1843.4437373724629
 31
0.0
1001
ACDBBLOCKREPETAG
1070
     1
1071
       47
1005
1278B2
  0
ARC
  5
1278B3
  8
OBJECT
 10
6461.0
 20
-1732.4500185048139
 30
0.0
 40
12.0
 50
85.136162045942811
 51
154.86383795410001
1001
ACDBBLOCKREPETAG
1070
     1
1071
       48
1005
1278B3
  0
LINE
  5
1278B4
  8
OBJECT
 10
6450.1363893611451
 20
-1727.3527678843941
 30
0.0
 11
6431.1971326205858
 21
-1767.7174127373501
 31
0.0
1001
ACDBBLOCKREPETAG
1070
     1
1071
       49
1005
1278B4
  0
LINE
  5
1278B5
  8
OBJECT
 10
6462.0174567926842
 20
-1720.4932304045301
 30
0.0
 11
6506.4438930203687
 21
-1724.273675364889
 31
0.0
1001
ACDBBLOCKREPETAG
1070
     1
1071
       50
1005
1278B5
  0
ARC
  5
1278B6
  8
OBJECT
 10
6461.0
 20
-1867.549981495185
 30
0.0
 40
12.0
 50
205.13616204589991
 51
274.8638379540572
1001
ACDBBLOCKREPETAG
1070
     1
1071
       51
1005
1278B6
  0
LINE
  5
1278B7
  8
OBJECT
 10
6462.0174567926879
 20
-1879.5067695954669
 30
0.0
 11
6506.4438930203651
 21
-1875.726324635109
 31
0.0
1001
ACDBBLOCKREPETAG
1070
     1
1071
       52
1005
1278B7
  0
LINE
  5
1278B8
  8
OBJECT
 10
6450.1363893611451
 20
-1872.6472321156079
 30
0.0
 11
6431.1971326205821
 21
-1832.2825872626461
 31
0.0
1001
ACDBBLOCKREPETAG
1070
     1
1071
       53
1005
1278B8
  0
LINE
  5
1278B9
  8
CENTER
 10
4409.0
 20
-1758.9999999999959
 30
0.0
 11
4605.0
 21
-1758.9999999999959
 31
0.0
1001
ACDBBLOCKREPETAG
1070
     1
1071
        0
1005
1278B9
  0
LINE
  5
1278BA
  8
CENTER
 10
4500.0
 20
-1667.7253355707801
 30
0.0
 11
4500.0
 21
-1850.274664429212
 31
0.0
1001
ACDBBLOCKREPETAG
1070
     1
1071
        1
1005
1278BA
  0
CIRCLE
  5
1278BB
  8
OBJECT
 10
4500.0
 20
-1758.9999999999959
 30
0.0
 40
50.0
1001
ACDBBLOCKREPETAG
1070
     1
1071
        2
1005
1278BB
  0
CIRCLE
  5
1278BC
  8
OBJECT
 10
4500.0
 20
-1758.9999999999959
 30
0.0
 40
62.0
1001
ACDBBLOCKREPETAG
1070
     1
1071
        3
1005
1278BC
  0
CIRCLE
  5
1278BD
  8
SLIM
 10
4578.0
 20
-1758.9999999999959
 30
0.0
 40
5.0
1001
ACDBBLOCKREPETAG
1070
     1
1071
        4
1005
1278BD
  0
POLYLINE
  5
1278BE
  8
SLIM
 66
     1
 10
0.0
 20
0.0
 30
0.0
 70
     1
1001
ACDBBLOCKREPETAG
1070
     1
1071
        5
1005
1278BE
  0
VERTEX
  5
1282B3
  8
SLIM
 10
4573.092522711886
 20
-1750.4999999999959
 30
0.0
  0
VERTEX
  5
1282B4
  8
SLIM
 10
4568.185045423772
 20
-1758.9999999999959
 30
0.0
  0
VERTEX
  5
1282B5
  8
SLIM
 10
4573.092522711886
 20
-1767.4999999999959
 30
0.0
  0
VERTEX
  5
1282B6
  8
SLIM
 10
4582.9074772881049
 20
-1767.4999999999959
 30
0.0
  0
VERTEX
  5
1282B7
  8
SLIM
 10
4587.814954576219
 20
-1758.9999999999959
 30
0.0
  0
VERTEX
  5
1282B8
  8
SLIM
 10
4582.9074772881049
 20
-1750.4999999999959
 30
0.0
  0
SEQEND
  5
1282B9
  8
SLIM
  0
CIRCLE
  5
1278BF
  8
SLIM
 10
4461.0
 20
-1691.4500185048089
 30
0.0
 40
4.9999999999999991
1001
ACDBBLOCKREPETAG
1070
     1
1071
        6
1005
1278BF
  0
POLYLINE
  5
1278C0
  8
SLIM
 66
     1
 10
0.0
 20
0.0
 30
0.0
 70
     1
1001
ACDBBLOCKREPETAG
1070
     1
1071
        7
1005
1278C0
  0
VERTEX
  5
1282BA
  8
SLIM
 10
4456.092522711886
 20
-1699.9500185048089
 30
0.0
  0
VERTEX
  5
1282BB
  8
SLIM
 10
4465.907477288114
 20
-1699.9500185048089
 30
0.0
  0
VERTEX
  5
1282BC
  8
SLIM
 10
4470.8149545762208
 20
-1691.4500185048089
 30
0.0
  0
VERTEX
  5
1282BD
  8
SLIM
 10
4465.907477288114
 20
-1682.9500185048089
 30
0.0
  0
VERTEX
  5
1282BE
  8
SLIM
 10
4456.092522711886
 20
-1682.9500185048089
 30
0.0
  0
VERTEX
  5
1282BF
  8
SLIM
 10
4451.185045423772
 20
-1691.4500185048089
 30
0.0
  0
SEQEND
  5
1282C0
  8
SLIM
  0
CIRCLE
  5
1278C1
  8
SLIM
 10
4461.0
 20
-1826.5499814951829
 30
0.0
 40
5.0
1001
ACDBBLOCKREPETAG
1070
     1
1071
        8
1005
1278C1
  0
POLYLINE
  5
1278C2
  8
SLIM
 66
     1
 10
0.0
 20
0.0
 30
0.0
 70
     1
1001
ACDBBLOCKREPETAG
1070
     1
1071
        9
1005
1278C2
  0
VERTEX
  5
1282C1
  8
SLIM
 10
4470.8149545762208
 20
-1826.5499814951829
 30
0.0
  0
VERTEX
  5
1282C2
  8
SLIM
 10
4465.9074772881067
 20
-1818.04998149518
 30
0.0
  0
VERTEX
  5
1282C3
  8
SLIM
 10
4456.092522711886
 20
-1818.0499814951841
 30
0.0
  0
VERTEX
  5
1282C4
  8
SLIM
 10
4451.185045423772
 20
-1826.54998149518
 30
0.0
  0
VERTEX
  5
1282C5
  8
SLIM
 10
4456.092522711886
 20
-1835.0499814951829
 30
0.0
  0
VERTEX
  5
1282C6
  8
SLIM
 10
4465.907477288114
 20
-1835.04998149518
 30
0.0
  0
SEQEND
  5
1282C7
  8
SLIM
  0
ARC
  5
1278C3
  8
OBJECT
 10
4500.0
 20
-1758.9999999999959
 30
0.0
 40
76.0
 50
34.863837954142063
 51
85.136162045732945
1001
ACDBBLOCKREPETAG
1070
     1
1071
       30
1005
1278C3
  0
ARC
  5
1278C4
  8
OBJECT
 10
4500.0
 20
-1758.9999999999959
 30
0.0
 40
76.0
 50
154.86383795430939
 51
205.1361620456905
1001
ACDBBLOCKREPETAG
1070
     1
1071
       31
1005
1278C4
  0
ARC
  5
1278C5
  8
OBJECT
 10
4500.0
 20
-1758.9999999999959
 30
0.0
 40
76.0
 50
274.86383795426718
 51
325.13616204585799
1001
ACDBBLOCKREPETAG
1070
     1
1071
       32
1005
1278C5
  0
ARC
  5
1278C6
  8
OBJECT
 10
4578.0
 20
-1758.9999999999959
 30
0.0
 40
12.0
 50
325.13616204585799
 51
34.863837954142063
1001
ACDBBLOCKREPETAG
1070
     1
1071
       33
1005
1278C6
  0
LINE
  5
1278C7
  8
OBJECT
 10
4587.846153846167
 20
-1752.140462520134
 30
0.0
 11
4562.3589743590492
 21
-1715.556262627535
 31
0.0
1001
ACDBBLOCKREPETAG
1070
     1
1071
       34
1005
1278C7
  0
LINE
  5
1278C8
  8
OBJECT
 10
4587.8461538461697
 20
-1765.859537479857
 30
0.0
 11
4562.3589743590492
 21
-1802.4437373724591
 31
0.0
1001
ACDBBLOCKREPETAG
1070
     1
1071
       35
1005
1278C8
  0
ARC
  5
1278C9
  8
OBJECT
 10
4461.0
 20
-1691.4500185048109
 30
0.0
 40
12.0
 50
85.136162045942811
 51
154.86383795410001
1001
ACDBBLOCKREPETAG
1070
     1
1071
       36
1005
1278C9
  0
LINE
  5
1278CA
  8
OBJECT
 10
4450.1363893611451
 20
-1686.3527678843909
 30
0.0
 11
4431.1971326205839
 21
-1726.7174127373471
 31
0.0
1001
ACDBBLOCKREPETAG
1070
     1
1071
       37
1005
1278CA
  0
LINE
  5
1278CB
  8
OBJECT
 10
4462.0174567926833
 20
-1679.4932304045269
 30
0.0
 11
4506.443893020366
 21
-1683.273675364886
 31
0.0
1001
ACDBBLOCKREPETAG
1070
     1
1071
       38
1005
1278CB
  0
ARC
  5
1278CC
  8
OBJECT
 10
4461.0
 20
-1826.549981495182
 30
0.0
 40
12.0
 50
205.13616204589991
 51
274.8638379540572
1001
ACDBBLOCKREPETAG
1070
     1
1071
       39
1005
1278CC
  0
LINE
  5
1278CD
  8
OBJECT
 10
4462.0174567926879
 20
-1838.506769595464
 30
0.0
 11
4506.4438930203651
 21
-1834.7263246351069
 31
0.0
1001
ACDBBLOCKREPETAG
1070
     1
1071
       40
1005
1278CD
  0
LINE
  5
1278CE
  8
OBJECT
 10
4450.1363893611451
 20
-1831.647232115605
 30
0.0
 11
4431.1971326205821
 21
-1791.282587262642
 31
0.0
1001
ACDBBLOCKREPETAG
1070
     1
1071
       41
1005
1278CE
  0
LINE
  5
1278CF
  8
OBJECT
 10
2443.0
 20
-1484.9999999999959
 30
0.0
 11
2557.0
 21
-1484.9999999999959
 31
0.0
1001
ACDBBLOCKREPETAG
1070
     1
1071
        0
1005
1278CF
  0
LINE
  5
1278D0
  8
OBJECT
 10
2443.0
 20
-1484.9999999999959
 30
0.0
 11
2443.0
 21
-1384.9999999999959
 31
0.0
1001
ACDBBLOCKREPETAG
1070
     1
1071
        1
1005
1278D0
  0
LINE
  5
1278D1
  8
OBJECT
 10
2557.0
 20
-1484.9999999999959
 30
0.0
 11
2557.0
 21
-1384.9999999999959
 31
0.0
1001
ACDBBLOCKREPETAG
1070
     1
1071
        2
1005
1278D1
  0
LINE
  5
1278D2
  8
OBJECT
 10
2443.0
 20
-1384.9999999999959
 30
0.0
 11
2557.0
 21
-1384.9999999999959
 31
0.0
1001
ACDBBLOCKREPETAG
1070
     1
1071
        3
1005
1278D2
  0
LINE
  5
1278D3
  8
HIDDEN
 10
2450.0
 20
-1384.9999999999959
 30
0.0
 11
2450.0
 21
-1484.9999999999959
 31
0.0
1001
ACDBBLOCKREPETAG
1070
     1
1071
        4
1005
1278D3
  0
LINE
  5
1278D4
  8
HIDDEN
 10
2550.0
 20
-1384.9999999999959
 30
0.0
 11
2550.0
 21
-1484.9999999999959
 31
0.0
1001
ACDBBLOCKREPETAG
1070
     1
1071
        5
1005
1278D4
  0
LINE
  5
1278D5
  8
CENTER
 10
2500.0
 20
-1175.0
 30
0.0
 11
2500.0
 21
-1499.9999999999959
 31
0.0
1001
ACDBBLOCKREPETAG
1070
     1
1071
        6
1005
1278D5
  0
LINE
  5
1278D6
  8
OBJECT
 10
2425.0
 20
-1175.0
 30
0.0
 11
2425.0
 21
-1256.9999999999959
 31
0.0
1001
ACDBBLOCKREPETAG
1070
     1
1071
        7
1005
1278D6
  0
LINE
  5
1278D7
  8
OBJECT
 10
2575.0
 20
-1175.0
 30
0.0
 11
2575.0
 21
-1256.9999999999959
 31
0.0
1001
ACDBBLOCKREPETAG
1070
     1
1071
        8
1005
1278D7
  0
LINE
  5
1278D8
  8
OBJECT
 10
2425.0
 20
-1256.9999999999959
 30
0.0
 11
2575.0
 21
-1256.9999999999959
 31
0.0
1001
ACDBBLOCKREPETAG
1070
     1
1071
        9
1005
1278D8
  0
LINE
  5
1278D9
  8
OBJECT
 10
2425.0
 20
-1256.9999999999959
 30
0.0
 11
2443.0
 21
-1384.9999999999959
 31
0.0
1001
ACDBBLOCKREPETAG
1070
     1
1071
       10
1005
1278D9
  0
LINE
  5
1278DA
  8
OBJECT
 10
2557.0
 20
-1384.9999999999959
 30
0.0
 11
2575.0
 21
-1256.9999999999959
 31
0.0
1001
ACDBBLOCKREPETAG
1070
     1
1071
       11
1005
1278DA
  0
TEXT
  5
1278DB
  8
SLIM
 10
0.0
 20
370.0
 30
0.0
 40
100.0
  1
4SLT2-A3-AX000-PXXX-WKP
 41
0.75
  0
VIEWPORT
  5
F6BA7
 67
     1
  8
0
 10
195.9179030619629
 20
101.8328354358673
 30
0.0
 40
435.17763301655981
 41
222.19657968139651
 68
     1
 69
     1
1001
ACAD
1000
MVIEW
1002
{
1070
    16
1010
0.0
1020
0.0
1030
0.0
1010
0.0
1020
0.0
1030
1.0
1040
0.0
1040
222.19657968139651
1040
195.9179030619629
1040
101.8328354358673
1040
50.0
1040
0.0
1040
0.0
1070
     0
1070
     0
1070
     1
1070
     1
1070
     0
1070
     0
1070
     0
1070
     0
1040
0.0
1040
0.0
1040
0.0
1040
10.0
1040
10.0
1040
10.0
1040
10.0
1070
     0
1002
{
1002
}
1002
}
  0
VIEWPORT
  5
F6BA9
 67
     1
  8
OBJECT
 10
145.3303314447403
 20
101.8328338861465
 30
0.0
 40
232.5285303115844
 41
162.93253421783439
 68
     2
 69
     2
1001
ACAD
1000
MVIEW
1002
{
1070
    16
1010
0.0
1020
0.0
1030
0.0
1010
0.0
1020
0.0
1030
1.0
1040
0.0
1040
25942.55904403147
1040
2377.604457077377
1040
-7591.5176687056619
1040
50.0
1040
0.0
1040
0.0
1070
     0
1070
   600
1070
     1
1070
     1
1070
     0
1070
     0
1070
     0
1070
     0
1040
0.0
1040
0.0
1040
0.0
1040
1.0
1040
1.0
1040
0.0
1040
0.0
1070
     0
1002
{
1002
}
1002
}
  0
ENDSEC
  0
EOF
