  0
SECTION
  2
HEADER
  9
$ACADVER
  1
AC1009
  9
$INSBASE
 10
0.0
 20
0.0
 30
0.0
  9
$EXTMIN
 10
0.0
 20
-3597.4999999999968
 30
0.0
  9
$EXTMAX
 10
5575.0
 20
607.5
 30
0.0
  9
$LIMMIN
 10
0.0
 20
0.0
  9
$LIMMAX
 10
210.0
 20
297.0
  9
$ORTHOMODE
 70
     0
  9
$REGENMODE
 70
     1
  9
$FILLMODE
 70
     1
  9
$QTEXTMODE
 70
     0
  9
$MIRRTEXT
 70
     0
  9
$DRAGMODE
 70
     2
  9
$LTSCALE
 40
1.0
  9
$OSMODE
 70
  2557
  9
$ATTMODE
 70
     1
  9
$TEXTSIZE
 40
4.0
  9
$TRACEWID
 40
0.05
  9
$TEXTSTYLE
  7
STANDARD
  9
$CLAYER
  8
OBJECT
  9
$CELTYPE
  6
BYLAYER
  9
$CECOLOR
 62
   256
  9
$DIMSCALE
 40
10.0
  9
$DIMASZ
 40
2.0
  9
$DIMEXO
 40
1.0
  9
$DIMDLI
 40
10.0
  9
$DIMRND
 40
0.0
  9
$DIMDLE
 40
0.0
  9
$DIMEXE
 40
1.0
  9
$DIMTP
 40
0.0
  9
$DIMTM
 40
0.0
  9
$DIMTXT
 40
3.2000000000000002
  9
$DIMCEN
 40
0.0
  9
$DIMTSZ
 40
0.0
  9
$DIMTOL
 70
     0
  9
$DIMLIM
 70
     0
  9
$DIMTIH
 70
     0
  9
$DIMTOH
 70
     0
  9
$DIMSE1
 70
     0
  9
$DIMSE2
 70
     0
  9
$DIMTAD
 70
     1
  9
$DIMZIN
 70
     8
  9
$DIMBLK
  1
OPEN30
  9
$DIMASO
 70
     1
  9
$DIMSHO
 70
     1
  9
$DIMPOST
  1

  9
$DIMAPOST
  1

  9
$DIMALT
 70
     0
  9
$DIMALTD
 70
     2
  9
$DIMALTF
 40
25.399999999999999
  9
$DIMLFAC
 40
1.0
  9
$DIMTOFL
 70
     1
  9
$DIMTVP
 40
0.0
  9
$DIMTIX
 70
     0
  9
$DIMSOXD
 70
     0
  9
$DIMSAH
 70
     0
  9
$DIMBLK1
  1

  9
$DIMBLK2
  1

  9
$DIMSTYLE
  2
S10
  9
$DIMCLRD
 70
   256
  9
$DIMCLRE
 70
   256
  9
$DIMCLRT
 70
   256
  9
$DIMTFAC
 40
1.0
  9
$DIMGAP
 40
0.9
  9
$LUNITS
 70
     2
  9
$LUPREC
 70
     2
  9
$SKETCHINC
 40
0.1
  9
$FILLETRAD
 40
0.0
  9
$AUNITS
 70
     0
  9
$AUPREC
 70
     2
  9
$MENU
  1
ACAD
  9
$ELEVATION
 40
0.0
  9
$PELEVATION
 40
0.0
  9
$THICKNESS
 40
0.0
  9
$LIMCHECK
 70
     0
  9
$BLIPMODE
 70
     0
  9
$CHAMFERA
 40
2.0
  9
$CHAMFERB
 40
2.0
  9
$SKPOLY
 70
     0
  9
$TDCREATE
 40
2453095.4929404748
  9
$TDUPDATE
 40
2456535.6431539929
  9
$TDINDWG
 40
18.388062465299999
  9
$TDUSRTIMER
 40
18.388061203700001
  9
$USRTIMER
 70
     1
  9
$ANGBASE
 50
0.0
  9
$ANGDIR
 70
     0
  9
$PDMODE
 70
    35
  9
$PDSIZE
 40
2.0
  9
$PLINEWID
 40
0.0
  9
$COORDS
 70
     1
  9
$SPLFRAME
 70
     0
  9
$SPLINETYPE
 70
     6
  9
$SPLINESEGS
 70
     8
  9
$ATTDIA
 70
     1
  9
$ATTREQ
 70
     1
  9
$HANDLING
 70
     1
  9
$HANDSEED
  5
12C0A4
  9
$SURFTAB1
 70
     6
  9
$SURFTAB2
 70
     6
  9
$SURFTYPE
 70
     6
  9
$SURFU
 70
     6
  9
$SURFV
 70
     6
  9
$UCSNAME
  2

  9
$UCSORG
 10
0.0
 20
0.0
 30
0.0
  9
$UCSXDIR
 10
1.0
 20
0.0
 30
0.0
  9
$UCSYDIR
 10
0.0
 20
1.0
 30
0.0
  9
$PUCSNAME
  2

  9
$PUCSORG
 10
0.0
 20
0.0
 30
0.0
  9
$PUCSXDIR
 10
1.0
 20
0.0
 30
0.0
  9
$PUCSYDIR
 10
0.0
 20
1.0
 30
0.0
  9
$USERI1
 70
     0
  9
$USERI2
 70
     0
  9
$USERI3
 70
     0
  9
$USERI4
 70
     0
  9
$USERI5
 70
     0
  9
$USERR1
 40
0.0
  9
$USERR2
 40
0.0
  9
$USERR3
 40
0.0
  9
$USERR4
 40
0.0
  9
$USERR5
 40
0.0
  9
$WORLDVIEW
 70
     1
  9
$SHADEDGE
 70
     3
  9
$SHADEDIF
 70
    70
  9
$TILEMODE
 70
     1
  9
$MAXACTVP
 70
    64
  9
$PLIMCHECK
 70
     0
  9
$PEXTMIN
 10
29.066066288948051
 20
20.366566777229309
 30
0.0
  9
$PEXTMAX
 10
261.5945966005325
 20
183.29910099506381
 30
0.0
  9
$PLIMMIN
 10
-3.17498779296875
 20
-3.1749999523162842
  9
$PLIMMAX
 10
293.83566284179687
 20
206.8406708240509
  9
$UNITMODE
 70
     0
  9
$VISRETAIN
 70
     1
  9
$PLINEGEN
 70
     0
  9
$PSLTSCALE
 70
     1
  0
ENDSEC
  0
SECTION
  2
TABLES
  0
TABLE
  2
VPORT
 70
     1
  0
VPORT
  2
*ACTIVE
 70
     0
 10
0.0
 20
0.0
 11
1.0
 21
1.0
 12
4978.2156661017361
 22
-1156.0739575096441
 13
0.0
 23
0.0
 14
1.0
 24
1.0
 15
0.0
 25
0.0
 16
0.0
 26
0.0
 36
1.0
 17
0.0
 27
0.0
 37
0.0
 40
11690.5061707594
 41
1.958525345622119
 42
50.0
 43
0.0
 44
0.0
 50
0.0
 51
0.0
 71
     0
 72
   600
 73
     1
 74
     1
 75
     0
 76
     0
 77
     0
 78
     0
  0
ENDTAB
  0
TABLE
  2
LTYPE
 70
     3
  0
LTYPE
  2
CONTINUOUS
 70
     0
  3
Solid line
 72
    65
 73
     0
 40
0.0
  0
LTYPE
  2
ACAD_ISO08W100
 70
     0
  3
ISO long-dash short-dash ____ __ ____ __ ____ _
 72
    65
 73
     4
 40
36.0
 49
24.0
 49
-3.0
 49
6.0
 49
-3.0
  0
LTYPE
  2
ACAD_ISO02W100
 70
     0
  3
ISO dash __ __ __ __ __ __ __ __ __ __ __ __ __
 72
    65
 73
     2
 40
15.0
 49
12.0
 49
-3.0
  0
ENDTAB
  0
TABLE
  2
LAYER
 70
     9
  0
LAYER
  2
0
 70
     0
 62
     7
  6
CONTINUOUS
  0
LAYER
  2
OBJECT
 70
     0
 62
     4
  6
CONTINUOUS
  0
LAYER
  2
DEFPOINTS
 70
     0
 62
     7
  6
CONTINUOUS
  0
LAYER
  2
DIM
 70
     0
 62
     7
  6
CONTINUOUS
  0
LAYER
  2
HIDDEN
 70
     0
 62
     2
  6
ACAD_ISO02W100
  0
LAYER
  2
CENTER
 70
     0
 62
     2
  6
ACAD_ISO08W100
  0
LAYER
  2
DOTS
 70
     0
 62
     1
  6
CONTINUOUS
  0
LAYER
  2
SLIM
 70
     0
 62
     2
  6
CONTINUOUS
  0
ENDTAB
  0
TABLE
  2
STYLE
 70
     2
  0
STYLE
  2
STANDARD
 70
     0
 40
0.0
 41
0.75
 50
0.0
 71
     0
 42
4.0
  3
simplex.shx
  4
bigfont.shx
  0
ENDTAB
  0
TABLE
  2
VIEW
 70
     0
  0
ENDTAB
  0
TABLE
  2
UCS
 70
     0
  0
ENDTAB
  0
TABLE
  2
APPID
 70
    18
  0
APPID
  2
ACAD
 70
     0
  0
APPID
  2
ACADANNOTATIVE
 70
     0
  0
APPID
  2
ACAD_PSEXT
 70
     0
  0
APPID
  2
ACAD_EXEMPT_FROM_CAD_STANDARDS
 70
     0
  0
APPID
  2
ACAECLAYERSTANDARD
 70
     0
  0
APPID
  2
ACAUTHENVIRON
 70
     0
  0
APPID
  2
ACDBDYNAMICBLOCKTRUENAME
 70
     0
  0
APPID
  2
ACDBDYNAMICBLOCKGUID
 70
     0
  0
APPID
  2
ACDBBLOCKREPETAG
 70
     0
  0
APPID
  2
ACDBBLOCKREPBTAG
 70
     0
  0
APPID
  2
ACAD_NAV_VCDISPLAY
 70
     0
  0
APPID
  2
ACAD_DSTYLE_DIMRADIAL_EXTENSION
 70
     0
  0
APPID
  2
ACAD_DSTYLE_DIMJAG
 70
     0
  0
APPID
  2
ACAD_DSTYLE_DIMTALN
 70
     0
  0
APPID
  2
ACADANNOPO
 70
     0
  0
APPID
  2
GRADIENTCOLOR1ACI
 70
     0
  0
APPID
  2
GRADIENTCOLOR2ACI
 70
     0
  0
APPID
  2
ACAD_MLEADERVER
 70
     0
  0
ENDTAB
  0
TABLE
  2
DIMSTYLE
 70
     3
  0
DIMSTYLE
  2
STANDARD
 70
     0
  3

  4

  5

  6

  7

 40
1.0
 41
0.18
 42
0.0625
 43
0.38
 44
0.18
 45
0.0
 46
0.0
 47
0.0
 48
0.0
140
0.18
141
0.09
142
0.0
143
25.399999999999999
144
1.0
145
0.0
146
1.0
147
0.09
 71
     0
 72
     0
 73
     1
 74
     1
 75
     0
 76
     0
 77
     0
 78
     0
170
     0
171
     2
172
     0
173
     0
174
     0
175
     0
176
     0
177
     0
178
     0
  0
DIMSTYLE
  2
S10
 70
     0
  3

  4

  5

  6

  7

 40
10.0
 41
2.0
 42
1.0
 43
10.0
 44
1.0
 45
0.0
 46
0.0
 47
0.0
 48
0.0
140
3.2000000000000002
141
0.0
142
0.0
143
25.399999999999999
144
1.0
145
0.0
146
1.0
147
0.9
 71
     0
 72
     0
 73
     0
 74
     0
 75
     0
 76
     0
 77
     1
 78
     8
170
     0
171
     2
172
     1
173
     0
174
     0
175
     0
176
   256
177
   256
178
   256
  0
ENDTAB
  0
ENDSEC
  0
SECTION
  2
BLOCKS
  0
BLOCK
  8
0
  2
$MODEL_SPACE
 70
     0
 10
0.0
 20
0.0
 30
0.0
  3
$MODEL_SPACE
  1

  0
ENDBLK
  5
12BFA7
  8
0
  0
BLOCK
 67
     1
  8
0
  2
$PAPER_SPACE
 70
     0
 10
0.0
 20
0.0
 30
0.0
  3
$PAPER_SPACE
  1

  0
ENDBLK
  5
12BFA3
 67
     1
  8
0
  0
BLOCK
  8
0
  2
_OPEN30
 70
     0
 10
0.0
 20
0.0
 30
0.0
  3
_OPEN30
  1

  0
LINE
  5
202
  8
0
  6
BYBLOCK
 62
     0
 10
-1.0
 20
0.26794919
 30
0.0
 11
0.0
 21
0.0
 31
0.0
  0
LINE
  5
203
  8
0
  6
BYBLOCK
 62
     0
 10
0.0
 20
0.0
 30
0.0
 11
-1.0
 21
-0.26794919
 31
0.0
  0
LINE
  5
204
  8
0
  6
BYBLOCK
 62
     0
 10
0.0
 20
0.0
 30
0.0
 11
-1.0
 21
0.0
 31
0.0
  0
ENDBLK
  5
206
  8
0
  0
BLOCK
  8
0
  2
*U43
 70
     1
 10
0.0
 20
0.0
 30
0.0
  3
*U43
  1

  0
TEXT
  5
12BF08
  8
DIM
 10
2209.479620594459
 20
-3084.1428571428528
 30
0.0
 40
32.0
  1
A
 50
90.0
 41
0.75
  0
ENDBLK
  5
12BF0A
  8
0
  0
BLOCK
  8
0
  2
*U44
 70
     1
 10
0.0
 20
0.0
 30
0.0
  3
*U44
  1

  0
TEXT
  5
12BF0C
  8
DIM
 10
2207.8409284037348
 20
-3465.9999999999959
 30
0.0
 40
32.0
  1
B
 50
90.0
 41
0.75
  0
ENDBLK
  5
12BF0E
  8
0
  0
BLOCK
  8
0
  2
*U45
 70
     1
 10
0.0
 20
0.0
 30
0.0
  3
*U45
  1

  0
TEXT
  5
12BF10
  8
DIM
 10
2061.428571428572
 20
-2938.208121984444
 30
0.0
 40
32.0
  1
C
 41
0.75
  0
ENDBLK
  5
12BF12
  8
0
  0
BLOCK
  8
0
  2
*U46
 70
     1
 10
0.0
 20
0.0
 30
0.0
  3
*U46
  1

  0
TEXT
  5
12BF14
  8
SLIM
 10
509.0476190477408
 20
-586.75000000000955
 30
0.0
 40
26.0
  1
100
  0
ENDBLK
  5
12BF16
  8
0
  0
BLOCK
  8
0
  2
*U47
 70
     1
 10
0.0
 20
0.0
 30
0.0
  3
*U47
  1

  0
TEXT
  5
12BF18
  8
SLIM
 10
158.9523809524228
 20
-594.00000000000955
 30
0.0
 40
26.0
  1
75
  0
ENDBLK
  5
12BF1A
  8
0
  0
BLOCK
  8
0
  2
*U48
 70
     1
 10
0.0
 20
0.0
 30
0.0
  3
*U48
  1

  0
TEXT
  5
12BF1C
  8
SLIM
 10
518.95238095250295
 20
-130.00000000000321
 30
0.0
 40
26.0
  1
65
  0
ENDBLK
  5
12BF1E
  8
0
  0
BLOCK
  8
0
  2
*U49
 70
     1
 10
0.0
 20
0.0
 30
0.0
  3
*U49
  1

  0
TEXT
  5
12BF20
  8
SLIM
 10
158.9523809524228
 20
-130.00000000000321
 30
0.0
 40
26.0
  1
50
  0
ENDBLK
  5
12BF22
  8
0
  0
ENDSEC
  0
SECTION
  2
ENTITIES
  0
LINE
  5
1295F8
  8
OBJECT
 10
1825.0
 20
-3479.9999999999959
 30
0.0
 11
5575.0
 21
-3479.9999999999959
 31
0.0
  0
LINE
  5
1295FA
  8
SLIM
 10
2616.0
 20
-2537.50001604727
 30
0.0
 11
2616.0
 21
-2867.50001604727
 31
0.0
  0
LINE
  5
1295FB
  8
SLIM
 10
2740.0
 20
-2537.50001604727
 30
0.0
 11
2740.0
 21
-2867.50001604727
 31
0.0
  0
LINE
  5
1295FC
  8
SLIM
 10
2870.0
 20
-2597.50001604727
 30
0.0
 11
2870.0
 21
-2867.50001604727
 31
0.0
  0
LINE
  5
1295FD
  8
SLIM
 10
3000.0
 20
-2597.50001604727
 30
0.0
 11
3000.0
 21
-2867.50001604727
 31
0.0
  0
LINE
  5
1295FE
  8
SLIM
 10
3130.0
 20
-2867.50001604727
 30
0.0
 11
3130.0
 21
-2597.50001604727
 31
0.0
  0
LINE
  5
1295FF
  8
SLIM
 10
3260.0
 20
-2867.50001604727
 30
0.0
 11
3260.0
 21
-2537.50001604727
 31
0.0
  0
LINE
  5
129600
  8
SLIM
 10
3260.0
 20
-2537.50001604727
 30
0.0
 11
2616.0
 21
-2537.50001604727
 31
0.0
  0
LINE
  5
129601
  8
SLIM
 10
3260.0
 20
-2597.50001604727
 30
0.0
 11
2740.0
 21
-2597.50001604727
 31
0.0
  0
LINE
  5
129602
  8
SLIM
 10
3260.0
 20
-2657.50001604727
 30
0.0
 11
2616.0
 21
-2657.50001604727
 31
0.0
  0
LINE
  5
129603
  8
SLIM
 10
3260.0
 20
-2727.50001604727
 30
0.0
 11
2616.0
 21
-2727.50001604727
 31
0.0
  0
LINE
  5
129604
  8
SLIM
 10
3260.0
 20
-2797.50001604727
 30
0.0
 11
2616.0
 21
-2797.50001604727
 31
0.0
  0
LINE
  5
129605
  8
SLIM
 10
3260.0
 20
-2867.50001604727
 30
0.0
 11
2616.0
 21
-2867.50001604727
 31
0.0
  0
LINE
  5
12961A
  8
SLIM
 10
2740.0
 20
-2657.50001604727
 30
0.0
 11
2615.9999722746579
 21
-2537.5
 31
0.0
  0
LINE
  5
12964F
  8
OBJECT
 10
5323.0
 20
-3295.9999999999968
 30
0.0
 11
5323.0
 21
-3274.9999999999968
 31
0.0
1001
ACDBBLOCKREPETAG
1070
     1
1071
       20
1005
12964F
  0
LINE
  5
129650
  8
OBJECT
 10
5323.0
 20
-3274.9999999999968
 30
0.0
 11
5477.0
 21
-3274.9999999999968
 31
0.0
1001
ACDBBLOCKREPETAG
1070
     1
1071
       21
1005
129650
  0
LINE
  5
129651
  8
HIDDEN
 10
5343.0
 20
-3344.9999999999968
 30
0.0
 11
5457.0
 21
-3344.9999999999968
 31
0.0
1001
ACDBBLOCKREPETAG
1070
     1
1071
       22
1005
129651
  0
LINE
  5
129652
  8
OBJECT
 10
5477.0
 20
-3274.9999999999968
 30
0.0
 11
5477.0
 21
-3295.9999999999968
 31
0.0
1001
ACDBBLOCKREPETAG
1070
     1
1071
       23
1005
129652
  0
LINE
  5
129653
  8
OBJECT
 10
5477.0
 20
-3295.9999999999968
 30
0.0
 11
5323.0
 21
-3295.9999999999968
 31
0.0
1001
ACDBBLOCKREPETAG
1070
     1
1071
       24
1005
129653
  0
LINE
  5
129654
  8
CENTER
 10
5400.0
 20
-3259.9999999999968
 30
0.0
 11
5400.0
 21
-3494.9999999999968
 31
0.0
1001
ACDBBLOCKREPETAG
1070
     1
1071
       25
1005
129654
  0
LINE
  5
129655
  8
OBJECT
 10
5325.0
 20
-3358.9999999999968
 30
0.0
 11
5325.0
 21
-3482.9999999999968
 31
0.0
1001
ACDBBLOCKREPETAG
1070
     1
1071
       26
1005
129655
  0
LINE
  5
129656
  8
OBJECT
 10
5328.0
 20
-3295.9999999999968
 30
0.0
 11
5328.0
 21
-3358.9999999999968
 31
0.0
1001
ACDBBLOCKREPETAG
1070
     1
1071
       27
1005
129656
  0
LINE
  5
129657
  8
OBJECT
 10
5472.0
 20
-3358.9999999999968
 30
0.0
 11
5472.0
 21
-3295.9999999999968
 31
0.0
1001
ACDBBLOCKREPETAG
1070
     1
1071
       28
1005
129657
  0
LINE
  5
129658
  8
OBJECT
 10
5475.0
 20
-3358.9999999999968
 30
0.0
 11
5456.7802782663139
 21
-3358.9999999999968
 31
0.0
1001
ACDBBLOCKREPETAG
1070
     1
1071
       30
1005
129658
  0
LINE
  5
129659
  8
OBJECT
 10
5475.0
 20
-3358.9999999999968
 30
0.0
 11
5475.0
 21
-3482.9999999999968
 31
0.0
1001
ACDBBLOCKREPETAG
1070
     1
1071
       34
1005
129659
  0
POINT
  5
12965A
  8
DOTS
 10
5400.0
 20
-3479.9999999999968
 30
0.0
1001
ACDBBLOCKREPETAG
1070
     1
1071
      187
1005
12965A
  0
LINE
  5
12965B
  8
CENTER
 10
5310.0
 20
-3407.9999999999968
 30
0.0
 11
5490.0
 21
-3407.9999999999968
 31
0.0
1001
ACDBBLOCKREPETAG
1070
     1
1071
       23
1005
12965B
  0
CIRCLE
  5
12965C
  8
OBJECT
 10
5400.0
 20
-3407.9999999999968
 30
0.0
 40
53.5
1001
ACDBBLOCKREPETAG
1070
     1
1071
       24
1005
12965C
  0
CIRCLE
  5
12965D
  8
OBJECT
 10
5400.0
 20
-3407.9999999999968
 30
0.0
 40
67.0
1001
ACDBBLOCKREPETAG
1070
     1
1071
       25
1005
12965D
  0
ARC
  5
12965E
  8
OBJECT
 10
5400.0
 20
-3407.9999999999968
 30
0.0
 40
75.0
 50
286.26020470824
 51
253.73979529175989
1001
ACDBBLOCKREPETAG
1070
     1
1071
       27
1005
12965E
  0
LINE
  5
12965F
  8
OBJECT
 10
5379.0
 20
-3479.9999999999968
 30
0.0
 11
5421.0
 21
-3479.9999999999968
 31
0.0
1001
ACDBBLOCKREPETAG
1070
     1
1071
       28
1005
12965F
  0
LINE
  5
129660
  8
OBJECT
 10
5343.2197217336861
 20
-3358.9999999999968
 30
0.0
 11
5325.0
 21
-3358.9999999999968
 31
0.0
1001
ACDBBLOCKREPETAG
1070
     1
1071
       30
1005
129658
  0
TEXT
  5
129661
  8
SLIM
 10
-0.0000000000000011
 20
282.5
 30
0.0
 40
35.0
  1
※ 100枝（4）がある場合、品名の最後に【管底】が付きます。
 41
0.9
 11
0.0
 21
300.0
 31
0.0
 73
     2
  0
CIRCLE
  5
12A9B6
  8
OBJECT
 10
5000.0
 20
-3074.9999999999959
 30
0.0
 40
53.5
1001
ACDBBLOCKREPETAG
1070
     1
1071
      344
1005
12A9B6
  0
LINE
  5
12A9B7
  8
CENTER
 10
5080.0
 20
-3074.9999999999959
 30
0.0
 11
4905.0
 21
-3074.9999999999959
 31
0.0
1001
ACDBBLOCKREPETAG
1070
     1
1071
       14
1005
12A9B7
  0
LINE
  5
12A9B8
  8
CENTER
 10
5000.0
 20
-3169.9999999999959
 30
0.0
 11
5000.0
 21
-2979.9999999999959
 31
0.0
1001
ACDBBLOCKREPETAG
1070
     1
1071
       15
1005
12A9B8
  0
CIRCLE
  5
12A9B9
  8
OBJECT
 10
5000.0
 20
-3074.9999999999959
 30
0.0
 40
70.0
1001
ACDBBLOCKREPETAG
1070
     1
1071
       16
1005
12A9B9
  0
CIRCLE
  5
12A9BA
  8
OBJECT
 10
5000.0
 20
-3074.9999999999959
 30
0.0
 40
77.0
1001
ACDBBLOCKREPETAG
1070
     1
1071
       17
1005
12A9BA
  0
ARC
  5
12A9BB
  8
OBJECT
 10
5000.0
 20
-3074.9999999999959
 30
0.0
 40
80.0
 50
50.805032573882329
 51
309.19496742611773
1001
ACDBBLOCKREPETAG
1070
     1
1071
       18
1005
12A9BB
  0
LINE
  5
12A9BC
  8
OBJECT
 10
5045.6618002273253
 20
-3012.9999999999959
 30
0.0
 11
5080.0
 21
-3012.9999999999959
 31
0.0
1001
ACDBBLOCKREPETAG
1070
     1
1071
       19
1005
12A9BC
  0
LINE
  5
12A9BD
  8
OBJECT
 10
5045.6618002273253
 20
-3136.9999999999959
 30
0.0
 11
5080.0
 21
-3136.9999999999959
 31
0.0
1001
ACDBBLOCKREPETAG
1070
     1
1071
       20
1005
12A9BD
  0
POINT
  5
12A9BE
  8
DOTS
 10
5000.0
 20
-3074.9999999999959
 30
0.0
1001
ACDBBLOCKREPETAG
1070
     1
1071
       21
1005
12A9BE
  0
CIRCLE
  5
12A9BF
  8
OBJECT
 10
4000.0
 20
-3074.9999999999959
 30
0.0
 40
53.5
1001
ACDBBLOCKREPETAG
1070
     1
1071
      344
1005
12A9BF
  0
LINE
  5
12A9C0
  8
CENTER
 10
4080.0
 20
-3074.9999999999959
 30
0.0
 11
3905.0
 21
-3074.9999999999959
 31
0.0
1001
ACDBBLOCKREPETAG
1070
     1
1071
       14
1005
12A9C0
  0
LINE
  5
12A9C1
  8
CENTER
 10
4000.0
 20
-3169.9999999999959
 30
0.0
 11
4000.0
 21
-2979.9999999999959
 31
0.0
1001
ACDBBLOCKREPETAG
1070
     1
1071
       15
1005
12A9C1
  0
CIRCLE
  5
12A9C2
  8
OBJECT
 10
4000.0
 20
-3074.9999999999959
 30
0.0
 40
70.0
1001
ACDBBLOCKREPETAG
1070
     1
1071
       16
1005
12A9C2
  0
CIRCLE
  5
12A9C3
  8
OBJECT
 10
4000.0
 20
-3074.9999999999959
 30
0.0
 40
77.0
1001
ACDBBLOCKREPETAG
1070
     1
1071
       17
1005
12A9C3
  0
ARC
  5
12A9C4
  8
OBJECT
 10
4000.0
 20
-3074.9999999999959
 30
0.0
 40
80.0
 50
50.805032573862128
 51
309.19496742613791
1001
ACDBBLOCKREPETAG
1070
     1
1071
       18
1005
12A9C4
  0
LINE
  5
12A9C5
  8
OBJECT
 10
4045.661800227324
 20
-3012.9999999999959
 30
0.0
 11
4080.0
 21
-3012.9999999999959
 31
0.0
1001
ACDBBLOCKREPETAG
1070
     1
1071
       19
1005
12A9C5
  0
LINE
  5
12A9C6
  8
OBJECT
 10
4045.661800227324
 20
-3136.9999999999959
 30
0.0
 11
4080.0
 21
-3136.9999999999959
 31
0.0
1001
ACDBBLOCKREPETAG
1070
     1
1071
       20
1005
12A9C6
  0
POINT
  5
12A9C7
  8
DOTS
 10
4000.0
 20
-3074.9999999999959
 30
0.0
1001
ACDBBLOCKREPETAG
1070
     1
1071
       21
1005
12A9C7
  0
CIRCLE
  5
12A9C8
  8
OBJECT
 10
3000.0
 20
-3074.9999999999959
 30
0.0
 40
53.5
1001
ACDBBLOCKREPETAG
1070
     1
1071
      344
1005
12A9C8
  0
LINE
  5
12A9C9
  8
CENTER
 10
3080.0
 20
-3074.9999999999959
 30
0.0
 11
2905.0
 21
-3074.9999999999959
 31
0.0
1001
ACDBBLOCKREPETAG
1070
     1
1071
       14
1005
12A9C9
  0
LINE
  5
12A9CA
  8
CENTER
 10
3000.0
 20
-3169.9999999999959
 30
0.0
 11
3000.0
 21
-2979.9999999999959
 31
0.0
1001
ACDBBLOCKREPETAG
1070
     1
1071
       15
1005
12A9CA
  0
CIRCLE
  5
12A9CB
  8
OBJECT
 10
3000.0
 20
-3074.9999999999959
 30
0.0
 40
70.0
1001
ACDBBLOCKREPETAG
1070
     1
1071
       16
1005
12A9CB
  0
CIRCLE
  5
12A9CC
  8
OBJECT
 10
3000.0
 20
-3074.9999999999959
 30
0.0
 40
77.0
1001
ACDBBLOCKREPETAG
1070
     1
1071
       17
1005
12A9CC
  0
ARC
  5
12A9CD
  8
OBJECT
 10
3000.0
 20
-3074.9999999999959
 30
0.0
 40
80.0
 50
50.805032573862128
 51
309.19496742613791
1001
ACDBBLOCKREPETAG
1070
     1
1071
       18
1005
12A9CD
  0
LINE
  5
12A9CE
  8
OBJECT
 10
3045.6618002273249
 20
-3012.9999999999959
 30
0.0
 11
3080.0
 21
-3012.9999999999959
 31
0.0
1001
ACDBBLOCKREPETAG
1070
     1
1071
       19
1005
12A9CE
  0
LINE
  5
12A9CF
  8
OBJECT
 10
3045.6618002273249
 20
-3136.9999999999959
 30
0.0
 11
3080.0
 21
-3136.9999999999959
 31
0.0
1001
ACDBBLOCKREPETAG
1070
     1
1071
       20
1005
12A9CF
  0
POINT
  5
12A9D0
  8
DOTS
 10
3000.0
 20
-3074.9999999999959
 30
0.0
1001
ACDBBLOCKREPETAG
1070
     1
1071
       21
1005
12A9D0
  0
CIRCLE
  5
12A9D1
  8
OBJECT
 10
2000.0
 20
-3074.9999999999959
 30
0.0
 40
53.5
1001
ACDBBLOCKREPETAG
1070
     1
1071
      344
1005
12A9D1
  0
LINE
  5
12A9D2
  8
CENTER
 10
2080.0
 20
-3074.9999999999959
 30
0.0
 11
1905.0
 21
-3074.9999999999959
 31
0.0
1001
ACDBBLOCKREPETAG
1070
     1
1071
       14
1005
12A9D2
  0
LINE
  5
12A9D3
  8
CENTER
 10
2000.0
 20
-3169.9999999999959
 30
0.0
 11
2000.0
 21
-2979.9999999999959
 31
0.0
1001
ACDBBLOCKREPETAG
1070
     1
1071
       15
1005
12A9D3
  0
CIRCLE
  5
12A9D4
  8
OBJECT
 10
2000.0
 20
-3074.9999999999959
 30
0.0
 40
70.0
1001
ACDBBLOCKREPETAG
1070
     1
1071
       16
1005
12A9D4
  0
CIRCLE
  5
12A9D5
  8
OBJECT
 10
2000.0
 20
-3074.9999999999959
 30
0.0
 40
77.0
1001
ACDBBLOCKREPETAG
1070
     1
1071
       17
1005
12A9D5
  0
ARC
  5
12A9D6
  8
OBJECT
 10
2000.0
 20
-3074.9999999999959
 30
0.0
 40
80.0
 50
50.805032573862128
 51
309.19496742613791
1001
ACDBBLOCKREPETAG
1070
     1
1071
       18
1005
12A9D6
  0
LINE
  5
12A9D7
  8
OBJECT
 10
2045.6618002273251
 20
-3012.9999999999959
 30
0.0
 11
2080.0
 21
-3012.9999999999959
 31
0.0
1001
ACDBBLOCKREPETAG
1070
     1
1071
       19
1005
12A9D7
  0
LINE
  5
12A9D8
  8
OBJECT
 10
2045.6618002273251
 20
-3136.9999999999959
 30
0.0
 11
2080.0
 21
-3136.9999999999959
 31
0.0
1001
ACDBBLOCKREPETAG
1070
     1
1071
       20
1005
12A9D8
  0
POINT
  5
12A9D9
  8
DOTS
 10
2000.0
 20
-3074.9999999999959
 30
0.0
1001
ACDBBLOCKREPETAG
1070
     1
1071
       21
1005
12A9D9
  0
LINE
  5
12A9DA
  8
SLIM
 10
3927.3018300565232
 20
-155.95484036957691
 30
0.0
 11
3955.9548403695781
 21
-127.30183005652231
 31
0.0
1001
GRADIENTCOLOR1ACI
1070
     5
1001
GRADIENTCOLOR2ACI
1070
     2
1001
ACAD
1010
0.0
1020
0.0
1030
0.0
1001
ACDBBLOCKREPETAG
1070
     1
1071
      436
1005
12A9DA
  0
LINE
  5
12A9DB
  8
SLIM
 10
3919.4861520708369
 20
-172.75077447633191
 30
0.0
 11
3938.2903089572728
 21
-153.94661758989659
 31
0.0
1001
GRADIENTCOLOR1ACI
1070
     5
1001
GRADIENTCOLOR2ACI
1070
     2
1001
ACAD
1010
0.0
1020
0.0
1030
0.0
1001
ACDBBLOCKREPETAG
1070
     1
1071
      437
1005
12A9DB
  0
LINE
  5
12A9DC
  8
SLIM
 10
3953.946617589897
 20
-138.29030895727169
 30
0.0
 11
3972.7507744763329
 21
-119.4861520708364
 31
0.0
1001
GRADIENTCOLOR1ACI
1070
     5
1001
GRADIENTCOLOR2ACI
1070
     2
1001
ACAD
1010
0.0
1020
0.0
1030
0.0
1001
ACDBBLOCKREPETAG
1070
     1
1071
      438
1005
12A9DC
  0
LINE
  5
12A9DD
  8
SLIM
 10
3916.359667993378
 20
-184.8575146748604
 30
0.0
 11
3927.6959583557841
 21
-173.5212243124561
 31
0.0
1001
GRADIENTCOLOR1ACI
1070
     5
1001
GRADIENTCOLOR2ACI
1070
     2
1001
ACAD
1010
0.0
1020
0.0
1030
0.0
1001
ACDBBLOCKREPETAG
1070
     1
1071
      439
1005
12A9DD
  0
LINE
  5
12A9DE
  8
SLIM
 10
3973.521224312457
 20
-127.6959583557812
 30
0.0
 11
3984.8575146748631
 21
-116.359667993377
 31
0.0
1001
GRADIENTCOLOR1ACI
1070
     5
1001
GRADIENTCOLOR2ACI
1070
     2
1001
ACAD
1010
0.0
1020
0.0
1030
0.0
1001
ACDBBLOCKREPETAG
1070
     1
1071
      440
1005
12A9DE
  0
LINE
  5
12A9DF
  8
SLIM
 10
3915.1440575890529
 20
-195.0533812002549
 30
0.0
 11
3924.303021643183
 21
-185.89441714612491
 31
0.0
1001
GRADIENTCOLOR1ACI
1070
     5
1001
GRADIENTCOLOR2ACI
1070
     2
1001
ACAD
1010
0.0
1020
0.0
1030
0.0
1001
ACDBBLOCKREPETAG
1070
     1
1071
      441
1005
12A9DF
  0
LINE
  5
12A9E0
  8
SLIM
 10
3985.8944171461271
 20
-124.30302164318159
 30
0.0
 11
3995.0533812002559
 21
-115.1440575890517
 31
0.0
1001
GRADIENTCOLOR1ACI
1070
     5
1001
GRADIENTCOLOR2ACI
1070
     2
1001
ACAD
1010
0.0
1020
0.0
1030
0.0
1001
ACDBBLOCKREPETAG
1070
     1
1071
      442
1005
12A9E0
  0
LINE
  5
12A9E1
  8
SLIM
 10
3915.097963557474
 20
-204.07973135290339
 30
0.0
 11
3919.1776949103769
 21
-199.99999999999909
 31
0.0
1001
GRADIENTCOLOR1ACI
1070
     5
1001
GRADIENTCOLOR2ACI
1070
     2
1001
ACAD
1010
0.0
1020
0.0
1030
0.0
1001
ACDBBLOCKREPETAG
1070
     1
1071
      443
1005
12A9E1
  0
LINE
  5
12A9E2
  8
SLIM
 10
4000.0
 20
-119.1776949103767
 30
0.0
 11
4004.0797313529042
 21
-115.0979635574724
 31
0.0
1001
GRADIENTCOLOR1ACI
1070
     5
1001
GRADIENTCOLOR2ACI
1070
     2
1001
ACAD
1010
0.0
1020
0.0
1030
0.0
1001
ACDBBLOCKREPETAG
1070
     1
1071
      444
1005
12A9E2
  0
LINE
  5
12A9E3
  8
SLIM
 10
3919.1776949103769
 20
-199.99999999999909
 30
0.0
 11
3923.0999621611709
 21
-196.07773274920581
 31
0.0
1001
GRADIENTCOLOR1ACI
1070
     5
1001
GRADIENTCOLOR2ACI
1070
     2
1001
ACAD
1010
0.0
1020
0.0
1030
0.0
1001
ACDBBLOCKREPETAG
1070
     1
1071
      445
1005
12A9E3
  0
LINE
  5
12A9E4
  8
SLIM
 10
3996.0777327492078
 20
-123.0999621611699
 30
0.0
 11
4000.0
 21
-119.1776949103767
 31
0.0
1001
GRADIENTCOLOR1ACI
1070
     5
1001
GRADIENTCOLOR2ACI
1070
     2
1001
ACAD
1010
0.0
1020
0.0
1030
0.0
1001
ACDBBLOCKREPETAG
1070
     1
1071
      446
1005
12A9E4
  0
LINE
  5
12A9E5
  8
SLIM
 10
3915.8899726208729
 20
-212.26797841057399
 30
0.0
 11
3923.162230777169
 21
-204.9957202542767
 31
0.0
1001
GRADIENTCOLOR1ACI
1070
     5
1001
GRADIENTCOLOR2ACI
1070
     2
1001
ACAD
1010
0.0
1020
0.0
1030
0.0
1001
ACDBBLOCKREPETAG
1070
     1
1071
      447
1005
12A9E5
  0
LINE
  5
12A9E6
  8
SLIM
 10
4004.9957202542769
 20
-123.1622307771683
 30
0.0
 11
4012.2679784105749
 21
-115.88997262087101
 31
0.0
1001
GRADIENTCOLOR1ACI
1070
     5
1001
GRADIENTCOLOR2ACI
1070
     2
1001
ACAD
1010
0.0
1020
0.0
1030
0.0
1001
ACDBBLOCKREPETAG
1070
     1
1071
      448
1005
12A9E6
  0
LINE
  5
12A9E7
  8
SLIM
 10
3917.338265695154
 20
-219.79994145736151
 30
0.0
 11
3924.1101477855509
 21
-213.02805936696359
 31
0.0
1001
GRADIENTCOLOR1ACI
1070
     5
1001
GRADIENTCOLOR2ACI
1070
     2
1001
ACAD
1010
0.0
1020
0.0
1030
0.0
1001
ACDBBLOCKREPETAG
1070
     1
1071
      449
1005
12A9E7
  0
LINE
  5
12A9E8
  8
SLIM
 10
4013.028059366964
 20
-124.1101477855505
 30
0.0
 11
4019.799941457361
 21
-117.3382656951526
 31
0.0
1001
GRADIENTCOLOR1ACI
1070
     5
1001
GRADIENTCOLOR2ACI
1070
     2
1001
ACAD
1010
0.0
1020
0.0
1030
0.0
1001
ACDBBLOCKREPETAG
1070
     1
1071
      450
1005
12A9E8
  0
LINE
  5
12A9E9
  8
SLIM
 10
3919.331259406305
 20
-226.78720386727881
 30
0.0
 11
3925.7443819593391
 21
-220.3740813142449
 31
0.0
1001
GRADIENTCOLOR1ACI
1070
     5
1001
GRADIENTCOLOR2ACI
1070
     2
1001
ACAD
1010
0.0
1020
0.0
1030
0.0
1001
ACDBBLOCKREPETAG
1070
     1
1071
      451
1005
12A9E9
  0
LINE
  5
12A9EA
  8
SLIM
 10
4020.3740813142458
 20
-125.7443819593384
 30
0.0
 11
4026.7872038672799
 21
-119.3312594063044
 31
0.0
1001
GRADIENTCOLOR1ACI
1070
     5
1001
GRADIENTCOLOR2ACI
1070
     2
1001
ACAD
1010
0.0
1020
0.0
1030
0.0
1001
ACDBBLOCKREPETAG
1070
     1
1071
      452
1005
12A9EA
  0
LINE
  5
12A9EB
  8
SLIM
 10
3921.795716318622
 20
-233.30300307603289
 30
0.0
 11
3927.9462473957792
 21
-227.1524719988744
 31
0.0
1001
GRADIENTCOLOR1ACI
1070
     5
1001
GRADIENTCOLOR2ACI
1070
     2
1001
ACAD
1010
0.0
1020
0.0
1030
0.0
1001
ACDBBLOCKREPETAG
1070
     1
1071
      453
1005
12A9EB
  0
LINE
  5
12A9EC
  8
SLIM
 10
4027.1524719988752
 20
-127.946247395778
 30
0.0
 11
4033.3030030760328
 21
-121.7957163186195
 31
0.0
1001
GRADIENTCOLOR1ACI
1070
     5
1001
GRADIENTCOLOR2ACI
1070
     2
1001
ACAD
1010
0.0
1020
0.0
1030
0.0
1001
ACDBBLOCKREPETAG
1070
     1
1071
      454
1005
12A9EC
  0
LINE
  5
12A9ED
  8
SLIM
 10
3924.6816635313448
 20
-239.39731198437769
 30
0.0
 11
3930.6398768643921
 21
-233.4390986513296
 31
0.0
1001
GRADIENTCOLOR1ACI
1070
     5
1001
GRADIENTCOLOR2ACI
1070
     2
1001
ACAD
1010
0.0
1020
0.0
1030
0.0
1001
ACDBBLOCKREPETAG
1070
     1
1071
      455
1005
12A9ED
  0
LINE
  5
12A9EE
  8
SLIM
 10
4033.4390986513308
 20
-130.63987686439199
 30
0.0
 11
4039.3973119843781
 21
-124.6816635313439
 31
0.0
1001
GRADIENTCOLOR1ACI
1070
     5
1001
GRADIENTCOLOR2ACI
1070
     2
1001
ACAD
1010
0.0
1020
0.0
1030
0.0
1001
ACDBBLOCKREPETAG
1070
     1
1071
      456
1005
12A9EE
  0
LINE
  5
12A9EF
  8
SLIM
 10
3927.9544611024248
 20
-245.10477053436691
 30
0.0
 11
3933.775007014995
 21
-239.28422462179759
 31
0.0
1001
GRADIENTCOLOR1ACI
1070
     5
1001
GRADIENTCOLOR2ACI
1070
     2
1001
ACAD
1010
0.0
1020
0.0
1030
0.0
1001
ACDBBLOCKREPETAG
1070
     1
1071
      457
1005
12A9EF
  0
LINE
  5
12A9F0
  8
SLIM
 10
4039.284224621797
 20
-133.77500701499321
 30
0.0
 11
4045.1047705343681
 21
-127.95446110242381
 31
0.0
1001
GRADIENTCOLOR1ACI
1070
     5
1001
GRADIENTCOLOR2ACI
1070
     2
1001
ACAD
1010
0.0
1020
0.0
1030
0.0
1001
ACDBBLOCKREPETAG
1070
     1
1071
      458
1005
12A9F0
  0
LINE
  5
12A9F1
  8
SLIM
 10
3931.5903319686659
 20
-250.4491557891954
 30
0.0
 11
3937.3182075880568
 21
-244.72128016980341
 31
0.0
1001
GRADIENTCOLOR1ACI
1070
     5
1001
GRADIENTCOLOR2ACI
1070
     2
1001
ACAD
1010
0.0
1020
0.0
1030
0.0
1001
ACDBBLOCKREPETAG
1070
     1
1071
      459
1005
12A9F1
  0
LINE
  5
12A9F2
  8
SLIM
 10
4044.7212801698038
 20
-137.31820758805651
 30
0.0
 11
4050.4491557891961
 21
-131.59033196866449
 31
0.0
1001
GRADIENTCOLOR1ACI
1070
     5
1001
GRADIENTCOLOR2ACI
1070
     2
1001
ACAD
1010
0.0
1020
0.0
1030
0.0
1001
ACDBBLOCKREPETAG
1070
     1
1071
      460
1005
12A9F2
  0
LINE
  5
12A9F3
  8
SLIM
 10
3935.5737496925258
 20
-255.4459941864034
 30
0.0
 11
3941.24811054159
 21
-249.77163333734029
 31
0.0
1001
GRADIENTCOLOR1ACI
1070
     5
1001
GRADIENTCOLOR2ACI
1070
     2
1001
ACAD
1010
0.0
1020
0.0
1030
0.0
1001
ACDBBLOCKREPETAG
1070
     1
1071
      461
1005
12A9F3
  0
LINE
  5
12A9F4
  8
SLIM
 10
4053.0197438789291
 20
-137.99999999999909
 30
0.0
 11
4055.4459941864038
 21
-135.57374969252561
 31
0.0
1001
GRADIENTCOLOR1ACI
1070
     5
1001
GRADIENTCOLOR2ACI
1070
     2
1001
ACAD
1010
0.0
1020
0.0
1030
0.0
1001
ACDBBLOCKREPETAG
1070
     1
1071
      462
1005
12A9F4
  0
LINE
  5
12A9F5
  8
SLIM
 10
3939.8959235991442
 20
-260.10407640085572
 30
0.0
 11
3945.5527778486362
 21
-254.44722215136329
 31
0.0
1001
GRADIENTCOLOR1ACI
1070
     5
1001
GRADIENTCOLOR2ACI
1070
     2
1001
ACAD
1010
0.0
1020
0.0
1030
0.0
1001
ACDBBLOCKREPETAG
1070
     1
1071
      463
1005
12A9F5
  0
LINE
  5
12A9F6
  8
SLIM
 10
3944.5540058135962
 20
-264.4262503074724
 30
0.0
 11
3950.2283666626599
 21
-258.75188945840949
 31
0.0
1001
GRADIENTCOLOR1ACI
1070
     5
1001
GRADIENTCOLOR2ACI
1070
     2
1001
ACAD
1010
0.0
1020
0.0
1030
0.0
1001
ACDBBLOCKREPETAG
1070
     1
1071
      464
1005
12A9F6
  0
LINE
  5
12A9F7
  8
SLIM
 10
3949.5508442108039
 20
-268.40966803133369
 30
0.0
 11
3955.2787198301962
 21
-262.68179241194167
 31
0.0
1001
GRADIENTCOLOR1ACI
1070
     5
1001
GRADIENTCOLOR2ACI
1070
     2
1001
ACAD
1010
0.0
1020
0.0
1030
0.0
1001
ACDBBLOCKREPETAG
1070
     1
1071
      465
1005
12A9F7
  0
LINE
  5
12A9F8
  8
SLIM
 10
3954.8952294656328
 20
-272.04553889757437
 30
0.0
 11
3960.7157753782012
 21
-266.22499298500497
 31
0.0
1001
GRADIENTCOLOR1ACI
1070
     5
1001
GRADIENTCOLOR2ACI
1070
     2
1001
ACAD
1010
0.0
1020
0.0
1030
0.0
1001
ACDBBLOCKREPETAG
1070
     1
1071
      466
1005
12A9F8
  0
LINE
  5
12A9F9
  8
SLIM
 10
3960.602688015621
 20
-275.31833646865431
 30
0.0
 11
3966.560901348671
 21
-269.36012313560622
 31
0.0
1001
GRADIENTCOLOR1ACI
1070
     5
1001
GRADIENTCOLOR2ACI
1070
     2
1001
ACAD
1010
0.0
1020
0.0
1030
0.0
1001
ACDBBLOCKREPETAG
1070
     1
1071
      467
1005
12A9F9
  0
LINE
  5
12A9FA
  8
SLIM
 10
3966.6969969239681
 20
-278.20428368137868
 30
0.0
 11
3972.8475280011248
 21
-272.05375260422022
 31
0.0
1001
GRADIENTCOLOR1ACI
1070
     5
1001
GRADIENTCOLOR2ACI
1070
     2
1001
ACAD
1010
0.0
1020
0.0
1030
0.0
1001
ACDBBLOCKREPETAG
1070
     1
1071
      468
1005
12A9FA
  0
LINE
  5
12A9FB
  8
SLIM
 10
3973.2127961327192
 20
-280.66874059369371
 30
0.0
 11
3979.6259186857542
 21
-274.25561804065973
 31
0.0
1001
GRADIENTCOLOR1ACI
1070
     5
1001
GRADIENTCOLOR2ACI
1070
     2
1001
ACAD
1010
0.0
1020
0.0
1030
0.0
1001
ACDBBLOCKREPETAG
1070
     1
1071
      469
1005
12A9FB
  0
LINE
  5
12A9FC
  8
SLIM
 10
3980.200058542639
 20
-282.6617343048456
 30
0.0
 11
3986.971940633035
 21
-275.88985221444773
 31
0.0
1001
GRADIENTCOLOR1ACI
1070
     5
1001
GRADIENTCOLOR2ACI
1070
     2
1001
ACAD
1010
0.0
1020
0.0
1030
0.0
1001
ACDBBLOCKREPETAG
1070
     1
1071
      470
1005
12A9FC
  0
LINE
  5
12A9FD
  8
SLIM
 10
3987.7320215894251
 20
-284.11002737912702
 30
0.0
 11
3995.0042797457209
 21
-276.83776922282988
 31
0.0
1001
GRADIENTCOLOR1ACI
1070
     5
1001
GRADIENTCOLOR2ACI
1070
     2
1001
ACAD
1010
0.0
1020
0.0
1030
0.0
1001
ACDBBLOCKREPETAG
1070
     1
1071
      471
1005
12A9FD
  0
LINE
  5
12A9FE
  8
SLIM
 10
3995.9202686470958
 20
-284.9020364425258
 30
0.0
 11
4000.0
 21
-280.82230508962152
 31
0.0
1001
GRADIENTCOLOR1ACI
1070
     5
1001
GRADIENTCOLOR2ACI
1070
     2
1001
ACAD
1010
0.0
1020
0.0
1030
0.0
1001
ACDBBLOCKREPETAG
1070
     1
1071
      472
1005
12A9FE
  0
LINE
  5
12A9FF
  8
SLIM
 10
4000.0
 20
-280.82230508962152
 30
0.0
 11
4003.9222672507922
 21
-276.90003783882821
 31
0.0
1001
GRADIENTCOLOR1ACI
1070
     5
1001
GRADIENTCOLOR2ACI
1070
     2
1001
ACAD
1010
0.0
1020
0.0
1030
0.0
1001
ACDBBLOCKREPETAG
1070
     1
1071
      473
1005
12A9FF
  0
LINE
  5
12AA00
  8
SLIM
 10
4004.9466187997441
 20
-284.85594241094651
 30
0.0
 11
4014.1055828538729
 21
-275.6969783568166
 31
0.0
1001
GRADIENTCOLOR1ACI
1070
     5
1001
GRADIENTCOLOR2ACI
1070
     2
1001
ACAD
1010
0.0
1020
0.0
1030
0.0
1001
ACDBBLOCKREPETAG
1070
     1
1071
      474
1005
12AA00
  0
LINE
  5
12AA01
  8
SLIM
 10
4015.1424853251392
 20
-283.64033200662118
 30
0.0
 11
4026.4787756875421
 21
-272.30404164421702
 31
0.0
1001
GRADIENTCOLOR1ACI
1070
     5
1001
GRADIENTCOLOR2ACI
1070
     2
1001
ACAD
1010
0.0
1020
0.0
1030
0.0
1001
ACDBBLOCKREPETAG
1070
     1
1071
      475
1005
12AA01
  0
LINE
  5
12AA02
  8
SLIM
 10
4027.2492255236671
 20
-280.51384792916173
 30
0.0
 11
4045.7630734528302
 21
-261.99999999999909
 31
0.0
1001
GRADIENTCOLOR1ACI
1070
     5
1001
GRADIENTCOLOR2ACI
1070
     2
1001
ACAD
1010
0.0
1020
0.0
1030
0.0
1001
ACDBBLOCKREPETAG
1070
     1
1071
      476
1005
12AA02
  0
LINE
  5
12AA03
  8
SLIM
 10
4044.0451596304219
 20
-272.69816994347582
 30
0.0
 11
4054.7433295738979
 21
-261.99999999999909
 31
0.0
1001
GRADIENTCOLOR1ACI
1070
     5
1001
GRADIENTCOLOR2ACI
1070
     2
1001
ACAD
1010
0.0
1020
0.0
1030
0.0
1001
ACDBBLOCKREPETAG
1070
     1
1071
      477
1005
12AA03
  0
LINE
  5
12AA04
  8
CENTER
 10
4080.0
 20
-199.99999999999909
 30
0.0
 11
3900.0
 21
-199.99999999999909
 31
0.0
1001
ACDBBLOCKREPETAG
1070
     1
1071
      187
1005
12AA04
  0
LINE
  5
12AA05
  8
CENTER
 10
4000.0
 20
-299.99999999999898
 30
0.0
 11
4000.0
 21
-99.999999999999091
 31
0.0
1001
ACDBBLOCKREPETAG
1070
     1
1071
      188
1005
12AA05
  0
CIRCLE
  5
12AA06
  8
OBJECT
 10
4000.0
 20
-199.99999999999909
 30
0.0
 40
70.0
1001
ACDBBLOCKREPETAG
1070
     1
1071
      189
1005
12AA06
  0
CIRCLE
  5
12AA07
  8
OBJECT
 10
4000.0
 20
-199.99999999999909
 30
0.0
 40
77.0
1001
ACDBBLOCKREPETAG
1070
     1
1071
      190
1005
12AA07
  0
LINE
  5
12AA08
  8
OBJECT
 10
4045.661800227324
 20
-137.99999999999909
 30
0.0
 11
4080.0
 21
-137.99999999999909
 31
0.0
1001
ACDBBLOCKREPETAG
1070
     1
1071
      192
1005
12AA08
  0
LINE
  5
12AA09
  8
OBJECT
 10
4045.661800227324
 20
-261.99999999999909
 30
0.0
 11
4080.0
 21
-261.99999999999909
 31
0.0
1001
ACDBBLOCKREPETAG
1070
     1
1071
      193
1005
12AA09
  0
POINT
  5
12AA0A
  8
DOTS
 10
4000.0
 20
-199.99999999999909
 30
0.0
1001
ACDBBLOCKREPETAG
1070
     1
1071
      194
1005
12AA0A
  0
ARC
  5
12AA0B
  8
OBJECT
 10
4000.0
 20
-199.99999999999909
 30
0.0
 40
85.0
 50
46.837102859834147
 51
313.16289714016602
1001
ACDBBLOCKREPETAG
1070
     1
1071
      202
1005
12AA0B
  0
CIRCLE
  5
12AA0C
  8
OBJECT
 10
4000.0
 20
-199.99999999999909
 30
0.0
 40
53.5
1001
ACDBBLOCKREPETAG
1070
     1
1071
      356
1005
12AA0C
  0
CIRCLE
  5
12AA0D
  8
OBJECT
 10
2000.0
 20
-199.99999999999909
 30
0.0
 40
53.5
1001
ACDBBLOCKREPETAG
1070
     1
1071
      344
1005
12AA0D
  0
LINE
  5
12AA0E
  8
CENTER
 10
2080.0
 20
-199.99999999999909
 30
0.0
 11
1905.0
 21
-199.99999999999909
 31
0.0
1001
ACDBBLOCKREPETAG
1070
     1
1071
       14
1005
12AA0E
  0
LINE
  5
12AA0F
  8
CENTER
 10
2000.0
 20
-294.99999999999898
 30
0.0
 11
2000.0
 21
-104.9999999999991
 31
0.0
1001
ACDBBLOCKREPETAG
1070
     1
1071
       15
1005
12AA0F
  0
CIRCLE
  5
12AA10
  8
OBJECT
 10
2000.0
 20
-199.99999999999909
 30
0.0
 40
70.0
1001
ACDBBLOCKREPETAG
1070
     1
1071
       16
1005
12AA10
  0
CIRCLE
  5
12AA11
  8
OBJECT
 10
2000.0
 20
-199.99999999999909
 30
0.0
 40
77.0
1001
ACDBBLOCKREPETAG
1070
     1
1071
       17
1005
12AA11
  0
ARC
  5
12AA12
  8
OBJECT
 10
2000.0
 20
-199.99999999999909
 30
0.0
 40
80.0
 50
50.805032573864182
 51
309.1949674261358
1001
ACDBBLOCKREPETAG
1070
     1
1071
       18
1005
12AA12
  0
LINE
  5
12AA13
  8
OBJECT
 10
2045.6618002273251
 20
-137.99999999999909
 30
0.0
 11
2080.0
 21
-137.99999999999909
 31
0.0
1001
ACDBBLOCKREPETAG
1070
     1
1071
       19
1005
12AA13
  0
LINE
  5
12AA14
  8
OBJECT
 10
2045.6618002273251
 20
-261.99999999999909
 30
0.0
 11
2080.0
 21
-261.99999999999909
 31
0.0
1001
ACDBBLOCKREPETAG
1070
     1
1071
       20
1005
12AA14
  0
POINT
  5
12AA15
  8
DOTS
 10
2000.0
 20
-199.99999999999909
 30
0.0
1001
ACDBBLOCKREPETAG
1070
     1
1071
       21
1005
12AA15
  0
CIRCLE
  5
12AA16
  8
OBJECT
 10
539.99999999987813
 20
-695.99999999984175
 30
0.0
 40
70.0
1001
ACDBBLOCKREPETAG
1070
     1
1071
       50
1005
12AA16
  0
CIRCLE
  5
12AA17
  8
OBJECT
 10
539.99999999987813
 20
-695.99999999984175
 30
0.0
 40
77.0
1001
ACDBBLOCKREPETAG
1070
     1
1071
       51
1005
12AA17
  0
ARC
  5
12AA18
  8
OBJECT
 10
539.99999999987813
 20
-695.99999999984175
 30
0.0
 40
80.0
 50
140.8050325737787
 51
39.194967426221282
1001
ACDBBLOCKREPETAG
1070
     1
1071
       52
1005
12AA18
  0
LINE
  5
12AA19
  8
OBJECT
 10
477.99999999987801
 20
-650.3381997725171
 30
0.0
 11
477.99999999987801
 21
-615.99999999984175
 31
0.0
1001
ACDBBLOCKREPETAG
1070
     1
1071
       53
1005
12AA19
  0
LINE
  5
12AA1A
  8
OBJECT
 10
601.99999999987801
 20
-650.3381997725171
 30
0.0
 11
601.99999999987801
 21
-615.99999999984175
 31
0.0
1001
ACDBBLOCKREPETAG
1070
     1
1071
       54
1005
12AA1A
  0
POINT
  5
12AA1B
  8
DOTS
 10
539.99999999987813
 20
-695.99999999984175
 30
0.0
1001
ACDBBLOCKREPETAG
1070
     1
1071
       63
1005
12AA1B
  0
CIRCLE
  5
12AA1C
  8
OBJECT
 10
539.99999999987813
 20
-695.99999999984175
 30
0.0
 40
53.5
1001
ACDBBLOCKREPETAG
1070
     1
1071
      157
1005
12AA1C
  0
CIRCLE
  5
12AA1D
  8
OBJECT
 10
180.0
 20
-695.99999999984175
 30
0.0
 40
70.0
1001
ACDBBLOCKREPETAG
1070
     1
1071
       50
1005
12AA1D
  0
CIRCLE
  5
12AA1E
  8
OBJECT
 10
180.0
 20
-695.99999999984175
 30
0.0
 40
77.0
1001
ACDBBLOCKREPETAG
1070
     1
1071
       51
1005
12AA1E
  0
ARC
  5
12AA1F
  8
OBJECT
 10
180.0
 20
-695.99999999984175
 30
0.0
 40
80.0
 50
140.80503257377961
 51
39.194967426220252
1001
ACDBBLOCKREPETAG
1070
     1
1071
       52
1005
12AA1F
  0
LINE
  5
12AA20
  8
OBJECT
 10
118.0
 20
-650.3381997725171
 30
0.0
 11
118.0
 21
-615.99999999984175
 31
0.0
1001
ACDBBLOCKREPETAG
1070
     1
1071
       53
1005
12AA20
  0
LINE
  5
12AA21
  8
OBJECT
 10
242.0
 20
-650.3381997725171
 30
0.0
 11
242.0
 21
-615.99999999984175
 31
0.0
1001
ACDBBLOCKREPETAG
1070
     1
1071
       54
1005
12AA21
  0
POINT
  5
12AA22
  8
DOTS
 10
180.0
 20
-695.99999999984175
 30
0.0
1001
ACDBBLOCKREPETAG
1070
     1
1071
       63
1005
12AA22
  0
CIRCLE
  5
12AA23
  8
OBJECT
 10
180.0
 20
-695.99999999984175
 30
0.0
 40
53.5
1001
ACDBBLOCKREPETAG
1070
     1
1071
      157
1005
12AA23
  0
CIRCLE
  5
12AA24
  8
OBJECT
 10
539.99999999987813
 20
-232.0
 30
0.0
 40
70.0
1001
ACDBBLOCKREPETAG
1070
     1
1071
       50
1005
12AA24
  0
CIRCLE
  5
12AA25
  8
OBJECT
 10
539.99999999987813
 20
-232.0
 30
0.0
 40
77.0
1001
ACDBBLOCKREPETAG
1070
     1
1071
       51
1005
12AA25
  0
ARC
  5
12AA26
  8
OBJECT
 10
539.99999999987813
 20
-232.0
 30
0.0
 40
80.0
 50
140.8050325737787
 51
39.194967426221282
1001
ACDBBLOCKREPETAG
1070
     1
1071
       52
1005
12AA26
  0
LINE
  5
12AA27
  8
OBJECT
 10
477.99999999987801
 20
-186.33819977267561
 30
0.0
 11
477.99999999987801
 21
-152.0
 31
0.0
1001
ACDBBLOCKREPETAG
1070
     1
1071
       53
1005
12AA27
  0
LINE
  5
12AA28
  8
OBJECT
 10
601.99999999987801
 20
-186.33819977267561
 30
0.0
 11
601.99999999987801
 21
-152.0
 31
0.0
1001
ACDBBLOCKREPETAG
1070
     1
1071
       54
1005
12AA28
  0
POINT
  5
12AA29
  8
DOTS
 10
539.99999999987813
 20
-232.0
 30
0.0
1001
ACDBBLOCKREPETAG
1070
     1
1071
       63
1005
12AA29
  0
CIRCLE
  5
12AA2A
  8
OBJECT
 10
539.99999999987813
 20
-232.0
 30
0.0
 40
53.5
1001
ACDBBLOCKREPETAG
1070
     1
1071
      157
1005
12AA2A
  0
CIRCLE
  5
12AA2B
  8
OBJECT
 10
180.0
 20
-232.0
 30
0.0
 40
70.0
1001
ACDBBLOCKREPETAG
1070
     1
1071
       50
1005
12AA2B
  0
CIRCLE
  5
12AA2C
  8
OBJECT
 10
180.0
 20
-232.0
 30
0.0
 40
77.0
1001
ACDBBLOCKREPETAG
1070
     1
1071
       51
1005
12AA2C
  0
ARC
  5
12AA2D
  8
OBJECT
 10
180.0
 20
-232.0
 30
0.0
 40
80.0
 50
140.80503257377961
 51
39.194967426220252
1001
ACDBBLOCKREPETAG
1070
     1
1071
       52
1005
12AA2D
  0
LINE
  5
12AA2E
  8
OBJECT
 10
118.0
 20
-186.33819977267561
 30
0.0
 11
118.0
 21
-152.0
 31
0.0
1001
ACDBBLOCKREPETAG
1070
     1
1071
       53
1005
12AA2E
  0
LINE
  5
12AA2F
  8
OBJECT
 10
242.0
 20
-186.33819977267561
 30
0.0
 11
242.0
 21
-152.0
 31
0.0
1001
ACDBBLOCKREPETAG
1070
     1
1071
       54
1005
12AA2F
  0
POINT
  5
12AA30
  8
DOTS
 10
180.0
 20
-232.0
 30
0.0
1001
ACDBBLOCKREPETAG
1070
     1
1071
       63
1005
12AA30
  0
CIRCLE
  5
12AA31
  8
OBJECT
 10
180.0
 20
-232.0
 30
0.0
 40
53.5
1001
ACDBBLOCKREPETAG
1070
     1
1071
      157
1005
12AA31
  0
LINE
  5
12AA32
  8
OBJECT
 10
4923.0
 20
-3295.9999999999968
 30
0.0
 11
4923.0
 21
-3274.9999999999968
 31
0.0
1001
ACDBBLOCKREPETAG
1070
     1
1071
        0
1005
12AA32
  0
LINE
  5
12AA33
  8
OBJECT
 10
4923.0
 20
-3274.9999999999968
 30
0.0
 11
5077.0
 21
-3274.9999999999968
 31
0.0
1001
ACDBBLOCKREPETAG
1070
     1
1071
        1
1005
12AA33
  0
LINE
  5
12AA34
  8
HIDDEN
 10
4943.0
 20
-3344.9999999999968
 30
0.0
 11
5057.0
 21
-3344.9999999999968
 31
0.0
1001
ACDBBLOCKREPETAG
1070
     1
1071
        2
1005
12AA34
  0
LINE
  5
12AA35
  8
OBJECT
 10
5077.0
 20
-3274.9999999999968
 30
0.0
 11
5077.0
 21
-3295.9999999999968
 31
0.0
1001
ACDBBLOCKREPETAG
1070
     1
1071
        3
1005
12AA35
  0
LINE
  5
12AA36
  8
OBJECT
 10
5077.0
 20
-3295.9999999999968
 30
0.0
 11
4923.0
 21
-3295.9999999999968
 31
0.0
1001
ACDBBLOCKREPETAG
1070
     1
1071
        4
1005
12AA36
  0
LINE
  5
12AA37
  8
CENTER
 10
5000.0
 20
-3259.9999999999968
 30
0.0
 11
5000.0
 21
-3494.9999999999968
 31
0.0
1001
ACDBBLOCKREPETAG
1070
     1
1071
        5
1005
12AA37
  0
LINE
  5
12AA38
  8
OBJECT
 10
4925.0
 20
-3358.9999999999968
 30
0.0
 11
4925.0
 21
-3482.9999999999968
 31
0.0
1001
ACDBBLOCKREPETAG
1070
     1
1071
        6
1005
12AA38
  0
LINE
  5
12AA39
  8
OBJECT
 10
4928.0
 20
-3295.9999999999968
 30
0.0
 11
4928.0
 21
-3358.9999999999968
 31
0.0
1001
ACDBBLOCKREPETAG
1070
     1
1071
        7
1005
12AA39
  0
LINE
  5
12AA3A
  8
OBJECT
 10
5072.0
 20
-3358.9999999999968
 30
0.0
 11
5072.0
 21
-3295.9999999999968
 31
0.0
1001
ACDBBLOCKREPETAG
1070
     1
1071
        8
1005
12AA3A
  0
LINE
  5
12AA3B
  8
OBJECT
 10
5074.9999999997999
 20
-3482.9999999997758
 30
0.0
 11
5080.0
 21
-3482.9999999999968
 31
0.0
1001
ACDBBLOCKREPETAG
1070
     1
1071
        9
1005
12AA3B
  0
LINE
  5
12AA3C
  8
OBJECT
 10
5080.0
 20
-3358.9999999999968
 30
0.0
 11
4925.0
 21
-3358.9999999999968
 31
0.0
1001
ACDBBLOCKREPETAG
1070
     1
1071
       10
1005
12AA3C
  0
ARC
  5
12AA3D
  8
OBJECT
 10
5200.6872746716726
 20
-3474.408099410105
 30
0.0
 40
170.6350503965856
 50
137.44134459184301
 51
149.9194958133665
1001
ACDBBLOCKREPETAG
1070
     1
1071
       15
1005
12AA3D
  0
ARC
  5
12AA3E
  8
OBJECT
 10
5118.8455987040506
 20
-3430.8827266953631
 30
0.0
 40
78.072222021763665
 50
147.4551531037684
 51
164.66365997719291
1001
ACDBBLOCKREPETAG
1070
     1
1071
       16
1005
12AA3E
  0
ARC
  5
12AA3F
  8
OBJECT
 10
5085.7554349608727
 20
-3420.9999999999991
 30
0.0
 40
43.55353926885617
 50
165.6884523008477
 51
194.3115476991523
1001
ACDBBLOCKREPETAG
1070
     1
1071
       17
1005
12AA3F
  0
ARC
  5
12AA40
  8
OBJECT
 10
5200.6872746716726
 20
-3367.5919005898891
 30
0.0
 40
170.6350503965856
 50
210.0805041866335
 51
222.55865540815699
1001
ACDBBLOCKREPETAG
1070
     1
1071
       18
1005
12AA40
  0
ARC
  5
12AA41
  8
OBJECT
 10
5118.8455987040506
 20
-3411.1172733046319
 30
0.0
 40
78.072222021763665
 50
195.33634002280701
 51
212.5448468962316
1001
ACDBBLOCKREPETAG
1070
     1
1071
       19
1005
12AA41
  0
POINT
  5
12AA42
  8
DOTS
 10
5000.0
 20
-3479.9999999999968
 30
0.0
1001
ACDBBLOCKREPETAG
1070
     1
1071
      186
1005
12AA42
  0
LINE
  5
12AA43
  8
OBJECT
 10
4323.0
 20
-3295.9999999999968
 30
0.0
 11
4323.0
 21
-3274.9999999999968
 31
0.0
1001
ACDBBLOCKREPETAG
1070
     1
1071
       20
1005
12AA43
  0
LINE
  5
12AA44
  8
OBJECT
 10
4323.0
 20
-3274.9999999999968
 30
0.0
 11
4477.0
 21
-3274.9999999999968
 31
0.0
1001
ACDBBLOCKREPETAG
1070
     1
1071
       21
1005
12AA44
  0
LINE
  5
12AA45
  8
HIDDEN
 10
4343.0
 20
-3344.9999999999968
 30
0.0
 11
4457.0
 21
-3344.9999999999968
 31
0.0
1001
ACDBBLOCKREPETAG
1070
     1
1071
       22
1005
12AA45
  0
LINE
  5
12AA46
  8
OBJECT
 10
4477.0
 20
-3274.9999999999968
 30
0.0
 11
4477.0
 21
-3295.9999999999968
 31
0.0
1001
ACDBBLOCKREPETAG
1070
     1
1071
       23
1005
12AA46
  0
LINE
  5
12AA47
  8
OBJECT
 10
4477.0
 20
-3295.9999999999968
 30
0.0
 11
4323.0
 21
-3295.9999999999968
 31
0.0
1001
ACDBBLOCKREPETAG
1070
     1
1071
       24
1005
12AA47
  0
LINE
  5
12AA48
  8
CENTER
 10
4400.0
 20
-3259.9999999999968
 30
0.0
 11
4400.0
 21
-3494.9999999999968
 31
0.0
1001
ACDBBLOCKREPETAG
1070
     1
1071
       25
1005
12AA48
  0
LINE
  5
12AA49
  8
OBJECT
 10
4325.0
 20
-3358.9999999999968
 30
0.0
 11
4325.0
 21
-3482.9999999999968
 31
0.0
1001
ACDBBLOCKREPETAG
1070
     1
1071
       26
1005
12AA49
  0
LINE
  5
12AA4A
  8
OBJECT
 10
4328.0
 20
-3295.9999999999968
 30
0.0
 11
4328.0
 21
-3358.9999999999968
 31
0.0
1001
ACDBBLOCKREPETAG
1070
     1
1071
       27
1005
12AA4A
  0
LINE
  5
12AA4B
  8
OBJECT
 10
4472.0
 20
-3358.9999999999968
 30
0.0
 11
4472.0
 21
-3295.9999999999968
 31
0.0
1001
ACDBBLOCKREPETAG
1070
     1
1071
       28
1005
12AA4B
  0
LINE
  5
12AA4C
  8
OBJECT
 10
4475.0
 20
-3358.9999999999968
 30
0.0
 11
4325.0
 21
-3358.9999999999968
 31
0.0
1001
ACDBBLOCKREPETAG
1070
     1
1071
       30
1005
12AA4C
  0
LINE
  5
12AA4D
  8
OBJECT
 10
4475.0
 20
-3358.9999999999968
 30
0.0
 11
4475.0
 21
-3482.9999999999968
 31
0.0
1001
ACDBBLOCKREPETAG
1070
     1
1071
       34
1005
12AA4D
  0
POINT
  5
12AA4E
  8
DOTS
 10
4400.0
 20
-3479.9999999999968
 30
0.0
1001
ACDBBLOCKREPETAG
1070
     1
1071
      187
1005
12AA4E
  0
LINE
  5
12AA4F
  8
OBJECT
 10
3923.0
 20
-3295.9999999999968
 30
0.0
 11
3923.0
 21
-3274.9999999999968
 31
0.0
1001
ACDBBLOCKREPETAG
1070
     1
1071
        0
1005
12AA4F
  0
LINE
  5
12AA50
  8
OBJECT
 10
3923.0
 20
-3274.9999999999968
 30
0.0
 11
4077.0
 21
-3274.9999999999968
 31
0.0
1001
ACDBBLOCKREPETAG
1070
     1
1071
        1
1005
12AA50
  0
LINE
  5
12AA51
  8
HIDDEN
 10
3943.0
 20
-3344.9999999999968
 30
0.0
 11
4057.0
 21
-3344.9999999999968
 31
0.0
1001
ACDBBLOCKREPETAG
1070
     1
1071
        2
1005
12AA51
  0
LINE
  5
12AA52
  8
OBJECT
 10
4077.0
 20
-3274.9999999999968
 30
0.0
 11
4077.0
 21
-3295.9999999999968
 31
0.0
1001
ACDBBLOCKREPETAG
1070
     1
1071
        3
1005
12AA52
  0
LINE
  5
12AA53
  8
OBJECT
 10
4077.0
 20
-3295.9999999999968
 30
0.0
 11
3923.0
 21
-3295.9999999999968
 31
0.0
1001
ACDBBLOCKREPETAG
1070
     1
1071
        4
1005
12AA53
  0
LINE
  5
12AA54
  8
CENTER
 10
4000.0
 20
-3259.9999999999968
 30
0.0
 11
4000.0
 21
-3494.9999999999968
 31
0.0
1001
ACDBBLOCKREPETAG
1070
     1
1071
        5
1005
12AA54
  0
LINE
  5
12AA55
  8
OBJECT
 10
3925.0
 20
-3358.9999999999968
 30
0.0
 11
3925.0
 21
-3482.9999999999968
 31
0.0
1001
ACDBBLOCKREPETAG
1070
     1
1071
        6
1005
12AA55
  0
LINE
  5
12AA56
  8
OBJECT
 10
3928.0
 20
-3295.9999999999968
 30
0.0
 11
3928.0
 21
-3358.9999999999968
 31
0.0
1001
ACDBBLOCKREPETAG
1070
     1
1071
        7
1005
12AA56
  0
LINE
  5
12AA57
  8
OBJECT
 10
4072.0
 20
-3358.9999999999968
 30
0.0
 11
4072.0
 21
-3295.9999999999968
 31
0.0
1001
ACDBBLOCKREPETAG
1070
     1
1071
        8
1005
12AA57
  0
LINE
  5
12AA58
  8
OBJECT
 10
4074.999999999799
 20
-3482.9999999997758
 30
0.0
 11
4080.0
 21
-3482.9999999999968
 31
0.0
1001
ACDBBLOCKREPETAG
1070
     1
1071
        9
1005
12AA58
  0
LINE
  5
12AA59
  8
OBJECT
 10
4080.0
 20
-3358.9999999999968
 30
0.0
 11
3925.0
 21
-3358.9999999999968
 31
0.0
1001
ACDBBLOCKREPETAG
1070
     1
1071
       10
1005
12AA59
  0
ARC
  5
12AA5A
  8
OBJECT
 10
4200.6872746716726
 20
-3474.408099410105
 30
0.0
 40
170.6350503965856
 50
137.44134459184301
 51
149.9194958133665
1001
ACDBBLOCKREPETAG
1070
     1
1071
       15
1005
12AA5A
  0
ARC
  5
12AA5B
  8
OBJECT
 10
4118.8455987040506
 20
-3430.8827266953631
 30
0.0
 40
78.072222021763665
 50
147.4551531037684
 51
164.663659977186
1001
ACDBBLOCKREPETAG
1070
     1
1071
       16
1005
12AA5B
  0
ARC
  5
12AA5C
  8
OBJECT
 10
4085.7554349608722
 20
-3420.9999999999991
 30
0.0
 40
43.55353926885617
 50
165.6884523008477
 51
194.3115476991523
1001
ACDBBLOCKREPETAG
1070
     1
1071
       17
1005
12AA5C
  0
ARC
  5
12AA5D
  8
OBJECT
 10
4200.6872746716726
 20
-3367.5919005898891
 30
0.0
 40
170.6350503965856
 50
210.0805041866335
 51
222.55865540815699
1001
ACDBBLOCKREPETAG
1070
     1
1071
       18
1005
12AA5D
  0
ARC
  5
12AA5E
  8
OBJECT
 10
4118.8455987040506
 20
-3411.1172733046319
 30
0.0
 40
78.072222021763665
 50
195.33634002281391
 51
212.5448468962316
1001
ACDBBLOCKREPETAG
1070
     1
1071
       19
1005
12AA5E
  0
POINT
  5
12AA5F
  8
DOTS
 10
4000.0
 20
-3479.9999999999968
 30
0.0
1001
ACDBBLOCKREPETAG
1070
     1
1071
      186
1005
12AA5F
  0
LINE
  5
12AA60
  8
OBJECT
 10
3323.0
 20
-3295.9999999999968
 30
0.0
 11
3323.0
 21
-3274.9999999999968
 31
0.0
1001
ACDBBLOCKREPETAG
1070
     1
1071
       20
1005
12AA60
  0
LINE
  5
12AA61
  8
OBJECT
 10
3323.0
 20
-3274.9999999999968
 30
0.0
 11
3477.0
 21
-3274.9999999999968
 31
0.0
1001
ACDBBLOCKREPETAG
1070
     1
1071
       21
1005
12AA61
  0
LINE
  5
12AA62
  8
HIDDEN
 10
3343.0
 20
-3344.9999999999968
 30
0.0
 11
3457.0
 21
-3344.9999999999968
 31
0.0
1001
ACDBBLOCKREPETAG
1070
     1
1071
       22
1005
12AA62
  0
LINE
  5
12AA63
  8
OBJECT
 10
3477.0
 20
-3274.9999999999968
 30
0.0
 11
3477.0
 21
-3295.9999999999968
 31
0.0
1001
ACDBBLOCKREPETAG
1070
     1
1071
       23
1005
12AA63
  0
LINE
  5
12AA64
  8
OBJECT
 10
3477.0
 20
-3295.9999999999968
 30
0.0
 11
3323.0
 21
-3295.9999999999968
 31
0.0
1001
ACDBBLOCKREPETAG
1070
     1
1071
       24
1005
12AA64
  0
LINE
  5
12AA65
  8
CENTER
 10
3400.0
 20
-3259.9999999999968
 30
0.0
 11
3400.0
 21
-3494.9999999999968
 31
0.0
1001
ACDBBLOCKREPETAG
1070
     1
1071
       25
1005
12AA65
  0
LINE
  5
12AA66
  8
OBJECT
 10
3325.0
 20
-3358.9999999999968
 30
0.0
 11
3325.0
 21
-3482.9999999999968
 31
0.0
1001
ACDBBLOCKREPETAG
1070
     1
1071
       26
1005
12AA66
  0
LINE
  5
12AA67
  8
OBJECT
 10
3328.0
 20
-3295.9999999999968
 30
0.0
 11
3328.0
 21
-3358.9999999999968
 31
0.0
1001
ACDBBLOCKREPETAG
1070
     1
1071
       27
1005
12AA67
  0
LINE
  5
12AA68
  8
OBJECT
 10
3472.0
 20
-3358.9999999999968
 30
0.0
 11
3472.0
 21
-3295.9999999999968
 31
0.0
1001
ACDBBLOCKREPETAG
1070
     1
1071
       28
1005
12AA68
  0
LINE
  5
12AA69
  8
OBJECT
 10
3475.0
 20
-3358.9999999999968
 30
0.0
 11
3325.0
 21
-3358.9999999999968
 31
0.0
1001
ACDBBLOCKREPETAG
1070
     1
1071
       30
1005
12AA69
  0
LINE
  5
12AA6A
  8
OBJECT
 10
3475.0
 20
-3358.9999999999968
 30
0.0
 11
3475.0
 21
-3482.9999999999968
 31
0.0
1001
ACDBBLOCKREPETAG
1070
     1
1071
       34
1005
12AA6A
  0
POINT
  5
12AA6B
  8
DOTS
 10
3400.0
 20
-3479.9999999999968
 30
0.0
1001
ACDBBLOCKREPETAG
1070
     1
1071
      187
1005
12AA6B
  0
LINE
  5
12AA6C
  8
OBJECT
 10
2923.0
 20
-3295.9999999999968
 30
0.0
 11
2923.0
 21
-3274.9999999999968
 31
0.0
1001
ACDBBLOCKREPETAG
1070
     1
1071
        0
1005
12AA6C
  0
LINE
  5
12AA6D
  8
OBJECT
 10
2923.0
 20
-3274.9999999999968
 30
0.0
 11
3077.0
 21
-3274.9999999999968
 31
0.0
1001
ACDBBLOCKREPETAG
1070
     1
1071
        1
1005
12AA6D
  0
LINE
  5
12AA6E
  8
HIDDEN
 10
2943.0
 20
-3344.9999999999968
 30
0.0
 11
3057.0
 21
-3344.9999999999968
 31
0.0
1001
ACDBBLOCKREPETAG
1070
     1
1071
        2
1005
12AA6E
  0
LINE
  5
12AA6F
  8
OBJECT
 10
3077.0
 20
-3274.9999999999968
 30
0.0
 11
3077.0
 21
-3295.9999999999968
 31
0.0
1001
ACDBBLOCKREPETAG
1070
     1
1071
        3
1005
12AA6F
  0
LINE
  5
12AA70
  8
OBJECT
 10
3077.0
 20
-3295.9999999999968
 30
0.0
 11
2923.0
 21
-3295.9999999999968
 31
0.0
1001
ACDBBLOCKREPETAG
1070
     1
1071
        4
1005
12AA70
  0
LINE
  5
12AA71
  8
CENTER
 10
3000.0
 20
-3259.9999999999968
 30
0.0
 11
3000.0
 21
-3494.9999999999968
 31
0.0
1001
ACDBBLOCKREPETAG
1070
     1
1071
        5
1005
12AA71
  0
LINE
  5
12AA72
  8
OBJECT
 10
2925.0
 20
-3358.9999999999968
 30
0.0
 11
2925.0
 21
-3482.9999999999968
 31
0.0
1001
ACDBBLOCKREPETAG
1070
     1
1071
        6
1005
12AA72
  0
LINE
  5
12AA73
  8
OBJECT
 10
2928.0
 20
-3295.9999999999968
 30
0.0
 11
2928.0
 21
-3358.9999999999968
 31
0.0
1001
ACDBBLOCKREPETAG
1070
     1
1071
        7
1005
12AA73
  0
LINE
  5
12AA74
  8
OBJECT
 10
3072.0
 20
-3358.9999999999968
 30
0.0
 11
3072.0
 21
-3295.9999999999968
 31
0.0
1001
ACDBBLOCKREPETAG
1070
     1
1071
        8
1005
12AA74
  0
LINE
  5
12AA75
  8
OBJECT
 10
3074.9999999997999
 20
-3482.9999999997758
 30
0.0
 11
3080.0
 21
-3482.9999999999968
 31
0.0
1001
ACDBBLOCKREPETAG
1070
     1
1071
        9
1005
12AA75
  0
LINE
  5
12AA76
  8
OBJECT
 10
3080.0
 20
-3358.9999999999968
 30
0.0
 11
2925.0
 21
-3358.9999999999968
 31
0.0
1001
ACDBBLOCKREPETAG
1070
     1
1071
       10
1005
12AA76
  0
ARC
  5
12AA77
  8
OBJECT
 10
3200.6872746716722
 20
-3474.408099410105
 30
0.0
 40
170.6350503965856
 50
137.44134459184301
 51
149.9194958133665
1001
ACDBBLOCKREPETAG
1070
     1
1071
       15
1005
12AA77
  0
ARC
  5
12AA78
  8
OBJECT
 10
3118.8455987040511
 20
-3430.8827266953631
 30
0.0
 40
78.072222021763665
 50
147.4551531037684
 51
164.663659977186
1001
ACDBBLOCKREPETAG
1070
     1
1071
       16
1005
12AA78
  0
ARC
  5
12AA79
  8
OBJECT
 10
3085.7554349608731
 20
-3420.9999999999991
 30
0.0
 40
43.55353926885617
 50
165.6884523008477
 51
194.3115476991523
1001
ACDBBLOCKREPETAG
1070
     1
1071
       17
1005
12AA79
  0
ARC
  5
12AA7A
  8
OBJECT
 10
3200.6872746716722
 20
-3367.5919005898891
 30
0.0
 40
170.6350503965856
 50
210.0805041866335
 51
222.55865540815699
1001
ACDBBLOCKREPETAG
1070
     1
1071
       18
1005
12AA7A
  0
ARC
  5
12AA7B
  8
OBJECT
 10
3118.8455987040511
 20
-3411.1172733046319
 30
0.0
 40
78.072222021763665
 50
195.33634002281391
 51
212.5448468962316
1001
ACDBBLOCKREPETAG
1070
     1
1071
       19
1005
12AA7B
  0
POINT
  5
12AA7C
  8
DOTS
 10
3000.0
 20
-3479.9999999999968
 30
0.0
1001
ACDBBLOCKREPETAG
1070
     1
1071
      186
1005
12AA7C
  0
LINE
  5
12AA7D
  8
OBJECT
 10
2323.0
 20
-3295.9999999999968
 30
0.0
 11
2323.0
 21
-3274.9999999999968
 31
0.0
1001
ACDBBLOCKREPETAG
1070
     1
1071
       20
1005
12AA7D
  0
LINE
  5
12AA7E
  8
OBJECT
 10
2323.0
 20
-3274.9999999999968
 30
0.0
 11
2477.0
 21
-3274.9999999999968
 31
0.0
1001
ACDBBLOCKREPETAG
1070
     1
1071
       21
1005
12AA7E
  0
LINE
  5
12AA7F
  8
HIDDEN
 10
2343.0
 20
-3344.9999999999968
 30
0.0
 11
2457.0
 21
-3344.9999999999968
 31
0.0
1001
ACDBBLOCKREPETAG
1070
     1
1071
       22
1005
12AA7F
  0
LINE
  5
12AA80
  8
OBJECT
 10
2477.0
 20
-3274.9999999999968
 30
0.0
 11
2477.0
 21
-3295.9999999999968
 31
0.0
1001
ACDBBLOCKREPETAG
1070
     1
1071
       23
1005
12AA80
  0
LINE
  5
12AA81
  8
OBJECT
 10
2477.0
 20
-3295.9999999999968
 30
0.0
 11
2323.0
 21
-3295.9999999999968
 31
0.0
1001
ACDBBLOCKREPETAG
1070
     1
1071
       24
1005
12AA81
  0
LINE
  5
12AA82
  8
CENTER
 10
2400.0
 20
-3259.9999999999968
 30
0.0
 11
2400.0
 21
-3494.9999999999968
 31
0.0
1001
ACDBBLOCKREPETAG
1070
     1
1071
       25
1005
12AA82
  0
LINE
  5
12AA83
  8
OBJECT
 10
2325.0
 20
-3358.9999999999968
 30
0.0
 11
2325.0
 21
-3482.9999999999968
 31
0.0
1001
ACDBBLOCKREPETAG
1070
     1
1071
       26
1005
12AA83
  0
LINE
  5
12AA84
  8
OBJECT
 10
2328.0
 20
-3295.9999999999968
 30
0.0
 11
2328.0
 21
-3358.9999999999968
 31
0.0
1001
ACDBBLOCKREPETAG
1070
     1
1071
       27
1005
12AA84
  0
LINE
  5
12AA85
  8
OBJECT
 10
2472.0
 20
-3358.9999999999968
 30
0.0
 11
2472.0
 21
-3295.9999999999968
 31
0.0
1001
ACDBBLOCKREPETAG
1070
     1
1071
       28
1005
12AA85
  0
LINE
  5
12AA86
  8
OBJECT
 10
2475.0
 20
-3358.9999999999968
 30
0.0
 11
2325.0
 21
-3358.9999999999968
 31
0.0
1001
ACDBBLOCKREPETAG
1070
     1
1071
       30
1005
12AA86
  0
LINE
  5
12AA87
  8
OBJECT
 10
2475.0
 20
-3358.9999999999968
 30
0.0
 11
2475.0
 21
-3482.9999999999968
 31
0.0
1001
ACDBBLOCKREPETAG
1070
     1
1071
       34
1005
12AA87
  0
POINT
  5
12AA88
  8
DOTS
 10
2400.0
 20
-3479.9999999999968
 30
0.0
1001
ACDBBLOCKREPETAG
1070
     1
1071
      187
1005
12AA88
  0
LINE
  5
12AA89
  8
OBJECT
 10
1923.0
 20
-3295.9999999999968
 30
0.0
 11
1923.0
 21
-3274.9999999999968
 31
0.0
1001
ACDBBLOCKREPETAG
1070
     1
1071
        0
1005
12AA89
  0
LINE
  5
12AA8A
  8
OBJECT
 10
1923.0
 20
-3274.9999999999968
 30
0.0
 11
2077.0
 21
-3274.9999999999968
 31
0.0
1001
ACDBBLOCKREPETAG
1070
     1
1071
        1
1005
12AA8A
  0
LINE
  5
12AA8B
  8
HIDDEN
 10
1943.0
 20
-3344.9999999999968
 30
0.0
 11
2057.0
 21
-3344.9999999999968
 31
0.0
1001
ACDBBLOCKREPETAG
1070
     1
1071
        2
1005
12AA8B
  0
LINE
  5
12AA8C
  8
OBJECT
 10
2077.0
 20
-3274.9999999999968
 30
0.0
 11
2077.0
 21
-3295.9999999999968
 31
0.0
1001
ACDBBLOCKREPETAG
1070
     1
1071
        3
1005
12AA8C
  0
LINE
  5
12AA8D
  8
OBJECT
 10
2077.0
 20
-3295.9999999999968
 30
0.0
 11
1923.0
 21
-3295.9999999999968
 31
0.0
1001
ACDBBLOCKREPETAG
1070
     1
1071
        4
1005
12AA8D
  0
LINE
  5
12AA8E
  8
CENTER
 10
2000.0
 20
-3259.9999999999968
 30
0.0
 11
2000.0
 21
-3494.9999999999968
 31
0.0
1001
ACDBBLOCKREPETAG
1070
     1
1071
        5
1005
12AA8E
  0
LINE
  5
12AA8F
  8
OBJECT
 10
1925.0
 20
-3358.9999999999968
 30
0.0
 11
1925.0
 21
-3482.9999999999968
 31
0.0
1001
ACDBBLOCKREPETAG
1070
     1
1071
        6
1005
12AA8F
  0
LINE
  5
12AA90
  8
OBJECT
 10
1928.0
 20
-3295.9999999999968
 30
0.0
 11
1928.0
 21
-3358.9999999999968
 31
0.0
1001
ACDBBLOCKREPETAG
1070
     1
1071
        7
1005
12AA90
  0
LINE
  5
12AA91
  8
OBJECT
 10
2072.0
 20
-3358.9999999999968
 30
0.0
 11
2072.0
 21
-3295.9999999999968
 31
0.0
1001
ACDBBLOCKREPETAG
1070
     1
1071
        8
1005
12AA91
  0
LINE
  5
12AA92
  8
OBJECT
 10
2074.999999999799
 20
-3482.9999999997758
 30
0.0
 11
2080.0
 21
-3482.9999999999968
 31
0.0
1001
ACDBBLOCKREPETAG
1070
     1
1071
        9
1005
12AA92
  0
LINE
  5
12AA93
  8
OBJECT
 10
2080.0
 20
-3358.9999999999968
 30
0.0
 11
1925.0
 21
-3358.9999999999968
 31
0.0
1001
ACDBBLOCKREPETAG
1070
     1
1071
       10
1005
12AA93
  0
ARC
  5
12AA94
  8
OBJECT
 10
2200.6872746716731
 20
-3474.408099410105
 30
0.0
 40
170.6350503965856
 50
137.44134459184301
 51
149.91949581335999
1001
ACDBBLOCKREPETAG
1070
     1
1071
       15
1005
12AA94
  0
ARC
  5
12AA95
  8
OBJECT
 10
2118.8455987040511
 20
-3430.8827266953631
 30
0.0
 40
78.072222021763665
 50
147.45515310377539
 51
164.663659977186
1001
ACDBBLOCKREPETAG
1070
     1
1071
       16
1005
12AA95
  0
ARC
  5
12AA96
  8
OBJECT
 10
2085.7554349608731
 20
-3420.9999999999991
 30
0.0
 40
43.55353926885617
 50
165.6884523008477
 51
194.3115476991523
1001
ACDBBLOCKREPETAG
1070
     1
1071
       17
1005
12AA96
  0
ARC
  5
12AA97
  8
OBJECT
 10
2200.6872746716731
 20
-3367.5919005898891
 30
0.0
 40
170.6350503965856
 50
210.08050418664001
 51
222.55865540815699
1001
ACDBBLOCKREPETAG
1070
     1
1071
       18
1005
12AA97
  0
ARC
  5
12AA98
  8
OBJECT
 10
2118.8455987040511
 20
-3411.1172733046319
 30
0.0
 40
78.072222021763665
 50
195.33634002281391
 51
212.54484689622461
1001
ACDBBLOCKREPETAG
1070
     1
1071
       19
1005
12AA98
  0
POINT
  5
12AA99
  8
DOTS
 10
2000.0
 20
-3479.9999999999968
 30
0.0
1001
ACDBBLOCKREPETAG
1070
     1
1071
      186
1005
12AA99
  0
LINE
  5
12AA9A
  8
DIM
 10
2150.0
 20
-3121.9999999999959
 30
0.0
 11
2228.4796205944581
 21
-3121.9999999999959
 31
0.0
  0
LINE
  5
12AA9B
  8
DIM
 10
2150.0
 20
-3027.9999999999959
 30
0.0
 11
2228.479620594459
 21
-3027.9999999999959
 31
0.0
  0
LINE
  5
12AA9C
  8
DIM
 10
2218.4796205944581
 20
-3101.9999999999959
 30
0.0
 11
2218.479620594459
 21
-3047.9999999999959
 31
0.0
  0
INSERT
  5
12AA9D
  8
DIM
  2
_OPEN30
 10
2218.4796205944581
 20
-3121.9999999999959
 30
0.0
 41
20.0
 42
20.0
 43
20.0
 50
270.0
  0
INSERT
  5
12AA9E
  8
DIM
  2
_OPEN30
 10
2218.479620594459
 20
-3027.9999999999959
 30
0.0
 41
20.0
 42
20.0
 43
20.0
 50
90.0
  0
INSERT
  5
12AA9F
  8
OBJECT
  2
*U43
 10
0.0
 20
0.0
 30
0.0
  0
LINE
  5
12AAA0
  8
DIM
 10
2150.0
 20
-3479.9999999999968
 30
0.0
 11
2226.8409284037339
 21
-3479.9999999999968
 31
0.0
  0
LINE
  5
12AAA1
  8
DIM
 10
2165.0
 20
-3435.9999999999968
 30
0.0
 11
2226.8409284037339
 21
-3435.9999999999968
 31
0.0
  0
LINE
  5
12AAA2
  8
DIM
 10
2216.840928403733
 20
-3499.9999999999968
 30
0.0
 11
2216.840928403733
 21
-3519.9999999999968
 31
0.0
  0
LINE
  5
12AAA3
  8
DIM
 10
2216.840928403733
 20
-3415.9999999999968
 30
0.0
 11
2216.840928403733
 21
-3395.9999999999968
 31
0.0
  0
LINE
  5
12AAA4
  8
DIM
 10
2216.840928403733
 20
-3479.9999999999968
 30
0.0
 11
2216.840928403733
 21
-3435.9999999999968
 31
0.0
  0
INSERT
  5
12AAA5
  8
DIM
  2
_OPEN30
 10
2216.840928403733
 20
-3479.9999999999968
 30
0.0
 41
20.0
 42
20.0
 43
20.0
 50
90.0
  0
INSERT
  5
12AAA6
  8
DIM
  2
_OPEN30
 10
2216.840928403733
 20
-3435.9999999999968
 30
0.0
 41
20.0
 42
20.0
 43
20.0
 50
270.0
  0
INSERT
  5
12AAA7
  8
OBJECT
  2
*U44
 10
0.0
 20
0.0
 30
0.0
  0
LINE
  5
12AAA8
  8
DIM
 10
2000.0
 20
-2969.9999999999959
 30
0.0
 11
2000.0
 21
-2937.208121984444
 31
0.0
  0
LINE
  5
12AAA9
  8
DIM
 10
2140.0
 20
-3017.9999999999959
 30
0.0
 11
2140.0
 21
-2937.208121984444
 31
0.0
  0
LINE
  5
12AAAA
  8
DIM
 10
2020.0
 20
-2947.208121984444
 30
0.0
 11
2120.0
 21
-2947.208121984444
 31
0.0
  0
INSERT
  5
12AAAB
  8
DIM
  2
_OPEN30
 10
2000.0
 20
-2947.208121984444
 30
0.0
 41
20.0
 42
20.0
 43
20.0
 50
180.0
  0
INSERT
  5
12AAAC
  8
DIM
  2
_OPEN30
 10
2140.0
 20
-2947.208121984444
 30
0.0
 41
20.0
 42
20.0
 43
20.0
  0
INSERT
  5
12AAAD
  8
OBJECT
  2
*U45
 10
0.0
 20
0.0
 30
0.0
  0
TEXT
  5
12AAAE
  8
SLIM
 10
2631.0
 20
-2852.50001604727
 30
0.0
 40
40.0
  1
C寸法
 41
0.75
  0
TEXT
  5
12AAAF
  8
SLIM
 10
2631.0
 20
-2782.50001604727
 30
0.0
 40
40.0
  1
B寸法
 41
0.75
  0
TEXT
  5
12AAB0
  8
SLIM
 10
2630.2857142857142
 20
-2712.50001604727
 30
0.0
 40
40.0
  1
A寸法
 41
0.75
  0
TEXT
  5
12AAB1
  8
SLIM
 10
3159.2857142857151
 20
-2852.50001604727
 30
0.0
 40
40.0
  1
150
 41
0.75
  0
TEXT
  5
12AAB2
  8
SLIM
 10
3029.2857142857151
 20
-2852.50001604727
 30
0.0
 40
40.0
  1
140
 41
0.75
  0
TEXT
  5
12AAB3
  8
SLIM
 10
2769.2857142857151
 20
-2852.50001604727
 30
0.0
 40
40.0
  1
140
 41
0.75
  0
TEXT
  5
12AAB4
  8
SLIM
 10
2899.2857142857151
 20
-2852.50001604727
 30
0.0
 40
40.0
  1
140
 41
0.75
  0
TEXT
  5
12AAB5
  8
SLIM
 10
3170.7142857142858
 20
-2782.50001604727
 30
0.0
 40
40.0
  1
72
 41
0.75
  0
TEXT
  5
12AAB6
  8
SLIM
 10
3041.4285714285711
 20
-2782.50001604727
 30
0.0
 40
40.0
  1
59
 41
0.75
  0
TEXT
  5
12AAB7
  8
SLIM
 10
2780.0
 20
-2782.50001604727
 30
0.0
 40
40.0
  1
44
 41
0.75
  0
TEXT
  5
12AAB8
  8
SLIM
 10
2910.7142857142858
 20
-2782.50001604727
 30
0.0
 40
40.0
  1
52
 41
0.75
  0
TEXT
  5
12AAB9
  8
SLIM
 10
2891.0
 20
-2587.50001604727
 30
0.0
 40
40.0
  1
横枝管サイズ
 41
0.75
  0
TEXT
  5
12AABA
  8
SLIM
 10
3136.2857142857151
 20
-2642.50001604727
 30
0.0
 40
30.0
  1
100（4）
 41
0.75
  0
TEXT
  5
12AABB
  8
SLIM
 10
3014.857142857144
 20
-2642.50001604727
 30
0.0
 40
30.0
  1
75（3）
 41
0.75
  0
TEXT
  5
12AABC
  8
SLIM
 10
2884.8571428571431
 20
-2642.50001604727
 30
0.0
 40
30.0
  1
65（2）
 41
0.75
  0
TEXT
  5
12AABD
  8
SLIM
 10
2757.0
 20
-2642.50001604727
 30
0.0
 40
30.0
  1
50（1）
 41
0.75
  0
TEXT
  5
12AABE
  8
SLIM
 10
3159.2857142857151
 20
-2712.50001604727
 30
0.0
 40
40.0
  1
150
 41
0.75
  0
TEXT
  5
12AABF
  8
SLIM
 10
3028.571428571428
 20
-2712.50001604727
 30
0.0
 40
40.0
  1
124
 41
0.75
  0
TEXT
  5
12AAC0
  8
SLIM
 10
2780.0
 20
-2712.50001604727
 30
0.0
 40
40.0
  1
94
 41
0.75
  0
TEXT
  5
12AAC1
  8
SLIM
 10
2902.1428571428569
 20
-2712.50001604727
 30
0.0
 40
40.0
  1
110
 41
0.75
  0
TEXT
  5
12AAC2
  8
SLIM
 10
1849.9999999999991
 20
-2612.5
 30
0.0
 40
75.0
  1
枝管サイズ毎の形状
 41
0.75
  0
LINE
  5
12AAC3
  8
OBJECT
 10
5150.0
 20
-3332.9999999999968
 30
0.0
 11
5143.0
 21
-3332.9999999999968
 31
0.0
1001
ACDBBLOCKREPETAG
1070
     1
1071
       64
1005
12AAC3
  0
LINE
  5
12AAC4
  8
OBJECT
 10
5143.0
 20
-3332.9999999999968
 30
0.0
 11
5143.0
 21
-3479.9999999999968
 31
0.0
1001
ACDBBLOCKREPETAG
1070
     1
1071
       65
1005
12AAC4
  0
LINE
  5
12AAC5
  8
OBJECT
 10
5101.5
 20
-3335.9999999999968
 30
0.0
 11
5101.5
 21
-3479.9999999999968
 31
0.0
1001
ACDBBLOCKREPETAG
1070
     1
1071
       66
1005
12AAC5
  0
LINE
  5
12AAC6
  8
OBJECT
 10
5090.0
 20
-3342.4999999999968
 30
0.0
 11
5090.0
 21
-3473.4999999999968
 31
0.0
1001
ACDBBLOCKREPETAG
1070
     1
1071
       67
1005
12AAC6
  0
LINE
  5
12AAC7
  8
OBJECT
 10
5086.0
 20
-3414.5000000000041
 30
0.0
 11
5086.0
 21
-3479.9999999999968
 31
0.0
1001
ACDBBLOCKREPETAG
1070
     1
1071
       68
1005
12AAC7
  0
LINE
  5
12AAC8
  8
OBJECT
 10
5150.0
 20
-3479.9999999999968
 30
0.0
 11
5150.0
 21
-3332.9999999999968
 31
0.0
1001
ACDBBLOCKREPETAG
1070
     1
1071
       69
1005
12AAC8
  0
LINE
  5
12AAC9
  8
CENTER
 10
5165.0
 20
-3407.9999999999968
 30
0.0
 11
5070.4144144144157
 21
-3407.9999999999968
 31
0.0
1001
ACDBBLOCKREPETAG
1070
     1
1071
       70
1005
12AAC9
  0
LINE
  5
12AACA
  8
OBJECT
 10
5083.0000000000045
 20
-3482.9999999999968
 30
0.0
 11
5080.0
 21
-3482.9999999999968
 31
0.0
1001
ACDBBLOCKREPETAG
1070
     1
1071
       71
1005
12AACA
  0
ARC
  5
12AACB
  8
OBJECT
 10
5091.8815171830656
 20
-3481.4555591801432
 30
0.0
 40
6.0
 50
60.52411099686767
 51
170.6927439126847
1001
ACDBBLOCKREPETAG
1070
     1
1071
       72
1005
12AACB
  0
ARC
  5
12AACC
  8
OBJECT
 10
5083.0
 20
-3479.9999999999968
 30
0.0
 40
3.0
 50
270.0
 51
350.69274391268482
1001
ACDBBLOCKREPETAG
1070
     1
1071
       73
1005
12AACC
  0
LINE
  5
12AACD
  8
OBJECT
 10
5081.0
 20
-3358.9999999999968
 30
0.0
 11
5080.0
 21
-3358.9999999999968
 31
0.0
1001
ACDBBLOCKREPETAG
1070
     1
1071
       74
1005
12AACD
  0
LINE
  5
12AACE
  8
OBJECT
 10
5150.0
 20
-3479.9999999999968
 30
0.0
 11
5101.5
 21
-3479.9999999999968
 31
0.0
1001
ACDBBLOCKREPETAG
1070
     1
1071
       75
1005
12AACE
  0
LINE
  5
12AACF
  8
OBJECT
 10
5101.5
 20
-3335.9999999999968
 30
0.0
 11
5090.0
 21
-3342.4999999999968
 31
0.0
1001
ACDBBLOCKREPETAG
1070
     1
1071
       76
1005
12AACF
  0
LINE
  5
12AAD0
  8
OBJECT
 10
5143.0
 20
-3335.9999999999968
 30
0.0
 11
5101.5
 21
-3335.9999999999968
 31
0.0
1001
ACDBBLOCKREPETAG
1070
     1
1071
       77
1005
12AAD0
  0
LINE
  5
12AAD1
  8
OBJECT
 10
5086.0
 20
-3414.5000000000041
 30
0.0
 11
5081.0
 21
-3358.9999999999968
 31
0.0
1001
ACDBBLOCKREPETAG
1070
     1
1071
       78
1005
12AAD1
  0
LINE
  5
12AAD2
  8
OBJECT
 10
5090.0
 20
-3342.4999999999968
 30
0.0
 11
5081.0
 21
-3358.9999999999968
 31
0.0
1001
ACDBBLOCKREPETAG
1070
     1
1071
       79
1005
12AAD2
  0
LINE
  5
12AAD3
  8
OBJECT
 10
5101.5
 20
-3479.9999999999968
 30
0.0
 11
5094.8338607230708
 21
-3476.232182147819
 31
0.0
1001
ACDBBLOCKREPETAG
1070
     1
1071
       80
1005
12AAD3
  0
LINE
  5
12AAD4
  8
HIDDEN
 10
5098.0
 20
-3464.9999999999968
 30
0.0
 11
5098.0
 21
-3350.9999999999968
 31
0.0
1001
ACDBBLOCKREPETAG
1070
     1
1071
       81
1005
12AAD4
  0
LINE
  5
12AAD5
  8
OBJECT
 10
5150.0
 20
-2999.9999999999959
 30
0.0
 11
5143.0
 21
-2999.9999999999959
 31
0.0
1001
ACDBBLOCKREPETAG
1070
     1
1071
       67
1005
12AAD5
  0
LINE
  5
12AAD6
  8
OBJECT
 10
5143.0
 20
-2999.9999999999959
 30
0.0
 11
5143.0
 21
-3149.9999999999959
 31
0.0
1001
ACDBBLOCKREPETAG
1070
     1
1071
       68
1005
12AAD6
  0
LINE
  5
12AAD7
  8
OBJECT
 10
5101.5
 20
-3002.9999999999959
 30
0.0
 11
5101.5
 21
-3146.9999999999959
 31
0.0
1001
ACDBBLOCKREPETAG
1070
     1
1071
       69
1005
12AAD7
  0
LINE
  5
12AAD8
  8
OBJECT
 10
5090.0
 20
-3009.4999999999959
 30
0.0
 11
5090.0
 21
-3140.4999999999959
 31
0.0
1001
ACDBBLOCKREPETAG
1070
     1
1071
       70
1005
12AAD8
  0
LINE
  5
12AAD9
  8
OBJECT
 10
5143.0
 20
-3149.9999999999959
 30
0.0
 11
5150.0
 21
-3149.9999999999959
 31
0.0
1001
ACDBBLOCKREPETAG
1070
     1
1071
       71
1005
12AAD9
  0
LINE
  5
12AADA
  8
OBJECT
 10
5150.0
 20
-3149.9999999999959
 30
0.0
 11
5150.0
 21
-2999.9999999999959
 31
0.0
1001
ACDBBLOCKREPETAG
1070
     1
1071
       72
1005
12AADA
  0
LINE
  5
12AADB
  8
HIDDEN
 10
5098.0
 20
-3131.9999999999959
 30
0.0
 11
5098.0
 21
-3017.9999999999959
 31
0.0
1001
ACDBBLOCKREPETAG
1070
     1
1071
       73
1005
12AADB
  0
LINE
  5
12AADC
  8
CENTER
 10
5165.0
 20
-3074.9999999999959
 30
0.0
 11
5080.0
 21
-3074.9999999999959
 31
0.0
1001
ACDBBLOCKREPETAG
1070
     1
1071
       74
1005
12AADC
  0
LINE
  5
12AADD
  8
OBJECT
 10
5086.0
 20
-3136.9999999999959
 30
0.0
 11
5080.0
 21
-3136.9999999999959
 31
0.0
1001
ACDBBLOCKREPETAG
1070
     1
1071
       75
1005
12AADD
  0
LINE
  5
12AADE
  8
OBJECT
 10
5143.0
 20
-3146.9999999999959
 30
0.0
 11
5101.5
 21
-3146.9999999999959
 31
0.0
1001
ACDBBLOCKREPETAG
1070
     1
1071
       76
1005
12AADE
  0
LINE
  5
12AADF
  8
OBJECT
 10
5101.5
 20
-3146.9999999999959
 30
0.0
 11
5090.0
 21
-3140.4999999999959
 31
0.0
1001
ACDBBLOCKREPETAG
1070
     1
1071
       77
1005
12AADF
  0
LINE
  5
12AAE0
  8
OBJECT
 10
5090.0
 20
-3140.4999999999959
 30
0.0
 11
5086.0
 21
-3136.9999999999959
 31
0.0
1001
ACDBBLOCKREPETAG
1070
     1
1071
       78
1005
12AAE0
  0
LINE
  5
12AAE1
  8
OBJECT
 10
5101.5
 20
-3002.9999999999959
 30
0.0
 11
5090.0
 21
-3009.4999999999959
 31
0.0
1001
ACDBBLOCKREPETAG
1070
     1
1071
       79
1005
12AAE1
  0
LINE
  5
12AAE2
  8
OBJECT
 10
5090.0
 20
-3009.4999999999959
 30
0.0
 11
5086.0
 21
-3012.9999999999959
 31
0.0
1001
ACDBBLOCKREPETAG
1070
     1
1071
       80
1005
12AAE2
  0
ARC
  5
12AAE3
  8
OBJECT
 10
5467.9000000000005
 20
-3074.9999999999959
 30
0.0
 40
386.89999999999998
 50
170.77870136260421
 51
189.22129863739571
1001
ACDBBLOCKREPETAG
1070
     1
1071
       81
1005
12AAE3
  0
LINE
  5
12AAE4
  8
OBJECT
 10
5086.0
 20
-3012.9999999999959
 30
0.0
 11
5080.0
 21
-3012.9999999999959
 31
0.0
1001
ACDBBLOCKREPETAG
1070
     1
1071
       82
1005
12AAE4
  0
LINE
  5
12AAE5
  8
OBJECT
 10
5143.0
 20
-3002.9999999999959
 30
0.0
 11
5101.5
 21
-3002.9999999999959
 31
0.0
1001
ACDBBLOCKREPETAG
1070
     1
1071
       83
1005
12AAE5
  0
TEXT
  5
12AAE6
  8
SLIM
 10
4884.25
 20
-3597.4999999999959
 30
0.0
 40
35.0
  1
通常枝100（4）
 41
0.75
  0
LINE
  5
12AAE7
  8
CENTER
 10
4477.0
 20
-3420.9999999999991
 30
0.0
 11
4323.0
 21
-3420.9999999999991
 31
0.0
1001
ACDBBLOCKREPETAG
1070
     1
1071
       17
1005
12AAE7
  0
CIRCLE
  5
12AAE8
  8
OBJECT
 10
4400.0
 20
-3420.9999999999991
 30
0.0
 40
41.5
1001
ACDBBLOCKREPETAG
1070
     1
1071
       19
1005
12AAE8
  0
CIRCLE
  5
12AAE9
  8
OBJECT
 10
4400.0
 20
-3420.9999999999991
 30
0.0
 40
54.0
1001
ACDBBLOCKREPETAG
1070
     1
1071
       20
1005
12AAE9
  0
ARC
  5
12AAEA
  8
OBJECT
 10
4400.0
 20
-3420.9999999999991
 30
0.0
 40
62.0
 50
287.89655112921122
 51
252.1034488707887
1001
ACDBBLOCKREPETAG
1070
     1
1071
       21
1005
12AAEA
  0
LINE
  5
12AAEB
  8
OBJECT
 10
4380.947441116743
 20
-3479.9999999999968
 30
0.0
 11
4419.052558883257
 21
-3479.9999999999968
 31
0.0
1001
ACDBBLOCKREPETAG
1070
     1
1071
       22
1005
12AAEB
  0
LINE
  5
12AAEC
  8
OBJECT
 10
4133.0
 20
-3358.9999999999968
 30
0.0
 11
4140.0
 21
-3358.9999999999968
 31
0.0
1001
ACDBBLOCKREPETAG
1070
     1
1071
       45
1005
12AAEC
  0
LINE
  5
12AAED
  8
OBJECT
 10
4140.0
 20
-3358.9999999999968
 30
0.0
 11
4140.0
 21
-3479.9999999999968
 31
0.0
1001
ACDBBLOCKREPETAG
1070
     1
1071
       46
1005
12AAED
  0
LINE
  5
12AAEE
  8
OBJECT
 10
4133.0
 20
-3479.9999999999968
 30
0.0
 11
4133.0
 21
-3358.9999999999968
 31
0.0
1001
ACDBBLOCKREPETAG
1070
     1
1071
       47
1005
12AAEE
  0
LINE
  5
12AAEF
  8
CENTER
 10
4155.0
 20
-3420.9999999999991
 30
0.0
 11
4071.0
 21
-3420.9999999999991
 31
0.0
1001
ACDBBLOCKREPETAG
1070
     1
1071
       48
1005
12AAEF
  0
LINE
  5
12AAF0
  8
OBJECT
 10
4133.0
 20
-3361.9999999999968
 30
0.0
 11
4097.0
 21
-3361.9999999999968
 31
0.0
1001
ACDBBLOCKREPETAG
1070
     1
1071
       49
1005
12AAF0
  0
LINE
  5
12AAF1
  8
OBJECT
 10
4097.0
 20
-3361.9999999999968
 30
0.0
 11
4097.0
 21
-3479.9999999999968
 31
0.0
1001
ACDBBLOCKREPETAG
1070
     1
1071
       50
1005
12AAF1
  0
LINE
  5
12AAF2
  8
OBJECT
 10
4097.0
 20
-3479.9999999999968
 30
0.0
 11
4140.0
 21
-3479.9999999999968
 31
0.0
1001
ACDBBLOCKREPETAG
1070
     1
1071
       51
1005
12AAF2
  0
LINE
  5
12AAF3
  8
OBJECT
 10
4093.0
 20
-3366.4999999999968
 30
0.0
 11
4086.0
 21
-3366.4999999999968
 31
0.0
1001
ACDBBLOCKREPETAG
1070
     1
1071
       52
1005
12AAF3
  0
LINE
  5
12AAF4
  8
OBJECT
 10
4086.0
 20
-3475.4999999999968
 30
0.0
 11
4093.0
 21
-3475.4999999999968
 31
0.0
1001
ACDBBLOCKREPETAG
1070
     1
1071
       53
1005
12AAF4
  0
LINE
  5
12AAF5
  8
OBJECT
 10
4093.0
 20
-3475.4999999999968
 30
0.0
 11
4093.0
 21
-3366.4999999999968
 31
0.0
1001
ACDBBLOCKREPETAG
1070
     1
1071
       54
1005
12AAF5
  0
LINE
  5
12AAF6
  8
OBJECT
 10
4097.0
 20
-3361.9999999999968
 30
0.0
 11
4093.0
 21
-3366.4999999999968
 31
0.0
1001
ACDBBLOCKREPETAG
1070
     1
1071
       55
1005
12AAF6
  0
LINE
  5
12AAF7
  8
OBJECT
 10
4097.0
 20
-3479.9999999999968
 30
0.0
 11
4093.0
 21
-3475.4999999999968
 31
0.0
1001
ACDBBLOCKREPETAG
1070
     1
1071
       56
1005
12AAF7
  0
LINE
  5
12AAF8
  8
OBJECT
 10
4083.0
 20
-3358.9999999999968
 30
0.0
 11
4080.0
 21
-3358.9999999999968
 31
0.0
1001
ACDBBLOCKREPETAG
1070
     1
1071
       57
1005
12AAF8
  0
ARC
  5
12AAF9
  8
OBJECT
 10
4083.0
 20
-3361.9999999999968
 30
0.0
 40
3.0
 50
0.0
 51
90.0
1001
ACDBBLOCKREPETAG
1070
     1
1071
       58
1005
12AAF9
  0
LINE
  5
12AAFA
  8
OBJECT
 10
4080.0
 20
-3482.9999999999968
 30
0.0
 11
4083.0
 21
-3482.9999999999968
 31
0.0
1001
ACDBBLOCKREPETAG
1070
     1
1071
       59
1005
12AAFA
  0
ARC
  5
12AAFB
  8
OBJECT
 10
4083.0
 20
-3479.9999999999968
 30
0.0
 40
3.0
 50
270.0
 51
0.0
1001
ACDBBLOCKREPETAG
1070
     1
1071
       60
1005
12AAFB
  0
LINE
  5
12AAFC
  8
OBJECT
 10
4086.0
 20
-3479.9999999999968
 30
0.0
 11
4086.0
 21
-3361.9999999999968
 31
0.0
1001
ACDBBLOCKREPETAG
1070
     1
1071
       61
1005
12AAFC
  0
LINE
  5
12AAFD
  8
HIDDEN
 10
4088.0
 20
-3376.4999999999968
 30
0.0
 11
4088.0
 21
-3465.4999999999968
 31
0.0
1001
ACDBBLOCKREPETAG
1070
     1
1071
       63
1005
12AAFD
  0
LINE
  5
12AAFE
  8
OBJECT
 10
4133.0
 20
-3012.9999999999959
 30
0.0
 11
4140.0
 21
-3012.9999999999959
 31
0.0
1001
ACDBBLOCKREPETAG
1070
     1
1071
       47
1005
12AAFE
  0
LINE
  5
12AAFF
  8
OBJECT
 10
4140.0
 20
-3012.9999999999959
 30
0.0
 11
4140.0
 21
-3136.9999999999959
 31
0.0
1001
ACDBBLOCKREPETAG
1070
     1
1071
       48
1005
12AAFF
  0
LINE
  5
12AB00
  8
OBJECT
 10
4140.0
 20
-3136.9999999999959
 30
0.0
 11
4133.0
 21
-3136.9999999999959
 31
0.0
1001
ACDBBLOCKREPETAG
1070
     1
1071
       49
1005
12AB00
  0
LINE
  5
12AB01
  8
OBJECT
 10
4133.0
 20
-3136.9999999999959
 30
0.0
 11
4133.0
 21
-3012.9999999999959
 31
0.0
1001
ACDBBLOCKREPETAG
1070
     1
1071
       50
1005
12AB01
  0
LINE
  5
12AB02
  8
CENTER
 10
4155.0
 20
-3074.9999999999959
 30
0.0
 11
4080.0
 21
-3074.9999999999959
 31
0.0
1001
ACDBBLOCKREPETAG
1070
     1
1071
       51
1005
12AB02
  0
LINE
  5
12AB03
  8
OBJECT
 10
4133.0
 20
-3015.9999999999959
 30
0.0
 11
4097.0
 21
-3015.9999999999959
 31
0.0
1001
ACDBBLOCKREPETAG
1070
     1
1071
       52
1005
12AB03
  0
LINE
  5
12AB04
  8
OBJECT
 10
4097.0
 20
-3015.9999999999959
 30
0.0
 11
4097.0
 21
-3133.9999999999959
 31
0.0
1001
ACDBBLOCKREPETAG
1070
     1
1071
       53
1005
12AB04
  0
LINE
  5
12AB05
  8
OBJECT
 10
4097.0
 20
-3133.9999999999959
 30
0.0
 11
4133.0
 21
-3133.9999999999959
 31
0.0
1001
ACDBBLOCKREPETAG
1070
     1
1071
       54
1005
12AB05
  0
LINE
  5
12AB06
  8
OBJECT
 10
4093.0
 20
-3020.4999999999959
 30
0.0
 11
4086.0
 21
-3020.4999999999959
 31
0.0
1001
ACDBBLOCKREPETAG
1070
     1
1071
       55
1005
12AB06
  0
LINE
  5
12AB07
  8
OBJECT
 10
4086.0
 20
-3129.4999999999959
 30
0.0
 11
4093.0
 21
-3129.4999999999959
 31
0.0
1001
ACDBBLOCKREPETAG
1070
     1
1071
       56
1005
12AB07
  0
LINE
  5
12AB08
  8
OBJECT
 10
4093.0
 20
-3129.4999999999959
 30
0.0
 11
4093.0
 21
-3020.4999999999959
 31
0.0
1001
ACDBBLOCKREPETAG
1070
     1
1071
       57
1005
12AB08
  0
LINE
  5
12AB09
  8
OBJECT
 10
4097.0
 20
-3015.9999999999959
 30
0.0
 11
4093.0
 21
-3020.4999999999959
 31
0.0
1001
ACDBBLOCKREPETAG
1070
     1
1071
       58
1005
12AB09
  0
LINE
  5
12AB0A
  8
OBJECT
 10
4097.0
 20
-3133.9999999999959
 30
0.0
 11
4093.0
 21
-3129.4999999999959
 31
0.0
1001
ACDBBLOCKREPETAG
1070
     1
1071
       59
1005
12AB0A
  0
LINE
  5
12AB0B
  8
OBJECT
 10
4083.0
 20
-3012.9999999999959
 30
0.0
 11
4080.0
 21
-3012.9999999999959
 31
0.0
1001
ACDBBLOCKREPETAG
1070
     1
1071
       60
1005
12AB0B
  0
ARC
  5
12AB0C
  8
OBJECT
 10
4083.0
 20
-3015.9999999999959
 30
0.0
 40
3.0
 50
0.0
 51
90.0
1001
ACDBBLOCKREPETAG
1070
     1
1071
       61
1005
12AB0C
  0
LINE
  5
12AB0D
  8
OBJECT
 10
4080.0
 20
-3136.9999999999959
 30
0.0
 11
4083.0
 21
-3136.9999999999959
 31
0.0
1001
ACDBBLOCKREPETAG
1070
     1
1071
       62
1005
12AB0D
  0
ARC
  5
12AB0E
  8
OBJECT
 10
4083.0
 20
-3133.9999999999959
 30
0.0
 40
3.0
 50
270.0
 51
0.0
1001
ACDBBLOCKREPETAG
1070
     1
1071
       63
1005
12AB0E
  0
LINE
  5
12AB0F
  8
OBJECT
 10
4086.0
 20
-3133.9999999999959
 30
0.0
 11
4086.0
 21
-3015.9999999999959
 31
0.0
1001
ACDBBLOCKREPETAG
1070
     1
1071
       64
1005
12AB0F
  0
LINE
  5
12AB10
  8
HIDDEN
 10
4088.0
 20
-3030.4999999999959
 30
0.0
 11
4088.0
 21
-3119.4999999999959
 31
0.0
1001
ACDBBLOCKREPETAG
1070
     1
1071
       65
1005
12AB10
  0
TEXT
  5
12AB11
  8
SLIM
 10
3894.25
 20
-3597.4999999999959
 30
0.0
 40
35.0
  1
通常枝75（3）
 41
0.75
  0
CIRCLE
  5
12AB12
  8
OBJECT
 10
3400.0
 20
-3427.9999999999968
 30
0.0
 40
35.5
1001
ACDBBLOCKREPETAG
1070
     1
1071
       10
1005
12AB12
  0
CIRCLE
  5
12AB13
  8
OBJECT
 10
3400.0
 20
-3420.9999999999991
 30
0.0
 40
62.0
1001
ACDBBLOCKREPETAG
1070
     1
1071
       11
1005
12AB13
  0
LINE
  5
12AB14
  8
CENTER
 10
3330.0
 20
-3427.9999999999968
 30
0.0
 11
3470.0
 21
-3427.9999999999968
 31
0.0
1001
ACDBBLOCKREPETAG
1070
     1
1071
       12
1005
12AB14
  0
CIRCLE
  5
12AB15
  8
OBJECT
 10
3400.0
 20
-3427.9999999999968
 30
0.0
 40
47.0
1001
ACDBBLOCKREPETAG
1070
     1
1071
       14
1005
12AB15
  0
ARC
  5
12AB16
  8
OBJECT
 10
3400.0
 20
-3427.9999999999968
 30
0.0
 40
55.0
 50
289.01126526011359
 51
250.98873473988641
1001
ACDBBLOCKREPETAG
1070
     1
1071
       15
1005
12AB16
  0
LINE
  5
12AB17
  8
OBJECT
 10
3382.0835271328328
 20
-3479.9999999999968
 30
0.0
 11
3417.9164728671681
 21
-3479.9999999999968
 31
0.0
1001
ACDBBLOCKREPETAG
1070
     1
1071
       16
1005
12AB17
  0
LINE
  5
12AB18
  8
OBJECT
 10
3133.0
 20
-3372.9999999999968
 30
0.0
 11
3140.0
 21
-3372.9999999999968
 31
0.0
1001
ACDBBLOCKREPETAG
1070
     1
1071
       26
1005
12AB18
  0
LINE
  5
12AB19
  8
OBJECT
 10
3140.0
 20
-3372.9999999999968
 30
0.0
 11
3140.0
 21
-3479.9999999999968
 31
0.0
1001
ACDBBLOCKREPETAG
1070
     1
1071
       27
1005
12AB19
  0
LINE
  5
12AB1A
  8
OBJECT
 10
3133.0
 20
-3479.9999999999968
 30
0.0
 11
3133.0
 21
-3372.9999999999968
 31
0.0
1001
ACDBBLOCKREPETAG
1070
     1
1071
       28
1005
12AB1A
  0
LINE
  5
12AB1B
  8
CENTER
 10
3155.0
 20
-3427.9999999999968
 30
0.0
 11
3071.0
 21
-3427.9999999999968
 31
0.0
1001
ACDBBLOCKREPETAG
1070
     1
1071
       29
1005
12AB1B
  0
LINE
  5
12AB1C
  8
OBJECT
 10
3133.0
 20
-3375.9999999999968
 30
0.0
 11
3097.0
 21
-3375.9999999999968
 31
0.0
1001
ACDBBLOCKREPETAG
1070
     1
1071
       30
1005
12AB1C
  0
LINE
  5
12AB1D
  8
OBJECT
 10
3097.0
 20
-3375.9999999999968
 30
0.0
 11
3097.0
 21
-3479.9999999999968
 31
0.0
1001
ACDBBLOCKREPETAG
1070
     1
1071
       31
1005
12AB1D
  0
LINE
  5
12AB1E
  8
OBJECT
 10
3097.0
 20
-3479.9999999999968
 30
0.0
 11
3140.0
 21
-3479.9999999999968
 31
0.0
1001
ACDBBLOCKREPETAG
1070
     1
1071
       32
1005
12AB1E
  0
LINE
  5
12AB1F
  8
OBJECT
 10
3093.0
 20
-3380.4999999999968
 30
0.0
 11
3086.0
 21
-3380.4999999999968
 31
0.0
1001
ACDBBLOCKREPETAG
1070
     1
1071
       33
1005
12AB1F
  0
LINE
  5
12AB20
  8
OBJECT
 10
3086.0
 20
-3475.4999999999968
 30
0.0
 11
3093.0
 21
-3475.4999999999968
 31
0.0
1001
ACDBBLOCKREPETAG
1070
     1
1071
       34
1005
12AB20
  0
LINE
  5
12AB21
  8
OBJECT
 10
3093.0
 20
-3475.4999999999968
 30
0.0
 11
3093.0
 21
-3380.4999999999968
 31
0.0
1001
ACDBBLOCKREPETAG
1070
     1
1071
       35
1005
12AB21
  0
LINE
  5
12AB22
  8
OBJECT
 10
3097.0
 20
-3375.9999999999968
 30
0.0
 11
3093.0
 21
-3380.4999999999968
 31
0.0
1001
ACDBBLOCKREPETAG
1070
     1
1071
       36
1005
12AB22
  0
LINE
  5
12AB23
  8
OBJECT
 10
3097.0
 20
-3479.9999999999968
 30
0.0
 11
3093.0
 21
-3475.4999999999968
 31
0.0
1001
ACDBBLOCKREPETAG
1070
     1
1071
       37
1005
12AB23
  0
LINE
  5
12AB24
  8
OBJECT
 10
3083.0
 20
-3358.9999999999968
 30
0.0
 11
3080.0
 21
-3358.9999999999968
 31
0.0
1001
ACDBBLOCKREPETAG
1070
     1
1071
       38
1005
12AB24
  0
ARC
  5
12AB25
  8
OBJECT
 10
3083.0
 20
-3361.9999999999968
 30
0.0
 40
3.0
 50
0.0
 51
90.0
1001
ACDBBLOCKREPETAG
1070
     1
1071
       39
1005
12AB25
  0
LINE
  5
12AB26
  8
OBJECT
 10
3080.0
 20
-3482.9999999999968
 30
0.0
 11
3083.0
 21
-3482.9999999999968
 31
0.0
1001
ACDBBLOCKREPETAG
1070
     1
1071
       40
1005
12AB26
  0
ARC
  5
12AB27
  8
OBJECT
 10
3083.0
 20
-3479.9999999999968
 30
0.0
 40
3.0
 50
270.0
 51
0.0
1001
ACDBBLOCKREPETAG
1070
     1
1071
       41
1005
12AB27
  0
LINE
  5
12AB28
  8
OBJECT
 10
3086.0
 20
-3479.9999999999968
 30
0.0
 11
3086.0
 21
-3361.9999999999968
 31
0.0
1001
ACDBBLOCKREPETAG
1070
     1
1071
       42
1005
12AB28
  0
LINE
  5
12AB29
  8
HIDDEN
 10
3088.0
 20
-3389.9999999999968
 30
0.0
 11
3088.0
 21
-3465.9999999999968
 31
0.0
1001
ACDBBLOCKREPETAG
1070
     1
1071
       43
1005
12AB29
  0
LINE
  5
12AB2A
  8
OBJECT
 10
3133.0
 20
-3019.9999999999959
 30
0.0
 11
3140.0
 21
-3019.9999999999959
 31
0.0
1001
ACDBBLOCKREPETAG
1070
     1
1071
       27
1005
12AB2A
  0
LINE
  5
12AB2B
  8
OBJECT
 10
3140.0
 20
-3019.9999999999959
 30
0.0
 11
3140.0
 21
-3129.9999999999959
 31
0.0
1001
ACDBBLOCKREPETAG
1070
     1
1071
       28
1005
12AB2B
  0
LINE
  5
12AB2C
  8
OBJECT
 10
3140.0
 20
-3129.9999999999959
 30
0.0
 11
3133.0
 21
-3129.9999999999959
 31
0.0
1001
ACDBBLOCKREPETAG
1070
     1
1071
       29
1005
12AB2C
  0
LINE
  5
12AB2D
  8
OBJECT
 10
3133.0
 20
-3129.9999999999959
 30
0.0
 11
3133.0
 21
-3019.9999999999959
 31
0.0
1001
ACDBBLOCKREPETAG
1070
     1
1071
       30
1005
12AB2D
  0
LINE
  5
12AB2E
  8
CENTER
 10
3155.0
 20
-3074.9999999999959
 30
0.0
 11
3080.0
 21
-3074.9999999999959
 31
0.0
1001
ACDBBLOCKREPETAG
1070
     1
1071
       31
1005
12AB2E
  0
LINE
  5
12AB2F
  8
OBJECT
 10
3133.0
 20
-3022.9999999999959
 30
0.0
 11
3097.0
 21
-3022.9999999999959
 31
0.0
1001
ACDBBLOCKREPETAG
1070
     1
1071
       32
1005
12AB2F
  0
LINE
  5
12AB30
  8
OBJECT
 10
3097.0
 20
-3022.9999999999959
 30
0.0
 11
3097.0
 21
-3126.9999999999959
 31
0.0
1001
ACDBBLOCKREPETAG
1070
     1
1071
       33
1005
12AB30
  0
LINE
  5
12AB31
  8
OBJECT
 10
3097.0
 20
-3126.9999999999959
 30
0.0
 11
3133.0
 21
-3126.9999999999959
 31
0.0
1001
ACDBBLOCKREPETAG
1070
     1
1071
       34
1005
12AB31
  0
LINE
  5
12AB32
  8
OBJECT
 10
3093.0
 20
-3027.4999999999959
 30
0.0
 11
3086.0
 21
-3027.4999999999959
 31
0.0
1001
ACDBBLOCKREPETAG
1070
     1
1071
       35
1005
12AB32
  0
LINE
  5
12AB33
  8
OBJECT
 10
3086.0
 20
-3122.4999999999959
 30
0.0
 11
3093.0
 21
-3122.4999999999959
 31
0.0
1001
ACDBBLOCKREPETAG
1070
     1
1071
       36
1005
12AB33
  0
LINE
  5
12AB34
  8
OBJECT
 10
3093.0
 20
-3122.4999999999959
 30
0.0
 11
3093.0
 21
-3027.4999999999959
 31
0.0
1001
ACDBBLOCKREPETAG
1070
     1
1071
       37
1005
12AB34
  0
LINE
  5
12AB35
  8
OBJECT
 10
3097.0
 20
-3022.9999999999959
 30
0.0
 11
3093.0
 21
-3027.4999999999959
 31
0.0
1001
ACDBBLOCKREPETAG
1070
     1
1071
       38
1005
12AB35
  0
LINE
  5
12AB36
  8
OBJECT
 10
3097.0
 20
-3126.9999999999959
 30
0.0
 11
3093.0
 21
-3122.4999999999959
 31
0.0
1001
ACDBBLOCKREPETAG
1070
     1
1071
       39
1005
12AB36
  0
LINE
  5
12AB37
  8
OBJECT
 10
3083.0
 20
-3012.9999999999959
 30
0.0
 11
3080.0
 21
-3012.9999999999959
 31
0.0
1001
ACDBBLOCKREPETAG
1070
     1
1071
       40
1005
12AB37
  0
ARC
  5
12AB38
  8
OBJECT
 10
3083.0
 20
-3015.9999999999959
 30
0.0
 40
3.0
 50
0.0
 51
90.0
1001
ACDBBLOCKREPETAG
1070
     1
1071
       41
1005
12AB38
  0
LINE
  5
12AB39
  8
OBJECT
 10
3080.0
 20
-3136.9999999999959
 30
0.0
 11
3083.0
 21
-3136.9999999999959
 31
0.0
1001
ACDBBLOCKREPETAG
1070
     1
1071
       42
1005
12AB39
  0
ARC
  5
12AB3A
  8
OBJECT
 10
3083.0
 20
-3133.9999999999959
 30
0.0
 40
3.0
 50
270.0
 51
0.0
1001
ACDBBLOCKREPETAG
1070
     1
1071
       43
1005
12AB3A
  0
LINE
  5
12AB3B
  8
OBJECT
 10
3086.0
 20
-3133.9999999999959
 30
0.0
 11
3086.0
 21
-3015.9999999999959
 31
0.0
1001
ACDBBLOCKREPETAG
1070
     1
1071
       44
1005
12AB3B
  0
LINE
  5
12AB3C
  8
HIDDEN
 10
3088.0
 20
-3036.9999999999959
 30
0.0
 11
3088.0
 21
-3112.9999999999959
 31
0.0
1001
ACDBBLOCKREPETAG
1070
     1
1071
       45
1005
12AB3C
  0
TEXT
  5
12AB3D
  8
SLIM
 10
2894.25
 20
-3597.4999999999959
 30
0.0
 40
35.0
  1
通常枝65（2）
 41
0.75
  0
CIRCLE
  5
12AB3E
  8
OBJECT
 10
2400.0
 20
-3420.9999999999991
 30
0.0
 40
62.0
1001
ACDBBLOCKREPETAG
1070
     1
1071
        3
1005
12AB3E
  0
LINE
  5
12AB3F
  8
CENTER
 10
2338.0
 20
-3435.9999999999968
 30
0.0
 11
2462.0
 21
-3435.9999999999968
 31
0.0
1001
ACDBBLOCKREPETAG
1070
     1
1071
        4
1005
12AB3F
  0
CIRCLE
  5
12AB40
  8
OBJECT
 10
2400.0
 20
-3435.9999999999968
 30
0.0
 40
28.0
1001
ACDBBLOCKREPETAG
1070
     1
1071
        6
1005
12AB40
  0
CIRCLE
  5
12AB41
  8
OBJECT
 10
2400.0
 20
-3435.9999999999968
 30
0.0
 40
39.0
1001
ACDBBLOCKREPETAG
1070
     1
1071
        7
1005
12AB41
  0
ARC
  5
12AB42
  8
OBJECT
 10
2400.0
 20
-3435.9999999999968
 30
0.0
 40
47.0
 50
290.58196921144412
 51
249.41803078855591
1001
ACDBBLOCKREPETAG
1070
     1
1071
        8
1005
12AB42
  0
LINE
  5
12AB43
  8
OBJECT
 10
2383.4772883581431
 20
-3479.9999999999968
 30
0.0
 11
2416.5227116418569
 21
-3479.9999999999968
 31
0.0
1001
ACDBBLOCKREPETAG
1070
     1
1071
        9
1005
12AB43
  0
LINE
  5
12AB44
  8
OBJECT
 10
2133.0
 20
-3388.9999999999991
 30
0.0
 11
2140.0
 21
-3388.9999999999991
 31
0.0
1001
ACDBBLOCKREPETAG
1070
     1
1071
        7
1005
12AB44
  0
LINE
  5
12AB45
  8
OBJECT
 10
2140.0
 20
-3388.9999999999991
 30
0.0
 11
2140.0
 21
-3479.9999999999968
 31
0.0
1001
ACDBBLOCKREPETAG
1070
     1
1071
        8
1005
12AB45
  0
LINE
  5
12AB46
  8
OBJECT
 10
2133.0
 20
-3479.9999999999968
 30
0.0
 11
2133.0
 21
-3388.9999999999991
 31
0.0
1001
ACDBBLOCKREPETAG
1070
     1
1071
        9
1005
12AB46
  0
LINE
  5
12AB47
  8
CENTER
 10
2155.0
 20
-3435.9999999999968
 30
0.0
 11
2071.0
 21
-3435.9999999999968
 31
0.0
1001
ACDBBLOCKREPETAG
1070
     1
1071
       10
1005
12AB47
  0
LINE
  5
12AB48
  8
OBJECT
 10
2133.0
 20
-3391.9999999999968
 30
0.0
 11
2097.0
 21
-3391.9999999999968
 31
0.0
1001
ACDBBLOCKREPETAG
1070
     1
1071
       11
1005
12AB48
  0
LINE
  5
12AB49
  8
OBJECT
 10
2097.0
 20
-3391.9999999999968
 30
0.0
 11
2097.0
 21
-3479.9999999999968
 31
0.0
1001
ACDBBLOCKREPETAG
1070
     1
1071
       12
1005
12AB49
  0
LINE
  5
12AB4A
  8
OBJECT
 10
2097.0
 20
-3479.9999999999968
 30
0.0
 11
2140.0
 21
-3479.9999999999968
 31
0.0
1001
ACDBBLOCKREPETAG
1070
     1
1071
       13
1005
12AB4A
  0
LINE
  5
12AB4B
  8
OBJECT
 10
2093.0
 20
-3396.4999999999968
 30
0.0
 11
2086.0
 21
-3396.4999999999968
 31
0.0
1001
ACDBBLOCKREPETAG
1070
     1
1071
       14
1005
12AB4B
  0
LINE
  5
12AB4C
  8
OBJECT
 10
2086.0
 20
-3475.4999999999968
 30
0.0
 11
2093.0
 21
-3475.4999999999968
 31
0.0
1001
ACDBBLOCKREPETAG
1070
     1
1071
       15
1005
12AB4C
  0
LINE
  5
12AB4D
  8
OBJECT
 10
2093.0
 20
-3475.4999999999968
 30
0.0
 11
2093.0
 21
-3396.4999999999968
 31
0.0
1001
ACDBBLOCKREPETAG
1070
     1
1071
       16
1005
12AB4D
  0
LINE
  5
12AB4E
  8
OBJECT
 10
2097.0
 20
-3391.9999999999968
 30
0.0
 11
2093.0
 21
-3396.4999999999968
 31
0.0
1001
ACDBBLOCKREPETAG
1070
     1
1071
       17
1005
12AB4E
  0
LINE
  5
12AB4F
  8
OBJECT
 10
2097.0
 20
-3479.9999999999968
 30
0.0
 11
2093.0
 21
-3475.4999999999968
 31
0.0
1001
ACDBBLOCKREPETAG
1070
     1
1071
       18
1005
12AB4F
  0
LINE
  5
12AB50
  8
OBJECT
 10
2083.0
 20
-3358.9999999999968
 30
0.0
 11
2080.0
 21
-3358.9999999999968
 31
0.0
1001
ACDBBLOCKREPETAG
1070
     1
1071
       19
1005
12AB50
  0
ARC
  5
12AB51
  8
OBJECT
 10
2083.0
 20
-3361.9999999999968
 30
0.0
 40
3.0
 50
0.0
 51
90.0
1001
ACDBBLOCKREPETAG
1070
     1
1071
       20
1005
12AB51
  0
LINE
  5
12AB52
  8
OBJECT
 10
2080.0
 20
-3482.9999999999968
 30
0.0
 11
2083.0
 21
-3482.9999999999968
 31
0.0
1001
ACDBBLOCKREPETAG
1070
     1
1071
       21
1005
12AB52
  0
ARC
  5
12AB53
  8
OBJECT
 10
2083.0
 20
-3479.9999999999968
 30
0.0
 40
3.0
 50
270.0
 51
0.0
1001
ACDBBLOCKREPETAG
1070
     1
1071
       22
1005
12AB53
  0
LINE
  5
12AB54
  8
OBJECT
 10
2086.0
 20
-3479.9999999999968
 30
0.0
 11
2086.0
 21
-3361.9999999999968
 31
0.0
1001
ACDBBLOCKREPETAG
1070
     1
1071
       23
1005
12AB54
  0
LINE
  5
12AB55
  8
HIDDEN
 10
2088.0
 20
-3405.9999999999968
 30
0.0
 11
2088.0
 21
-3465.9999999999968
 31
0.0
1001
ACDBBLOCKREPETAG
1070
     1
1071
       24
1005
12AB55
  0
LINE
  5
12AB56
  8
OBJECT
 10
2133.0
 20
-3027.9999999999959
 30
0.0
 11
2140.0
 21
-3027.9999999999959
 31
0.0
1001
ACDBBLOCKREPETAG
1070
     1
1071
        7
1005
12AB56
  0
LINE
  5
12AB57
  8
OBJECT
 10
2140.0
 20
-3027.9999999999959
 30
0.0
 11
2140.0
 21
-3121.9999999999959
 31
0.0
1001
ACDBBLOCKREPETAG
1070
     1
1071
        8
1005
12AB57
  0
LINE
  5
12AB58
  8
OBJECT
 10
2140.0
 20
-3121.9999999999959
 30
0.0
 11
2133.0
 21
-3121.9999999999959
 31
0.0
1001
ACDBBLOCKREPETAG
1070
     1
1071
        9
1005
12AB58
  0
LINE
  5
12AB59
  8
OBJECT
 10
2133.0
 20
-3121.9999999999959
 30
0.0
 11
2133.0
 21
-3027.9999999999959
 31
0.0
1001
ACDBBLOCKREPETAG
1070
     1
1071
       10
1005
12AB59
  0
LINE
  5
12AB5A
  8
CENTER
 10
2155.0
 20
-3074.9999999999959
 30
0.0
 11
2080.0
 21
-3074.9999999999959
 31
0.0
1001
ACDBBLOCKREPETAG
1070
     1
1071
       11
1005
12AB5A
  0
LINE
  5
12AB5B
  8
OBJECT
 10
2133.0
 20
-3030.9999999999959
 30
0.0
 11
2097.0
 21
-3030.9999999999959
 31
0.0
1001
ACDBBLOCKREPETAG
1070
     1
1071
       12
1005
12AB5B
  0
LINE
  5
12AB5C
  8
OBJECT
 10
2097.0
 20
-3030.9999999999959
 30
0.0
 11
2097.0
 21
-3118.9999999999959
 31
0.0
1001
ACDBBLOCKREPETAG
1070
     1
1071
       13
1005
12AB5C
  0
LINE
  5
12AB5D
  8
OBJECT
 10
2097.0
 20
-3118.9999999999959
 30
0.0
 11
2133.0
 21
-3118.9999999999959
 31
0.0
1001
ACDBBLOCKREPETAG
1070
     1
1071
       14
1005
12AB5D
  0
LINE
  5
12AB5E
  8
OBJECT
 10
2093.0
 20
-3035.4999999999959
 30
0.0
 11
2086.0
 21
-3035.4999999999959
 31
0.0
1001
ACDBBLOCKREPETAG
1070
     1
1071
       15
1005
12AB5E
  0
LINE
  5
12AB5F
  8
OBJECT
 10
2086.0
 20
-3114.4999999999959
 30
0.0
 11
2093.0
 21
-3114.4999999999959
 31
0.0
1001
ACDBBLOCKREPETAG
1070
     1
1071
       16
1005
12AB5F
  0
LINE
  5
12AB60
  8
OBJECT
 10
2093.0
 20
-3114.4999999999959
 30
0.0
 11
2093.0
 21
-3035.4999999999959
 31
0.0
1001
ACDBBLOCKREPETAG
1070
     1
1071
       17
1005
12AB60
  0
LINE
  5
12AB61
  8
OBJECT
 10
2097.0
 20
-3030.9999999999959
 30
0.0
 11
2093.0
 21
-3035.4999999999959
 31
0.0
1001
ACDBBLOCKREPETAG
1070
     1
1071
       18
1005
12AB61
  0
LINE
  5
12AB62
  8
OBJECT
 10
2097.0
 20
-3118.9999999999959
 30
0.0
 11
2093.0
 21
-3114.4999999999959
 31
0.0
1001
ACDBBLOCKREPETAG
1070
     1
1071
       19
1005
12AB62
  0
LINE
  5
12AB63
  8
OBJECT
 10
2083.0
 20
-3012.9999999999959
 30
0.0
 11
2080.0
 21
-3012.9999999999959
 31
0.0
1001
ACDBBLOCKREPETAG
1070
     1
1071
       20
1005
12AB63
  0
ARC
  5
12AB64
  8
OBJECT
 10
2083.0
 20
-3015.9999999999959
 30
0.0
 40
3.0
 50
0.0
 51
90.0
1001
ACDBBLOCKREPETAG
1070
     1
1071
       21
1005
12AB64
  0
LINE
  5
12AB65
  8
OBJECT
 10
2080.0
 20
-3136.9999999999959
 30
0.0
 11
2083.0
 21
-3136.9999999999959
 31
0.0
1001
ACDBBLOCKREPETAG
1070
     1
1071
       22
1005
12AB65
  0
ARC
  5
12AB66
  8
OBJECT
 10
2083.0
 20
-3133.9999999999959
 30
0.0
 40
3.0
 50
270.0
 51
0.0
1001
ACDBBLOCKREPETAG
1070
     1
1071
       23
1005
12AB66
  0
LINE
  5
12AB67
  8
OBJECT
 10
2086.0
 20
-3133.9999999999959
 30
0.0
 11
2086.0
 21
-3015.9999999999959
 31
0.0
1001
ACDBBLOCKREPETAG
1070
     1
1071
       24
1005
12AB67
  0
LINE
  5
12AB68
  8
HIDDEN
 10
2088.0
 20
-3044.9999999999959
 30
0.0
 11
2088.0
 21
-3104.9999999999959
 31
0.0
1001
ACDBBLOCKREPETAG
1070
     1
1071
       25
1005
12AB68
  0
TEXT
  5
12AB69
  8
SLIM
 10
1896.75
 20
-3597.4999999999959
 30
0.0
 40
35.0
  1
通常枝50（1）
 41
0.75
  0
LINE
  5
12AB6A
  8
OBJECT
 10
2423.0
 20
-470.99999999999937
 30
0.0
 11
2423.0
 21
-449.99999999999937
 31
0.0
1001
ACDBBLOCKREPETAG
1070
     1
1071
       20
1005
12AB6A
  0
LINE
  5
12AB6B
  8
OBJECT
 10
2423.0
 20
-449.99999999999937
 30
0.0
 11
2577.0
 21
-449.99999999999937
 31
0.0
1001
ACDBBLOCKREPETAG
1070
     1
1071
       21
1005
12AB6B
  0
LINE
  5
12AB6C
  8
HIDDEN
 10
2443.0
 20
-519.99999999999955
 30
0.0
 11
2557.0
 21
-519.99999999999955
 31
0.0
1001
ACDBBLOCKREPETAG
1070
     1
1071
       22
1005
12AB6C
  0
LINE
  5
12AB6D
  8
OBJECT
 10
2577.0
 20
-449.99999999999937
 30
0.0
 11
2577.0
 21
-470.99999999999937
 31
0.0
1001
ACDBBLOCKREPETAG
1070
     1
1071
       23
1005
12AB6D
  0
LINE
  5
12AB6E
  8
OBJECT
 10
2577.0
 20
-470.99999999999937
 30
0.0
 11
2423.0
 21
-470.99999999999937
 31
0.0
1001
ACDBBLOCKREPETAG
1070
     1
1071
       24
1005
12AB6E
  0
LINE
  5
12AB6F
  8
CENTER
 10
2500.0
 20
-434.99999999999949
 30
0.0
 11
2500.0
 21
-669.99999999999955
 31
0.0
1001
ACDBBLOCKREPETAG
1070
     1
1071
       25
1005
12AB6F
  0
LINE
  5
12AB70
  8
OBJECT
 10
2425.0
 20
-533.99999999999955
 30
0.0
 11
2425.0
 21
-657.99999999999955
 31
0.0
1001
ACDBBLOCKREPETAG
1070
     1
1071
       26
1005
12AB70
  0
LINE
  5
12AB71
  8
OBJECT
 10
2428.0
 20
-470.99999999999937
 30
0.0
 11
2428.0
 21
-533.99999999999955
 31
0.0
1001
ACDBBLOCKREPETAG
1070
     1
1071
       27
1005
12AB71
  0
LINE
  5
12AB72
  8
OBJECT
 10
2572.0
 20
-533.99999999999955
 30
0.0
 11
2572.0
 21
-470.99999999999937
 31
0.0
1001
ACDBBLOCKREPETAG
1070
     1
1071
       28
1005
12AB72
  0
LINE
  5
12AB73
  8
OBJECT
 10
2420.0
 20
-657.99999999999955
 30
0.0
 11
2580.0
 21
-657.99999999999955
 31
0.0
1001
ACDBBLOCKREPETAG
1070
     1
1071
       29
1005
12AB73
  0
LINE
  5
12AB74
  8
OBJECT
 10
2575.0
 20
-533.99999999999955
 30
0.0
 11
2425.0
 21
-533.99999999999955
 31
0.0
1001
ACDBBLOCKREPETAG
1070
     1
1071
       30
1005
12AB74
  0
LINE
  5
12AB75
  8
OBJECT
 10
2420.0
 20
-657.99999999999955
 30
0.0
 11
2420.0
 21
-669.99999999999955
 31
0.0
1001
ACDBBLOCKREPETAG
1070
     1
1071
       31
1005
12AB75
  0
LINE
  5
12AB76
  8
OBJECT
 10
2420.0
 20
-669.99999999999955
 30
0.0
 11
2580.0
 21
-669.99999999999955
 31
0.0
1001
ACDBBLOCKREPETAG
1070
     1
1071
       32
1005
12AB76
  0
LINE
  5
12AB77
  8
OBJECT
 10
2580.0
 20
-669.99999999999955
 30
0.0
 11
2580.0
 21
-657.99999999999955
 31
0.0
1001
ACDBBLOCKREPETAG
1070
     1
1071
       33
1005
12AB77
  0
LINE
  5
12AB78
  8
OBJECT
 10
2575.0
 20
-533.99999999999955
 30
0.0
 11
2575.0
 21
-657.99999999999955
 31
0.0
1001
ACDBBLOCKREPETAG
1070
     1
1071
       34
1005
12AB78
  0
POINT
  5
12AB79
  8
DOTS
 10
2500.0
 20
-654.99999999999966
 30
0.0
1001
ACDBBLOCKREPETAG
1070
     1
1071
      187
1005
12AB79
  0
LINE
  5
12AB7A
  8
OBJECT
 10
1923.0
 20
-470.99999999999937
 30
0.0
 11
1923.0
 21
-449.99999999999937
 31
0.0
1001
ACDBBLOCKREPETAG
1070
     1
1071
        0
1005
12AB7A
  0
LINE
  5
12AB7B
  8
OBJECT
 10
1923.0
 20
-449.99999999999937
 30
0.0
 11
2077.0
 21
-449.99999999999937
 31
0.0
1001
ACDBBLOCKREPETAG
1070
     1
1071
        1
1005
12AB7B
  0
LINE
  5
12AB7C
  8
HIDDEN
 10
1943.0
 20
-519.99999999999955
 30
0.0
 11
2057.0
 21
-519.99999999999955
 31
0.0
1001
ACDBBLOCKREPETAG
1070
     1
1071
        2
1005
12AB7C
  0
LINE
  5
12AB7D
  8
OBJECT
 10
2077.0
 20
-449.99999999999937
 30
0.0
 11
2077.0
 21
-470.99999999999937
 31
0.0
1001
ACDBBLOCKREPETAG
1070
     1
1071
        3
1005
12AB7D
  0
LINE
  5
12AB7E
  8
OBJECT
 10
2077.0
 20
-470.99999999999937
 30
0.0
 11
1923.0
 21
-470.99999999999937
 31
0.0
1001
ACDBBLOCKREPETAG
1070
     1
1071
        4
1005
12AB7E
  0
LINE
  5
12AB7F
  8
CENTER
 10
2000.0
 20
-434.99999999999949
 30
0.0
 11
2000.0
 21
-669.99999999999955
 31
0.0
1001
ACDBBLOCKREPETAG
1070
     1
1071
        5
1005
12AB7F
  0
LINE
  5
12AB80
  8
OBJECT
 10
1925.0
 20
-533.99999999999955
 30
0.0
 11
1925.0
 21
-657.99999999999955
 31
0.0
1001
ACDBBLOCKREPETAG
1070
     1
1071
        6
1005
12AB80
  0
LINE
  5
12AB81
  8
OBJECT
 10
1928.0
 20
-470.99999999999937
 30
0.0
 11
1928.0
 21
-533.99999999999955
 31
0.0
1001
ACDBBLOCKREPETAG
1070
     1
1071
        7
1005
12AB81
  0
LINE
  5
12AB82
  8
OBJECT
 10
2072.0
 20
-533.99999999999955
 30
0.0
 11
2072.0
 21
-470.99999999999937
 31
0.0
1001
ACDBBLOCKREPETAG
1070
     1
1071
        8
1005
12AB82
  0
LINE
  5
12AB83
  8
OBJECT
 10
1920.0
 20
-657.99999999999955
 30
0.0
 11
2080.0
 21
-657.99999999999955
 31
0.0
1001
ACDBBLOCKREPETAG
1070
     1
1071
        9
1005
12AB83
  0
LINE
  5
12AB84
  8
OBJECT
 10
2080.0
 20
-533.99999999999955
 30
0.0
 11
1925.0
 21
-533.99999999999955
 31
0.0
1001
ACDBBLOCKREPETAG
1070
     1
1071
       10
1005
12AB84
  0
LINE
  5
12AB85
  8
OBJECT
 10
1920.0
 20
-657.99999999999955
 30
0.0
 11
1920.0
 21
-669.99999999999955
 31
0.0
1001
ACDBBLOCKREPETAG
1070
     1
1071
       11
1005
12AB85
  0
LINE
  5
12AB86
  8
OBJECT
 10
1920.0
 20
-669.99999999999955
 30
0.0
 11
2080.0
 21
-669.99999999999955
 31
0.0
1001
ACDBBLOCKREPETAG
1070
     1
1071
       12
1005
12AB86
  0
LINE
  5
12AB87
  8
OBJECT
 10
2080.0
 20
-669.99999999999955
 30
0.0
 11
2080.0
 21
-657.99999999999955
 31
0.0
1001
ACDBBLOCKREPETAG
1070
     1
1071
       13
1005
12AB87
  0
ARC
  5
12AB88
  8
OBJECT
 10
2200.6872746716731
 20
-649.40809941010718
 30
0.0
 40
170.6350503965856
 50
137.44134459184301
 51
149.91949581336559
1001
ACDBBLOCKREPETAG
1070
     1
1071
       15
1005
12AB88
  0
ARC
  5
12AB89
  8
OBJECT
 10
2118.8455987040511
 20
-605.88272669536445
 30
0.0
 40
78.072222021763665
 50
147.45515310377539
 51
164.6636599771798
1001
ACDBBLOCKREPETAG
1070
     1
1071
       16
1005
12AB89
  0
ARC
  5
12AB8A
  8
OBJECT
 10
2085.7554349608731
 20
-595.99999999999955
 30
0.0
 40
43.55353926885617
 50
165.6884523008477
 51
194.3115476991523
1001
ACDBBLOCKREPETAG
1070
     1
1071
       17
1005
12AB8A
  0
ARC
  5
12AB8B
  8
OBJECT
 10
2200.6872746716731
 20
-542.59190058989179
 30
0.0
 40
170.6350503965856
 50
210.0805041866343
 51
222.55865540815699
1001
ACDBBLOCKREPETAG
1070
     1
1071
       18
1005
12AB8B
  0
ARC
  5
12AB8C
  8
OBJECT
 10
2118.8455987040511
 20
-586.11727330463452
 30
0.0
 40
78.072222021763665
 50
195.3363400228202
 51
212.54484689622461
1001
ACDBBLOCKREPETAG
1070
     1
1071
       19
1005
12AB8C
  0
POINT
  5
12AB8D
  8
DOTS
 10
2000.0
 20
-654.99999999999966
 30
0.0
1001
ACDBBLOCKREPETAG
1070
     1
1071
      186
1005
12AB8D
  0
LINE
  5
12AB8E
  8
OBJECT
 10
4423.0
 20
-470.99999999999937
 30
0.0
 11
4423.0
 21
-449.99999999999937
 31
0.0
1001
ACDBBLOCKREPETAG
1070
     1
1071
       20
1005
12AB8E
  0
LINE
  5
12AB8F
  8
OBJECT
 10
4423.0
 20
-449.99999999999937
 30
0.0
 11
4577.0
 21
-449.99999999999937
 31
0.0
1001
ACDBBLOCKREPETAG
1070
     1
1071
       21
1005
12AB8F
  0
LINE
  5
12AB90
  8
HIDDEN
 10
4443.0
 20
-519.99999999999955
 30
0.0
 11
4557.0
 21
-519.99999999999955
 31
0.0
1001
ACDBBLOCKREPETAG
1070
     1
1071
       22
1005
12AB90
  0
LINE
  5
12AB91
  8
OBJECT
 10
4577.0
 20
-449.99999999999937
 30
0.0
 11
4577.0
 21
-470.99999999999937
 31
0.0
1001
ACDBBLOCKREPETAG
1070
     1
1071
       23
1005
12AB91
  0
LINE
  5
12AB92
  8
OBJECT
 10
4577.0
 20
-470.99999999999937
 30
0.0
 11
4423.0
 21
-470.99999999999937
 31
0.0
1001
ACDBBLOCKREPETAG
1070
     1
1071
       24
1005
12AB92
  0
LINE
  5
12AB93
  8
CENTER
 10
4500.0
 20
-434.99999999999949
 30
0.0
 11
4500.0
 21
-669.99999999999955
 31
0.0
1001
ACDBBLOCKREPETAG
1070
     1
1071
       25
1005
12AB93
  0
LINE
  5
12AB94
  8
OBJECT
 10
4425.0
 20
-533.99999999999955
 30
0.0
 11
4425.0
 21
-657.99999999999955
 31
0.0
1001
ACDBBLOCKREPETAG
1070
     1
1071
       26
1005
12AB94
  0
LINE
  5
12AB95
  8
OBJECT
 10
4428.0
 20
-470.99999999999937
 30
0.0
 11
4428.0
 21
-533.99999999999955
 31
0.0
1001
ACDBBLOCKREPETAG
1070
     1
1071
       27
1005
12AB95
  0
LINE
  5
12AB96
  8
OBJECT
 10
4572.0
 20
-533.99999999999955
 30
0.0
 11
4572.0
 21
-470.99999999999937
 31
0.0
1001
ACDBBLOCKREPETAG
1070
     1
1071
       28
1005
12AB96
  0
LINE
  5
12AB97
  8
OBJECT
 10
4420.0
 20
-657.99999999999955
 30
0.0
 11
4580.0
 21
-657.99999999999955
 31
0.0
1001
ACDBBLOCKREPETAG
1070
     1
1071
       29
1005
12AB97
  0
LINE
  5
12AB98
  8
OBJECT
 10
4575.0
 20
-533.99999999999955
 30
0.0
 11
4425.0
 21
-533.99999999999955
 31
0.0
1001
ACDBBLOCKREPETAG
1070
     1
1071
       30
1005
12AB98
  0
LINE
  5
12AB99
  8
OBJECT
 10
4420.0
 20
-657.99999999999955
 30
0.0
 11
4420.0
 21
-669.99999999999955
 31
0.0
1001
ACDBBLOCKREPETAG
1070
     1
1071
       31
1005
12AB99
  0
LINE
  5
12AB9A
  8
OBJECT
 10
4420.0
 20
-669.99999999999955
 30
0.0
 11
4580.0
 21
-669.99999999999955
 31
0.0
1001
ACDBBLOCKREPETAG
1070
     1
1071
       32
1005
12AB9A
  0
LINE
  5
12AB9B
  8
OBJECT
 10
4580.0
 20
-669.99999999999955
 30
0.0
 11
4580.0
 21
-657.99999999999955
 31
0.0
1001
ACDBBLOCKREPETAG
1070
     1
1071
       33
1005
12AB9B
  0
LINE
  5
12AB9C
  8
OBJECT
 10
4575.0
 20
-533.99999999999955
 30
0.0
 11
4575.0
 21
-657.99999999999955
 31
0.0
1001
ACDBBLOCKREPETAG
1070
     1
1071
       34
1005
12AB9C
  0
POINT
  5
12AB9D
  8
DOTS
 10
4500.0
 20
-654.99999999999966
 30
0.0
1001
ACDBBLOCKREPETAG
1070
     1
1071
      187
1005
12AB9D
  0
LINE
  5
12AB9E
  8
OBJECT
 10
3923.0
 20
-470.99999999999937
 30
0.0
 11
3923.0
 21
-449.99999999999937
 31
0.0
1001
ACDBBLOCKREPETAG
1070
     1
1071
        0
1005
12AB9E
  0
LINE
  5
12AB9F
  8
OBJECT
 10
3923.0
 20
-449.99999999999937
 30
0.0
 11
4077.0
 21
-449.99999999999937
 31
0.0
1001
ACDBBLOCKREPETAG
1070
     1
1071
        1
1005
12AB9F
  0
LINE
  5
12ABA0
  8
HIDDEN
 10
3943.0
 20
-519.99999999999955
 30
0.0
 11
4057.0
 21
-519.99999999999955
 31
0.0
1001
ACDBBLOCKREPETAG
1070
     1
1071
        2
1005
12ABA0
  0
LINE
  5
12ABA1
  8
OBJECT
 10
4077.0
 20
-449.99999999999937
 30
0.0
 11
4077.0
 21
-470.99999999999937
 31
0.0
1001
ACDBBLOCKREPETAG
1070
     1
1071
        3
1005
12ABA1
  0
LINE
  5
12ABA2
  8
OBJECT
 10
4077.0
 20
-470.99999999999937
 30
0.0
 11
3923.0
 21
-470.99999999999937
 31
0.0
1001
ACDBBLOCKREPETAG
1070
     1
1071
        4
1005
12ABA2
  0
LINE
  5
12ABA3
  8
CENTER
 10
4000.0
 20
-434.99999999999949
 30
0.0
 11
4000.0
 21
-669.99999999999955
 31
0.0
1001
ACDBBLOCKREPETAG
1070
     1
1071
        5
1005
12ABA3
  0
LINE
  5
12ABA4
  8
OBJECT
 10
3925.0
 20
-533.99999999999955
 30
0.0
 11
3925.0
 21
-657.99999999999955
 31
0.0
1001
ACDBBLOCKREPETAG
1070
     1
1071
        6
1005
12ABA4
  0
LINE
  5
12ABA5
  8
OBJECT
 10
3928.0
 20
-470.99999999999937
 30
0.0
 11
3928.0
 21
-533.99999999999955
 31
0.0
1001
ACDBBLOCKREPETAG
1070
     1
1071
        7
1005
12ABA5
  0
LINE
  5
12ABA6
  8
OBJECT
 10
4072.0
 20
-533.99999999999955
 30
0.0
 11
4072.0
 21
-470.99999999999937
 31
0.0
1001
ACDBBLOCKREPETAG
1070
     1
1071
        8
1005
12ABA6
  0
LINE
  5
12ABA7
  8
OBJECT
 10
3920.0
 20
-657.99999999999955
 30
0.0
 11
4080.0
 21
-657.99999999999955
 31
0.0
1001
ACDBBLOCKREPETAG
1070
     1
1071
        9
1005
12ABA7
  0
LINE
  5
12ABA8
  8
OBJECT
 10
4080.0
 20
-533.99999999999955
 30
0.0
 11
3925.0
 21
-533.99999999999955
 31
0.0
1001
ACDBBLOCKREPETAG
1070
     1
1071
       10
1005
12ABA8
  0
LINE
  5
12ABA9
  8
OBJECT
 10
3920.0
 20
-657.99999999999955
 30
0.0
 11
3920.0
 21
-669.99999999999955
 31
0.0
1001
ACDBBLOCKREPETAG
1070
     1
1071
       11
1005
12ABA9
  0
LINE
  5
12ABAA
  8
OBJECT
 10
3920.0
 20
-669.99999999999955
 30
0.0
 11
4080.0
 21
-669.99999999999955
 31
0.0
1001
ACDBBLOCKREPETAG
1070
     1
1071
       12
1005
12ABAA
  0
LINE
  5
12ABAB
  8
OBJECT
 10
4080.0
 20
-669.99999999999955
 30
0.0
 11
4080.0
 21
-657.99999999999955
 31
0.0
1001
ACDBBLOCKREPETAG
1070
     1
1071
       13
1005
12ABAB
  0
ARC
  5
12ABAC
  8
OBJECT
 10
4200.6872746716726
 20
-649.40809941010718
 30
0.0
 40
170.6350503965856
 50
137.44134459184301
 51
149.91949581337221
1001
ACDBBLOCKREPETAG
1070
     1
1071
       15
1005
12ABAC
  0
ARC
  5
12ABAD
  8
OBJECT
 10
4118.8455987040506
 20
-605.88272669536445
 30
0.0
 40
78.072222021763665
 50
147.4551531037684
 51
164.6636599771798
1001
ACDBBLOCKREPETAG
1070
     1
1071
       16
1005
12ABAD
  0
ARC
  5
12ABAE
  8
OBJECT
 10
4085.7554349608722
 20
-595.99999999999955
 30
0.0
 40
43.55353926885617
 50
165.6884523008477
 51
194.3115476991523
1001
ACDBBLOCKREPETAG
1070
     1
1071
       17
1005
12ABAE
  0
ARC
  5
12ABAF
  8
OBJECT
 10
4200.6872746716726
 20
-542.59190058989179
 30
0.0
 40
170.6350503965856
 50
210.08050418662771
 51
222.55865540815699
1001
ACDBBLOCKREPETAG
1070
     1
1071
       18
1005
12ABAF
  0
ARC
  5
12ABB0
  8
OBJECT
 10
4118.8455987040506
 20
-586.11727330463452
 30
0.0
 40
78.072222021763665
 50
195.3363400228202
 51
212.5448468962316
1001
ACDBBLOCKREPETAG
1070
     1
1071
       19
1005
12ABB0
  0
POINT
  5
12ABB1
  8
DOTS
 10
4000.0
 20
-654.99999999999966
 30
0.0
1001
ACDBBLOCKREPETAG
1070
     1
1071
      186
1005
12ABB1
  0
TEXT
  5
12ABB2
  8
SLIM
 10
1837.75
 20
282.50000000000011
 30
0.0
 40
35.0
  1
（枝管サイズ毎に寸法が異なります。管底の位置は全サイズで同じです）
 41
0.75
  0
TEXT
  5
12ABB3
  8
SLIM
 10
1850.0
 20
532.5
 30
0.0
 40
75.0
  1
側面図の代表機種
 41
0.75
  0
TEXT
  5
12ABB4
  8
SLIM
 10
1850.0
 20
369.99999999999989
 30
0.0
 40
100.0
  1
4SR-A3
 41
0.75
  0
LINE
  5
12ABB5
  8
OBJECT
 10
4133.0
 20
-137.99999999999909
 30
0.0
 11
4140.0
 21
-137.99999999999909
 31
0.0
1001
ACDBBLOCKREPETAG
1070
     1
1071
       47
1005
12ABB5
  0
LINE
  5
12ABB6
  8
OBJECT
 10
4140.0
 20
-137.99999999999909
 30
0.0
 11
4140.0
 21
-261.99999999999909
 31
0.0
1001
ACDBBLOCKREPETAG
1070
     1
1071
       48
1005
12ABB6
  0
LINE
  5
12ABB7
  8
OBJECT
 10
4140.0
 20
-261.99999999999909
 30
0.0
 11
4133.0
 21
-261.99999999999909
 31
0.0
1001
ACDBBLOCKREPETAG
1070
     1
1071
       49
1005
12ABB7
  0
LINE
  5
12ABB8
  8
OBJECT
 10
4133.0
 20
-261.99999999999909
 30
0.0
 11
4133.0
 21
-137.99999999999909
 31
0.0
1001
ACDBBLOCKREPETAG
1070
     1
1071
       50
1005
12ABB8
  0
LINE
  5
12ABB9
  8
CENTER
 10
4155.0
 20
-199.99999999999909
 30
0.0
 11
4080.0
 21
-199.99999999999909
 31
0.0
1001
ACDBBLOCKREPETAG
1070
     1
1071
       51
1005
12ABB9
  0
LINE
  5
12ABBA
  8
OBJECT
 10
4133.0
 20
-140.99999999999909
 30
0.0
 11
4097.0
 21
-140.99999999999909
 31
0.0
1001
ACDBBLOCKREPETAG
1070
     1
1071
       52
1005
12ABBA
  0
LINE
  5
12ABBB
  8
OBJECT
 10
4097.0
 20
-140.99999999999909
 30
0.0
 11
4097.0
 21
-258.99999999999909
 31
0.0
1001
ACDBBLOCKREPETAG
1070
     1
1071
       53
1005
12ABBB
  0
LINE
  5
12ABBC
  8
OBJECT
 10
4097.0
 20
-258.99999999999909
 30
0.0
 11
4133.0
 21
-258.99999999999909
 31
0.0
1001
ACDBBLOCKREPETAG
1070
     1
1071
       54
1005
12ABBC
  0
LINE
  5
12ABBD
  8
OBJECT
 10
4093.0
 20
-145.49999999999909
 30
0.0
 11
4086.0
 21
-145.49999999999909
 31
0.0
1001
ACDBBLOCKREPETAG
1070
     1
1071
       55
1005
12ABBD
  0
LINE
  5
12ABBE
  8
OBJECT
 10
4086.0
 20
-254.49999999999909
 30
0.0
 11
4093.0
 21
-254.49999999999909
 31
0.0
1001
ACDBBLOCKREPETAG
1070
     1
1071
       56
1005
12ABBE
  0
LINE
  5
12ABBF
  8
OBJECT
 10
4093.0
 20
-254.49999999999909
 30
0.0
 11
4093.0
 21
-145.49999999999909
 31
0.0
1001
ACDBBLOCKREPETAG
1070
     1
1071
       57
1005
12ABBF
  0
LINE
  5
12ABC0
  8
OBJECT
 10
4097.0
 20
-140.99999999999909
 30
0.0
 11
4093.0
 21
-145.49999999999909
 31
0.0
1001
ACDBBLOCKREPETAG
1070
     1
1071
       58
1005
12ABC0
  0
LINE
  5
12ABC1
  8
OBJECT
 10
4097.0
 20
-258.99999999999909
 30
0.0
 11
4093.0
 21
-254.49999999999909
 31
0.0
1001
ACDBBLOCKREPETAG
1070
     1
1071
       59
1005
12ABC1
  0
LINE
  5
12ABC2
  8
OBJECT
 10
4083.0
 20
-137.99999999999909
 30
0.0
 11
4080.0
 21
-137.99999999999909
 31
0.0
1001
ACDBBLOCKREPETAG
1070
     1
1071
       60
1005
12ABC2
  0
ARC
  5
12ABC3
  8
OBJECT
 10
4083.0
 20
-140.99999999999909
 30
0.0
 40
3.0
 50
0.0
 51
90.0
1001
ACDBBLOCKREPETAG
1070
     1
1071
       61
1005
12ABC3
  0
LINE
  5
12ABC4
  8
OBJECT
 10
4080.0
 20
-261.99999999999909
 30
0.0
 11
4083.0
 21
-261.99999999999909
 31
0.0
1001
ACDBBLOCKREPETAG
1070
     1
1071
       62
1005
12ABC4
  0
ARC
  5
12ABC5
  8
OBJECT
 10
4083.0
 20
-258.99999999999909
 30
0.0
 40
3.0
 50
270.0
 51
0.0
1001
ACDBBLOCKREPETAG
1070
     1
1071
       63
1005
12ABC5
  0
LINE
  5
12ABC6
  8
OBJECT
 10
4086.0
 20
-258.99999999999909
 30
0.0
 11
4086.0
 21
-140.99999999999909
 31
0.0
1001
ACDBBLOCKREPETAG
1070
     1
1071
       64
1005
12ABC6
  0
LINE
  5
12ABC7
  8
HIDDEN
 10
4088.0
 20
-155.49999999999909
 30
0.0
 11
4088.0
 21
-244.49999999999909
 31
0.0
1001
ACDBBLOCKREPETAG
1070
     1
1071
       65
1005
12ABC7
  0
LINE
  5
12ABC8
  8
CENTER
 10
4577.0
 20
-596.0
 30
0.0
 11
4423.0
 21
-596.0
 31
0.0
1001
ACDBBLOCKREPETAG
1070
     1
1071
       17
1005
12ABC8
  0
CIRCLE
  5
12ABC9
  8
OBJECT
 10
4500.0
 20
-596.0
 30
0.0
 40
41.5
1001
ACDBBLOCKREPETAG
1070
     1
1071
       19
1005
12ABC9
  0
CIRCLE
  5
12ABCA
  8
OBJECT
 10
4500.0
 20
-596.0
 30
0.0
 40
54.0
1001
ACDBBLOCKREPETAG
1070
     1
1071
       20
1005
12ABCA
  0
ARC
  5
12ABCB
  8
OBJECT
 10
4500.0
 20
-596.0
 30
0.0
 40
62.0
 50
287.89655112920718
 51
252.10344887079279
1001
ACDBBLOCKREPETAG
1070
     1
1071
       21
1005
12ABCB
  0
LINE
  5
12ABCC
  8
OBJECT
 10
4480.9474411167421
 20
-655.0
 30
0.0
 11
4519.052558883257
 21
-655.0
 31
0.0
1001
ACDBBLOCKREPETAG
1070
     1
1071
       22
1005
12ABCC
  0
LINE
  5
12ABCD
  8
OBJECT
 10
4133.0
 20
-534.0
 30
0.0
 11
4140.0
 21
-534.0
 31
0.0
1001
ACDBBLOCKREPETAG
1070
     1
1071
       45
1005
12ABCD
  0
LINE
  5
12ABCE
  8
OBJECT
 10
4140.0
 20
-534.0
 30
0.0
 11
4140.0
 21
-655.0
 31
0.0
1001
ACDBBLOCKREPETAG
1070
     1
1071
       46
1005
12ABCE
  0
LINE
  5
12ABCF
  8
OBJECT
 10
4133.0
 20
-655.0
 30
0.0
 11
4133.0
 21
-534.0
 31
0.0
1001
ACDBBLOCKREPETAG
1070
     1
1071
       47
1005
12ABCF
  0
LINE
  5
12ABD0
  8
CENTER
 10
4155.0
 20
-596.0
 30
0.0
 11
4071.0
 21
-596.0
 31
0.0
1001
ACDBBLOCKREPETAG
1070
     1
1071
       48
1005
12ABD0
  0
LINE
  5
12ABD1
  8
OBJECT
 10
4133.0
 20
-537.0
 30
0.0
 11
4097.0
 21
-537.0
 31
0.0
1001
ACDBBLOCKREPETAG
1070
     1
1071
       49
1005
12ABD1
  0
LINE
  5
12ABD2
  8
OBJECT
 10
4097.0
 20
-537.0
 30
0.0
 11
4097.0
 21
-655.0
 31
0.0
1001
ACDBBLOCKREPETAG
1070
     1
1071
       50
1005
12ABD2
  0
LINE
  5
12ABD3
  8
OBJECT
 10
4097.0
 20
-655.0
 30
0.0
 11
4140.0
 21
-655.0
 31
0.0
1001
ACDBBLOCKREPETAG
1070
     1
1071
       51
1005
12ABD3
  0
LINE
  5
12ABD4
  8
OBJECT
 10
4093.0
 20
-541.5
 30
0.0
 11
4086.0
 21
-541.5
 31
0.0
1001
ACDBBLOCKREPETAG
1070
     1
1071
       52
1005
12ABD4
  0
LINE
  5
12ABD5
  8
OBJECT
 10
4086.0
 20
-650.49999999999989
 30
0.0
 11
4093.0
 21
-650.49999999999989
 31
0.0
1001
ACDBBLOCKREPETAG
1070
     1
1071
       53
1005
12ABD5
  0
LINE
  5
12ABD6
  8
OBJECT
 10
4093.0
 20
-650.49999999999989
 30
0.0
 11
4093.0
 21
-541.5
 31
0.0
1001
ACDBBLOCKREPETAG
1070
     1
1071
       54
1005
12ABD6
  0
LINE
  5
12ABD7
  8
OBJECT
 10
4097.0
 20
-537.0
 30
0.0
 11
4093.0
 21
-541.5
 31
0.0
1001
ACDBBLOCKREPETAG
1070
     1
1071
       55
1005
12ABD7
  0
LINE
  5
12ABD8
  8
OBJECT
 10
4097.0
 20
-655.0
 30
0.0
 11
4093.0
 21
-650.49999999999989
 31
0.0
1001
ACDBBLOCKREPETAG
1070
     1
1071
       56
1005
12ABD8
  0
LINE
  5
12ABD9
  8
OBJECT
 10
4083.0
 20
-534.0
 30
0.0
 11
4080.0
 21
-534.0
 31
0.0
1001
ACDBBLOCKREPETAG
1070
     1
1071
       57
1005
12ABD9
  0
ARC
  5
12ABDA
  8
OBJECT
 10
4083.0
 20
-537.0
 30
0.0
 40
3.0
 50
0.0
 51
90.0
1001
ACDBBLOCKREPETAG
1070
     1
1071
       58
1005
12ABDA
  0
LINE
  5
12ABDB
  8
OBJECT
 10
4080.0
 20
-658.0
 30
0.0
 11
4083.0
 21
-658.0
 31
0.0
1001
ACDBBLOCKREPETAG
1070
     1
1071
       59
1005
12ABDB
  0
ARC
  5
12ABDC
  8
OBJECT
 10
4083.0
 20
-655.0
 30
0.0
 40
3.0
 50
270.0
 51
0.0
1001
ACDBBLOCKREPETAG
1070
     1
1071
       60
1005
12ABDC
  0
LINE
  5
12ABDD
  8
OBJECT
 10
4086.0
 20
-655.0
 30
0.0
 11
4086.0
 21
-537.0
 31
0.0
1001
ACDBBLOCKREPETAG
1070
     1
1071
       61
1005
12ABDD
  0
LINE
  5
12ABDE
  8
HIDDEN
 10
4088.0
 20
-551.49999999999977
 30
0.0
 11
4088.0
 21
-640.5
 31
0.0
1001
ACDBBLOCKREPETAG
1070
     1
1071
       63
1005
12ABDE
  0
LINE
  5
12ABDF
  8
CENTER
 10
2577.0
 20
-596.0
 30
0.0
 11
2423.0
 21
-596.0
 31
0.0
1001
ACDBBLOCKREPETAG
1070
     1
1071
       17
1005
12ABDF
  0
CIRCLE
  5
12ABE0
  8
OBJECT
 10
2500.0
 20
-596.0
 30
0.0
 40
41.5
1001
ACDBBLOCKREPETAG
1070
     1
1071
       19
1005
12ABE0
  0
CIRCLE
  5
12ABE1
  8
OBJECT
 10
2500.0
 20
-596.0
 30
0.0
 40
54.0
1001
ACDBBLOCKREPETAG
1070
     1
1071
       20
1005
12ABE1
  0
ARC
  5
12ABE2
  8
OBJECT
 10
2500.0
 20
-596.0
 30
0.0
 40
62.0
 50
287.89655112920718
 51
252.10344887079279
1001
ACDBBLOCKREPETAG
1070
     1
1071
       21
1005
12ABE2
  0
LINE
  5
12ABE3
  8
OBJECT
 10
2480.947441116743
 20
-655.0
 30
0.0
 11
2519.052558883257
 21
-655.0
 31
0.0
1001
ACDBBLOCKREPETAG
1070
     1
1071
       22
1005
12ABE3
  0
LINE
  5
12ABE4
  8
OBJECT
 10
2133.0
 20
-534.0
 30
0.0
 11
2140.0
 21
-534.0
 31
0.0
1001
ACDBBLOCKREPETAG
1070
     1
1071
       45
1005
12ABE4
  0
LINE
  5
12ABE5
  8
OBJECT
 10
2140.0
 20
-534.0
 30
0.0
 11
2140.0
 21
-655.0
 31
0.0
1001
ACDBBLOCKREPETAG
1070
     1
1071
       46
1005
12ABE5
  0
LINE
  5
12ABE6
  8
OBJECT
 10
2133.0
 20
-655.0
 30
0.0
 11
2133.0
 21
-534.0
 31
0.0
1001
ACDBBLOCKREPETAG
1070
     1
1071
       47
1005
12ABE6
  0
LINE
  5
12ABE7
  8
CENTER
 10
2155.0
 20
-596.0
 30
0.0
 11
2071.0
 21
-596.0
 31
0.0
1001
ACDBBLOCKREPETAG
1070
     1
1071
       48
1005
12ABE7
  0
LINE
  5
12ABE8
  8
OBJECT
 10
2133.0
 20
-537.0
 30
0.0
 11
2097.0
 21
-537.0
 31
0.0
1001
ACDBBLOCKREPETAG
1070
     1
1071
       49
1005
12ABE8
  0
LINE
  5
12ABE9
  8
OBJECT
 10
2097.0
 20
-537.0
 30
0.0
 11
2097.0
 21
-655.0
 31
0.0
1001
ACDBBLOCKREPETAG
1070
     1
1071
       50
1005
12ABE9
  0
LINE
  5
12ABEA
  8
OBJECT
 10
2097.0
 20
-655.0
 30
0.0
 11
2140.0
 21
-655.0
 31
0.0
1001
ACDBBLOCKREPETAG
1070
     1
1071
       51
1005
12ABEA
  0
LINE
  5
12ABEB
  8
OBJECT
 10
2093.0
 20
-541.5
 30
0.0
 11
2086.0
 21
-541.5
 31
0.0
1001
ACDBBLOCKREPETAG
1070
     1
1071
       52
1005
12ABEB
  0
LINE
  5
12ABEC
  8
OBJECT
 10
2086.0
 20
-650.49999999999989
 30
0.0
 11
2093.0
 21
-650.49999999999989
 31
0.0
1001
ACDBBLOCKREPETAG
1070
     1
1071
       53
1005
12ABEC
  0
LINE
  5
12ABED
  8
OBJECT
 10
2093.0
 20
-650.49999999999989
 30
0.0
 11
2093.0
 21
-541.5
 31
0.0
1001
ACDBBLOCKREPETAG
1070
     1
1071
       54
1005
12ABED
  0
LINE
  5
12ABEE
  8
OBJECT
 10
2097.0
 20
-537.0
 30
0.0
 11
2093.0
 21
-541.5
 31
0.0
1001
ACDBBLOCKREPETAG
1070
     1
1071
       55
1005
12ABEE
  0
LINE
  5
12ABEF
  8
OBJECT
 10
2097.0
 20
-655.0
 30
0.0
 11
2093.0
 21
-650.49999999999989
 31
0.0
1001
ACDBBLOCKREPETAG
1070
     1
1071
       56
1005
12ABEF
  0
LINE
  5
12ABF0
  8
OBJECT
 10
2083.0
 20
-534.0
 30
0.0
 11
2080.0
 21
-534.0
 31
0.0
1001
ACDBBLOCKREPETAG
1070
     1
1071
       57
1005
12ABF0
  0
ARC
  5
12ABF1
  8
OBJECT
 10
2083.0
 20
-537.0
 30
0.0
 40
3.0
 50
0.0
 51
90.0
1001
ACDBBLOCKREPETAG
1070
     1
1071
       58
1005
12ABF1
  0
LINE
  5
12ABF2
  8
OBJECT
 10
2080.0
 20
-658.0
 30
0.0
 11
2083.0
 21
-658.0
 31
0.0
1001
ACDBBLOCKREPETAG
1070
     1
1071
       59
1005
12ABF2
  0
ARC
  5
12ABF3
  8
OBJECT
 10
2083.0
 20
-655.0
 30
0.0
 40
3.0
 50
270.0
 51
0.0
1001
ACDBBLOCKREPETAG
1070
     1
1071
       60
1005
12ABF3
  0
LINE
  5
12ABF4
  8
OBJECT
 10
2086.0
 20
-655.0
 30
0.0
 11
2086.0
 21
-537.0
 31
0.0
1001
ACDBBLOCKREPETAG
1070
     1
1071
       61
1005
12ABF4
  0
LINE
  5
12ABF5
  8
HIDDEN
 10
2088.0
 20
-551.49999999999977
 30
0.0
 11
2088.0
 21
-640.5
 31
0.0
1001
ACDBBLOCKREPETAG
1070
     1
1071
       63
1005
12ABF5
  0
LINE
  5
12ABF6
  8
OBJECT
 10
2133.0
 20
-137.99999999999909
 30
0.0
 11
2140.0
 21
-137.99999999999909
 31
0.0
1001
ACDBBLOCKREPETAG
1070
     1
1071
       47
1005
12ABF6
  0
LINE
  5
12ABF7
  8
OBJECT
 10
2140.0
 20
-137.99999999999909
 30
0.0
 11
2140.0
 21
-261.99999999999909
 31
0.0
1001
ACDBBLOCKREPETAG
1070
     1
1071
       48
1005
12ABF7
  0
LINE
  5
12ABF8
  8
OBJECT
 10
2140.0
 20
-261.99999999999909
 30
0.0
 11
2133.0
 21
-261.99999999999909
 31
0.0
1001
ACDBBLOCKREPETAG
1070
     1
1071
       49
1005
12ABF8
  0
LINE
  5
12ABF9
  8
OBJECT
 10
2133.0
 20
-261.99999999999909
 30
0.0
 11
2133.0
 21
-137.99999999999909
 31
0.0
1001
ACDBBLOCKREPETAG
1070
     1
1071
       50
1005
12ABF9
  0
LINE
  5
12ABFA
  8
CENTER
 10
2155.0
 20
-199.99999999999909
 30
0.0
 11
2080.0
 21
-199.99999999999909
 31
0.0
1001
ACDBBLOCKREPETAG
1070
     1
1071
       51
1005
12ABFA
  0
LINE
  5
12ABFB
  8
OBJECT
 10
2133.0
 20
-140.99999999999909
 30
0.0
 11
2097.0
 21
-140.99999999999909
 31
0.0
1001
ACDBBLOCKREPETAG
1070
     1
1071
       52
1005
12ABFB
  0
LINE
  5
12ABFC
  8
OBJECT
 10
2097.0
 20
-140.99999999999909
 30
0.0
 11
2097.0
 21
-258.99999999999909
 31
0.0
1001
ACDBBLOCKREPETAG
1070
     1
1071
       53
1005
12ABFC
  0
LINE
  5
12ABFD
  8
OBJECT
 10
2097.0
 20
-258.99999999999909
 30
0.0
 11
2133.0
 21
-258.99999999999909
 31
0.0
1001
ACDBBLOCKREPETAG
1070
     1
1071
       54
1005
12ABFD
  0
LINE
  5
12ABFE
  8
OBJECT
 10
2093.0
 20
-145.49999999999909
 30
0.0
 11
2086.0
 21
-145.49999999999909
 31
0.0
1001
ACDBBLOCKREPETAG
1070
     1
1071
       55
1005
12ABFE
  0
LINE
  5
12ABFF
  8
OBJECT
 10
2086.0
 20
-254.49999999999909
 30
0.0
 11
2093.0
 21
-254.49999999999909
 31
0.0
1001
ACDBBLOCKREPETAG
1070
     1
1071
       56
1005
12ABFF
  0
LINE
  5
12AC00
  8
OBJECT
 10
2093.0
 20
-254.49999999999909
 30
0.0
 11
2093.0
 21
-145.49999999999909
 31
0.0
1001
ACDBBLOCKREPETAG
1070
     1
1071
       57
1005
12AC00
  0
LINE
  5
12AC01
  8
OBJECT
 10
2097.0
 20
-140.99999999999909
 30
0.0
 11
2093.0
 21
-145.49999999999909
 31
0.0
1001
ACDBBLOCKREPETAG
1070
     1
1071
       58
1005
12AC01
  0
LINE
  5
12AC02
  8
OBJECT
 10
2097.0
 20
-258.99999999999909
 30
0.0
 11
2093.0
 21
-254.49999999999909
 31
0.0
1001
ACDBBLOCKREPETAG
1070
     1
1071
       59
1005
12AC02
  0
LINE
  5
12AC03
  8
OBJECT
 10
2083.0
 20
-137.99999999999909
 30
0.0
 11
2080.0
 21
-137.99999999999909
 31
0.0
1001
ACDBBLOCKREPETAG
1070
     1
1071
       60
1005
12AC03
  0
ARC
  5
12AC04
  8
OBJECT
 10
2083.0
 20
-140.99999999999909
 30
0.0
 40
3.0
 50
0.0
 51
90.0
1001
ACDBBLOCKREPETAG
1070
     1
1071
       61
1005
12AC04
  0
LINE
  5
12AC05
  8
OBJECT
 10
2080.0
 20
-261.99999999999909
 30
0.0
 11
2083.0
 21
-261.99999999999909
 31
0.0
1001
ACDBBLOCKREPETAG
1070
     1
1071
       62
1005
12AC05
  0
ARC
  5
12AC06
  8
OBJECT
 10
2083.0
 20
-258.99999999999909
 30
0.0
 40
3.0
 50
270.0
 51
0.0
1001
ACDBBLOCKREPETAG
1070
     1
1071
       63
1005
12AC06
  0
LINE
  5
12AC07
  8
OBJECT
 10
2086.0
 20
-258.99999999999909
 30
0.0
 11
2086.0
 21
-140.99999999999909
 31
0.0
1001
ACDBBLOCKREPETAG
1070
     1
1071
       64
1005
12AC07
  0
LINE
  5
12AC08
  8
HIDDEN
 10
2088.0
 20
-155.49999999999909
 30
0.0
 11
2088.0
 21
-244.49999999999909
 31
0.0
1001
ACDBBLOCKREPETAG
1070
     1
1071
       65
1005
12AC08
  0
LINE
  5
12AC09
  8
OBJECT
 10
465.00000000012182
 20
-546.00000000000955
 30
0.0
 11
465.00000000012182
 21
-553.00000000000966
 31
0.0
1001
ACDBBLOCKREPETAG
1070
     1
1071
       57
1005
12AC09
  0
LINE
  5
12AC0A
  8
OBJECT
 10
465.00000000012182
 20
-553.00000000000966
 30
0.0
 11
615.00000000012176
 21
-553.00000000000966
 31
0.0
1001
ACDBBLOCKREPETAG
1070
     1
1071
       58
1005
12AC0A
  0
LINE
  5
12AC0B
  8
OBJECT
 10
468.00000000012182
 20
-594.50000000000966
 30
0.0
 11
612.00000000012164
 21
-594.50000000000966
 31
0.0
1001
ACDBBLOCKREPETAG
1070
     1
1071
       59
1005
12AC0B
  0
LINE
  5
12AC0C
  8
OBJECT
 10
474.5000000001217
 20
-606.00000000000955
 30
0.0
 11
605.50000000012187
 21
-606.00000000000955
 31
0.0
1001
ACDBBLOCKREPETAG
1070
     1
1071
       60
1005
12AC0C
  0
LINE
  5
12AC0D
  8
OBJECT
 10
615.00000000012176
 20
-553.00000000000966
 30
0.0
 11
615.00000000012176
 21
-546.00000000000955
 31
0.0
1001
ACDBBLOCKREPETAG
1070
     1
1071
       61
1005
12AC0D
  0
LINE
  5
12AC0E
  8
OBJECT
 10
615.00000000012176
 20
-546.00000000000955
 30
0.0
 11
465.00000000012182
 21
-546.00000000000955
 31
0.0
1001
ACDBBLOCKREPETAG
1070
     1
1071
       62
1005
12AC0E
  0
LINE
  5
12AC0F
  8
OBJECT
 10
602.00000000012187
 20
-610.00000000000955
 30
0.0
 11
602.00000000012187
 21
-616.00000000000955
 31
0.0
1001
ACDBBLOCKREPETAG
1070
     1
1071
       63
1005
12AC0F
  0
LINE
  5
12AC10
  8
OBJECT
 10
612.00000000012164
 20
-553.00000000000966
 30
0.0
 11
612.00000000012164
 21
-594.50000000000966
 31
0.0
1001
ACDBBLOCKREPETAG
1070
     1
1071
       64
1005
12AC10
  0
LINE
  5
12AC11
  8
OBJECT
 10
612.00000000012164
 20
-594.50000000000966
 30
0.0
 11
605.50000000012187
 21
-606.00000000000955
 31
0.0
1001
ACDBBLOCKREPETAG
1070
     1
1071
       65
1005
12AC11
  0
LINE
  5
12AC12
  8
OBJECT
 10
605.50000000012187
 20
-606.00000000000955
 30
0.0
 11
602.00000000012187
 21
-610.00000000000955
 31
0.0
1001
ACDBBLOCKREPETAG
1070
     1
1071
       66
1005
12AC12
  0
LINE
  5
12AC13
  8
OBJECT
 10
468.00000000012182
 20
-594.50000000000966
 30
0.0
 11
474.5000000001217
 21
-606.00000000000955
 31
0.0
1001
ACDBBLOCKREPETAG
1070
     1
1071
       67
1005
12AC13
  0
LINE
  5
12AC14
  8
OBJECT
 10
474.5000000001217
 20
-606.00000000000955
 30
0.0
 11
478.0000000001217
 21
-610.00000000000955
 31
0.0
1001
ACDBBLOCKREPETAG
1070
     1
1071
       68
1005
12AC14
  0
ARC
  5
12AC15
  8
OBJECT
 10
540.00000000012176
 20
-228.10000000000809
 30
0.0
 40
386.89999999999998
 50
260.77870136257951
 51
279.22129863742049
1001
ACDBBLOCKREPETAG
1070
     1
1071
       69
1005
12AC15
  0
LINE
  5
12AC16
  8
OBJECT
 10
478.0000000001217
 20
-610.00000000000955
 30
0.0
 11
478.0000000001217
 21
-616.00000000000955
 31
0.0
1001
ACDBBLOCKREPETAG
1070
     1
1071
       70
1005
12AC16
  0
LINE
  5
12AC17
  8
OBJECT
 10
468.00000000012182
 20
-553.00000000000966
 30
0.0
 11
468.00000000012182
 21
-594.50000000000966
 31
0.0
1001
ACDBBLOCKREPETAG
1070
     1
1071
       71
1005
12AC17
  0
INSERT
  5
12AC18
  8
OBJECT
  2
*U46
 10
0.0
 20
0.0
 30
0.0
  0
LINE
  5
12AC19
  8
HIDDEN
 10
597.00000000012187
 20
-598.00000000000955
 30
0.0
 11
483.0000000001217
 21
-598.00000000000955
 31
0.0
1001
ACDBBLOCKREPETAG
1070
     1
1071
      431
1005
12AC19
  0
INSERT
  5
12AC1A
  8
OBJECT
  2
*U47
 10
0.0
 20
0.0
 30
0.0
  0
LINE
  5
12AC1B
  8
OBJECT
 10
118.00000000004179
 20
-563.00000000000955
 30
0.0
 11
118.00000000004179
 21
-556.00000000000955
 31
0.0
1001
ACDBBLOCKREPETAG
1070
     1
1071
       39
1005
12AC1B
  0
LINE
  5
12AC1C
  8
OBJECT
 10
118.00000000004179
 20
-556.00000000000955
 30
0.0
 11
242.00000000004181
 21
-556.00000000000955
 31
0.0
1001
ACDBBLOCKREPETAG
1070
     1
1071
       40
1005
12AC1C
  0
LINE
  5
12AC1D
  8
OBJECT
 10
242.00000000004181
 20
-556.00000000000955
 30
0.0
 11
242.00000000004181
 21
-563.00000000000955
 31
0.0
1001
ACDBBLOCKREPETAG
1070
     1
1071
       41
1005
12AC1D
  0
LINE
  5
12AC1E
  8
OBJECT
 10
242.00000000004181
 20
-563.00000000000955
 30
0.0
 11
118.00000000004179
 21
-563.00000000000955
 31
0.0
1001
ACDBBLOCKREPETAG
1070
     1
1071
       42
1005
12AC1E
  0
LINE
  5
12AC1F
  8
OBJECT
 10
121.00000000004179
 20
-563.00000000000955
 30
0.0
 11
121.00000000004179
 21
-599.00000000000966
 31
0.0
1001
ACDBBLOCKREPETAG
1070
     1
1071
       43
1005
12AC1F
  0
LINE
  5
12AC20
  8
OBJECT
 10
121.00000000004179
 20
-599.00000000000966
 30
0.0
 11
239.00000000004181
 21
-599.00000000000966
 31
0.0
1001
ACDBBLOCKREPETAG
1070
     1
1071
       44
1005
12AC20
  0
LINE
  5
12AC21
  8
OBJECT
 10
239.00000000004181
 20
-599.00000000000966
 30
0.0
 11
239.00000000004181
 21
-563.00000000000955
 31
0.0
1001
ACDBBLOCKREPETAG
1070
     1
1071
       45
1005
12AC21
  0
LINE
  5
12AC22
  8
OBJECT
 10
125.50000000004179
 20
-603.00000000000966
 30
0.0
 11
125.50000000004179
 21
-610.00000000000955
 31
0.0
1001
ACDBBLOCKREPETAG
1070
     1
1071
       46
1005
12AC22
  0
LINE
  5
12AC23
  8
OBJECT
 10
234.50000000004181
 20
-610.00000000000955
 30
0.0
 11
234.50000000004181
 21
-603.00000000000966
 31
0.0
1001
ACDBBLOCKREPETAG
1070
     1
1071
       47
1005
12AC23
  0
LINE
  5
12AC24
  8
OBJECT
 10
234.50000000004181
 20
-603.00000000000966
 30
0.0
 11
125.50000000004179
 21
-603.00000000000966
 31
0.0
1001
ACDBBLOCKREPETAG
1070
     1
1071
       48
1005
12AC24
  0
LINE
  5
12AC25
  8
OBJECT
 10
121.00000000004179
 20
-599.00000000000966
 30
0.0
 11
125.50000000004179
 21
-603.00000000000966
 31
0.0
1001
ACDBBLOCKREPETAG
1070
     1
1071
       49
1005
12AC25
  0
LINE
  5
12AC26
  8
OBJECT
 10
239.00000000004181
 20
-599.00000000000966
 30
0.0
 11
234.50000000004181
 21
-603.00000000000966
 31
0.0
1001
ACDBBLOCKREPETAG
1070
     1
1071
       50
1005
12AC26
  0
LINE
  5
12AC27
  8
OBJECT
 10
118.00000000004179
 20
-613.00000000000864
 30
0.0
 11
118.00000000004179
 21
-616.00000000000955
 31
0.0
1001
ACDBBLOCKREPETAG
1070
     1
1071
       51
1005
12AC27
  0
ARC
  5
12AC28
  8
OBJECT
 10
121.00000000004179
 20
-613.00000000000864
 30
0.0
 40
3.0
 50
90.0
 51
180.0
1001
ACDBBLOCKREPETAG
1070
     1
1071
       52
1005
12AC28
  0
LINE
  5
12AC29
  8
OBJECT
 10
242.00000000004181
 20
-616.00000000000955
 30
0.0
 11
242.00000000004181
 21
-613.00000000001035
 31
0.0
1001
ACDBBLOCKREPETAG
1070
     1
1071
       53
1005
12AC29
  0
ARC
  5
12AC2A
  8
OBJECT
 10
239.00000000004181
 20
-613.00000000001035
 30
0.0
 40
3.0
 50
0.0
 51
90.0
1001
ACDBBLOCKREPETAG
1070
     1
1071
       54
1005
12AC2A
  0
LINE
  5
12AC2B
  8
OBJECT
 10
239.00000000004181
 20
-610.00000000001035
 30
0.0
 11
121.00000000004179
 21
-610.00000000000864
 31
0.0
1001
ACDBBLOCKREPETAG
1070
     1
1071
       55
1005
12AC2B
  0
LINE
  5
12AC2C
  8
HIDDEN
 10
135.50000000004181
 20
-608.00000000000955
 30
0.0
 11
224.50000000004181
 21
-608.00000000000955
 31
0.0
1001
ACDBBLOCKREPETAG
1070
     1
1071
      426
1005
12AC2C
  0
INSERT
  5
12AC2D
  8
OBJECT
  2
*U48
 10
0.0
 20
0.0
 30
0.0
  0
LINE
  5
12AC2E
  8
OBJECT
 10
485.00000000012182
 20
-99.000000000003183
 30
0.0
 11
485.00000000012182
 21
-92.000000000003183
 31
0.0
1001
ACDBBLOCKREPETAG
1070
     1
1071
       20
1005
12AC2E
  0
LINE
  5
12AC2F
  8
OBJECT
 10
485.00000000012182
 20
-92.000000000003183
 30
0.0
 11
595.00000000012164
 21
-92.000000000003183
 31
0.0
1001
ACDBBLOCKREPETAG
1070
     1
1071
       21
1005
12AC2F
  0
LINE
  5
12AC30
  8
OBJECT
 10
595.00000000012164
 20
-92.000000000003183
 30
0.0
 11
595.00000000012164
 21
-99.000000000003183
 31
0.0
1001
ACDBBLOCKREPETAG
1070
     1
1071
       22
1005
12AC30
  0
LINE
  5
12AC31
  8
OBJECT
 10
595.00000000012164
 20
-99.000000000003183
 30
0.0
 11
485.00000000012182
 21
-99.000000000003183
 31
0.0
1001
ACDBBLOCKREPETAG
1070
     1
1071
       23
1005
12AC31
  0
LINE
  5
12AC32
  8
OBJECT
 10
488.0000000001217
 20
-99.000000000003183
 30
0.0
 11
488.0000000001217
 21
-135.00000000000321
 31
0.0
1001
ACDBBLOCKREPETAG
1070
     1
1071
       24
1005
12AC32
  0
LINE
  5
12AC33
  8
OBJECT
 10
488.0000000001217
 20
-135.00000000000321
 30
0.0
 11
592.00000000012164
 21
-135.00000000000321
 31
0.0
1001
ACDBBLOCKREPETAG
1070
     1
1071
       25
1005
12AC33
  0
LINE
  5
12AC34
  8
OBJECT
 10
592.00000000012164
 20
-135.00000000000321
 30
0.0
 11
592.00000000012164
 21
-99.000000000003183
 31
0.0
1001
ACDBBLOCKREPETAG
1070
     1
1071
       26
1005
12AC34
  0
LINE
  5
12AC35
  8
OBJECT
 10
492.5000000001217
 20
-139.00000000000321
 30
0.0
 11
492.5000000001217
 21
-146.00000000000321
 31
0.0
1001
ACDBBLOCKREPETAG
1070
     1
1071
       27
1005
12AC35
  0
LINE
  5
12AC36
  8
OBJECT
 10
587.50000000012164
 20
-146.00000000000321
 30
0.0
 11
587.50000000012164
 21
-139.00000000000321
 31
0.0
1001
ACDBBLOCKREPETAG
1070
     1
1071
       28
1005
12AC36
  0
LINE
  5
12AC37
  8
OBJECT
 10
587.50000000012164
 20
-139.00000000000321
 30
0.0
 11
492.5000000001217
 21
-139.00000000000321
 31
0.0
1001
ACDBBLOCKREPETAG
1070
     1
1071
       29
1005
12AC37
  0
LINE
  5
12AC38
  8
OBJECT
 10
488.0000000001217
 20
-135.00000000000321
 30
0.0
 11
492.5000000001217
 21
-139.00000000000321
 31
0.0
1001
ACDBBLOCKREPETAG
1070
     1
1071
       30
1005
12AC38
  0
LINE
  5
12AC39
  8
OBJECT
 10
592.00000000012164
 20
-135.00000000000321
 30
0.0
 11
587.50000000012164
 21
-139.00000000000321
 31
0.0
1001
ACDBBLOCKREPETAG
1070
     1
1071
       31
1005
12AC39
  0
LINE
  5
12AC3A
  8
OBJECT
 10
478.0000000001217
 20
-149.0000000000023
 30
0.0
 11
478.0000000001217
 21
-152.0000000000031
 31
0.0
1001
ACDBBLOCKREPETAG
1070
     1
1071
       32
1005
12AC3A
  0
ARC
  5
12AC3B
  8
OBJECT
 10
481.00000000012182
 20
-149.0000000000023
 30
0.0
 40
3.0
 50
90.0
 51
180.0
1001
ACDBBLOCKREPETAG
1070
     1
1071
       33
1005
12AC3B
  0
LINE
  5
12AC3C
  8
OBJECT
 10
602.00000000012187
 20
-152.0000000000031
 30
0.0
 11
602.00000000012187
 21
-149.00000000000409
 31
0.0
1001
ACDBBLOCKREPETAG
1070
     1
1071
       34
1005
12AC3C
  0
ARC
  5
12AC3D
  8
OBJECT
 10
599.00000000012164
 20
-149.00000000000409
 30
0.0
 40
3.0
 50
0.0
 51
90.0
1001
ACDBBLOCKREPETAG
1070
     1
1071
       35
1005
12AC3D
  0
LINE
  5
12AC3E
  8
OBJECT
 10
599.00000000012164
 20
-146.00000000000409
 30
0.0
 11
481.00000000012182
 21
-146.0000000000023
 31
0.0
1001
ACDBBLOCKREPETAG
1070
     1
1071
       36
1005
12AC3E
  0
LINE
  5
12AC3F
  8
HIDDEN
 10
502.00000000012182
 20
-144.00000000000321
 30
0.0
 11
578.00000000012164
 21
-144.00000000000321
 31
0.0
1001
ACDBBLOCKREPETAG
1070
     1
1071
      423
1005
12AC3F
  0
INSERT
  5
12AC40
  8
OBJECT
  2
*U49
 10
0.0
 20
0.0
 30
0.0
  0
LINE
  5
12AC41
  8
OBJECT
 10
133.00000000004169
 20
-99.000000000003183
 30
0.0
 11
133.00000000004169
 21
-92.000000000003183
 31
0.0
1001
ACDBBLOCKREPETAG
1070
     1
1071
        1
1005
12AC41
  0
LINE
  5
12AC42
  8
OBJECT
 10
133.00000000004169
 20
-92.000000000003183
 30
0.0
 11
227.00000000004181
 21
-92.000000000003183
 31
0.0
1001
ACDBBLOCKREPETAG
1070
     1
1071
        2
1005
12AC42
  0
LINE
  5
12AC43
  8
OBJECT
 10
227.00000000004181
 20
-92.000000000003183
 30
0.0
 11
227.00000000004181
 21
-99.000000000003183
 31
0.0
1001
ACDBBLOCKREPETAG
1070
     1
1071
        3
1005
12AC43
  0
LINE
  5
12AC44
  8
OBJECT
 10
227.00000000004181
 20
-99.000000000003183
 30
0.0
 11
133.00000000004169
 21
-99.000000000003183
 31
0.0
1001
ACDBBLOCKREPETAG
1070
     1
1071
        4
1005
12AC44
  0
LINE
  5
12AC45
  8
OBJECT
 10
136.00000000004169
 20
-99.000000000003183
 30
0.0
 11
136.00000000004169
 21
-135.00000000000321
 31
0.0
1001
ACDBBLOCKREPETAG
1070
     1
1071
        5
1005
12AC45
  0
LINE
  5
12AC46
  8
OBJECT
 10
136.00000000004169
 20
-135.00000000000321
 30
0.0
 11
224.00000000004181
 21
-135.00000000000321
 31
0.0
1001
ACDBBLOCKREPETAG
1070
     1
1071
        6
1005
12AC46
  0
LINE
  5
12AC47
  8
OBJECT
 10
224.00000000004181
 20
-135.00000000000321
 30
0.0
 11
224.00000000004181
 21
-99.000000000003183
 31
0.0
1001
ACDBBLOCKREPETAG
1070
     1
1071
        7
1005
12AC47
  0
LINE
  5
12AC48
  8
OBJECT
 10
140.50000000004181
 20
-139.00000000000321
 30
0.0
 11
140.50000000004181
 21
-146.00000000000321
 31
0.0
1001
ACDBBLOCKREPETAG
1070
     1
1071
        8
1005
12AC48
  0
LINE
  5
12AC49
  8
OBJECT
 10
219.50000000004189
 20
-146.00000000000321
 30
0.0
 11
219.50000000004189
 21
-139.00000000000321
 31
0.0
1001
ACDBBLOCKREPETAG
1070
     1
1071
        9
1005
12AC49
  0
LINE
  5
12AC4A
  8
OBJECT
 10
219.50000000004189
 20
-139.00000000000321
 30
0.0
 11
140.50000000004181
 21
-139.00000000000321
 31
0.0
1001
ACDBBLOCKREPETAG
1070
     1
1071
       10
1005
12AC4A
  0
LINE
  5
12AC4B
  8
OBJECT
 10
136.00000000004169
 20
-135.00000000000321
 30
0.0
 11
140.50000000004181
 21
-139.00000000000321
 31
0.0
1001
ACDBBLOCKREPETAG
1070
     1
1071
       11
1005
12AC4B
  0
LINE
  5
12AC4C
  8
OBJECT
 10
224.00000000004181
 20
-135.00000000000321
 30
0.0
 11
219.50000000004189
 21
-139.00000000000321
 31
0.0
1001
ACDBBLOCKREPETAG
1070
     1
1071
       12
1005
12AC4C
  0
LINE
  5
12AC4D
  8
OBJECT
 10
118.00000000004179
 20
-149.0000000000023
 30
0.0
 11
118.00000000004179
 21
-152.0000000000031
 31
0.0
1001
ACDBBLOCKREPETAG
1070
     1
1071
       13
1005
12AC4D
  0
ARC
  5
12AC4E
  8
OBJECT
 10
121.00000000004179
 20
-149.0000000000023
 30
0.0
 40
3.0
 50
90.0
 51
180.0
1001
ACDBBLOCKREPETAG
1070
     1
1071
       14
1005
12AC4E
  0
LINE
  5
12AC4F
  8
OBJECT
 10
242.00000000004181
 20
-152.0000000000031
 30
0.0
 11
242.00000000004181
 21
-149.00000000000409
 31
0.0
1001
ACDBBLOCKREPETAG
1070
     1
1071
       15
1005
12AC4F
  0
ARC
  5
12AC50
  8
OBJECT
 10
239.00000000004181
 20
-149.00000000000409
 30
0.0
 40
3.0
 50
0.0
 51
90.0
1001
ACDBBLOCKREPETAG
1070
     1
1071
       16
1005
12AC50
  0
LINE
  5
12AC51
  8
OBJECT
 10
239.00000000004181
 20
-146.00000000000409
 30
0.0
 11
121.00000000004179
 21
-146.0000000000023
 31
0.0
1001
ACDBBLOCKREPETAG
1070
     1
1071
       17
1005
12AC51
  0
LINE
  5
12AC52
  8
HIDDEN
 10
150.00000000004181
 20
-144.00000000000321
 30
0.0
 11
210.00000000004181
 21
-144.00000000000321
 31
0.0
1001
ACDBBLOCKREPETAG
1070
     1
1071
      420
1005
12AC52
  0
POLYLINE
  5
12AC53
  8
HIDDEN
 66
     1
 10
0.0
 20
0.0
 30
0.0
 70
     1
1001
ACDBBLOCKREPETAG
1070
     1
1071
      105
1005
0
  0
VERTEX
  5
12C050
  8
HIDDEN
 10
359.99999999987818
 20
0.0
 30
0.0
  0
VERTEX
  5
12C051
  8
HIDDEN
 10
719.99999999975626
 20
0.0
 30
0.0
  0
VERTEX
  5
12C052
  8
HIDDEN
 10
719.99999999975626
 20
-463.99999999984158
 30
0.0
  0
VERTEX
  5
12C053
  8
HIDDEN
 10
359.99999999987818
 20
-463.99999999984158
 30
0.0
  0
SEQEND
  5
12C054
  8
HIDDEN
  0
POLYLINE
  5
12AC54
  8
HIDDEN
 66
     1
 10
0.0
 20
0.0
 30
0.0
 70
     1
1001
ACDBBLOCKREPETAG
1070
     1
1071
      110
1005
0
  0
VERTEX
  5
12C055
  8
HIDDEN
 10
0.0
 20
0.0
 30
0.0
  0
VERTEX
  5
12C056
  8
HIDDEN
 10
359.99999999987818
 20
0.0
 30
0.0
  0
VERTEX
  5
12C057
  8
HIDDEN
 10
359.99999999987818
 20
-463.99999999984158
 30
0.0
  0
VERTEX
  5
12C058
  8
HIDDEN
 10
0.0
 20
-463.99999999984158
 30
0.0
  0
SEQEND
  5
12C059
  8
HIDDEN
  0
POLYLINE
  5
12AC55
  8
HIDDEN
 66
     1
 10
0.0
 20
0.0
 30
0.0
 70
     1
1001
ACDBBLOCKREPETAG
1070
     1
1071
      120
1005
0
  0
VERTEX
  5
12C05A
  8
HIDDEN
 10
359.99999999987818
 20
-463.99999999984158
 30
0.0
  0
VERTEX
  5
12C05B
  8
HIDDEN
 10
719.99999999975626
 20
-463.99999999984158
 30
0.0
  0
VERTEX
  5
12C05C
  8
HIDDEN
 10
719.99999999975626
 20
-927.99999999968372
 30
0.0
  0
VERTEX
  5
12C05D
  8
HIDDEN
 10
359.99999999987818
 20
-927.99999999968372
 30
0.0
  0
SEQEND
  5
12C05E
  8
HIDDEN
  0
POLYLINE
  5
12AC56
  8
HIDDEN
 66
     1
 10
0.0
 20
0.0
 30
0.0
 70
     1
1001
ACDBBLOCKREPETAG
1070
     1
1071
      125
1005
0
  0
VERTEX
  5
12C05F
  8
HIDDEN
 10
0.0
 20
-463.99999999984158
 30
0.0
  0
VERTEX
  5
12C060
  8
HIDDEN
 10
359.99999999987818
 20
-463.99999999984158
 30
0.0
  0
VERTEX
  5
12C061
  8
HIDDEN
 10
359.99999999987818
 20
-927.99999999968372
 30
0.0
  0
VERTEX
  5
12C062
  8
HIDDEN
 10
0.0
 20
-927.99999999968372
 30
0.0
  0
SEQEND
  5
12C063
  8
HIDDEN
  0
TEXT
  5
12AC57
  8
SLIM
 10
508.28571428553232
 20
-907.999999999691
 30
0.0
 40
48.0
  1
A4
 41
0.75
1001
ACDBBLOCKREPETAG
1070
     1
1071
      119
1005
0
  0
TEXT
  5
12AC58
  8
SLIM
 10
149.14285714279711
 20
-907.999999999691
 30
0.0
 40
48.0
  1
A3
 41
0.75
1001
ACDBBLOCKREPETAG
1070
     1
1071
      119
1005
0
  0
TEXT
  5
12AC59
  8
SLIM
 10
509.1428571426751
 20
-443.99999999984919
 30
0.0
 40
48.0
  1
A2
 41
0.75
1001
ACDBBLOCKREPETAG
1070
     1
1071
      119
1005
0
  0
TEXT
  5
12AC5A
  8
SLIM
 10
156.85714285708281
 20
-443.99999999984919
 30
0.0
 40
48.0
  1
A1
 41
0.75
1001
ACDBBLOCKREPETAG
1070
     1
1071
      119
1005
0
  0
TEXT
  5
12AC5B
  8
SLIM
 10
0.0000035665234464
 20
24.000004585317601
 30
0.0
 40
79.999999999972701
  1
枝管バリエーション
 41
0.75
1001
ACDBBLOCKREPETAG
1070
     1
1071
      119
1005
1294F4
  0
TEXT
  5
12AC5C
  8
SLIM
 10
0.0
 20
369.99999999999989
 30
0.0
 40
100.0
  1
4SR-AX-S
 41
0.75
  0
LINE
  5
12AC5D
  8
SLIM
 10
4414.9999999999927
 20
-665.19743878931376
 30
0.0
 11
4425.1974387893069
 21
-654.99999999999886
 31
0.0
1001
ACDBBLOCKREPETAG
1070
     1
1071
        0
1005
0
1001
ACAD
1010
0.0
1020
0.0
1030
0.0
  0
LINE
  5
12AC5E
  8
SLIM
 10
4414.9999999999927
 20
-683.15795103145035
 30
0.0
 11
4443.1579510314468
 21
-654.99999999999886
 31
0.0
1001
ACAD
1010
0.0
1020
0.0
1030
0.0
1001
ACDBBLOCKREPETAG
1070
     1
1071
       14
1005
12AC5E
  0
LINE
  5
12AC5F
  8
SLIM
 10
4415.1454972543161
 20
-700.97296601926814
 30
0.0
 11
4461.118463273584
 21
-654.99999999999886
 31
0.0
1001
ACAD
1010
0.0
1020
0.0
1030
0.0
1001
ACDBBLOCKREPETAG
1070
     1
1071
       15
1005
12AC5F
  0
LINE
  5
12AC60
  8
SLIM
 10
4417.1046274952441
 20
-716.97434802047826
 30
0.0
 11
4479.0789755157211
 21
-654.99999999999886
 31
0.0
1001
ACAD
1010
0.0
1020
0.0
1030
0.0
1001
ACDBBLOCKREPETAG
1070
     1
1071
       16
1005
12AC60
  0
LINE
  5
12AC61
  8
SLIM
 10
4419.0637577361713
 20
-732.97573002168838
 30
0.0
 11
4497.039487757861
 21
-654.99999999999886
 31
0.0
1001
ACAD
1010
0.0
1020
0.0
1030
0.0
1001
ACDBBLOCKREPETAG
1070
     1
1071
       17
1005
12AC61
  0
LINE
  5
12AC62
  8
SLIM
 10
4420.0
 20
-749.99999999999875
 30
0.0
 11
4515.0
 21
-654.99999999999886
 31
0.0
1001
ACAD
1010
0.0
1020
0.0
1030
0.0
1001
ACDBBLOCKREPETAG
1070
     1
1071
       18
1005
12AC62
  0
LINE
  5
12AC63
  8
SLIM
 10
4420.0
 20
-767.96051224213716
 30
0.0
 11
4532.9605122421381
 21
-654.99999999999886
 31
0.0
1001
ACAD
1010
0.0
1020
0.0
1030
0.0
1001
ACDBBLOCKREPETAG
1070
     1
1071
       19
1005
12AC63
  0
LINE
  5
12AC64
  8
SLIM
 10
4420.0
 20
-785.92102448427534
 30
0.0
 11
4550.921024484277
 21
-654.99999999999886
 31
0.0
1001
ACAD
1010
0.0
1020
0.0
1030
0.0
1001
ACDBBLOCKREPETAG
1070
     1
1071
       20
1005
12AC64
  0
LINE
  5
12AC65
  8
SLIM
 10
4420.0
 20
-803.88153672641363
 30
0.0
 11
4568.8815367264151
 21
-654.99999999999886
 31
0.0
1001
ACAD
1010
0.0
1020
0.0
1030
0.0
1001
ACDBBLOCKREPETAG
1070
     1
1071
       21
1005
12AC65
  0
LINE
  5
12AC66
  8
SLIM
 10
4420.0
 20
-821.84204896855181
 30
0.0
 11
4585.0000000000073
 21
-656.84204896854499
 31
0.0
1001
ACAD
1010
0.0
1020
0.0
1030
0.0
1001
ACDBBLOCKREPETAG
1070
     1
1071
       22
1005
12AC66
  0
LINE
  5
12AC67
  8
SLIM
 10
4420.0
 20
-839.80256121069021
 30
0.0
 11
4585.0000000000073
 21
-674.80256121068476
 31
0.0
1001
ACAD
1010
0.0
1020
0.0
1030
0.0
1001
ACDBBLOCKREPETAG
1070
     1
1071
       23
1005
12AC67
  0
LINE
  5
12AC68
  8
SLIM
 10
4420.0
 20
-857.76307345282862
 30
0.0
 11
4585.0000000000036
 21
-692.76307345282453
 31
0.0
1001
ACAD
1010
0.0
1020
0.0
1030
0.0
1001
ACDBBLOCKREPETAG
1070
     1
1071
       24
1005
12AC68
  0
LINE
  5
12AC69
  8
SLIM
 10
4430.0
 20
-865.72358569496657
 30
0.0
 11
4430.7235856949683
 21
-864.99999999999875
 31
0.0
1001
ACAD
1010
0.0
1020
0.0
1030
0.0
1001
ACDBBLOCKREPETAG
1070
     1
1071
       25
1005
12AC69
  0
LINE
  5
12AC6A
  8
SLIM
 10
4430.7235856949683
 20
-864.99999999999875
 30
0.0
 11
4583.4738280308084
 21
-712.24975766415844
 31
0.0
1001
ACAD
1010
0.0
1020
0.0
1030
0.0
1001
ACDBBLOCKREPETAG
1070
     1
1071
       26
1005
12AC6A
  0
LINE
  5
12AC6B
  8
SLIM
 10
4430.0
 20
-883.68409793710521
 30
0.0
 11
4448.6840979371054
 21
-864.99999999999875
 31
0.0
1001
ACAD
1010
0.0
1020
0.0
1030
0.0
1001
ACDBBLOCKREPETAG
1070
     1
1071
       27
1005
12AC6B
  0
LINE
  5
12AC6C
  8
SLIM
 10
4448.6840979371054
 20
-864.99999999999875
 30
0.0
 11
4580.9680345671368
 21
-732.71606336996786
 31
0.0
1001
ACAD
1010
0.0
1020
0.0
1030
0.0
1001
ACDBBLOCKREPETAG
1070
     1
1071
       28
1005
12AC6C
  0
LINE
  5
12AC6D
  8
SLIM
 10
4446.6446101792453
 20
-884.99999999999875
 30
0.0
 11
4466.6446101792453
 21
-864.99999999999875
 31
0.0
1001
ACAD
1010
0.0
1020
0.0
1030
0.0
1001
ACDBBLOCKREPETAG
1070
     1
1071
       29
1005
12AC6D
  0
LINE
  5
12AC6E
  8
SLIM
 10
4466.6446101792453
 20
-864.99999999999875
 30
0.0
 11
4580.0
 21
-751.6446101792435
 31
0.0
1001
ACAD
1010
0.0
1020
0.0
1030
0.0
1001
ACDBBLOCKREPETAG
1070
     1
1071
       30
1005
12AC6E
  0
LINE
  5
12AC6F
  8
SLIM
 10
4464.6051224213843
 20
-884.99999999999875
 30
0.0
 11
4484.6051224213843
 21
-864.99999999999875
 31
0.0
1001
ACAD
1010
0.0
1020
0.0
1030
0.0
1001
ACDBBLOCKREPETAG
1070
     1
1071
       31
1005
12AC6F
  0
LINE
  5
12AC70
  8
SLIM
 10
4484.6051224213843
 20
-864.99999999999875
 30
0.0
 11
4580.0
 21
-769.60512242138225
 31
0.0
1001
ACAD
1010
0.0
1020
0.0
1030
0.0
1001
ACDBBLOCKREPETAG
1070
     1
1071
       32
1005
12AC70
  0
LINE
  5
12AC71
  8
SLIM
 10
4482.5656346635215
 20
-884.99999999999875
 30
0.0
 11
4502.5656346635215
 21
-864.99999999999875
 31
0.0
1001
ACAD
1010
0.0
1020
0.0
1030
0.0
1001
ACDBBLOCKREPETAG
1070
     1
1071
       33
1005
12AC71
  0
LINE
  5
12AC72
  8
SLIM
 10
4502.5656346635215
 20
-864.99999999999875
 30
0.0
 11
4579.9999999999991
 21
-787.56563466352065
 31
0.0
1001
ACAD
1010
0.0
1020
0.0
1030
0.0
1001
ACDBBLOCKREPETAG
1070
     1
1071
       34
1005
12AC72
  0
LINE
  5
12AC73
  8
SLIM
 10
4500.5261469056577
 20
-884.99999999999875
 30
0.0
 11
4520.5261469056577
 21
-864.99999999999875
 31
0.0
1001
ACAD
1010
0.0
1020
0.0
1030
0.0
1001
ACDBBLOCKREPETAG
1070
     1
1071
       35
1005
12AC73
  0
LINE
  5
12AC74
  8
SLIM
 10
4520.5261469056577
 20
-864.99999999999875
 30
0.0
 11
4579.9999999999991
 21
-805.52614690565963
 31
0.0
1001
ACAD
1010
0.0
1020
0.0
1030
0.0
1001
ACDBBLOCKREPETAG
1070
     1
1071
       36
1005
12AC74
  0
LINE
  5
12AC75
  8
SLIM
 10
4518.4866591477967
 20
-884.99999999999875
 30
0.0
 11
4538.4866591478003
 21
-864.99999999999864
 31
0.0
1001
ACAD
1010
0.0
1020
0.0
1030
0.0
1001
ACDBBLOCKREPETAG
1070
     1
1071
       37
1005
12AC75
  0
LINE
  5
12AC76
  8
SLIM
 10
4538.4866591478003
 20
-864.99999999999864
 30
0.0
 11
4579.9999999999991
 21
-823.4866591477977
 31
0.0
1001
ACAD
1010
0.0
1020
0.0
1030
0.0
1001
ACDBBLOCKREPETAG
1070
     1
1071
       38
1005
12AC76
  0
LINE
  5
12AC77
  8
SLIM
 10
4536.4471713899347
 20
-884.99999999999875
 30
0.0
 11
4556.4471713899356
 21
-864.99999999999864
 31
0.0
1001
ACAD
1010
0.0
1020
0.0
1030
0.0
1001
ACDBBLOCKREPETAG
1070
     1
1071
       39
1005
12AC77
  0
LINE
  5
12AC78
  8
SLIM
 10
4556.4471713899356
 20
-864.99999999999864
 30
0.0
 11
4579.9999999999982
 21
-841.44717138993656
 31
0.0
1001
ACAD
1010
0.0
1020
0.0
1030
0.0
1001
ACDBBLOCKREPETAG
1070
     1
1071
       40
1005
12AC78
  0
LINE
  5
12AC79
  8
SLIM
 10
4554.4076836320728
 20
-884.99999999999875
 30
0.0
 11
4570.0
 21
-869.40768363207314
 31
0.0
1001
ACAD
1010
0.0
1020
0.0
1030
0.0
1001
ACDBBLOCKREPETAG
1070
     1
1071
       41
1005
12AC79
  0
LINE
  5
12AC7A
  8
SLIM
 10
4574.4076836320728
 20
-864.99999999999864
 30
0.0
 11
4579.9999999999982
 21
-859.40768363207519
 31
0.0
1001
ACAD
1010
0.0
1020
0.0
1030
0.0
1001
ACDBBLOCKREPETAG
1070
     1
1071
       42
1005
12AC7A
  0
LINE
  5
12AC7B
  8
OBJECT
 10
4414.9999999999918
 20
-654.99999999999886
 30
0.0
 11
4414.9999999999973
 21
-699.78460339903359
 31
0.0
1001
ACDBBLOCKREPETAG
1070
     1
1071
        1
1005
12AC7B
  0
LINE
  5
12AC7C
  8
OBJECT
 10
4585.0000000000073
 20
-654.99999999999886
 30
0.0
 11
4585.0000000000009
 21
-699.78460339904063
 31
0.0
1001
ACDBBLOCKREPETAG
1070
     1
1071
        2
1005
12AC7C
  0
LINE
  5
12AC7D
  8
OBJECT
 10
4585.0000000000073
 20
-654.99999999999886
 30
0.0
 11
4414.9999999999918
 21
-654.99999999999886
 31
0.0
1001
ACDBBLOCKREPETAG
1070
     1
1071
        3
1005
12AC7D
  0
LINE
  5
12AC7E
  8
OBJECT
 10
4579.9999999999982
 20
-864.99999999999864
 30
0.0
 11
4420.0
 21
-864.99999999999875
 31
0.0
1001
ACDBBLOCKREPETAG
1070
     1
1071
        4
1005
12AC7E
  0
LINE
  5
12AC7F
  8
OBJECT
 10
4414.9999999999973
 20
-699.78460339903415
 30
0.0
 11
4420.0
 21
-740.62257748298555
 31
0.0
1001
ACDBBLOCKREPETAG
1070
     1
1071
        6
1005
12AC7F
  0
LINE
  5
12AC80
  8
OBJECT
 10
4420.0
 20
-740.62257748298555
 30
0.0
 11
4420.0
 21
-864.99999999999875
 31
0.0
1001
ACDBBLOCKREPETAG
1070
     1
1071
        7
1005
12AC80
  0
LINE
  5
12AC81
  8
OBJECT
 10
4585.0000000000009
 20
-699.78460339904063
 30
0.0
 11
4580.0
 21
-740.62257748298555
 31
0.0
1001
ACDBBLOCKREPETAG
1070
     1
1071
        8
1005
12AC81
  0
LINE
  5
12AC82
  8
OBJECT
 10
4580.0
 20
-740.62257748298555
 30
0.0
 11
4579.9999999999982
 21
-864.99999999999864
 31
0.0
1001
ACDBBLOCKREPETAG
1070
     1
1071
        9
1005
12AC82
  0
LINE
  5
12AC83
  8
OBJECT
 10
4430.0
 20
-864.99999999999875
 30
0.0
 11
4430.0
 21
-884.99999999999875
 31
0.0
1001
ACDBBLOCKREPETAG
1070
     1
1071
       10
1005
12AC83
  0
LINE
  5
12AC84
  8
OBJECT
 10
4430.0
 20
-884.99999999999875
 30
0.0
 11
4570.0
 21
-884.99999999999875
 31
0.0
1001
ACDBBLOCKREPETAG
1070
     1
1071
       11
1005
12AC84
  0
LINE
  5
12AC85
  8
OBJECT
 10
4570.0
 20
-884.99999999999875
 30
0.0
 11
4570.0
 21
-864.99999999999864
 31
0.0
1001
ACDBBLOCKREPETAG
1070
     1
1071
       12
1005
12AC85
  0
LINE
  5
12AC86
  8
SLIM
 10
3914.9999999999941
 20
-665.19743878931376
 30
0.0
 11
3925.1974387893092
 21
-654.99999999999886
 31
0.0
1001
ACDBBLOCKREPETAG
1070
     1
1071
        0
1005
0
1001
ACAD
1010
0.0
1020
0.0
1030
0.0
  0
LINE
  5
12AC87
  8
SLIM
 10
3914.999999999995
 20
-683.15795103145035
 30
0.0
 11
3943.1579510314468
 21
-654.99999999999886
 31
0.0
1001
ACAD
1010
0.0
1020
0.0
1030
0.0
1001
ACDBBLOCKREPETAG
1070
     1
1071
       14
1005
12AC87
  0
LINE
  5
12AC88
  8
SLIM
 10
3915.1454972543161
 20
-700.97296601926814
 30
0.0
 11
3961.1184632735849
 21
-654.99999999999886
 31
0.0
1001
ACAD
1010
0.0
1020
0.0
1030
0.0
1001
ACDBBLOCKREPETAG
1070
     1
1071
       15
1005
12AC88
  0
LINE
  5
12AC89
  8
SLIM
 10
3917.104627495245
 20
-716.97434802047826
 30
0.0
 11
3979.0789755157239
 21
-654.99999999999886
 31
0.0
1001
ACAD
1010
0.0
1020
0.0
1030
0.0
1001
ACDBBLOCKREPETAG
1070
     1
1071
       16
1005
12AC89
  0
LINE
  5
12AC8A
  8
SLIM
 10
3919.0637577361722
 20
-732.97573002168838
 30
0.0
 11
3997.0394877578619
 21
-654.99999999999886
 31
0.0
1001
ACAD
1010
0.0
1020
0.0
1030
0.0
1001
ACDBBLOCKREPETAG
1070
     1
1071
       17
1005
12AC8A
  0
LINE
  5
12AC8B
  8
SLIM
 10
3920.0
 20
-749.99999999999875
 30
0.0
 11
4015.0
 21
-654.99999999999886
 31
0.0
1001
ACAD
1010
0.0
1020
0.0
1030
0.0
1001
ACDBBLOCKREPETAG
1070
     1
1071
       18
1005
12AC8B
  0
LINE
  5
12AC8C
  8
SLIM
 10
3920.0
 20
-767.96051224213716
 30
0.0
 11
4032.9605122421372
 21
-654.99999999999886
 31
0.0
1001
ACAD
1010
0.0
1020
0.0
1030
0.0
1001
ACDBBLOCKREPETAG
1070
     1
1071
       19
1005
12AC8C
  0
LINE
  5
12AC8D
  8
SLIM
 10
3920.0
 20
-785.92102448427534
 30
0.0
 11
4050.921024484277
 21
-654.99999999999886
 31
0.0
1001
ACAD
1010
0.0
1020
0.0
1030
0.0
1001
ACDBBLOCKREPETAG
1070
     1
1071
       20
1005
12AC8D
  0
LINE
  5
12AC8E
  8
SLIM
 10
3920.0
 20
-803.88153672641363
 30
0.0
 11
4068.8815367264142
 21
-654.99999999999886
 31
0.0
1001
ACAD
1010
0.0
1020
0.0
1030
0.0
1001
ACDBBLOCKREPETAG
1070
     1
1071
       21
1005
12AC8E
  0
LINE
  5
12AC8F
  8
SLIM
 10
3920.0
 20
-821.84204896855181
 30
0.0
 11
4085.0000000000068
 21
-656.84204896854499
 31
0.0
1001
ACAD
1010
0.0
1020
0.0
1030
0.0
1001
ACDBBLOCKREPETAG
1070
     1
1071
       22
1005
12AC8F
  0
LINE
  5
12AC90
  8
SLIM
 10
3920.0
 20
-839.80256121069021
 30
0.0
 11
4085.0000000000059
 21
-674.80256121068476
 31
0.0
1001
ACAD
1010
0.0
1020
0.0
1030
0.0
1001
ACDBBLOCKREPETAG
1070
     1
1071
       23
1005
12AC90
  0
LINE
  5
12AC91
  8
SLIM
 10
3920.0
 20
-857.76307345282862
 30
0.0
 11
4085.0000000000041
 21
-692.76307345282453
 31
0.0
1001
ACAD
1010
0.0
1020
0.0
1030
0.0
1001
ACDBBLOCKREPETAG
1070
     1
1071
       24
1005
12AC91
  0
LINE
  5
12AC92
  8
SLIM
 10
3930.0
 20
-865.72358569496657
 30
0.0
 11
3930.7235856949678
 21
-864.99999999999875
 31
0.0
1001
ACAD
1010
0.0
1020
0.0
1030
0.0
1001
ACDBBLOCKREPETAG
1070
     1
1071
       25
1005
12AC92
  0
LINE
  5
12AC93
  8
SLIM
 10
3930.7235856949678
 20
-864.99999999999875
 30
0.0
 11
4083.4738280308079
 21
-712.24975766415844
 31
0.0
1001
ACAD
1010
0.0
1020
0.0
1030
0.0
1001
ACDBBLOCKREPETAG
1070
     1
1071
       26
1005
12AC93
  0
LINE
  5
12AC94
  8
SLIM
 10
3930.0
 20
-883.68409793710521
 30
0.0
 11
3948.6840979371068
 21
-864.99999999999875
 31
0.0
1001
ACAD
1010
0.0
1020
0.0
1030
0.0
1001
ACDBBLOCKREPETAG
1070
     1
1071
       27
1005
12AC94
  0
LINE
  5
12AC95
  8
SLIM
 10
3948.6840979371068
 20
-864.99999999999875
 30
0.0
 11
4080.9680345671368
 21
-732.71606336996786
 31
0.0
1001
ACAD
1010
0.0
1020
0.0
1030
0.0
1001
ACDBBLOCKREPETAG
1070
     1
1071
       28
1005
12AC95
  0
LINE
  5
12AC96
  8
SLIM
 10
3946.6446101792449
 20
-884.99999999999875
 30
0.0
 11
3966.6446101792449
 21
-864.99999999999875
 31
0.0
1001
ACAD
1010
0.0
1020
0.0
1030
0.0
1001
ACDBBLOCKREPETAG
1070
     1
1071
       29
1005
12AC96
  0
LINE
  5
12AC97
  8
SLIM
 10
3966.6446101792449
 20
-864.99999999999875
 30
0.0
 11
4080.0
 21
-751.6446101792435
 31
0.0
1001
ACAD
1010
0.0
1020
0.0
1030
0.0
1001
ACDBBLOCKREPETAG
1070
     1
1071
       30
1005
12AC97
  0
LINE
  5
12AC98
  8
SLIM
 10
3964.6051224213829
 20
-884.99999999999875
 30
0.0
 11
3984.6051224213829
 21
-864.99999999999875
 31
0.0
1001
ACAD
1010
0.0
1020
0.0
1030
0.0
1001
ACDBBLOCKREPETAG
1070
     1
1071
       31
1005
12AC98
  0
LINE
  5
12AC99
  8
SLIM
 10
3984.6051224213829
 20
-864.99999999999875
 30
0.0
 11
4080.0
 21
-769.60512242138225
 31
0.0
1001
ACAD
1010
0.0
1020
0.0
1030
0.0
1001
ACDBBLOCKREPETAG
1070
     1
1071
       32
1005
12AC99
  0
LINE
  5
12AC9A
  8
SLIM
 10
3982.565634663521
 20
-884.99999999999875
 30
0.0
 11
4002.565634663521
 21
-864.99999999999875
 31
0.0
1001
ACAD
1010
0.0
1020
0.0
1030
0.0
1001
ACDBBLOCKREPETAG
1070
     1
1071
       33
1005
12AC9A
  0
LINE
  5
12AC9B
  8
SLIM
 10
4002.565634663521
 20
-864.99999999999875
 30
0.0
 11
4079.9999999999991
 21
-787.56563466352065
 31
0.0
1001
ACAD
1010
0.0
1020
0.0
1030
0.0
1001
ACDBBLOCKREPETAG
1070
     1
1071
       34
1005
12AC9B
  0
LINE
  5
12AC9C
  8
SLIM
 10
4000.5261469056582
 20
-884.99999999999875
 30
0.0
 11
4020.52614690566
 21
-864.99999999999875
 31
0.0
1001
ACAD
1010
0.0
1020
0.0
1030
0.0
1001
ACDBBLOCKREPETAG
1070
     1
1071
       35
1005
12AC9C
  0
LINE
  5
12AC9D
  8
SLIM
 10
4020.52614690566
 20
-864.99999999999875
 30
0.0
 11
4079.9999999999991
 21
-805.52614690565963
 31
0.0
1001
ACAD
1010
0.0
1020
0.0
1030
0.0
1001
ACDBBLOCKREPETAG
1070
     1
1071
       36
1005
12AC9D
  0
LINE
  5
12AC9E
  8
SLIM
 10
4018.486659147798
 20
-884.99999999999875
 30
0.0
 11
4038.486659147798
 21
-864.99999999999864
 31
0.0
1001
ACAD
1010
0.0
1020
0.0
1030
0.0
1001
ACDBBLOCKREPETAG
1070
     1
1071
       37
1005
12AC9E
  0
LINE
  5
12AC9F
  8
SLIM
 10
4038.486659147798
 20
-864.99999999999864
 30
0.0
 11
4079.9999999999991
 21
-823.4866591477977
 31
0.0
1001
ACAD
1010
0.0
1020
0.0
1030
0.0
1001
ACDBBLOCKREPETAG
1070
     1
1071
       38
1005
12AC9F
  0
LINE
  5
12ACA0
  8
SLIM
 10
4036.4471713899361
 20
-884.99999999999875
 30
0.0
 11
4056.4471713899361
 21
-864.99999999999864
 31
0.0
1001
ACAD
1010
0.0
1020
0.0
1030
0.0
1001
ACDBBLOCKREPETAG
1070
     1
1071
       39
1005
12ACA0
  0
LINE
  5
12ACA1
  8
SLIM
 10
4056.4471713899361
 20
-864.99999999999864
 30
0.0
 11
4079.9999999999991
 21
-841.44717138993656
 31
0.0
1001
ACAD
1010
0.0
1020
0.0
1030
0.0
1001
ACDBBLOCKREPETAG
1070
     1
1071
       40
1005
12ACA1
  0
LINE
  5
12ACA2
  8
SLIM
 10
4054.4076836320728
 20
-884.99999999999875
 30
0.0
 11
4070.0
 21
-869.40768363207314
 31
0.0
1001
ACAD
1010
0.0
1020
0.0
1030
0.0
1001
ACDBBLOCKREPETAG
1070
     1
1071
       41
1005
12ACA2
  0
LINE
  5
12ACA3
  8
SLIM
 10
4074.4076836320728
 20
-864.99999999999864
 30
0.0
 11
4079.9999999999991
 21
-859.40768363207519
 31
0.0
1001
ACAD
1010
0.0
1020
0.0
1030
0.0
1001
ACDBBLOCKREPETAG
1070
     1
1071
       42
1005
12ACA3
  0
LINE
  5
12ACA4
  8
OBJECT
 10
3914.9999999999941
 20
-654.99999999999886
 30
0.0
 11
3914.9999999999968
 21
-699.78460339903359
 31
0.0
1001
ACDBBLOCKREPETAG
1070
     1
1071
        1
1005
12ACA4
  0
LINE
  5
12ACA5
  8
OBJECT
 10
4085.0000000000068
 20
-654.99999999999886
 30
0.0
 11
4085.0000000000032
 21
-699.78460339904063
 31
0.0
1001
ACDBBLOCKREPETAG
1070
     1
1071
        2
1005
12ACA5
  0
LINE
  5
12ACA6
  8
OBJECT
 10
4085.0000000000068
 20
-654.99999999999886
 30
0.0
 11
3914.9999999999941
 21
-654.99999999999886
 31
0.0
1001
ACDBBLOCKREPETAG
1070
     1
1071
        3
1005
12ACA6
  0
LINE
  5
12ACA7
  8
OBJECT
 10
4079.9999999999991
 20
-864.99999999999864
 30
0.0
 11
3920.0
 21
-864.99999999999875
 31
0.0
1001
ACDBBLOCKREPETAG
1070
     1
1071
        4
1005
12ACA7
  0
LINE
  5
12ACA8
  8
OBJECT
 10
3914.9999999999968
 20
-699.78460339903415
 30
0.0
 11
3920.0
 21
-740.62257748298555
 31
0.0
1001
ACDBBLOCKREPETAG
1070
     1
1071
        6
1005
12ACA8
  0
LINE
  5
12ACA9
  8
OBJECT
 10
3920.0
 20
-740.62257748298555
 30
0.0
 11
3920.0
 21
-864.99999999999875
 31
0.0
1001
ACDBBLOCKREPETAG
1070
     1
1071
        7
1005
12ACA9
  0
LINE
  5
12ACAA
  8
OBJECT
 10
4085.0000000000032
 20
-699.78460339904063
 30
0.0
 11
4080.0
 21
-740.62257748298555
 31
0.0
1001
ACDBBLOCKREPETAG
1070
     1
1071
        8
1005
12ACAA
  0
LINE
  5
12ACAB
  8
OBJECT
 10
4080.0
 20
-740.62257748298555
 30
0.0
 11
4079.9999999999991
 21
-864.99999999999864
 31
0.0
1001
ACDBBLOCKREPETAG
1070
     1
1071
        9
1005
12ACAB
  0
LINE
  5
12ACAC
  8
OBJECT
 10
3930.0
 20
-864.99999999999875
 30
0.0
 11
3930.0
 21
-884.99999999999875
 31
0.0
1001
ACDBBLOCKREPETAG
1070
     1
1071
       10
1005
12ACAC
  0
LINE
  5
12ACAD
  8
OBJECT
 10
3930.0
 20
-884.99999999999875
 30
0.0
 11
4070.0
 21
-884.99999999999875
 31
0.0
1001
ACDBBLOCKREPETAG
1070
     1
1071
       11
1005
12ACAD
  0
LINE
  5
12ACAE
  8
OBJECT
 10
4070.0
 20
-884.99999999999875
 30
0.0
 11
4070.0
 21
-864.99999999999864
 31
0.0
1001
ACDBBLOCKREPETAG
1070
     1
1071
       12
1005
12ACAE
  0
LINE
  5
12ACAF
  8
OBJECT
 10
4430.0
 20
-979.99999999999682
 30
0.0
 11
4570.0
 21
-979.99999999999682
 31
0.0
1001
ACDBBLOCKREPETAG
1070
     1
1071
        0
1005
12ACAF
  0
LINE
  5
12ACB0
  8
OBJECT
 10
4430.0
 20
-979.99999999999682
 30
0.0
 11
4430.0
 21
-739.99999999999693
 31
0.0
1001
ACDBBLOCKREPETAG
1070
     1
1071
        1
1005
12ACB0
  0
LINE
  5
12ACB1
  8
OBJECT
 10
4570.0
 20
-979.99999999999682
 30
0.0
 11
4570.0
 21
-739.99999999999693
 31
0.0
1001
ACDBBLOCKREPETAG
1070
     1
1071
        2
1005
12ACB1
  0
LINE
  5
12ACB2
  8
OBJECT
 10
4430.0
 20
-739.99999999999693
 30
0.0
 11
4570.0
 21
-739.99999999999693
 31
0.0
1001
ACDBBLOCKREPETAG
1070
     1
1071
        3
1005
12ACB2
  0
LINE
  5
12ACB3
  8
HIDDEN
 10
4437.5
 20
-739.99999999999693
 30
0.0
 11
4437.5
 21
-979.99999999999682
 31
0.0
1001
ACDBBLOCKREPETAG
1070
     1
1071
        4
1005
12ACB3
  0
LINE
  5
12ACB4
  8
HIDDEN
 10
4562.5
 20
-739.99999999999693
 30
0.0
 11
4562.5
 21
-979.99999999999682
 31
0.0
1001
ACDBBLOCKREPETAG
1070
     1
1071
        5
1005
12ACB4
  0
LINE
  5
12ACB5
  8
CENTER
 10
4500.0
 20
-669.99999999999875
 30
0.0
 11
4500.0
 21
-994.99999999999693
 31
0.0
1001
ACDBBLOCKREPETAG
1070
     1
1071
        6
1005
12ACB5
  0
LINE
  5
12ACB6
  8
OBJECT
 10
4425.0
 20
-669.99999999999875
 30
0.0
 11
4425.0
 21
-699.99999999999693
 31
0.0
1001
ACDBBLOCKREPETAG
1070
     1
1071
        7
1005
12ACB6
  0
LINE
  5
12ACB7
  8
OBJECT
 10
4575.0000000000009
 20
-669.99999999999875
 30
0.0
 11
4575.0
 21
-699.99999999999693
 31
0.0
1001
ACDBBLOCKREPETAG
1070
     1
1071
        8
1005
12ACB7
  0
LINE
  5
12ACB8
  8
OBJECT
 10
4425.0
 20
-699.99999999999693
 30
0.0
 11
4575.0
 21
-699.99999999999693
 31
0.0
1001
ACDBBLOCKREPETAG
1070
     1
1071
        9
1005
12ACB8
  0
LINE
  5
12ACB9
  8
OBJECT
 10
4425.0
 20
-699.99999999999693
 30
0.0
 11
4430.0
 21
-739.99999999999693
 31
0.0
1001
ACDBBLOCKREPETAG
1070
     1
1071
       10
1005
12ACB9
  0
LINE
  5
12ACBA
  8
OBJECT
 10
4570.0
 20
-739.99999999999693
 30
0.0
 11
4575.0
 21
-699.99999999999693
 31
0.0
1001
ACDBBLOCKREPETAG
1070
     1
1071
       11
1005
12ACBA
  0
LINE
  5
12ACBB
  8
OBJECT
 10
3930.0
 20
-979.99999999999682
 30
0.0
 11
4070.0
 21
-979.99999999999682
 31
0.0
1001
ACDBBLOCKREPETAG
1070
     1
1071
        0
1005
12ACBB
  0
LINE
  5
12ACBC
  8
OBJECT
 10
3930.0
 20
-979.99999999999682
 30
0.0
 11
3930.0
 21
-739.99999999999693
 31
0.0
1001
ACDBBLOCKREPETAG
1070
     1
1071
        1
1005
12ACBC
  0
LINE
  5
12ACBD
  8
OBJECT
 10
4070.0
 20
-979.99999999999682
 30
0.0
 11
4070.0
 21
-739.99999999999693
 31
0.0
1001
ACDBBLOCKREPETAG
1070
     1
1071
        2
1005
12ACBD
  0
LINE
  5
12ACBE
  8
OBJECT
 10
3930.0
 20
-739.99999999999693
 30
0.0
 11
4070.0
 21
-739.99999999999693
 31
0.0
1001
ACDBBLOCKREPETAG
1070
     1
1071
        3
1005
12ACBE
  0
LINE
  5
12ACBF
  8
HIDDEN
 10
3937.5
 20
-739.99999999999693
 30
0.0
 11
3937.5
 21
-979.99999999999682
 31
0.0
1001
ACDBBLOCKREPETAG
1070
     1
1071
        4
1005
12ACBF
  0
LINE
  5
12ACC0
  8
HIDDEN
 10
4062.5
 20
-739.99999999999693
 30
0.0
 11
4062.5
 21
-979.99999999999682
 31
0.0
1001
ACDBBLOCKREPETAG
1070
     1
1071
        5
1005
12ACC0
  0
LINE
  5
12ACC1
  8
CENTER
 10
4000.0
 20
-669.99999999999875
 30
0.0
 11
4000.0
 21
-994.99999999999693
 31
0.0
1001
ACDBBLOCKREPETAG
1070
     1
1071
        6
1005
12ACC1
  0
LINE
  5
12ACC2
  8
OBJECT
 10
3925.0
 20
-669.99999999999875
 30
0.0
 11
3925.0
 21
-699.99999999999693
 31
0.0
1001
ACDBBLOCKREPETAG
1070
     1
1071
        7
1005
12ACC2
  0
LINE
  5
12ACC3
  8
OBJECT
 10
4075.0000000000032
 20
-669.99999999999875
 30
0.0
 11
4075.0
 21
-699.99999999999693
 31
0.0
1001
ACDBBLOCKREPETAG
1070
     1
1071
        8
1005
12ACC3
  0
LINE
  5
12ACC4
  8
OBJECT
 10
3925.0
 20
-699.99999999999693
 30
0.0
 11
4075.0
 21
-699.99999999999693
 31
0.0
1001
ACDBBLOCKREPETAG
1070
     1
1071
        9
1005
12ACC4
  0
LINE
  5
12ACC5
  8
OBJECT
 10
3925.0
 20
-699.99999999999693
 30
0.0
 11
3930.0
 21
-739.99999999999693
 31
0.0
1001
ACDBBLOCKREPETAG
1070
     1
1071
       10
1005
12ACC5
  0
LINE
  5
12ACC6
  8
OBJECT
 10
4070.0
 20
-739.99999999999693
 30
0.0
 11
4075.0
 21
-699.99999999999693
 31
0.0
1001
ACDBBLOCKREPETAG
1070
     1
1071
       11
1005
12ACC6
  0
LINE
  5
12ACC7
  8
OBJECT
 10
2430.0
 20
-979.9999999999975
 30
0.0
 11
2570.0
 21
-979.9999999999975
 31
0.0
1001
ACDBBLOCKREPETAG
1070
     1
1071
        0
1005
12ACC7
  0
LINE
  5
12ACC8
  8
OBJECT
 10
2430.0
 20
-979.9999999999975
 30
0.0
 11
2430.0
 21
-739.99999999999773
 31
0.0
1001
ACDBBLOCKREPETAG
1070
     1
1071
        1
1005
12ACC8
  0
LINE
  5
12ACC9
  8
OBJECT
 10
2570.0
 20
-979.9999999999975
 30
0.0
 11
2570.0
 21
-739.99999999999773
 31
0.0
1001
ACDBBLOCKREPETAG
1070
     1
1071
        2
1005
12ACC9
  0
LINE
  5
12ACCA
  8
OBJECT
 10
2430.0
 20
-739.99999999999773
 30
0.0
 11
2570.0
 21
-739.99999999999773
 31
0.0
1001
ACDBBLOCKREPETAG
1070
     1
1071
        3
1005
12ACCA
  0
LINE
  5
12ACCB
  8
HIDDEN
 10
2437.5
 20
-739.99999999999773
 30
0.0
 11
2437.5
 21
-979.9999999999975
 31
0.0
1001
ACDBBLOCKREPETAG
1070
     1
1071
        4
1005
12ACCB
  0
LINE
  5
12ACCC
  8
HIDDEN
 10
2562.5
 20
-739.99999999999773
 30
0.0
 11
2562.5
 21
-979.9999999999975
 31
0.0
1001
ACDBBLOCKREPETAG
1070
     1
1071
        5
1005
12ACCC
  0
LINE
  5
12ACCD
  8
CENTER
 10
2500.0
 20
-669.99999999999955
 30
0.0
 11
2500.0
 21
-994.99999999999761
 31
0.0
1001
ACDBBLOCKREPETAG
1070
     1
1071
        6
1005
12ACCD
  0
LINE
  5
12ACCE
  8
OBJECT
 10
2425.0
 20
-669.99999999999955
 30
0.0
 11
2425.0
 21
-699.99999999999761
 31
0.0
1001
ACDBBLOCKREPETAG
1070
     1
1071
        7
1005
12ACCE
  0
LINE
  5
12ACCF
  8
OBJECT
 10
2575.000000000005
 20
-669.99999999999955
 30
0.0
 11
2575.0
 21
-699.99999999999761
 31
0.0
1001
ACDBBLOCKREPETAG
1070
     1
1071
        8
1005
12ACCF
  0
LINE
  5
12ACD0
  8
OBJECT
 10
2425.0
 20
-699.99999999999761
 30
0.0
 11
2575.0
 21
-699.99999999999761
 31
0.0
1001
ACDBBLOCKREPETAG
1070
     1
1071
        9
1005
12ACD0
  0
LINE
  5
12ACD1
  8
OBJECT
 10
2425.0
 20
-699.99999999999761
 30
0.0
 11
2430.0
 21
-739.99999999999773
 31
0.0
1001
ACDBBLOCKREPETAG
1070
     1
1071
       10
1005
12ACD1
  0
LINE
  5
12ACD2
  8
OBJECT
 10
2570.0
 20
-739.99999999999773
 30
0.0
 11
2575.0
 21
-699.99999999999761
 31
0.0
1001
ACDBBLOCKREPETAG
1070
     1
1071
       11
1005
12ACD2
  0
LINE
  5
12ACD3
  8
OBJECT
 10
1930.0
 20
-979.9999999999975
 30
0.0
 11
2070.0
 21
-979.9999999999975
 31
0.0
1001
ACDBBLOCKREPETAG
1070
     1
1071
        0
1005
12ACD3
  0
LINE
  5
12ACD4
  8
OBJECT
 10
1930.0
 20
-979.9999999999975
 30
0.0
 11
1930.0
 21
-739.99999999999773
 31
0.0
1001
ACDBBLOCKREPETAG
1070
     1
1071
        1
1005
12ACD4
  0
LINE
  5
12ACD5
  8
OBJECT
 10
2070.0
 20
-979.9999999999975
 30
0.0
 11
2070.0
 21
-739.99999999999773
 31
0.0
1001
ACDBBLOCKREPETAG
1070
     1
1071
        2
1005
12ACD5
  0
LINE
  5
12ACD6
  8
OBJECT
 10
1930.0
 20
-739.99999999999773
 30
0.0
 11
2070.0
 21
-739.99999999999773
 31
0.0
1001
ACDBBLOCKREPETAG
1070
     1
1071
        3
1005
12ACD6
  0
LINE
  5
12ACD7
  8
HIDDEN
 10
1937.5
 20
-739.99999999999773
 30
0.0
 11
1937.5
 21
-979.9999999999975
 31
0.0
1001
ACDBBLOCKREPETAG
1070
     1
1071
        4
1005
12ACD7
  0
LINE
  5
12ACD8
  8
HIDDEN
 10
2062.5
 20
-739.99999999999773
 30
0.0
 11
2062.5
 21
-979.9999999999975
 31
0.0
1001
ACDBBLOCKREPETAG
1070
     1
1071
        5
1005
12ACD8
  0
LINE
  5
12ACD9
  8
CENTER
 10
2000.0
 20
-669.99999999999955
 30
0.0
 11
2000.0
 21
-994.99999999999761
 31
0.0
1001
ACDBBLOCKREPETAG
1070
     1
1071
        6
1005
12ACD9
  0
LINE
  5
12ACDA
  8
OBJECT
 10
1925.0
 20
-669.99999999999955
 30
0.0
 11
1925.0
 21
-699.99999999999761
 31
0.0
1001
ACDBBLOCKREPETAG
1070
     1
1071
        7
1005
12ACDA
  0
LINE
  5
12ACDB
  8
OBJECT
 10
2075.0000000000041
 20
-669.99999999999955
 30
0.0
 11
2075.0
 21
-699.99999999999761
 31
0.0
1001
ACDBBLOCKREPETAG
1070
     1
1071
        8
1005
12ACDB
  0
LINE
  5
12ACDC
  8
OBJECT
 10
1925.0
 20
-699.99999999999761
 30
0.0
 11
2075.0
 21
-699.99999999999761
 31
0.0
1001
ACDBBLOCKREPETAG
1070
     1
1071
        9
1005
12ACDC
  0
LINE
  5
12ACDD
  8
OBJECT
 10
1925.0
 20
-699.99999999999761
 30
0.0
 11
1930.0
 21
-739.99999999999773
 31
0.0
1001
ACDBBLOCKREPETAG
1070
     1
1071
       10
1005
12ACDD
  0
LINE
  5
12ACDE
  8
OBJECT
 10
2070.0
 20
-739.99999999999773
 30
0.0
 11
2075.0
 21
-699.99999999999761
 31
0.0
1001
ACDBBLOCKREPETAG
1070
     1
1071
       11
1005
12ACDE
  0
TEXT
  5
12ACDF
  8
SLIM
 10
3824.5999999999999
 20
-1308.999999999997
 30
0.0
 40
28.0
  1
※ 対応スラブ厚　180～200
 41
0.75
  0
TEXT
  5
12ACE0
  8
SLIM
 10
3611.5
 20
-1402.3333333333301
 30
0.0
 40
28.0
  1
国土交通大臣認定・（財）日本消防設備安全センター性能評定取得品
 41
0.75
  0
TEXT
  5
12ACE1
  8
SLIM
 10
3631.1000000000022
 20
-1448.999999999997
 30
0.0
 40
28.0
  1
注）ご採用にあたり、認定書及び評定書の内容をご確認ください。
 41
0.75
  0
TEXT
  5
12ACE2
  8
SLIM
 10
3741.6250000000009
 20
-1247.499999999997
 30
0.0
 40
35.0
  1
片受けスタイル（S）＋シンドカット
 41
0.75
  0
TEXT
  5
12ACE3
  8
SLIM
 10
1856.25
 20
-1247.499999999998
 30
0.0
 40
35.0
  1
片受けスタイル（S）
 41
0.75
  0
VIEWPORT
  5
F6BA7
 67
     1
  8
0
 10
145.33033752441401
 20
101.8328354358673
 30
0.0
 40
334.0025019414623
 41
222.19657968139651
 68
     1
 69
     1
1001
ACAD
1000
MVIEW
1002
{
1070
    16
1010
0.0
1020
0.0
1030
0.0
1010
0.0
1020
0.0
1030
1.0
1040
0.0
1040
222.19657968139651
1040
145.33033752441401
1040
101.8328354358673
1040
50.0
1040
0.0
1040
0.0
1070
     0
1070
     0
1070
     1
1070
     1
1070
     0
1070
     0
1070
     0
1070
     0
1040
0.0
1040
0.0
1040
0.0
1040
10.0
1040
10.0
1040
10.0
1040
10.0
1070
     0
1002
{
1002
}
1002
}
  0
VIEWPORT
  5
F6BA9
 67
     1
  8
OBJECT
 10
145.3303314447403
 20
101.8328338861465
 30
0.0
 40
232.5285303115844
 41
162.93253421783439
 68
     2
 69
     2
1001
ACAD
1000
MVIEW
1002
{
1070
    16
1010
0.0
1020
0.0
1030
0.0
1010
0.0
1020
0.0
1030
1.0
1040
0.0
1040
25942.55904403147
1040
2377.604457077377
1040
-7591.5176687056619
1040
50.0
1040
0.0
1040
0.0
1070
     0
1070
   600
1070
     1
1070
     1
1070
     0
1070
     0
1070
     0
1070
     0
1040
0.0
1040
0.0
1040
0.0
1040
1.0
1040
1.0
1040
0.0
1040
0.0
1070
     0
1002
{
1002
}
1002
}
  0
ENDSEC
  0
EOF
