  0
SECTION
  2
HEADER
  9
$ACADVER
  1
AC1009
  9
$INSBASE
 10
0.0
 20
0.0
 30
0.0
  9
$EXTMIN
 10
0.0
 20
-3697.4999999999968
 30
0.0
  9
$EXTMAX
 10
5575.0
 20
607.5
 30
0.0
  9
$LIMMIN
 10
0.0
 20
0.0
  9
$LIMMAX
 10
210.0
 20
297.0
  9
$ORTHOMODE
 70
     0
  9
$REGENMODE
 70
     1
  9
$FILLMODE
 70
     1
  9
$QTEXTMODE
 70
     0
  9
$MIRRTEXT
 70
     0
  9
$DRAGMODE
 70
     2
  9
$LTSCALE
 40
1.0
  9
$OSMODE
 70
  2557
  9
$ATTMODE
 70
     1
  9
$TEXTSIZE
 40
4.0
  9
$TRACEWID
 40
0.05
  9
$TEXTSTYLE
  7
STANDARD
  9
$CLAYER
  8
OBJECT
  9
$CELTYPE
  6
BYLAYER
  9
$CECOLOR
 62
   256
  9
$DIMSCALE
 40
10.0
  9
$DIMASZ
 40
2.0
  9
$DIMEXO
 40
1.0
  9
$DIMDLI
 40
10.0
  9
$DIMRND
 40
0.0
  9
$DIMDLE
 40
0.0
  9
$DIMEXE
 40
1.0
  9
$DIMTP
 40
0.0
  9
$DIMTM
 40
0.0
  9
$DIMTXT
 40
3.2000000000000002
  9
$DIMCEN
 40
0.0
  9
$DIMTSZ
 40
0.0
  9
$DIMTOL
 70
     0
  9
$DIMLIM
 70
     0
  9
$DIMTIH
 70
     0
  9
$DIMTOH
 70
     0
  9
$DIMSE1
 70
     0
  9
$DIMSE2
 70
     0
  9
$DIMTAD
 70
     1
  9
$DIMZIN
 70
     8
  9
$DIMBLK
  1
OPEN30
  9
$DIMASO
 70
     1
  9
$DIMSHO
 70
     1
  9
$DIMPOST
  1

  9
$DIMAPOST
  1

  9
$DIMALT
 70
     0
  9
$DIMALTD
 70
     2
  9
$DIMALTF
 40
25.399999999999999
  9
$DIMLFAC
 40
1.0
  9
$DIMTOFL
 70
     1
  9
$DIMTVP
 40
0.0
  9
$DIMTIX
 70
     0
  9
$DIMSOXD
 70
     0
  9
$DIMSAH
 70
     0
  9
$DIMBLK1
  1

  9
$DIMBLK2
  1

  9
$DIMSTYLE
  2
S10
  9
$DIMCLRD
 70
   256
  9
$DIMCLRE
 70
   256
  9
$DIMCLRT
 70
   256
  9
$DIMTFAC
 40
1.0
  9
$DIMGAP
 40
0.9
  9
$LUNITS
 70
     2
  9
$LUPREC
 70
     2
  9
$SKETCHINC
 40
0.1
  9
$FILLETRAD
 40
0.0
  9
$AUNITS
 70
     0
  9
$AUPREC
 70
     2
  9
$MENU
  1
ACAD
  9
$ELEVATION
 40
0.0
  9
$PELEVATION
 40
0.0
  9
$THICKNESS
 40
0.0
  9
$LIMCHECK
 70
     0
  9
$BLIPMODE
 70
     0
  9
$CHAMFERA
 40
2.0
  9
$CHAMFERB
 40
2.0
  9
$SKPOLY
 70
     0
  9
$TDCREATE
 40
2453095.4929404748
  9
$TDUPDATE
 40
2456535.6423295601
  9
$TDINDWG
 40
18.3838759028
  9
$TDUSRTIMER
 40
18.3838751736
  9
$USRTIMER
 70
     1
  9
$ANGBASE
 50
0.0
  9
$ANGDIR
 70
     0
  9
$PDMODE
 70
    35
  9
$PDSIZE
 40
2.0
  9
$PLINEWID
 40
0.0
  9
$COORDS
 70
     1
  9
$SPLFRAME
 70
     0
  9
$SPLINETYPE
 70
     6
  9
$SPLINESEGS
 70
     8
  9
$ATTDIA
 70
     1
  9
$ATTREQ
 70
     1
  9
$HANDLING
 70
     1
  9
$HANDSEED
  5
131D5B
  9
$SURFTAB1
 70
     6
  9
$SURFTAB2
 70
     6
  9
$SURFTYPE
 70
     6
  9
$SURFU
 70
     6
  9
$SURFV
 70
     6
  9
$UCSNAME
  2

  9
$UCSORG
 10
0.0
 20
0.0
 30
0.0
  9
$UCSXDIR
 10
1.0
 20
0.0
 30
0.0
  9
$UCSYDIR
 10
0.0
 20
1.0
 30
0.0
  9
$PUCSNAME
  2

  9
$PUCSORG
 10
0.0
 20
0.0
 30
0.0
  9
$PUCSXDIR
 10
1.0
 20
0.0
 30
0.0
  9
$PUCSYDIR
 10
0.0
 20
1.0
 30
0.0
  9
$USERI1
 70
     0
  9
$USERI2
 70
     0
  9
$USERI3
 70
     0
  9
$USERI4
 70
     0
  9
$USERI5
 70
     0
  9
$USERR1
 40
0.0
  9
$USERR2
 40
0.0
  9
$USERR3
 40
0.0
  9
$USERR4
 40
0.0
  9
$USERR5
 40
0.0
  9
$WORLDVIEW
 70
     1
  9
$SHADEDGE
 70
     3
  9
$SHADEDIF
 70
    70
  9
$TILEMODE
 70
     1
  9
$MAXACTVP
 70
    64
  9
$PLIMCHECK
 70
     0
  9
$PEXTMIN
 10
29.066066288948051
 20
20.366566777229309
 30
0.0
  9
$PEXTMAX
 10
261.5945966005325
 20
183.29910099506381
 30
0.0
  9
$PLIMMIN
 10
-3.17498779296875
 20
-3.1749999523162842
  9
$PLIMMAX
 10
293.83566284179687
 20
206.8406708240509
  9
$UNITMODE
 70
     0
  9
$VISRETAIN
 70
     1
  9
$PLINEGEN
 70
     0
  9
$PSLTSCALE
 70
     1
  0
ENDSEC
  0
SECTION
  2
TABLES
  0
TABLE
  2
VPORT
 70
     1
  0
VPORT
  2
*ACTIVE
 70
     0
 10
0.0
 20
0.0
 11
1.0
 21
1.0
 12
4027.093044190201
 22
-3284.1460581223669
 13
0.0
 23
0.0
 14
1.0
 24
1.0
 15
0.0
 25
0.0
 16
0.0
 26
0.0
 36
1.0
 17
0.0
 27
0.0
 37
0.0
 40
12695.619525111581
 41
1.9585253456221201
 42
50.0
 43
0.0
 44
0.0
 50
0.0
 51
0.0
 71
     0
 72
   600
 73
     1
 74
     1
 75
     0
 76
     0
 77
     0
 78
     0
  0
ENDTAB
  0
TABLE
  2
LTYPE
 70
     3
  0
LTYPE
  2
CONTINUOUS
 70
     0
  3
Solid line
 72
    65
 73
     0
 40
0.0
  0
LTYPE
  2
ACAD_ISO08W100
 70
     0
  3
ISO long-dash short-dash ____ __ ____ __ ____ _
 72
    65
 73
     4
 40
36.0
 49
24.0
 49
-3.0
 49
6.0
 49
-3.0
  0
LTYPE
  2
ACAD_ISO02W100
 70
     0
  3
ISO dash __ __ __ __ __ __ __ __ __ __ __ __ __
 72
    65
 73
     2
 40
15.0
 49
12.0
 49
-3.0
  0
ENDTAB
  0
TABLE
  2
LAYER
 70
     9
  0
LAYER
  2
0
 70
     0
 62
     7
  6
CONTINUOUS
  0
LAYER
  2
OBJECT
 70
     0
 62
     4
  6
CONTINUOUS
  0
LAYER
  2
DEFPOINTS
 70
     0
 62
     7
  6
CONTINUOUS
  0
LAYER
  2
DIM
 70
     0
 62
     7
  6
CONTINUOUS
  0
LAYER
  2
HIDDEN
 70
     0
 62
     2
  6
ACAD_ISO02W100
  0
LAYER
  2
CENTER
 70
     0
 62
     2
  6
ACAD_ISO08W100
  0
LAYER
  2
DOTS
 70
     0
 62
     1
  6
CONTINUOUS
  0
LAYER
  2
SLIM
 70
     0
 62
     2
  6
CONTINUOUS
  0
ENDTAB
  0
TABLE
  2
STYLE
 70
     2
  0
STYLE
  2
STANDARD
 70
     0
 40
0.0
 41
0.75
 50
0.0
 71
     0
 42
4.0
  3
simplex.shx
  4
bigfont.shx
  0
ENDTAB
  0
TABLE
  2
VIEW
 70
     0
  0
ENDTAB
  0
TABLE
  2
UCS
 70
     0
  0
ENDTAB
  0
TABLE
  2
APPID
 70
    18
  0
APPID
  2
ACAD
 70
     0
  0
APPID
  2
ACADANNOTATIVE
 70
     0
  0
APPID
  2
ACAD_PSEXT
 70
     0
  0
APPID
  2
ACAD_EXEMPT_FROM_CAD_STANDARDS
 70
     0
  0
APPID
  2
ACAECLAYERSTANDARD
 70
     0
  0
APPID
  2
ACAUTHENVIRON
 70
     0
  0
APPID
  2
ACDBDYNAMICBLOCKTRUENAME
 70
     0
  0
APPID
  2
ACDBDYNAMICBLOCKGUID
 70
     0
  0
APPID
  2
ACDBBLOCKREPETAG
 70
     0
  0
APPID
  2
ACDBBLOCKREPBTAG
 70
     0
  0
APPID
  2
ACAD_NAV_VCDISPLAY
 70
     0
  0
APPID
  2
ACAD_DSTYLE_DIMRADIAL_EXTENSION
 70
     0
  0
APPID
  2
ACAD_DSTYLE_DIMJAG
 70
     0
  0
APPID
  2
ACAD_DSTYLE_DIMTALN
 70
     0
  0
APPID
  2
ACADANNOPO
 70
     0
  0
APPID
  2
GRADIENTCOLOR1ACI
 70
     0
  0
APPID
  2
GRADIENTCOLOR2ACI
 70
     0
  0
APPID
  2
ACAD_MLEADERVER
 70
     0
  0
ENDTAB
  0
TABLE
  2
DIMSTYLE
 70
     3
  0
DIMSTYLE
  2
STANDARD
 70
     0
  3

  4

  5

  6

  7

 40
1.0
 41
0.18
 42
0.0625
 43
0.38
 44
0.18
 45
0.0
 46
0.0
 47
0.0
 48
0.0
140
0.18
141
0.09
142
0.0
143
25.399999999999999
144
1.0
145
0.0
146
1.0
147
0.09
 71
     0
 72
     0
 73
     1
 74
     1
 75
     0
 76
     0
 77
     0
 78
     0
170
     0
171
     2
172
     0
173
     0
174
     0
175
     0
176
     0
177
     0
178
     0
  0
DIMSTYLE
  2
S10
 70
     0
  3

  4

  5

  6

  7

 40
10.0
 41
2.0
 42
1.0
 43
10.0
 44
1.0
 45
0.0
 46
0.0
 47
0.0
 48
0.0
140
3.2000000000000002
141
0.0
142
0.0
143
25.399999999999999
144
1.0
145
0.0
146
1.0
147
0.9
 71
     0
 72
     0
 73
     0
 74
     0
 75
     0
 76
     0
 77
     1
 78
     8
170
     0
171
     2
172
     1
173
     0
174
     0
175
     0
176
   256
177
   256
178
   256
  0
ENDTAB
  0
ENDSEC
  0
SECTION
  2
BLOCKS
  0
BLOCK
  8
0
  2
$MODEL_SPACE
 70
     0
 10
0.0
 20
0.0
 30
0.0
  3
$MODEL_SPACE
  1

  0
ENDBLK
  5
131C24
  8
0
  0
BLOCK
 67
     1
  8
0
  2
$PAPER_SPACE
 70
     0
 10
0.0
 20
0.0
 30
0.0
  3
$PAPER_SPACE
  1

  0
ENDBLK
  5
131C20
 67
     1
  8
0
  0
BLOCK
  8
0
  2
_OPEN30
 70
     0
 10
0.0
 20
0.0
 30
0.0
  3
_OPEN30
  1

  0
LINE
  5
202
  8
0
  6
BYBLOCK
 62
     0
 10
-1.0
 20
0.26794919
 30
0.0
 11
0.0
 21
0.0
 31
0.0
  0
LINE
  5
203
  8
0
  6
BYBLOCK
 62
     0
 10
0.0
 20
0.0
 30
0.0
 11
-1.0
 21
-0.26794919
 31
0.0
  0
LINE
  5
204
  8
0
  6
BYBLOCK
 62
     0
 10
0.0
 20
0.0
 30
0.0
 11
-1.0
 21
0.0
 31
0.0
  0
ENDBLK
  5
206
  8
0
  0
BLOCK
  8
0
  2
*U41
 70
     1
 10
0.0
 20
0.0
 30
0.0
  3
*U41
  1

  0
TEXT
  5
131B59
  8
SLIM
 10
505.04761904610911
 20
-2187.2499999970728
 30
0.0
 40
26.0
  1
100
  0
ENDBLK
  5
131B5B
  8
0
  0
BLOCK
  8
0
  2
*U42
 70
     1
 10
0.0
 20
0.0
 30
0.0
  3
*U42
  1

  0
TEXT
  5
131B5D
  8
SLIM
 10
505.04761904610911
 20
-1942.749999997073
 30
0.0
 40
26.0
  1
100
  0
ENDBLK
  5
131B5F
  8
0
  0
BLOCK
  8
0
  2
*U43
 70
     1
 10
0.0
 20
0.0
 30
0.0
  3
*U43
  1

  0
TEXT
  5
131B61
  8
SLIM
 10
145.04761904623109
 20
-2187.2499999970728
 30
0.0
 40
26.0
  1
100
  0
ENDBLK
  5
131B63
  8
0
  0
BLOCK
  8
0
  2
*U44
 70
     1
 10
0.0
 20
0.0
 30
0.0
  3
*U44
  1

  0
TEXT
  5
131B65
  8
SLIM
 10
154.9523809509931
 20
-1949.999999997073
 30
0.0
 40
26.0
  1
75
  0
ENDBLK
  5
131B67
  8
0
  0
BLOCK
  8
0
  2
*U45
 70
     1
 10
0.0
 20
0.0
 30
0.0
  3
*U45
  1

  0
TEXT
  5
131B69
  8
SLIM
 10
514.95238095087109
 20
-1715.999999997231
 30
0.0
 40
26.0
  1
75
  0
ENDBLK
  5
131B6B
  8
0
  0
BLOCK
  8
0
  2
*U46
 70
     1
 10
0.0
 20
0.0
 30
0.0
  3
*U46
  1

  0
TEXT
  5
131B6D
  8
SLIM
 10
514.95238095087109
 20
-1485.999999997231
 30
0.0
 40
26.0
  1
75
  0
ENDBLK
  5
131B6F
  8
0
  0
BLOCK
  8
0
  2
*U47
 70
     1
 10
0.0
 20
0.0
 30
0.0
  3
*U47
  1

  0
TEXT
  5
131B71
  8
SLIM
 10
145.04761904623109
 20
-1723.249999997231
 30
0.0
 40
26.0
  1
100
  0
ENDBLK
  5
131B73
  8
0
  0
BLOCK
  8
0
  2
*U48
 70
     1
 10
0.0
 20
0.0
 30
0.0
  3
*U48
  1

  0
TEXT
  5
131B75
  8
SLIM
 10
154.9523809509931
 20
-1485.999999997231
 30
0.0
 40
26.0
  1
65
  0
ENDBLK
  5
131B77
  8
0
  0
BLOCK
  8
0
  2
*U49
 70
     1
 10
0.0
 20
0.0
 30
0.0
  3
*U49
  1

  0
TEXT
  5
131B79
  8
SLIM
 10
514.95238095087109
 20
-1251.99999999739
 30
0.0
 40
26.0
  1
75
  0
ENDBLK
  5
131B7B
  8
0
  0
BLOCK
  8
0
  2
*U50
 70
     1
 10
0.0
 20
0.0
 30
0.0
  3
*U50
  1

  0
TEXT
  5
131B7D
  8
SLIM
 10
514.95238095087109
 20
-1021.999999997389
 30
0.0
 40
26.0
  1
65
  0
ENDBLK
  5
131B7F
  8
0
  0
BLOCK
  8
0
  2
*U51
 70
     1
 10
0.0
 20
0.0
 30
0.0
  3
*U51
  1

  0
TEXT
  5
131B81
  8
SLIM
 10
154.9523809509929
 20
-1251.99999999739
 30
0.0
 40
26.0
  1
65
  0
ENDBLK
  5
131B83
  8
0
  0
BLOCK
  8
0
  2
*U52
 70
     1
 10
0.0
 20
0.0
 30
0.0
  3
*U52
  1

  0
TEXT
  5
131B85
  8
SLIM
 10
154.9523809509929
 20
-1021.999999997389
 30
0.0
 40
26.0
  1
65
  0
ENDBLK
  5
131B87
  8
0
  0
BLOCK
  8
0
  2
*U53
 70
     1
 10
0.0
 20
0.0
 30
0.0
  3
*U53
  1

  0
TEXT
  5
131B89
  8
SLIM
 10
505.04761904610911
 20
-795.24999999754812
 30
0.0
 40
26.0
  1
100
  0
ENDBLK
  5
131B8B
  8
0
  0
BLOCK
  8
0
  2
*U54
 70
     1
 10
0.0
 20
0.0
 30
0.0
  3
*U54
  1

  0
TEXT
  5
131B8D
  8
SLIM
 10
514.95238095087109
 20
-557.999999997548
 30
0.0
 40
26.0
  1
50
  0
ENDBLK
  5
131B8F
  8
0
  0
BLOCK
  8
0
  2
*U55
 70
     1
 10
0.0
 20
0.0
 30
0.0
  3
*U55
  1

  0
TEXT
  5
131B91
  8
SLIM
 10
154.95238095099299
 20
-787.99999999754812
 30
0.0
 40
26.0
  1
75
  0
ENDBLK
  5
131B93
  8
0
  0
BLOCK
  8
0
  2
*U56
 70
     1
 10
0.0
 20
0.0
 30
0.0
  3
*U56
  1

  0
TEXT
  5
131B95
  8
SLIM
 10
154.95238095099299
 20
-557.999999997548
 30
0.0
 40
26.0
  1
50
  0
ENDBLK
  5
131B97
  8
0
  0
BLOCK
  8
0
  2
*U57
 70
     1
 10
0.0
 20
0.0
 30
0.0
  3
*U57
  1

  0
TEXT
  5
131B99
  8
SLIM
 10
514.95238095087109
 20
-323.99999999770631
 30
0.0
 40
26.0
  1
65
  0
ENDBLK
  5
131B9B
  8
0
  0
BLOCK
  8
0
  2
*U58
 70
     1
 10
0.0
 20
0.0
 30
0.0
  3
*U58
  1

  0
TEXT
  5
131B9D
  8
SLIM
 10
514.95238095087109
 20
-93.99999999770624
 30
0.0
 40
26.0
  1
50
  0
ENDBLK
  5
131B9F
  8
0
  0
BLOCK
  8
0
  2
*U59
 70
     1
 10
0.0
 20
0.0
 30
0.0
  3
*U59
  1

  0
TEXT
  5
131BA1
  8
SLIM
 10
154.9523809509931
 20
-323.99999999770631
 30
0.0
 40
26.0
  1
50
  0
ENDBLK
  5
131BA3
  8
0
  0
BLOCK
  8
0
  2
*U60
 70
     1
 10
0.0
 20
0.0
 30
0.0
  3
*U60
  1

  0
TEXT
  5
131BA5
  8
SLIM
 10
154.9523809509931
 20
-93.99999999770624
 30
0.0
 40
26.0
  1
50
  0
ENDBLK
  5
131BA7
  8
0
  0
BLOCK
  8
0
  2
*U61
 70
     1
 10
0.0
 20
0.0
 30
0.0
  3
*U61
  1

  0
TEXT
  5
131BA9
  8
DIM
 10
2209.479620594459
 20
-3184.1428571428528
 30
0.0
 40
32.0
  1
A
 50
90.0
 41
0.75
  0
ENDBLK
  5
131BAB
  8
0
  0
BLOCK
  8
0
  2
*U62
 70
     1
 10
0.0
 20
0.0
 30
0.0
  3
*U62
  1

  0
TEXT
  5
131BAD
  8
DIM
 10
2207.8409284037348
 20
-3565.9999999999959
 30
0.0
 40
32.0
  1
B
 50
90.0
 41
0.75
  0
ENDBLK
  5
131BAF
  8
0
  0
BLOCK
  8
0
  2
*U63
 70
     1
 10
0.0
 20
0.0
 30
0.0
  3
*U63
  1

  0
TEXT
  5
131BB1
  8
DIM
 10
2061.428571428572
 20
-3038.208121984444
 30
0.0
 40
32.0
  1
C
 41
0.75
  0
ENDBLK
  5
131BB3
  8
0
  0
ENDSEC
  0
SECTION
  2
ENTITIES
  0
LINE
  5
1295F8
  8
OBJECT
 10
1825.0
 20
-3579.9999999999959
 30
0.0
 11
5575.0
 21
-3579.9999999999959
 31
0.0
  0
LINE
  5
1295FA
  8
SLIM
 10
2616.0
 20
-2637.50001604727
 30
0.0
 11
2616.0
 21
-2967.50001604727
 31
0.0
  0
LINE
  5
1295FB
  8
SLIM
 10
2740.0
 20
-2637.50001604727
 30
0.0
 11
2740.0
 21
-2967.50001604727
 31
0.0
  0
LINE
  5
1295FC
  8
SLIM
 10
2870.0
 20
-2697.50001604727
 30
0.0
 11
2870.0
 21
-2967.50001604727
 31
0.0
  0
LINE
  5
1295FD
  8
SLIM
 10
3000.0
 20
-2697.50001604727
 30
0.0
 11
3000.0
 21
-2967.50001604727
 31
0.0
  0
LINE
  5
1295FE
  8
SLIM
 10
3130.0
 20
-2967.50001604727
 30
0.0
 11
3130.0
 21
-2697.50001604727
 31
0.0
  0
LINE
  5
1295FF
  8
SLIM
 10
3260.0
 20
-2967.50001604727
 30
0.0
 11
3260.0
 21
-2637.50001604727
 31
0.0
  0
LINE
  5
129600
  8
SLIM
 10
3260.0
 20
-2637.50001604727
 30
0.0
 11
2616.0
 21
-2637.50001604727
 31
0.0
  0
LINE
  5
129601
  8
SLIM
 10
3260.0
 20
-2697.50001604727
 30
0.0
 11
2740.0
 21
-2697.50001604727
 31
0.0
  0
LINE
  5
129602
  8
SLIM
 10
3260.0
 20
-2757.50001604727
 30
0.0
 11
2616.0
 21
-2757.50001604727
 31
0.0
  0
LINE
  5
129603
  8
SLIM
 10
3260.0
 20
-2827.50001604727
 30
0.0
 11
2616.0
 21
-2827.50001604727
 31
0.0
  0
LINE
  5
129604
  8
SLIM
 10
3260.0
 20
-2897.50001604727
 30
0.0
 11
2616.0
 21
-2897.50001604727
 31
0.0
  0
LINE
  5
129605
  8
SLIM
 10
3260.0
 20
-2967.50001604727
 30
0.0
 11
2616.0
 21
-2967.50001604727
 31
0.0
  0
LINE
  5
12961A
  8
SLIM
 10
2740.0
 20
-2757.50001604727
 30
0.0
 11
2615.9999722746579
 21
-2637.5
 31
0.0
  0
LINE
  5
12964F
  8
OBJECT
 10
5323.0
 20
-3395.9999999999968
 30
0.0
 11
5323.0
 21
-3374.9999999999968
 31
0.0
1001
ACDBBLOCKREPETAG
1070
     1
1071
       20
1005
12964F
  0
LINE
  5
129650
  8
OBJECT
 10
5323.0
 20
-3374.9999999999968
 30
0.0
 11
5477.0
 21
-3374.9999999999968
 31
0.0
1001
ACDBBLOCKREPETAG
1070
     1
1071
       21
1005
129650
  0
LINE
  5
129651
  8
HIDDEN
 10
5343.0
 20
-3444.9999999999968
 30
0.0
 11
5457.0
 21
-3444.9999999999968
 31
0.0
1001
ACDBBLOCKREPETAG
1070
     1
1071
       22
1005
129651
  0
LINE
  5
129652
  8
OBJECT
 10
5477.0
 20
-3374.9999999999968
 30
0.0
 11
5477.0
 21
-3395.9999999999968
 31
0.0
1001
ACDBBLOCKREPETAG
1070
     1
1071
       23
1005
129652
  0
LINE
  5
129653
  8
OBJECT
 10
5477.0
 20
-3395.9999999999968
 30
0.0
 11
5323.0
 21
-3395.9999999999968
 31
0.0
1001
ACDBBLOCKREPETAG
1070
     1
1071
       24
1005
129653
  0
LINE
  5
129654
  8
CENTER
 10
5400.0
 20
-3359.9999999999968
 30
0.0
 11
5400.0
 21
-3594.9999999999968
 31
0.0
1001
ACDBBLOCKREPETAG
1070
     1
1071
       25
1005
129654
  0
LINE
  5
129655
  8
OBJECT
 10
5325.0
 20
-3458.9999999999968
 30
0.0
 11
5325.0
 21
-3582.9999999999968
 31
0.0
1001
ACDBBLOCKREPETAG
1070
     1
1071
       26
1005
129655
  0
LINE
  5
129656
  8
OBJECT
 10
5328.0
 20
-3395.9999999999968
 30
0.0
 11
5328.0
 21
-3458.9999999999968
 31
0.0
1001
ACDBBLOCKREPETAG
1070
     1
1071
       27
1005
129656
  0
LINE
  5
129657
  8
OBJECT
 10
5472.0
 20
-3458.9999999999968
 30
0.0
 11
5472.0
 21
-3395.9999999999968
 31
0.0
1001
ACDBBLOCKREPETAG
1070
     1
1071
       28
1005
129657
  0
LINE
  5
129658
  8
OBJECT
 10
5475.0
 20
-3458.9999999999968
 30
0.0
 11
5456.7802782663139
 21
-3458.9999999999968
 31
0.0
1001
ACDBBLOCKREPETAG
1070
     1
1071
       30
1005
129658
  0
LINE
  5
129659
  8
OBJECT
 10
5475.0
 20
-3458.9999999999968
 30
0.0
 11
5475.0
 21
-3582.9999999999968
 31
0.0
1001
ACDBBLOCKREPETAG
1070
     1
1071
       34
1005
129659
  0
POINT
  5
12965A
  8
DOTS
 10
5400.0
 20
-3579.9999999999968
 30
0.0
1001
ACDBBLOCKREPETAG
1070
     1
1071
      187
1005
12965A
  0
LINE
  5
12965B
  8
CENTER
 10
5310.0
 20
-3507.9999999999968
 30
0.0
 11
5490.0
 21
-3507.9999999999968
 31
0.0
1001
ACDBBLOCKREPETAG
1070
     1
1071
       23
1005
12965B
  0
CIRCLE
  5
12965C
  8
OBJECT
 10
5400.0
 20
-3507.9999999999968
 30
0.0
 40
53.5
1001
ACDBBLOCKREPETAG
1070
     1
1071
       24
1005
12965C
  0
CIRCLE
  5
12965D
  8
OBJECT
 10
5400.0
 20
-3507.9999999999968
 30
0.0
 40
67.0
1001
ACDBBLOCKREPETAG
1070
     1
1071
       25
1005
12965D
  0
ARC
  5
12965E
  8
OBJECT
 10
5400.0
 20
-3507.9999999999968
 30
0.0
 40
75.0
 50
286.26020470824
 51
253.73979529175989
1001
ACDBBLOCKREPETAG
1070
     1
1071
       27
1005
12965E
  0
LINE
  5
12965F
  8
OBJECT
 10
5379.0
 20
-3579.9999999999968
 30
0.0
 11
5421.0
 21
-3579.9999999999968
 31
0.0
1001
ACDBBLOCKREPETAG
1070
     1
1071
       28
1005
12965F
  0
LINE
  5
129660
  8
OBJECT
 10
5343.2197217336861
 20
-3458.9999999999968
 30
0.0
 11
5325.0
 21
-3458.9999999999968
 31
0.0
1001
ACDBBLOCKREPETAG
1070
     1
1071
       30
1005
129658
  0
TEXT
  5
12F934
  8
SLIM
 10
-0.0000000000000011
 20
282.5
 30
0.0
 40
35.0
  1
※ 100枝（4）がある場合、品名の最後に【管底】が付きます。
 41
0.9
 11
0.0
 21
300.0
 31
0.0
 73
     2
  0
CIRCLE
  5
130B6A
  8
OBJECT
 10
5000.0
 20
-3174.9999999999959
 30
0.0
 40
53.5
1001
ACDBBLOCKREPETAG
1070
     1
1071
      344
1005
130B6A
  0
LINE
  5
130B6B
  8
CENTER
 10
5080.0
 20
-3174.9999999999959
 30
0.0
 11
4905.0
 21
-3174.9999999999959
 31
0.0
1001
ACDBBLOCKREPETAG
1070
     1
1071
       14
1005
130B6B
  0
LINE
  5
130B6C
  8
CENTER
 10
5000.0
 20
-3269.9999999999959
 30
0.0
 11
5000.0
 21
-3079.9999999999959
 31
0.0
1001
ACDBBLOCKREPETAG
1070
     1
1071
       15
1005
130B6C
  0
CIRCLE
  5
130B6D
  8
OBJECT
 10
5000.0
 20
-3174.9999999999959
 30
0.0
 40
70.0
1001
ACDBBLOCKREPETAG
1070
     1
1071
       16
1005
130B6D
  0
CIRCLE
  5
130B6E
  8
OBJECT
 10
5000.0
 20
-3174.9999999999959
 30
0.0
 40
77.0
1001
ACDBBLOCKREPETAG
1070
     1
1071
       17
1005
130B6E
  0
ARC
  5
130B6F
  8
OBJECT
 10
5000.0
 20
-3174.9999999999959
 30
0.0
 40
80.0
 50
50.805032573882329
 51
309.19496742611773
1001
ACDBBLOCKREPETAG
1070
     1
1071
       18
1005
130B6F
  0
LINE
  5
130B70
  8
OBJECT
 10
5045.6618002273253
 20
-3112.9999999999959
 30
0.0
 11
5080.0
 21
-3112.9999999999959
 31
0.0
1001
ACDBBLOCKREPETAG
1070
     1
1071
       19
1005
130B70
  0
LINE
  5
130B71
  8
OBJECT
 10
5045.6618002273253
 20
-3236.9999999999959
 30
0.0
 11
5080.0
 21
-3236.9999999999959
 31
0.0
1001
ACDBBLOCKREPETAG
1070
     1
1071
       20
1005
130B71
  0
POINT
  5
130B72
  8
DOTS
 10
5000.0
 20
-3174.9999999999959
 30
0.0
1001
ACDBBLOCKREPETAG
1070
     1
1071
       21
1005
130B72
  0
CIRCLE
  5
130B73
  8
OBJECT
 10
4000.0
 20
-3174.9999999999959
 30
0.0
 40
53.5
1001
ACDBBLOCKREPETAG
1070
     1
1071
      344
1005
130B73
  0
LINE
  5
130B74
  8
CENTER
 10
4080.0
 20
-3174.9999999999959
 30
0.0
 11
3905.0
 21
-3174.9999999999959
 31
0.0
1001
ACDBBLOCKREPETAG
1070
     1
1071
       14
1005
130B74
  0
LINE
  5
130B75
  8
CENTER
 10
4000.0
 20
-3269.9999999999959
 30
0.0
 11
4000.0
 21
-3079.9999999999959
 31
0.0
1001
ACDBBLOCKREPETAG
1070
     1
1071
       15
1005
130B75
  0
CIRCLE
  5
130B76
  8
OBJECT
 10
4000.0
 20
-3174.9999999999959
 30
0.0
 40
70.0
1001
ACDBBLOCKREPETAG
1070
     1
1071
       16
1005
130B76
  0
CIRCLE
  5
130B77
  8
OBJECT
 10
4000.0
 20
-3174.9999999999959
 30
0.0
 40
77.0
1001
ACDBBLOCKREPETAG
1070
     1
1071
       17
1005
130B77
  0
ARC
  5
130B78
  8
OBJECT
 10
4000.0
 20
-3174.9999999999959
 30
0.0
 40
80.0
 50
50.805032573862128
 51
309.19496742613791
1001
ACDBBLOCKREPETAG
1070
     1
1071
       18
1005
130B78
  0
LINE
  5
130B79
  8
OBJECT
 10
4045.661800227324
 20
-3112.9999999999959
 30
0.0
 11
4080.0
 21
-3112.9999999999959
 31
0.0
1001
ACDBBLOCKREPETAG
1070
     1
1071
       19
1005
130B79
  0
LINE
  5
130B7A
  8
OBJECT
 10
4045.661800227324
 20
-3236.9999999999959
 30
0.0
 11
4080.0
 21
-3236.9999999999959
 31
0.0
1001
ACDBBLOCKREPETAG
1070
     1
1071
       20
1005
130B7A
  0
POINT
  5
130B7B
  8
DOTS
 10
4000.0
 20
-3174.9999999999959
 30
0.0
1001
ACDBBLOCKREPETAG
1070
     1
1071
       21
1005
130B7B
  0
CIRCLE
  5
130B7C
  8
OBJECT
 10
3000.0
 20
-3174.9999999999959
 30
0.0
 40
53.5
1001
ACDBBLOCKREPETAG
1070
     1
1071
      344
1005
130B7C
  0
LINE
  5
130B7D
  8
CENTER
 10
3080.0
 20
-3174.9999999999959
 30
0.0
 11
2905.0
 21
-3174.9999999999959
 31
0.0
1001
ACDBBLOCKREPETAG
1070
     1
1071
       14
1005
130B7D
  0
LINE
  5
130B7E
  8
CENTER
 10
3000.0
 20
-3269.9999999999959
 30
0.0
 11
3000.0
 21
-3079.9999999999959
 31
0.0
1001
ACDBBLOCKREPETAG
1070
     1
1071
       15
1005
130B7E
  0
CIRCLE
  5
130B7F
  8
OBJECT
 10
3000.0
 20
-3174.9999999999959
 30
0.0
 40
70.0
1001
ACDBBLOCKREPETAG
1070
     1
1071
       16
1005
130B7F
  0
CIRCLE
  5
130B80
  8
OBJECT
 10
3000.0
 20
-3174.9999999999959
 30
0.0
 40
77.0
1001
ACDBBLOCKREPETAG
1070
     1
1071
       17
1005
130B80
  0
ARC
  5
130B81
  8
OBJECT
 10
3000.0
 20
-3174.9999999999959
 30
0.0
 40
80.0
 50
50.805032573862128
 51
309.19496742613791
1001
ACDBBLOCKREPETAG
1070
     1
1071
       18
1005
130B81
  0
LINE
  5
130B82
  8
OBJECT
 10
3045.6618002273249
 20
-3112.9999999999959
 30
0.0
 11
3080.0
 21
-3112.9999999999959
 31
0.0
1001
ACDBBLOCKREPETAG
1070
     1
1071
       19
1005
130B82
  0
LINE
  5
130B83
  8
OBJECT
 10
3045.6618002273249
 20
-3236.9999999999959
 30
0.0
 11
3080.0
 21
-3236.9999999999959
 31
0.0
1001
ACDBBLOCKREPETAG
1070
     1
1071
       20
1005
130B83
  0
POINT
  5
130B84
  8
DOTS
 10
3000.0
 20
-3174.9999999999959
 30
0.0
1001
ACDBBLOCKREPETAG
1070
     1
1071
       21
1005
130B84
  0
CIRCLE
  5
130B85
  8
OBJECT
 10
2000.0
 20
-3174.9999999999959
 30
0.0
 40
53.5
1001
ACDBBLOCKREPETAG
1070
     1
1071
      344
1005
130B85
  0
LINE
  5
130B86
  8
CENTER
 10
2080.0
 20
-3174.9999999999959
 30
0.0
 11
1905.0
 21
-3174.9999999999959
 31
0.0
1001
ACDBBLOCKREPETAG
1070
     1
1071
       14
1005
130B86
  0
LINE
  5
130B87
  8
CENTER
 10
2000.0
 20
-3269.9999999999959
 30
0.0
 11
2000.0
 21
-3079.9999999999959
 31
0.0
1001
ACDBBLOCKREPETAG
1070
     1
1071
       15
1005
130B87
  0
CIRCLE
  5
130B88
  8
OBJECT
 10
2000.0
 20
-3174.9999999999959
 30
0.0
 40
70.0
1001
ACDBBLOCKREPETAG
1070
     1
1071
       16
1005
130B88
  0
CIRCLE
  5
130B89
  8
OBJECT
 10
2000.0
 20
-3174.9999999999959
 30
0.0
 40
77.0
1001
ACDBBLOCKREPETAG
1070
     1
1071
       17
1005
130B89
  0
ARC
  5
130B8A
  8
OBJECT
 10
2000.0
 20
-3174.9999999999959
 30
0.0
 40
80.0
 50
50.805032573862128
 51
309.19496742613791
1001
ACDBBLOCKREPETAG
1070
     1
1071
       18
1005
130B8A
  0
LINE
  5
130B8B
  8
OBJECT
 10
2045.6618002273251
 20
-3112.9999999999959
 30
0.0
 11
2080.0
 21
-3112.9999999999959
 31
0.0
1001
ACDBBLOCKREPETAG
1070
     1
1071
       19
1005
130B8B
  0
LINE
  5
130B8C
  8
OBJECT
 10
2045.6618002273251
 20
-3236.9999999999959
 30
0.0
 11
2080.0
 21
-3236.9999999999959
 31
0.0
1001
ACDBBLOCKREPETAG
1070
     1
1071
       20
1005
130B8C
  0
POINT
  5
130B8D
  8
DOTS
 10
2000.0
 20
-3174.9999999999959
 30
0.0
1001
ACDBBLOCKREPETAG
1070
     1
1071
       21
1005
130B8D
  0
LINE
  5
130B8E
  8
SLIM
 10
3945.2566704261012
 20
-137.99999999999909
 30
0.0
 11
3955.9548403695781
 21
-127.30183005652231
 31
0.0
1001
GRADIENTCOLOR1ACI
1070
     5
1001
GRADIENTCOLOR2ACI
1070
     2
1001
ACAD
1010
0.0
1020
0.0
1030
0.0
1001
ACDBBLOCKREPETAG
1070
     1
1071
      422
1005
130B8E
  0
LINE
  5
130B8F
  8
SLIM
 10
3954.2369265471712
 20
-137.99999999999909
 30
0.0
 11
3972.7507744763329
 21
-119.4861520708364
 31
0.0
1001
GRADIENTCOLOR1ACI
1070
     5
1001
GRADIENTCOLOR2ACI
1070
     2
1001
ACAD
1010
0.0
1020
0.0
1030
0.0
1001
ACDBBLOCKREPETAG
1070
     1
1071
      423
1005
130B8F
  0
LINE
  5
130B90
  8
SLIM
 10
3973.521224312457
 20
-127.6959583557812
 30
0.0
 11
3984.8575146748631
 21
-116.359667993377
 31
0.0
1001
GRADIENTCOLOR1ACI
1070
     5
1001
GRADIENTCOLOR2ACI
1070
     2
1001
ACAD
1010
0.0
1020
0.0
1030
0.0
1001
ACDBBLOCKREPETAG
1070
     1
1071
      424
1005
130B90
  0
LINE
  5
130B91
  8
SLIM
 10
3985.8944171461271
 20
-124.30302164318159
 30
0.0
 11
3995.0533812002559
 21
-115.1440575890517
 31
0.0
1001
GRADIENTCOLOR1ACI
1070
     5
1001
GRADIENTCOLOR2ACI
1070
     2
1001
ACAD
1010
0.0
1020
0.0
1030
0.0
1001
ACDBBLOCKREPETAG
1070
     1
1071
      425
1005
130B91
  0
LINE
  5
130B92
  8
SLIM
 10
3996.0777327492078
 20
-123.0999621611699
 30
0.0
 11
4000.0
 21
-119.1776949103767
 31
0.0
1001
GRADIENTCOLOR1ACI
1070
     5
1001
GRADIENTCOLOR2ACI
1070
     2
1001
ACAD
1010
0.0
1020
0.0
1030
0.0
1001
ACDBBLOCKREPETAG
1070
     1
1071
      426
1005
130B92
  0
LINE
  5
130B93
  8
SLIM
 10
4000.0
 20
-119.1776949103767
 30
0.0
 11
4004.0797313529042
 21
-115.0979635574724
 31
0.0
1001
GRADIENTCOLOR1ACI
1070
     5
1001
GRADIENTCOLOR2ACI
1070
     2
1001
ACAD
1010
0.0
1020
0.0
1030
0.0
1001
ACDBBLOCKREPETAG
1070
     1
1071
      427
1005
130B93
  0
LINE
  5
130B94
  8
SLIM
 10
4004.9957202542769
 20
-123.1622307771683
 30
0.0
 11
4012.2679784105749
 21
-115.88997262087101
 31
0.0
1001
GRADIENTCOLOR1ACI
1070
     5
1001
GRADIENTCOLOR2ACI
1070
     2
1001
ACAD
1010
0.0
1020
0.0
1030
0.0
1001
ACDBBLOCKREPETAG
1070
     1
1071
      428
1005
130B94
  0
LINE
  5
130B95
  8
SLIM
 10
4013.028059366964
 20
-124.1101477855505
 30
0.0
 11
4019.799941457361
 21
-117.3382656951526
 31
0.0
1001
GRADIENTCOLOR1ACI
1070
     5
1001
GRADIENTCOLOR2ACI
1070
     2
1001
ACAD
1010
0.0
1020
0.0
1030
0.0
1001
ACDBBLOCKREPETAG
1070
     1
1071
      429
1005
130B95
  0
LINE
  5
130B96
  8
SLIM
 10
4020.3740813142458
 20
-125.7443819593383
 30
0.0
 11
4026.7872038672799
 21
-119.3312594063044
 31
0.0
1001
GRADIENTCOLOR1ACI
1070
     5
1001
GRADIENTCOLOR2ACI
1070
     2
1001
ACAD
1010
0.0
1020
0.0
1030
0.0
1001
ACDBBLOCKREPETAG
1070
     1
1071
      430
1005
130B96
  0
LINE
  5
130B97
  8
SLIM
 10
4027.1524719988752
 20
-127.946247395778
 30
0.0
 11
4033.3030030760328
 21
-121.7957163186195
 31
0.0
1001
GRADIENTCOLOR1ACI
1070
     5
1001
GRADIENTCOLOR2ACI
1070
     2
1001
ACAD
1010
0.0
1020
0.0
1030
0.0
1001
ACDBBLOCKREPETAG
1070
     1
1071
      431
1005
130B97
  0
LINE
  5
130B98
  8
SLIM
 10
4033.4390986513308
 20
-130.63987686439191
 30
0.0
 11
4039.3973119843781
 21
-124.6816635313439
 31
0.0
1001
GRADIENTCOLOR1ACI
1070
     5
1001
GRADIENTCOLOR2ACI
1070
     2
1001
ACAD
1010
0.0
1020
0.0
1030
0.0
1001
ACDBBLOCKREPETAG
1070
     1
1071
      432
1005
130B98
  0
LINE
  5
130B99
  8
SLIM
 10
4039.284224621797
 20
-133.77500701499321
 30
0.0
 11
4045.1047705343681
 21
-127.95446110242381
 31
0.0
1001
GRADIENTCOLOR1ACI
1070
     5
1001
GRADIENTCOLOR2ACI
1070
     2
1001
ACAD
1010
0.0
1020
0.0
1030
0.0
1001
ACDBBLOCKREPETAG
1070
     1
1071
      433
1005
130B99
  0
LINE
  5
130B9A
  8
SLIM
 10
4044.7212801698038
 20
-137.31820758805651
 30
0.0
 11
4050.4491557891961
 21
-131.59033196866449
 31
0.0
1001
GRADIENTCOLOR1ACI
1070
     5
1001
GRADIENTCOLOR2ACI
1070
     2
1001
ACAD
1010
0.0
1020
0.0
1030
0.0
1001
ACDBBLOCKREPETAG
1070
     1
1071
      434
1005
130B9A
  0
LINE
  5
130B9B
  8
SLIM
 10
4053.0197438789291
 20
-137.99999999999909
 30
0.0
 11
4055.4459941864038
 21
-135.57374969252561
 31
0.0
1001
GRADIENTCOLOR1ACI
1070
     5
1001
GRADIENTCOLOR2ACI
1070
     2
1001
ACAD
1010
0.0
1020
0.0
1030
0.0
1001
ACDBBLOCKREPETAG
1070
     1
1071
      435
1005
130B9B
  0
LINE
  5
130B9C
  8
CENTER
 10
4000.0
 20
-279.99999999999909
 30
0.0
 11
4000.0
 21
-99.999999999999091
 31
0.0
1001
ACDBBLOCKREPETAG
1070
     1
1071
      160
1005
130B9C
  0
CIRCLE
  5
130B9D
  8
OBJECT
 10
4000.0
 20
-199.99999999999909
 30
0.0
 40
70.0
1001
ACDBBLOCKREPETAG
1070
     1
1071
      161
1005
130B9D
  0
CIRCLE
  5
130B9E
  8
OBJECT
 10
4000.0
 20
-199.99999999999909
 30
0.0
 40
77.0
1001
ACDBBLOCKREPETAG
1070
     1
1071
      162
1005
130B9E
  0
LINE
  5
130B9F
  8
OBJECT
 10
4045.661800227324
 20
-137.99999999999909
 30
0.0
 11
4080.0
 21
-137.99999999999909
 31
0.0
1001
ACDBBLOCKREPETAG
1070
     1
1071
      164
1005
130B9F
  0
LINE
  5
130BA0
  8
OBJECT
 10
4062.0
 20
-261.99999999999909
 30
0.0
 11
4080.0
 21
-261.99999999999909
 31
0.0
1001
ACDBBLOCKREPETAG
1070
     1
1071
      165
1005
130BA0
  0
LINE
  5
130BA1
  8
OBJECT
 10
4062.0
 20
-261.99999999999909
 30
0.0
 11
4062.0
 21
-279.99999999999909
 31
0.0
1001
ACDBBLOCKREPETAG
1070
     1
1071
      167
1005
130BA1
  0
LINE
  5
130BA2
  8
OBJECT
 10
3938.0
 20
-261.99999999999909
 30
0.0
 11
3938.0
 21
-279.99999999999909
 31
0.0
1001
ACDBBLOCKREPETAG
1070
     1
1071
      168
1005
130BA2
  0
LINE
  5
130BA3
  8
OBJECT
 10
3938.0
 20
-261.99999999999909
 30
0.0
 11
3920.0
 21
-261.99999999999909
 31
0.0
1001
ACDBBLOCKREPETAG
1070
     1
1071
      170
1005
130BA3
  0
LINE
  5
130BA4
  8
OBJECT
 10
3954.338199772676
 20
-137.99999999999909
 30
0.0
 11
3920.0
 21
-137.99999999999909
 31
0.0
1001
ACDBBLOCKREPETAG
1070
     1
1071
      171
1005
130BA4
  0
LINE
  5
130BA5
  8
OBJECT
 10
3945.5527778486362
 20
-254.44722215136329
 30
0.0
 11
3938.0
 21
-261.99999999999909
 31
0.0
1001
ACDBBLOCKREPETAG
1070
     1
1071
      180
1005
130BA5
  0
LINE
  5
130BA6
  8
OBJECT
 10
4054.4472221513638
 20
-254.44722215136329
 30
0.0
 11
4062.0
 21
-261.99999999999909
 31
0.0
1001
ACDBBLOCKREPETAG
1070
     1
1071
      181
1005
130BA6
  0
POINT
  5
130BA7
  8
DOTS
 10
4000.0
 20
-199.99999999999909
 30
0.0
 50
270.0
1001
ACDBBLOCKREPETAG
1070
     1
1071
      182
1005
130BA7
  0
ARC
  5
130BA8
  8
OBJECT
 10
4000.0
 20
-199.99999999999909
 30
0.0
 40
85.0
 50
46.837102859806208
 51
133.16289714019371
1001
ACDBBLOCKREPETAG
1070
     1
1071
      183
1005
130BA8
  0
CIRCLE
  5
130BA9
  8
OBJECT
 10
4000.0
 20
-199.99999999999909
 30
0.0
 40
53.5
1001
ACDBBLOCKREPETAG
1070
     1
1071
      352
1005
130BA9
  0
LINE
  5
130BAA
  8
CENTER
 10
4080.0
 20
-199.99999999999909
 30
0.0
 11
3920.0
 21
-199.99999999999909
 31
0.0
1001
ACDBBLOCKREPETAG
1070
     1
1071
      158
1005
130BAA
  0
CIRCLE
  5
130BAB
  8
OBJECT
 10
2000.0
 20
-199.99999999999909
 30
0.0
 40
53.5
1001
ACDBBLOCKREPETAG
1070
     1
1071
      340
1005
130BAB
  0
LINE
  5
130BAC
  8
CENTER
 10
2080.0
 20
-199.99999999999909
 30
0.0
 11
1920.0
 21
-199.99999999999909
 31
0.0
1001
ACDBBLOCKREPETAG
1070
     1
1071
       49
1005
130BAC
  0
LINE
  5
130BAD
  8
CENTER
 10
2000.0
 20
-279.99999999999909
 30
0.0
 11
2000.0
 21
-104.9999999999991
 31
0.0
1001
ACDBBLOCKREPETAG
1070
     1
1071
       50
1005
130BAD
  0
CIRCLE
  5
130BAE
  8
OBJECT
 10
2000.0
 20
-199.99999999999909
 30
0.0
 40
70.0
1001
ACDBBLOCKREPETAG
1070
     1
1071
       51
1005
130BAE
  0
CIRCLE
  5
130BAF
  8
OBJECT
 10
2000.0
 20
-199.99999999999909
 30
0.0
 40
77.0
1001
ACDBBLOCKREPETAG
1070
     1
1071
       52
1005
130BAF
  0
ARC
  5
130BB0
  8
OBJECT
 10
2000.0
 20
-199.99999999999909
 30
0.0
 40
80.0
 50
50.805032573864182
 51
129.1949674261358
1001
ACDBBLOCKREPETAG
1070
     1
1071
       53
1005
130BB0
  0
LINE
  5
130BB1
  8
OBJECT
 10
2045.6618002273251
 20
-137.99999999999909
 30
0.0
 11
2080.0
 21
-137.99999999999909
 31
0.0
1001
ACDBBLOCKREPETAG
1070
     1
1071
       54
1005
130BB1
  0
LINE
  5
130BB2
  8
OBJECT
 10
2062.0
 20
-261.99999999999909
 30
0.0
 11
2080.0
 21
-261.99999999999909
 31
0.0
1001
ACDBBLOCKREPETAG
1070
     1
1071
       55
1005
130BB2
  0
LINE
  5
130BB3
  8
OBJECT
 10
2062.0
 20
-261.99999999999909
 30
0.0
 11
2062.0
 21
-279.99999999999909
 31
0.0
1001
ACDBBLOCKREPETAG
1070
     1
1071
       57
1005
130BB3
  0
LINE
  5
130BB4
  8
OBJECT
 10
1938.0
 20
-261.99999999999909
 30
0.0
 11
1938.0
 21
-279.99999999999909
 31
0.0
1001
ACDBBLOCKREPETAG
1070
     1
1071
       58
1005
130BB4
  0
POINT
  5
130BB5
  8
DOTS
 10
2000.0
 20
-199.99999999999909
 30
0.0
 50
90.0
1001
ACDBBLOCKREPETAG
1070
     1
1071
       59
1005
130BB5
  0
LINE
  5
130BB6
  8
OBJECT
 10
1938.0
 20
-261.99999999999909
 30
0.0
 11
1920.0
 21
-261.99999999999909
 31
0.0
1001
ACDBBLOCKREPETAG
1070
     1
1071
       60
1005
130BB6
  0
LINE
  5
130BB7
  8
OBJECT
 10
1954.3381997726749
 20
-137.99999999999909
 30
0.0
 11
1920.0
 21
-137.99999999999909
 31
0.0
1001
ACDBBLOCKREPETAG
1070
     1
1071
       61
1005
130BB7
  0
LINE
  5
130BB8
  8
OBJECT
 10
1945.5527778486351
 20
-254.44722215136329
 30
0.0
 11
1938.0
 21
-261.99999999999909
 31
0.0
1001
ACDBBLOCKREPETAG
1070
     1
1071
       42
1005
130BB8
  0
LINE
  5
130BB9
  8
OBJECT
 10
2054.4472221513638
 20
-254.44722215136329
 30
0.0
 11
2062.0
 21
-261.99999999999909
 31
0.0
1001
ACDBBLOCKREPETAG
1070
     1
1071
       43
1005
130BB9
  0
CIRCLE
  5
130BBA
  8
OBJECT
 10
535.99999999987813
 20
-2051.999999999367
 30
0.0
 40
70.0
1001
ACDBBLOCKREPETAG
1070
     1
1071
       43
1005
130BBA
  0
CIRCLE
  5
130BBB
  8
OBJECT
 10
535.99999999987813
 20
-2051.999999999367
 30
0.0
 40
77.0
1001
ACDBBLOCKREPETAG
1070
     1
1071
       44
1005
130BBB
  0
ARC
  5
130BBC
  8
OBJECT
 10
535.99999999987813
 20
-2051.999999999367
 30
0.0
 40
80.0
 50
140.80503257378879
 51
219.19496742621121
1001
ACDBBLOCKREPETAG
1070
     1
1071
       45
1005
130BBC
  0
LINE
  5
130BBD
  8
OBJECT
 10
473.99999999987801
 20
-2006.338199772043
 30
0.0
 11
473.99999999987801
 21
-1971.999999999367
 31
0.0
1001
ACDBBLOCKREPETAG
1070
     1
1071
       46
1005
130BBD
  0
LINE
  5
130BBE
  8
OBJECT
 10
597.99999999987813
 20
-1989.999999999367
 30
0.0
 11
597.99999999987813
 21
-1971.999999999367
 31
0.0
1001
ACDBBLOCKREPETAG
1070
     1
1071
       22
1005
130BBE
  0
LINE
  5
130BBF
  8
OBJECT
 10
597.99999999987813
 20
-1989.999999999367
 30
0.0
 11
615.99999999987813
 21
-1989.999999999367
 31
0.0
1001
ACDBBLOCKREPETAG
1070
     1
1071
       24
1005
130BBF
  0
LINE
  5
130BC0
  8
OBJECT
 10
597.99999999987813
 20
-2113.999999999367
 30
0.0
 11
615.99999999987813
 21
-2113.999999999367
 31
0.0
1001
ACDBBLOCKREPETAG
1070
     1
1071
       25
1005
130BC0
  0
LINE
  5
130BC1
  8
OBJECT
 10
597.99999999987813
 20
-2113.999999999367
 30
0.0
 11
597.99999999987813
 21
-2131.999999999367
 31
0.0
1001
ACDBBLOCKREPETAG
1070
     1
1071
       27
1005
130BC1
  0
LINE
  5
130BC2
  8
OBJECT
 10
473.99999999987801
 20
-2097.6618002266919
 30
0.0
 11
473.99999999987801
 21
-2131.999999999367
 31
0.0
1001
ACDBBLOCKREPETAG
1070
     1
1071
       28
1005
130BC2
  0
LINE
  5
130BC3
  8
OBJECT
 10
590.44722215124227
 20
-2106.4472221507308
 30
0.0
 11
597.99999999987813
 21
-2113.999999999367
 31
0.0
1001
ACDBBLOCKREPETAG
1070
     1
1071
       37
1005
130BC3
  0
LINE
  5
130BC4
  8
OBJECT
 10
590.44722215124227
 20
-1997.552777848003
 30
0.0
 11
597.99999999987813
 21
-1989.999999999367
 31
0.0
1001
ACDBBLOCKREPETAG
1070
     1
1071
       38
1005
130BC4
  0
POINT
  5
130BC5
  8
DOTS
 10
535.99999999987813
 20
-2051.999999999367
 30
0.0
1001
ACDBBLOCKREPETAG
1070
     1
1071
       39
1005
130BC5
  0
CIRCLE
  5
130BC6
  8
OBJECT
 10
535.99999999987813
 20
-2051.999999999367
 30
0.0
 40
53.5
1001
ACDBBLOCKREPETAG
1070
     1
1071
      153
1005
130BC6
  0
CIRCLE
  5
130BC7
  8
OBJECT
 10
176.0
 20
-2051.999999999367
 30
0.0
 40
70.0
1001
ACDBBLOCKREPETAG
1070
     1
1071
       43
1005
130BC7
  0
CIRCLE
  5
130BC8
  8
OBJECT
 10
176.0
 20
-2051.999999999367
 30
0.0
 40
77.0
1001
ACDBBLOCKREPETAG
1070
     1
1071
       44
1005
130BC8
  0
ARC
  5
130BC9
  8
OBJECT
 10
176.0
 20
-2051.999999999367
 30
0.0
 40
80.0
 50
140.80503257378979
 51
219.1949674262101
1001
ACDBBLOCKREPETAG
1070
     1
1071
       45
1005
130BC9
  0
LINE
  5
130BCA
  8
OBJECT
 10
114.0
 20
-2006.338199772043
 30
0.0
 11
114.0
 21
-1971.999999999367
 31
0.0
1001
ACDBBLOCKREPETAG
1070
     1
1071
       46
1005
130BCA
  0
LINE
  5
130BCB
  8
OBJECT
 10
238.0
 20
-1989.999999999367
 30
0.0
 11
238.0
 21
-1971.999999999367
 31
0.0
1001
ACDBBLOCKREPETAG
1070
     1
1071
       22
1005
130BCB
  0
LINE
  5
130BCC
  8
OBJECT
 10
238.0
 20
-1989.999999999367
 30
0.0
 11
256.0
 21
-1989.999999999367
 31
0.0
1001
ACDBBLOCKREPETAG
1070
     1
1071
       24
1005
130BCC
  0
LINE
  5
130BCD
  8
OBJECT
 10
238.0
 20
-2113.999999999367
 30
0.0
 11
256.0
 21
-2113.999999999367
 31
0.0
1001
ACDBBLOCKREPETAG
1070
     1
1071
       25
1005
130BCD
  0
LINE
  5
130BCE
  8
OBJECT
 10
238.0
 20
-2113.999999999367
 30
0.0
 11
238.0
 21
-2131.999999999367
 31
0.0
1001
ACDBBLOCKREPETAG
1070
     1
1071
       27
1005
130BCE
  0
LINE
  5
130BCF
  8
OBJECT
 10
114.0
 20
-2097.6618002266919
 30
0.0
 11
114.0
 21
-2131.999999999367
 31
0.0
1001
ACDBBLOCKREPETAG
1070
     1
1071
       28
1005
130BCF
  0
LINE
  5
130BD0
  8
OBJECT
 10
230.44722215136429
 20
-2106.4472221507308
 30
0.0
 11
238.0
 21
-2113.999999999367
 31
0.0
1001
ACDBBLOCKREPETAG
1070
     1
1071
       37
1005
130BD0
  0
LINE
  5
130BD1
  8
OBJECT
 10
230.44722215136429
 20
-1997.552777848003
 30
0.0
 11
238.0
 21
-1989.999999999367
 31
0.0
1001
ACDBBLOCKREPETAG
1070
     1
1071
       38
1005
130BD1
  0
POINT
  5
130BD2
  8
DOTS
 10
176.0
 20
-2051.999999999367
 30
0.0
1001
ACDBBLOCKREPETAG
1070
     1
1071
       39
1005
130BD2
  0
CIRCLE
  5
130BD3
  8
OBJECT
 10
176.0
 20
-2051.999999999367
 30
0.0
 40
53.5
1001
ACDBBLOCKREPETAG
1070
     1
1071
      153
1005
130BD3
  0
CIRCLE
  5
130BD4
  8
OBJECT
 10
535.99999999987813
 20
-1587.999999999525
 30
0.0
 40
70.0
1001
ACDBBLOCKREPETAG
1070
     1
1071
       43
1005
130BD4
  0
CIRCLE
  5
130BD5
  8
OBJECT
 10
535.99999999987813
 20
-1587.999999999525
 30
0.0
 40
77.0
1001
ACDBBLOCKREPETAG
1070
     1
1071
       44
1005
130BD5
  0
ARC
  5
130BD6
  8
OBJECT
 10
535.99999999987813
 20
-1587.999999999525
 30
0.0
 40
80.0
 50
140.8050325737787
 51
219.1949674262213
1001
ACDBBLOCKREPETAG
1070
     1
1071
       45
1005
130BD6
  0
LINE
  5
130BD7
  8
OBJECT
 10
473.99999999987801
 20
-1542.3381997722011
 30
0.0
 11
473.99999999987801
 21
-1507.999999999525
 31
0.0
1001
ACDBBLOCKREPETAG
1070
     1
1071
       46
1005
130BD7
  0
LINE
  5
130BD8
  8
OBJECT
 10
597.99999999987813
 20
-1525.999999999525
 30
0.0
 11
597.99999999987813
 21
-1507.999999999525
 31
0.0
1001
ACDBBLOCKREPETAG
1070
     1
1071
       22
1005
130BD8
  0
LINE
  5
130BD9
  8
OBJECT
 10
597.99999999987813
 20
-1525.999999999525
 30
0.0
 11
615.99999999987813
 21
-1525.999999999525
 31
0.0
1001
ACDBBLOCKREPETAG
1070
     1
1071
       24
1005
130BD9
  0
LINE
  5
130BDA
  8
OBJECT
 10
597.99999999987813
 20
-1649.999999999525
 30
0.0
 11
615.99999999987813
 21
-1649.999999999525
 31
0.0
1001
ACDBBLOCKREPETAG
1070
     1
1071
       25
1005
130BDA
  0
LINE
  5
130BDB
  8
OBJECT
 10
597.99999999987813
 20
-1649.999999999525
 30
0.0
 11
597.99999999987813
 21
-1667.999999999525
 31
0.0
1001
ACDBBLOCKREPETAG
1070
     1
1071
       27
1005
130BDB
  0
LINE
  5
130BDC
  8
OBJECT
 10
473.99999999987801
 20
-1633.6618002268499
 30
0.0
 11
473.99999999987801
 21
-1667.999999999525
 31
0.0
1001
ACDBBLOCKREPETAG
1070
     1
1071
       28
1005
130BDC
  0
LINE
  5
130BDD
  8
OBJECT
 10
590.44722215124227
 20
-1642.447222150889
 30
0.0
 11
597.99999999987813
 21
-1649.999999999525
 31
0.0
1001
ACDBBLOCKREPETAG
1070
     1
1071
       37
1005
130BDD
  0
LINE
  5
130BDE
  8
OBJECT
 10
590.44722215124227
 20
-1533.552777848161
 30
0.0
 11
597.99999999987813
 21
-1525.999999999525
 31
0.0
1001
ACDBBLOCKREPETAG
1070
     1
1071
       38
1005
130BDE
  0
POINT
  5
130BDF
  8
DOTS
 10
535.99999999987813
 20
-1587.999999999525
 30
0.0
1001
ACDBBLOCKREPETAG
1070
     1
1071
       39
1005
130BDF
  0
CIRCLE
  5
130BE0
  8
OBJECT
 10
535.99999999987813
 20
-1587.999999999525
 30
0.0
 40
53.5
1001
ACDBBLOCKREPETAG
1070
     1
1071
      153
1005
130BE0
  0
CIRCLE
  5
130BE1
  8
OBJECT
 10
176.0
 20
-1587.999999999525
 30
0.0
 40
70.0
1001
ACDBBLOCKREPETAG
1070
     1
1071
       43
1005
130BE1
  0
CIRCLE
  5
130BE2
  8
OBJECT
 10
176.0
 20
-1587.999999999525
 30
0.0
 40
77.0
1001
ACDBBLOCKREPETAG
1070
     1
1071
       44
1005
130BE2
  0
ARC
  5
130BE3
  8
OBJECT
 10
176.0
 20
-1587.999999999525
 30
0.0
 40
80.0
 50
140.80503257377961
 51
219.1949674262203
1001
ACDBBLOCKREPETAG
1070
     1
1071
       45
1005
130BE3
  0
LINE
  5
130BE4
  8
OBJECT
 10
114.0
 20
-1542.3381997722011
 30
0.0
 11
114.0
 21
-1507.999999999525
 31
0.0
1001
ACDBBLOCKREPETAG
1070
     1
1071
       46
1005
130BE4
  0
LINE
  5
130BE5
  8
OBJECT
 10
238.0
 20
-1525.999999999525
 30
0.0
 11
238.0
 21
-1507.999999999525
 31
0.0
1001
ACDBBLOCKREPETAG
1070
     1
1071
       22
1005
130BE5
  0
LINE
  5
130BE6
  8
OBJECT
 10
238.0
 20
-1525.999999999525
 30
0.0
 11
256.0
 21
-1525.999999999525
 31
0.0
1001
ACDBBLOCKREPETAG
1070
     1
1071
       24
1005
130BE6
  0
LINE
  5
130BE7
  8
OBJECT
 10
238.0
 20
-1649.999999999525
 30
0.0
 11
256.0
 21
-1649.999999999525
 31
0.0
1001
ACDBBLOCKREPETAG
1070
     1
1071
       25
1005
130BE7
  0
LINE
  5
130BE8
  8
OBJECT
 10
238.0
 20
-1649.999999999525
 30
0.0
 11
238.0
 21
-1667.999999999525
 31
0.0
1001
ACDBBLOCKREPETAG
1070
     1
1071
       27
1005
130BE8
  0
LINE
  5
130BE9
  8
OBJECT
 10
114.0
 20
-1633.6618002268499
 30
0.0
 11
114.0
 21
-1667.999999999525
 31
0.0
1001
ACDBBLOCKREPETAG
1070
     1
1071
       28
1005
130BE9
  0
LINE
  5
130BEA
  8
OBJECT
 10
230.44722215136429
 20
-1642.447222150889
 30
0.0
 11
238.0
 21
-1649.999999999525
 31
0.0
1001
ACDBBLOCKREPETAG
1070
     1
1071
       37
1005
130BEA
  0
LINE
  5
130BEB
  8
OBJECT
 10
230.44722215136429
 20
-1533.552777848161
 30
0.0
 11
238.0
 21
-1525.999999999525
 31
0.0
1001
ACDBBLOCKREPETAG
1070
     1
1071
       38
1005
130BEB
  0
POINT
  5
130BEC
  8
DOTS
 10
176.0
 20
-1587.999999999525
 30
0.0
1001
ACDBBLOCKREPETAG
1070
     1
1071
       39
1005
130BEC
  0
CIRCLE
  5
130BED
  8
OBJECT
 10
176.0
 20
-1587.999999999525
 30
0.0
 40
53.5
1001
ACDBBLOCKREPETAG
1070
     1
1071
      153
1005
130BED
  0
CIRCLE
  5
130BEE
  8
OBJECT
 10
535.99999999987813
 20
-1123.999999999684
 30
0.0
 40
70.0
1001
ACDBBLOCKREPETAG
1070
     1
1071
       43
1005
130BEE
  0
CIRCLE
  5
130BEF
  8
OBJECT
 10
535.99999999987813
 20
-1123.999999999684
 30
0.0
 40
77.0
1001
ACDBBLOCKREPETAG
1070
     1
1071
       44
1005
130BEF
  0
ARC
  5
130BF0
  8
OBJECT
 10
535.99999999987813
 20
-1123.999999999684
 30
0.0
 40
80.0
 50
140.8050325737787
 51
219.1949674262213
1001
ACDBBLOCKREPETAG
1070
     1
1071
       45
1005
130BF0
  0
LINE
  5
130BF1
  8
OBJECT
 10
473.99999999987801
 20
-1078.3381997723591
 30
0.0
 11
473.99999999987801
 21
-1043.999999999684
 31
0.0
1001
ACDBBLOCKREPETAG
1070
     1
1071
       46
1005
130BF1
  0
LINE
  5
130BF2
  8
OBJECT
 10
597.99999999987813
 20
-1061.999999999684
 30
0.0
 11
597.99999999987813
 21
-1043.999999999684
 31
0.0
1001
ACDBBLOCKREPETAG
1070
     1
1071
       22
1005
130BF2
  0
LINE
  5
130BF3
  8
OBJECT
 10
597.99999999987813
 20
-1061.999999999684
 30
0.0
 11
615.99999999987813
 21
-1061.999999999684
 31
0.0
1001
ACDBBLOCKREPETAG
1070
     1
1071
       24
1005
130BF3
  0
LINE
  5
130BF4
  8
OBJECT
 10
597.99999999987813
 20
-1185.999999999683
 30
0.0
 11
615.99999999987813
 21
-1185.999999999683
 31
0.0
1001
ACDBBLOCKREPETAG
1070
     1
1071
       25
1005
130BF4
  0
LINE
  5
130BF5
  8
OBJECT
 10
597.99999999987813
 20
-1185.999999999683
 30
0.0
 11
597.99999999987813
 21
-1203.999999999683
 31
0.0
1001
ACDBBLOCKREPETAG
1070
     1
1071
       27
1005
130BF5
  0
LINE
  5
130BF6
  8
OBJECT
 10
473.99999999987801
 20
-1169.6618002270079
 30
0.0
 11
473.99999999987801
 21
-1203.999999999683
 31
0.0
1001
ACDBBLOCKREPETAG
1070
     1
1071
       28
1005
130BF6
  0
LINE
  5
130BF7
  8
OBJECT
 10
590.44722215124227
 20
-1178.447222151048
 30
0.0
 11
597.99999999987813
 21
-1185.999999999683
 31
0.0
1001
ACDBBLOCKREPETAG
1070
     1
1071
       37
1005
130BF7
  0
LINE
  5
130BF8
  8
OBJECT
 10
590.44722215124227
 20
-1069.552777848319
 30
0.0
 11
597.99999999987813
 21
-1061.999999999684
 31
0.0
1001
ACDBBLOCKREPETAG
1070
     1
1071
       38
1005
130BF8
  0
POINT
  5
130BF9
  8
DOTS
 10
535.99999999987813
 20
-1123.999999999684
 30
0.0
1001
ACDBBLOCKREPETAG
1070
     1
1071
       39
1005
130BF9
  0
CIRCLE
  5
130BFA
  8
OBJECT
 10
535.99999999987813
 20
-1123.999999999684
 30
0.0
 40
53.5
1001
ACDBBLOCKREPETAG
1070
     1
1071
      153
1005
130BFA
  0
CIRCLE
  5
130BFB
  8
OBJECT
 10
175.9999999999998
 20
-1123.999999999684
 30
0.0
 40
70.0
1001
ACDBBLOCKREPETAG
1070
     1
1071
       43
1005
130BFB
  0
CIRCLE
  5
130BFC
  8
OBJECT
 10
175.9999999999998
 20
-1123.999999999684
 30
0.0
 40
77.0
1001
ACDBBLOCKREPETAG
1070
     1
1071
       44
1005
130BFC
  0
ARC
  5
130BFD
  8
OBJECT
 10
175.9999999999998
 20
-1123.999999999684
 30
0.0
 40
80.0
 50
140.80503257377961
 51
219.1949674262203
1001
ACDBBLOCKREPETAG
1070
     1
1071
       45
1005
130BFD
  0
LINE
  5
130BFE
  8
OBJECT
 10
113.9999999999998
 20
-1078.3381997723591
 30
0.0
 11
113.9999999999998
 21
-1043.999999999684
 31
0.0
1001
ACDBBLOCKREPETAG
1070
     1
1071
       46
1005
130BFE
  0
LINE
  5
130BFF
  8
OBJECT
 10
237.99999999999989
 20
-1061.999999999684
 30
0.0
 11
237.99999999999989
 21
-1043.999999999684
 31
0.0
1001
ACDBBLOCKREPETAG
1070
     1
1071
       22
1005
130BFF
  0
LINE
  5
130C00
  8
OBJECT
 10
237.99999999999989
 20
-1061.999999999684
 30
0.0
 11
255.9999999999998
 21
-1061.999999999684
 31
0.0
1001
ACDBBLOCKREPETAG
1070
     1
1071
       24
1005
130C00
  0
LINE
  5
130C01
  8
OBJECT
 10
237.99999999999989
 20
-1185.999999999684
 30
0.0
 11
255.9999999999998
 21
-1185.999999999684
 31
0.0
1001
ACDBBLOCKREPETAG
1070
     1
1071
       25
1005
130C01
  0
LINE
  5
130C02
  8
OBJECT
 10
237.99999999999989
 20
-1185.999999999684
 30
0.0
 11
237.99999999999989
 21
-1203.999999999684
 31
0.0
1001
ACDBBLOCKREPETAG
1070
     1
1071
       27
1005
130C02
  0
LINE
  5
130C03
  8
OBJECT
 10
113.9999999999998
 20
-1169.6618002270079
 30
0.0
 11
113.9999999999998
 21
-1203.999999999684
 31
0.0
1001
ACDBBLOCKREPETAG
1070
     1
1071
       28
1005
130C03
  0
LINE
  5
130C04
  8
OBJECT
 10
230.44722215136409
 20
-1178.447222151048
 30
0.0
 11
237.99999999999989
 21
-1185.999999999684
 31
0.0
1001
ACDBBLOCKREPETAG
1070
     1
1071
       37
1005
130C04
  0
LINE
  5
130C05
  8
OBJECT
 10
230.44722215136409
 20
-1069.552777848319
 30
0.0
 11
237.99999999999989
 21
-1061.999999999684
 31
0.0
1001
ACDBBLOCKREPETAG
1070
     1
1071
       38
1005
130C05
  0
POINT
  5
130C06
  8
DOTS
 10
175.9999999999998
 20
-1123.999999999684
 30
0.0
1001
ACDBBLOCKREPETAG
1070
     1
1071
       39
1005
130C06
  0
CIRCLE
  5
130C07
  8
OBJECT
 10
175.9999999999998
 20
-1123.999999999684
 30
0.0
 40
53.5
1001
ACDBBLOCKREPETAG
1070
     1
1071
      153
1005
130C07
  0
CIRCLE
  5
130C08
  8
OBJECT
 10
535.99999999987813
 20
-659.99999999984175
 30
0.0
 40
70.0
1001
ACDBBLOCKREPETAG
1070
     1
1071
       43
1005
130C08
  0
CIRCLE
  5
130C09
  8
OBJECT
 10
535.99999999987813
 20
-659.99999999984175
 30
0.0
 40
77.0
1001
ACDBBLOCKREPETAG
1070
     1
1071
       44
1005
130C09
  0
ARC
  5
130C0A
  8
OBJECT
 10
535.99999999987813
 20
-659.99999999984175
 30
0.0
 40
80.0
 50
140.8050325737787
 51
219.1949674262213
1001
ACDBBLOCKREPETAG
1070
     1
1071
       45
1005
130C0A
  0
LINE
  5
130C0B
  8
OBJECT
 10
473.99999999987801
 20
-614.33819977251721
 30
0.0
 11
473.99999999987801
 21
-579.99999999984175
 31
0.0
1001
ACDBBLOCKREPETAG
1070
     1
1071
       46
1005
130C0B
  0
LINE
  5
130C0C
  8
OBJECT
 10
597.99999999987813
 20
-597.99999999984175
 30
0.0
 11
597.99999999987813
 21
-579.99999999984175
 31
0.0
1001
ACDBBLOCKREPETAG
1070
     1
1071
       22
1005
130C0C
  0
LINE
  5
130C0D
  8
OBJECT
 10
597.99999999987813
 20
-597.99999999984175
 30
0.0
 11
615.99999999987813
 21
-597.99999999984175
 31
0.0
1001
ACDBBLOCKREPETAG
1070
     1
1071
       24
1005
130C0D
  0
LINE
  5
130C0E
  8
OBJECT
 10
597.99999999987813
 20
-721.99999999984175
 30
0.0
 11
615.99999999987813
 21
-721.99999999984175
 31
0.0
1001
ACDBBLOCKREPETAG
1070
     1
1071
       25
1005
130C0E
  0
LINE
  5
130C0F
  8
OBJECT
 10
597.99999999987813
 20
-721.99999999984175
 30
0.0
 11
597.99999999987813
 21
-739.99999999984175
 31
0.0
1001
ACDBBLOCKREPETAG
1070
     1
1071
       27
1005
130C0F
  0
LINE
  5
130C10
  8
OBJECT
 10
473.99999999987801
 20
-705.66180022716617
 30
0.0
 11
473.99999999987801
 21
-739.99999999984175
 31
0.0
1001
ACDBBLOCKREPETAG
1070
     1
1071
       28
1005
130C10
  0
LINE
  5
130C11
  8
OBJECT
 10
590.44722215124227
 20
-714.44722215120601
 30
0.0
 11
597.99999999987813
 21
-721.99999999984175
 31
0.0
1001
ACDBBLOCKREPETAG
1070
     1
1071
       37
1005
130C11
  0
LINE
  5
130C12
  8
OBJECT
 10
590.44722215124227
 20
-605.55277784847738
 30
0.0
 11
597.99999999987813
 21
-597.99999999984175
 31
0.0
1001
ACDBBLOCKREPETAG
1070
     1
1071
       38
1005
130C12
  0
POINT
  5
130C13
  8
DOTS
 10
535.99999999987813
 20
-659.99999999984175
 30
0.0
1001
ACDBBLOCKREPETAG
1070
     1
1071
       39
1005
130C13
  0
CIRCLE
  5
130C14
  8
OBJECT
 10
535.99999999987813
 20
-659.99999999984175
 30
0.0
 40
53.5
1001
ACDBBLOCKREPETAG
1070
     1
1071
      153
1005
130C14
  0
CIRCLE
  5
130C15
  8
OBJECT
 10
176.0
 20
-659.99999999984175
 30
0.0
 40
70.0
1001
ACDBBLOCKREPETAG
1070
     1
1071
       43
1005
130C15
  0
CIRCLE
  5
130C16
  8
OBJECT
 10
176.0
 20
-659.99999999984175
 30
0.0
 40
77.0
1001
ACDBBLOCKREPETAG
1070
     1
1071
       44
1005
130C16
  0
ARC
  5
130C17
  8
OBJECT
 10
176.0
 20
-659.99999999984175
 30
0.0
 40
80.0
 50
140.80503257377961
 51
219.1949674262203
1001
ACDBBLOCKREPETAG
1070
     1
1071
       45
1005
130C17
  0
LINE
  5
130C18
  8
OBJECT
 10
114.0
 20
-614.33819977251721
 30
0.0
 11
114.0
 21
-579.99999999984175
 31
0.0
1001
ACDBBLOCKREPETAG
1070
     1
1071
       46
1005
130C18
  0
LINE
  5
130C19
  8
OBJECT
 10
238.0
 20
-597.99999999984175
 30
0.0
 11
238.0
 21
-579.99999999984175
 31
0.0
1001
ACDBBLOCKREPETAG
1070
     1
1071
       22
1005
130C19
  0
LINE
  5
130C1A
  8
OBJECT
 10
238.0
 20
-597.99999999984175
 30
0.0
 11
256.0
 21
-597.99999999984175
 31
0.0
1001
ACDBBLOCKREPETAG
1070
     1
1071
       24
1005
130C1A
  0
LINE
  5
130C1B
  8
OBJECT
 10
238.0
 20
-721.99999999984175
 30
0.0
 11
256.0
 21
-721.99999999984175
 31
0.0
1001
ACDBBLOCKREPETAG
1070
     1
1071
       25
1005
130C1B
  0
LINE
  5
130C1C
  8
OBJECT
 10
238.0
 20
-721.99999999984175
 30
0.0
 11
238.0
 21
-739.99999999984175
 31
0.0
1001
ACDBBLOCKREPETAG
1070
     1
1071
       27
1005
130C1C
  0
LINE
  5
130C1D
  8
OBJECT
 10
114.0
 20
-705.66180022716617
 30
0.0
 11
114.0
 21
-739.99999999984175
 31
0.0
1001
ACDBBLOCKREPETAG
1070
     1
1071
       28
1005
130C1D
  0
LINE
  5
130C1E
  8
OBJECT
 10
230.44722215136429
 20
-714.44722215120601
 30
0.0
 11
238.0
 21
-721.99999999984175
 31
0.0
1001
ACDBBLOCKREPETAG
1070
     1
1071
       37
1005
130C1E
  0
LINE
  5
130C1F
  8
OBJECT
 10
230.44722215136429
 20
-605.55277784847738
 30
0.0
 11
238.0
 21
-597.99999999984175
 31
0.0
1001
ACDBBLOCKREPETAG
1070
     1
1071
       38
1005
130C1F
  0
POINT
  5
130C20
  8
DOTS
 10
176.0
 20
-659.99999999984175
 30
0.0
1001
ACDBBLOCKREPETAG
1070
     1
1071
       39
1005
130C20
  0
CIRCLE
  5
130C21
  8
OBJECT
 10
176.0
 20
-659.99999999984175
 30
0.0
 40
53.5
1001
ACDBBLOCKREPETAG
1070
     1
1071
      153
1005
130C21
  0
CIRCLE
  5
130C22
  8
OBJECT
 10
535.99999999987813
 20
-196.0
 30
0.0
 40
70.0
1001
ACDBBLOCKREPETAG
1070
     1
1071
       43
1005
130C22
  0
CIRCLE
  5
130C23
  8
OBJECT
 10
535.99999999987813
 20
-196.0
 30
0.0
 40
77.0
1001
ACDBBLOCKREPETAG
1070
     1
1071
       44
1005
130C23
  0
ARC
  5
130C24
  8
OBJECT
 10
535.99999999987813
 20
-196.0
 30
0.0
 40
80.0
 50
140.80503257378001
 51
219.19496742621999
1001
ACDBBLOCKREPETAG
1070
     1
1071
       45
1005
130C24
  0
LINE
  5
130C25
  8
OBJECT
 10
473.99999999987801
 20
-150.33819977267541
 30
0.0
 11
473.99999999987801
 21
-116.0
 31
0.0
1001
ACDBBLOCKREPETAG
1070
     1
1071
       46
1005
130C25
  0
LINE
  5
130C26
  8
OBJECT
 10
597.99999999987813
 20
-134.0
 30
0.0
 11
597.99999999987813
 21
-116.0
 31
0.0
1001
ACDBBLOCKREPETAG
1070
     1
1071
       22
1005
130C26
  0
LINE
  5
130C27
  8
OBJECT
 10
597.99999999987813
 20
-134.0
 30
0.0
 11
615.99999999987813
 21
-134.0
 31
0.0
1001
ACDBBLOCKREPETAG
1070
     1
1071
       24
1005
130C27
  0
LINE
  5
130C28
  8
OBJECT
 10
597.99999999987813
 20
-258.0
 30
0.0
 11
615.99999999987813
 21
-258.0
 31
0.0
1001
ACDBBLOCKREPETAG
1070
     1
1071
       25
1005
130C28
  0
LINE
  5
130C29
  8
OBJECT
 10
597.99999999987813
 20
-258.0
 30
0.0
 11
597.99999999987813
 21
-276.0
 31
0.0
1001
ACDBBLOCKREPETAG
1070
     1
1071
       27
1005
130C29
  0
LINE
  5
130C2A
  8
OBJECT
 10
473.99999999987801
 20
-241.66180022732439
 30
0.0
 11
473.99999999987801
 21
-276.0
 31
0.0
1001
ACDBBLOCKREPETAG
1070
     1
1071
       28
1005
130C2A
  0
LINE
  5
130C2B
  8
OBJECT
 10
590.44722215124227
 20
-250.44722215136429
 30
0.0
 11
597.99999999987813
 21
-258.0
 31
0.0
1001
ACDBBLOCKREPETAG
1070
     1
1071
       37
1005
130C2B
  0
LINE
  5
130C2C
  8
OBJECT
 10
590.44722215124227
 20
-141.55277784863571
 30
0.0
 11
597.99999999987813
 21
-134.0
 31
0.0
1001
ACDBBLOCKREPETAG
1070
     1
1071
       38
1005
130C2C
  0
POINT
  5
130C2D
  8
DOTS
 10
535.99999999987813
 20
-196.0
 30
0.0
1001
ACDBBLOCKREPETAG
1070
     1
1071
       39
1005
130C2D
  0
CIRCLE
  5
130C2E
  8
OBJECT
 10
535.99999999987813
 20
-196.0
 30
0.0
 40
53.5
1001
ACDBBLOCKREPETAG
1070
     1
1071
      153
1005
130C2E
  0
CIRCLE
  5
130C2F
  8
OBJECT
 10
176.0
 20
-196.0
 30
0.0
 40
70.0
1001
ACDBBLOCKREPETAG
1070
     1
1071
       43
1005
130C2F
  0
CIRCLE
  5
130C30
  8
OBJECT
 10
176.0
 20
-196.0
 30
0.0
 40
77.0
1001
ACDBBLOCKREPETAG
1070
     1
1071
       44
1005
130C30
  0
ARC
  5
130C31
  8
OBJECT
 10
176.0
 20
-196.0
 30
0.0
 40
80.0
 50
140.80503257378101
 51
219.19496742621899
1001
ACDBBLOCKREPETAG
1070
     1
1071
       45
1005
130C31
  0
LINE
  5
130C32
  8
OBJECT
 10
114.0
 20
-150.33819977267541
 30
0.0
 11
114.0
 21
-116.0
 31
0.0
1001
ACDBBLOCKREPETAG
1070
     1
1071
       46
1005
130C32
  0
LINE
  5
130C33
  8
OBJECT
 10
238.0
 20
-134.0
 30
0.0
 11
238.0
 21
-116.0
 31
0.0
1001
ACDBBLOCKREPETAG
1070
     1
1071
       22
1005
130C33
  0
LINE
  5
130C34
  8
OBJECT
 10
238.0
 20
-134.0
 30
0.0
 11
256.0
 21
-134.0
 31
0.0
1001
ACDBBLOCKREPETAG
1070
     1
1071
       24
1005
130C34
  0
LINE
  5
130C35
  8
OBJECT
 10
238.0
 20
-258.0
 30
0.0
 11
256.0
 21
-258.0
 31
0.0
1001
ACDBBLOCKREPETAG
1070
     1
1071
       25
1005
130C35
  0
LINE
  5
130C36
  8
OBJECT
 10
238.0
 20
-258.0
 30
0.0
 11
238.0
 21
-276.0
 31
0.0
1001
ACDBBLOCKREPETAG
1070
     1
1071
       27
1005
130C36
  0
LINE
  5
130C37
  8
OBJECT
 10
114.0
 20
-241.66180022732439
 30
0.0
 11
114.0
 21
-276.0
 31
0.0
1001
ACDBBLOCKREPETAG
1070
     1
1071
       28
1005
130C37
  0
LINE
  5
130C38
  8
OBJECT
 10
230.44722215136429
 20
-250.44722215136429
 30
0.0
 11
238.0
 21
-258.0
 31
0.0
1001
ACDBBLOCKREPETAG
1070
     1
1071
       37
1005
130C38
  0
LINE
  5
130C39
  8
OBJECT
 10
230.44722215136429
 20
-141.55277784863571
 30
0.0
 11
238.0
 21
-134.0
 31
0.0
1001
ACDBBLOCKREPETAG
1070
     1
1071
       38
1005
130C39
  0
POINT
  5
130C3A
  8
DOTS
 10
176.0
 20
-196.0
 30
0.0
1001
ACDBBLOCKREPETAG
1070
     1
1071
       39
1005
130C3A
  0
CIRCLE
  5
130C3B
  8
OBJECT
 10
176.0
 20
-196.0
 30
0.0
 40
53.5
1001
ACDBBLOCKREPETAG
1070
     1
1071
      153
1005
130C3B
  0
LINE
  5
130C3C
  8
OBJECT
 10
3923.0
 20
-570.99999999999432
 30
0.0
 11
3923.0
 21
-549.99999999999432
 31
0.0
1001
ACDBBLOCKREPETAG
1070
     1
1071
       36
1005
130C3C
  0
LINE
  5
130C3D
  8
OBJECT
 10
3923.0
 20
-549.99999999999432
 30
0.0
 11
4077.0
 21
-549.99999999999432
 31
0.0
1001
ACDBBLOCKREPETAG
1070
     1
1071
       37
1005
130C3D
  0
LINE
  5
130C3E
  8
HIDDEN
 10
3943.0
 20
-619.99999999999432
 30
0.0
 11
4057.0
 21
-619.99999999999432
 31
0.0
1001
ACDBBLOCKREPETAG
1070
     1
1071
       38
1005
130C3E
  0
LINE
  5
130C3F
  8
OBJECT
 10
4077.0
 20
-549.99999999999432
 30
0.0
 11
4077.0
 21
-570.99999999999432
 31
0.0
1001
ACDBBLOCKREPETAG
1070
     1
1071
       39
1005
130C3F
  0
LINE
  5
130C40
  8
OBJECT
 10
4077.0
 20
-570.99999999999432
 30
0.0
 11
3923.0
 21
-570.99999999999432
 31
0.0
1001
ACDBBLOCKREPETAG
1070
     1
1071
       40
1005
130C40
  0
LINE
  5
130C41
  8
CENTER
 10
4000.0
 20
-534.99999999999432
 30
0.0
 11
4000.0
 21
-769.9999999999942
 31
0.0
1001
ACDBBLOCKREPETAG
1070
     1
1071
       41
1005
130C41
  0
LINE
  5
130C42
  8
OBJECT
 10
3928.0
 20
-570.99999999999432
 30
0.0
 11
3928.0
 21
-633.99999999999432
 31
0.0
1001
ACDBBLOCKREPETAG
1070
     1
1071
       42
1005
130C42
  0
LINE
  5
130C43
  8
OBJECT
 10
4072.0
 20
-633.99999999999432
 30
0.0
 11
4072.0
 21
-570.99999999999432
 31
0.0
1001
ACDBBLOCKREPETAG
1070
     1
1071
       43
1005
130C43
  0
LINE
  5
130C44
  8
OBJECT
 10
3920.0
 20
-757.9999999999942
 30
0.0
 11
4080.0
 21
-757.9999999999942
 31
0.0
1001
ACDBBLOCKREPETAG
1070
     1
1071
       44
1005
130C44
  0
LINE
  5
130C45
  8
OBJECT
 10
4080.0
 20
-633.99999999999432
 30
0.0
 11
3920.0
 21
-633.99999999999432
 31
0.0
1001
ACDBBLOCKREPETAG
1070
     1
1071
       45
1005
130C45
  0
LINE
  5
130C46
  8
OBJECT
 10
3920.0
 20
-757.9999999999942
 30
0.0
 11
3920.0
 21
-769.9999999999942
 31
0.0
1001
ACDBBLOCKREPETAG
1070
     1
1071
       46
1005
130C46
  0
LINE
  5
130C47
  8
OBJECT
 10
3920.0
 20
-769.9999999999942
 30
0.0
 11
4080.0
 21
-769.9999999999942
 31
0.0
1001
ACDBBLOCKREPETAG
1070
     1
1071
       47
1005
130C47
  0
LINE
  5
130C48
  8
OBJECT
 10
4080.0
 20
-769.9999999999942
 30
0.0
 11
4080.0
 21
-757.9999999999942
 31
0.0
1001
ACDBBLOCKREPETAG
1070
     1
1071
       48
1005
130C48
  0
ARC
  5
130C49
  8
OBJECT
 10
4200.6872746716726
 20
-749.40809941010195
 30
0.0
 40
170.6350503965856
 50
137.44134459184301
 51
149.91949581337221
1001
ACDBBLOCKREPETAG
1070
     1
1071
       52
1005
130C49
  0
ARC
  5
130C4A
  8
OBJECT
 10
4200.6872746716726
 20
-642.59190058988645
 30
0.0
 40
170.6350503965856
 50
210.08050418662771
 51
222.55865540815699
1001
ACDBBLOCKREPETAG
1070
     1
1071
       53
1005
130C4A
  0
ARC
  5
130C4B
  8
OBJECT
 10
3799.3127253283278
 20
-749.40809941010195
 30
0.0
 40
170.6350503965856
 50
30.080504186774089
 51
42.558655408456282
1001
ACDBBLOCKREPETAG
1070
     1
1071
       54
1005
130C4B
  0
ARC
  5
130C4C
  8
OBJECT
 10
3799.3127253283278
 20
-642.59190058988645
 30
0.0
 40
170.6350503965856
 50
317.44134459154373
 51
329.91949581322592
1001
ACDBBLOCKREPETAG
1070
     1
1071
       55
1005
130C4C
  0
POINT
  5
130C4D
  8
DOTS
 10
4000.0
 20
-754.9999999999942
 30
0.0
1001
ACDBBLOCKREPETAG
1070
     1
1071
      184
1005
130C4D
  0
LINE
  5
130C4E
  8
OBJECT
 10
3867.0
 20
-261.99999999999909
 30
0.0
 11
3860.0
 21
-261.99999999999909
 31
0.0
1001
ACDBBLOCKREPETAG
1070
     1
1071
       47
1005
130C4E
  0
LINE
  5
130C4F
  8
OBJECT
 10
3860.0
 20
-261.99999999999909
 30
0.0
 11
3860.0
 21
-137.99999999999909
 31
0.0
1001
ACDBBLOCKREPETAG
1070
     1
1071
       48
1005
130C4F
  0
LINE
  5
130C50
  8
OBJECT
 10
3860.0
 20
-137.99999999999909
 30
0.0
 11
3867.0
 21
-137.99999999999909
 31
0.0
1001
ACDBBLOCKREPETAG
1070
     1
1071
       49
1005
130C50
  0
LINE
  5
130C51
  8
OBJECT
 10
3867.0
 20
-137.99999999999909
 30
0.0
 11
3867.0
 21
-261.99999999999909
 31
0.0
1001
ACDBBLOCKREPETAG
1070
     1
1071
       50
1005
130C51
  0
LINE
  5
130C52
  8
CENTER
 10
3845.0
 20
-199.99999999999909
 30
0.0
 11
3920.0
 21
-199.99999999999909
 31
0.0
1001
ACDBBLOCKREPETAG
1070
     1
1071
       51
1005
130C52
  0
LINE
  5
130C53
  8
OBJECT
 10
3867.0
 20
-258.99999999999909
 30
0.0
 11
3903.0
 21
-258.99999999999909
 31
0.0
1001
ACDBBLOCKREPETAG
1070
     1
1071
       52
1005
130C53
  0
LINE
  5
130C54
  8
OBJECT
 10
3903.0
 20
-258.99999999999909
 30
0.0
 11
3903.0
 21
-140.99999999999909
 31
0.0
1001
ACDBBLOCKREPETAG
1070
     1
1071
       53
1005
130C54
  0
LINE
  5
130C55
  8
OBJECT
 10
3903.0
 20
-140.99999999999909
 30
0.0
 11
3867.0
 21
-140.99999999999909
 31
0.0
1001
ACDBBLOCKREPETAG
1070
     1
1071
       54
1005
130C55
  0
LINE
  5
130C56
  8
OBJECT
 10
3907.0
 20
-254.49999999999909
 30
0.0
 11
3914.0
 21
-254.49999999999909
 31
0.0
1001
ACDBBLOCKREPETAG
1070
     1
1071
       55
1005
130C56
  0
LINE
  5
130C57
  8
OBJECT
 10
3914.0
 20
-145.49999999999909
 30
0.0
 11
3907.0
 21
-145.49999999999909
 31
0.0
1001
ACDBBLOCKREPETAG
1070
     1
1071
       56
1005
130C57
  0
LINE
  5
130C58
  8
OBJECT
 10
3907.0
 20
-145.49999999999909
 30
0.0
 11
3907.0
 21
-254.49999999999909
 31
0.0
1001
ACDBBLOCKREPETAG
1070
     1
1071
       57
1005
130C58
  0
LINE
  5
130C59
  8
OBJECT
 10
3903.0
 20
-258.99999999999909
 30
0.0
 11
3907.0
 21
-254.49999999999909
 31
0.0
1001
ACDBBLOCKREPETAG
1070
     1
1071
       58
1005
130C59
  0
LINE
  5
130C5A
  8
OBJECT
 10
3903.0
 20
-140.99999999999909
 30
0.0
 11
3907.0
 21
-145.49999999999909
 31
0.0
1001
ACDBBLOCKREPETAG
1070
     1
1071
       59
1005
130C5A
  0
LINE
  5
130C5B
  8
OBJECT
 10
3917.0
 20
-261.99999999999909
 30
0.0
 11
3920.0
 21
-261.99999999999909
 31
0.0
1001
ACDBBLOCKREPETAG
1070
     1
1071
       60
1005
130C5B
  0
ARC
  5
130C5C
  8
OBJECT
 10
3917.0
 20
-258.99999999999909
 30
0.0
 40
3.0
 50
180.0
 51
270.0
1001
ACDBBLOCKREPETAG
1070
     1
1071
       61
1005
130C5C
  0
LINE
  5
130C5D
  8
OBJECT
 10
3920.0
 20
-137.99999999999909
 30
0.0
 11
3917.0
 21
-137.99999999999909
 31
0.0
1001
ACDBBLOCKREPETAG
1070
     1
1071
       62
1005
130C5D
  0
ARC
  5
130C5E
  8
OBJECT
 10
3917.0
 20
-140.99999999999909
 30
0.0
 40
3.0
 50
90.0
 51
180.0
1001
ACDBBLOCKREPETAG
1070
     1
1071
       63
1005
130C5E
  0
LINE
  5
130C5F
  8
OBJECT
 10
3914.0
 20
-140.99999999999909
 30
0.0
 11
3914.0
 21
-258.99999999999909
 31
0.0
1001
ACDBBLOCKREPETAG
1070
     1
1071
       64
1005
130C5F
  0
LINE
  5
130C60
  8
HIDDEN
 10
3912.0
 20
-244.49999999999909
 30
0.0
 11
3912.0
 21
-155.49999999999909
 31
0.0
1001
ACDBBLOCKREPETAG
1070
     1
1071
       65
1005
130C60
  0
LINE
  5
130C61
  8
CENTER
 10
4000.0
 20
-300.99999999999898
 30
0.0
 11
4000.0
 21
-279.99999999999909
 31
0.0
1001
ACDBBLOCKREPETAG
1070
     1
1071
        0
1005
130C61
  0
LINE
  5
130C62
  8
OBJECT
 10
4062.0
 20
-283.0
 30
0.0
 11
4062.0
 21
-279.99999999999909
 31
0.0
1001
ACDBBLOCKREPETAG
1070
     1
1071
        1
1005
130C62
  0
ARC
  5
130C63
  8
OBJECT
 10
4059.0
 20
-283.0
 30
0.0
 40
3.0
 50
270.0
 51
0.0
1001
ACDBBLOCKREPETAG
1070
     1
1071
        2
1005
130C63
  0
LINE
  5
130C64
  8
OBJECT
 10
3938.0
 20
-279.99999999999909
 30
0.0
 11
3938.0
 21
-282.99999999999818
 31
0.0
1001
ACDBBLOCKREPETAG
1070
     1
1071
        3
1005
130C64
  0
ARC
  5
130C65
  8
OBJECT
 10
3941.0
 20
-282.99999999999818
 30
0.0
 40
3.0
 50
180.0
 51
270.0
1001
ACDBBLOCKREPETAG
1070
     1
1071
        4
1005
130C65
  0
LINE
  5
130C66
  8
OBJECT
 10
3941.0
 20
-285.99999999999818
 30
0.0
 11
4059.0
 21
-286.0
 31
0.0
1001
ACDBBLOCKREPETAG
1070
     1
1071
        5
1005
130C66
  0
LINE
  5
130C67
  8
OBJECT
 10
4133.0
 20
-137.99999999999909
 30
0.0
 11
4140.0
 21
-137.99999999999909
 31
0.0
1001
ACDBBLOCKREPETAG
1070
     1
1071
       47
1005
130C67
  0
LINE
  5
130C68
  8
OBJECT
 10
4140.0
 20
-137.99999999999909
 30
0.0
 11
4140.0
 21
-261.99999999999909
 31
0.0
1001
ACDBBLOCKREPETAG
1070
     1
1071
       48
1005
130C68
  0
LINE
  5
130C69
  8
OBJECT
 10
4140.0
 20
-261.99999999999909
 30
0.0
 11
4133.0
 21
-261.99999999999909
 31
0.0
1001
ACDBBLOCKREPETAG
1070
     1
1071
       49
1005
130C69
  0
LINE
  5
130C6A
  8
OBJECT
 10
4133.0
 20
-261.99999999999909
 30
0.0
 11
4133.0
 21
-137.99999999999909
 31
0.0
1001
ACDBBLOCKREPETAG
1070
     1
1071
       50
1005
130C6A
  0
LINE
  5
130C6B
  8
CENTER
 10
4155.0
 20
-199.99999999999909
 30
0.0
 11
4080.0
 21
-199.99999999999909
 31
0.0
1001
ACDBBLOCKREPETAG
1070
     1
1071
       51
1005
130C6B
  0
LINE
  5
130C6C
  8
OBJECT
 10
4133.0
 20
-140.99999999999909
 30
0.0
 11
4097.0
 21
-140.99999999999909
 31
0.0
1001
ACDBBLOCKREPETAG
1070
     1
1071
       52
1005
130C6C
  0
LINE
  5
130C6D
  8
OBJECT
 10
4097.0
 20
-140.99999999999909
 30
0.0
 11
4097.0
 21
-258.99999999999909
 31
0.0
1001
ACDBBLOCKREPETAG
1070
     1
1071
       53
1005
130C6D
  0
LINE
  5
130C6E
  8
OBJECT
 10
4097.0
 20
-258.99999999999909
 30
0.0
 11
4133.0
 21
-258.99999999999909
 31
0.0
1001
ACDBBLOCKREPETAG
1070
     1
1071
       54
1005
130C6E
  0
LINE
  5
130C6F
  8
OBJECT
 10
4093.0
 20
-145.49999999999909
 30
0.0
 11
4086.0
 21
-145.49999999999909
 31
0.0
1001
ACDBBLOCKREPETAG
1070
     1
1071
       55
1005
130C6F
  0
LINE
  5
130C70
  8
OBJECT
 10
4086.0
 20
-254.49999999999909
 30
0.0
 11
4093.0
 21
-254.49999999999909
 31
0.0
1001
ACDBBLOCKREPETAG
1070
     1
1071
       56
1005
130C70
  0
LINE
  5
130C71
  8
OBJECT
 10
4093.0
 20
-254.49999999999909
 30
0.0
 11
4093.0
 21
-145.49999999999909
 31
0.0
1001
ACDBBLOCKREPETAG
1070
     1
1071
       57
1005
130C71
  0
LINE
  5
130C72
  8
OBJECT
 10
4097.0
 20
-140.99999999999909
 30
0.0
 11
4093.0
 21
-145.49999999999909
 31
0.0
1001
ACDBBLOCKREPETAG
1070
     1
1071
       58
1005
130C72
  0
LINE
  5
130C73
  8
OBJECT
 10
4097.0
 20
-258.99999999999909
 30
0.0
 11
4093.0
 21
-254.49999999999909
 31
0.0
1001
ACDBBLOCKREPETAG
1070
     1
1071
       59
1005
130C73
  0
LINE
  5
130C74
  8
OBJECT
 10
4083.0
 20
-137.99999999999909
 30
0.0
 11
4080.0
 21
-137.99999999999909
 31
0.0
1001
ACDBBLOCKREPETAG
1070
     1
1071
       60
1005
130C74
  0
ARC
  5
130C75
  8
OBJECT
 10
4083.0
 20
-140.99999999999909
 30
0.0
 40
3.0
 50
0.0
 51
90.0
1001
ACDBBLOCKREPETAG
1070
     1
1071
       61
1005
130C75
  0
LINE
  5
130C76
  8
OBJECT
 10
4080.0
 20
-261.99999999999909
 30
0.0
 11
4083.0
 21
-261.99999999999909
 31
0.0
1001
ACDBBLOCKREPETAG
1070
     1
1071
       62
1005
130C76
  0
ARC
  5
130C77
  8
OBJECT
 10
4083.0
 20
-258.99999999999909
 30
0.0
 40
3.0
 50
270.0
 51
0.0
1001
ACDBBLOCKREPETAG
1070
     1
1071
       63
1005
130C77
  0
LINE
  5
130C78
  8
OBJECT
 10
4086.0
 20
-258.99999999999909
 30
0.0
 11
4086.0
 21
-140.99999999999909
 31
0.0
1001
ACDBBLOCKREPETAG
1070
     1
1071
       64
1005
130C78
  0
LINE
  5
130C79
  8
HIDDEN
 10
4088.0
 20
-155.49999999999909
 30
0.0
 11
4088.0
 21
-244.49999999999909
 31
0.0
1001
ACDBBLOCKREPETAG
1070
     1
1071
       65
1005
130C79
  0
LINE
  5
130C7A
  8
OBJECT
 10
3867.0
 20
-634.0
 30
0.0
 11
3860.0
 21
-634.0
 31
0.0
1001
ACDBBLOCKREPETAG
1070
     1
1071
       45
1005
130C7A
  0
LINE
  5
130C7B
  8
OBJECT
 10
3860.0
 20
-634.0
 30
0.0
 11
3860.0
 21
-755.0
 31
0.0
1001
ACDBBLOCKREPETAG
1070
     1
1071
       46
1005
130C7B
  0
LINE
  5
130C7C
  8
OBJECT
 10
3867.0
 20
-755.0
 30
0.0
 11
3867.0
 21
-634.0
 31
0.0
1001
ACDBBLOCKREPETAG
1070
     1
1071
       47
1005
130C7C
  0
LINE
  5
130C7D
  8
CENTER
 10
3845.0
 20
-696.0
 30
0.0
 11
3929.0
 21
-696.0
 31
0.0
1001
ACDBBLOCKREPETAG
1070
     1
1071
       48
1005
130C7D
  0
LINE
  5
130C7E
  8
OBJECT
 10
3867.0
 20
-637.0
 30
0.0
 11
3903.0
 21
-637.0
 31
0.0
1001
ACDBBLOCKREPETAG
1070
     1
1071
       49
1005
130C7E
  0
LINE
  5
130C7F
  8
OBJECT
 10
3903.0
 20
-637.0
 30
0.0
 11
3903.0
 21
-755.0
 31
0.0
1001
ACDBBLOCKREPETAG
1070
     1
1071
       50
1005
130C7F
  0
LINE
  5
130C80
  8
OBJECT
 10
3903.0
 20
-755.0
 30
0.0
 11
3860.0
 21
-755.0
 31
0.0
1001
ACDBBLOCKREPETAG
1070
     1
1071
       51
1005
130C80
  0
LINE
  5
130C81
  8
OBJECT
 10
3907.0
 20
-641.5
 30
0.0
 11
3914.0
 21
-641.5
 31
0.0
1001
ACDBBLOCKREPETAG
1070
     1
1071
       52
1005
130C81
  0
LINE
  5
130C82
  8
OBJECT
 10
3914.0
 20
-750.49999999999989
 30
0.0
 11
3907.0
 21
-750.49999999999989
 31
0.0
1001
ACDBBLOCKREPETAG
1070
     1
1071
       53
1005
130C82
  0
LINE
  5
130C83
  8
OBJECT
 10
3907.0
 20
-750.49999999999989
 30
0.0
 11
3907.0
 21
-641.5
 31
0.0
1001
ACDBBLOCKREPETAG
1070
     1
1071
       54
1005
130C83
  0
LINE
  5
130C84
  8
OBJECT
 10
3903.0
 20
-637.0
 30
0.0
 11
3907.0
 21
-641.5
 31
0.0
1001
ACDBBLOCKREPETAG
1070
     1
1071
       55
1005
130C84
  0
LINE
  5
130C85
  8
OBJECT
 10
3903.0
 20
-755.0
 30
0.0
 11
3907.0
 21
-750.49999999999989
 31
0.0
1001
ACDBBLOCKREPETAG
1070
     1
1071
       56
1005
130C85
  0
LINE
  5
130C86
  8
OBJECT
 10
3917.0
 20
-634.0
 30
0.0
 11
3920.0
 21
-634.0
 31
0.0
1001
ACDBBLOCKREPETAG
1070
     1
1071
       57
1005
130C86
  0
ARC
  5
130C87
  8
OBJECT
 10
3917.0
 20
-637.0
 30
0.0
 40
3.0
 50
90.0
 51
180.0
1001
ACDBBLOCKREPETAG
1070
     1
1071
       58
1005
130C87
  0
LINE
  5
130C88
  8
OBJECT
 10
3920.0
 20
-758.0
 30
0.0
 11
3917.0
 21
-758.0
 31
0.0
1001
ACDBBLOCKREPETAG
1070
     1
1071
       59
1005
130C88
  0
ARC
  5
130C89
  8
OBJECT
 10
3917.0
 20
-755.0
 30
0.0
 40
3.0
 50
180.0
 51
270.0
1001
ACDBBLOCKREPETAG
1070
     1
1071
       60
1005
130C89
  0
LINE
  5
130C8A
  8
OBJECT
 10
3914.0
 20
-755.0
 30
0.0
 11
3914.0
 21
-637.0
 31
0.0
1001
ACDBBLOCKREPETAG
1070
     1
1071
       61
1005
130C8A
  0
LINE
  5
130C8B
  8
HIDDEN
 10
3912.0
 20
-651.5
 30
0.0
 11
3912.0
 21
-740.5
 31
0.0
1001
ACDBBLOCKREPETAG
1070
     1
1071
       63
1005
130C8B
  0
CIRCLE
  5
130C8C
  8
OBJECT
 10
4000.0
 20
-696.0
 30
0.0
 40
62.0
1001
ACDBBLOCKREPETAG
1070
     1
1071
        0
1005
130C8C
  0
LINE
  5
130C8D
  8
OBJECT
 10
4133.0
 20
-634.0
 30
0.0
 11
4140.0
 21
-634.0
 31
0.0
1001
ACDBBLOCKREPETAG
1070
     1
1071
       45
1005
130C8D
  0
LINE
  5
130C8E
  8
OBJECT
 10
4140.0
 20
-634.0
 30
0.0
 11
4140.0
 21
-755.0
 31
0.0
1001
ACDBBLOCKREPETAG
1070
     1
1071
       46
1005
130C8E
  0
LINE
  5
130C8F
  8
OBJECT
 10
4133.0
 20
-755.0
 30
0.0
 11
4133.0
 21
-634.0
 31
0.0
1001
ACDBBLOCKREPETAG
1070
     1
1071
       47
1005
130C8F
  0
LINE
  5
130C90
  8
CENTER
 10
4155.0
 20
-696.0
 30
0.0
 11
4071.0
 21
-696.0
 31
0.0
1001
ACDBBLOCKREPETAG
1070
     1
1071
       48
1005
130C90
  0
LINE
  5
130C91
  8
OBJECT
 10
4133.0
 20
-637.0
 30
0.0
 11
4097.0
 21
-637.0
 31
0.0
1001
ACDBBLOCKREPETAG
1070
     1
1071
       49
1005
130C91
  0
LINE
  5
130C92
  8
OBJECT
 10
4097.0
 20
-637.0
 30
0.0
 11
4097.0
 21
-755.0
 31
0.0
1001
ACDBBLOCKREPETAG
1070
     1
1071
       50
1005
130C92
  0
LINE
  5
130C93
  8
OBJECT
 10
4097.0
 20
-755.0
 30
0.0
 11
4140.0
 21
-755.0
 31
0.0
1001
ACDBBLOCKREPETAG
1070
     1
1071
       51
1005
130C93
  0
LINE
  5
130C94
  8
OBJECT
 10
4093.0
 20
-641.5
 30
0.0
 11
4086.0
 21
-641.5
 31
0.0
1001
ACDBBLOCKREPETAG
1070
     1
1071
       52
1005
130C94
  0
LINE
  5
130C95
  8
OBJECT
 10
4086.0
 20
-750.49999999999989
 30
0.0
 11
4093.0
 21
-750.49999999999989
 31
0.0
1001
ACDBBLOCKREPETAG
1070
     1
1071
       53
1005
130C95
  0
LINE
  5
130C96
  8
OBJECT
 10
4093.0
 20
-750.49999999999989
 30
0.0
 11
4093.0
 21
-641.5
 31
0.0
1001
ACDBBLOCKREPETAG
1070
     1
1071
       54
1005
130C96
  0
LINE
  5
130C97
  8
OBJECT
 10
4097.0
 20
-637.0
 30
0.0
 11
4093.0
 21
-641.5
 31
0.0
1001
ACDBBLOCKREPETAG
1070
     1
1071
       55
1005
130C97
  0
LINE
  5
130C98
  8
OBJECT
 10
4097.0
 20
-755.0
 30
0.0
 11
4093.0
 21
-750.49999999999989
 31
0.0
1001
ACDBBLOCKREPETAG
1070
     1
1071
       56
1005
130C98
  0
LINE
  5
130C99
  8
OBJECT
 10
4083.0
 20
-634.0
 30
0.0
 11
4080.0
 21
-634.0
 31
0.0
1001
ACDBBLOCKREPETAG
1070
     1
1071
       57
1005
130C99
  0
ARC
  5
130C9A
  8
OBJECT
 10
4083.0
 20
-637.0
 30
0.0
 40
3.0
 50
0.0
 51
90.0
1001
ACDBBLOCKREPETAG
1070
     1
1071
       58
1005
130C9A
  0
LINE
  5
130C9B
  8
OBJECT
 10
4080.0
 20
-758.0
 30
0.0
 11
4083.0
 21
-758.0
 31
0.0
1001
ACDBBLOCKREPETAG
1070
     1
1071
       59
1005
130C9B
  0
ARC
  5
130C9C
  8
OBJECT
 10
4083.0
 20
-755.0
 30
0.0
 40
3.0
 50
270.0
 51
0.0
1001
ACDBBLOCKREPETAG
1070
     1
1071
       60
1005
130C9C
  0
LINE
  5
130C9D
  8
OBJECT
 10
4086.0
 20
-755.0
 30
0.0
 11
4086.0
 21
-637.0
 31
0.0
1001
ACDBBLOCKREPETAG
1070
     1
1071
       61
1005
130C9D
  0
LINE
  5
130C9E
  8
HIDDEN
 10
4088.0
 20
-651.5
 30
0.0
 11
4088.0
 21
-740.5
 31
0.0
1001
ACDBBLOCKREPETAG
1070
     1
1071
       63
1005
130C9E
  0
POLYLINE
  5
130C9F
  8
HIDDEN
 66
     1
 10
0.0
 20
0.0
 30
0.0
 70
     1
1001
ACDBBLOCKREPETAG
1070
     1
1071
      105
1005
0
  0
VERTEX
  5
131CE9
  8
HIDDEN
 10
359.99999999987818
 20
0.0
 30
0.0
  0
VERTEX
  5
131CEA
  8
HIDDEN
 10
719.99999999975626
 20
0.0
 30
0.0
  0
VERTEX
  5
131CEB
  8
HIDDEN
 10
719.99999999975626
 20
-463.99999999984158
 30
0.0
  0
VERTEX
  5
131CEC
  8
HIDDEN
 10
359.99999999987818
 20
-463.99999999984158
 30
0.0
  0
SEQEND
  5
131CED
  8
HIDDEN
  0
POLYLINE
  5
130CA0
  8
HIDDEN
 66
     1
 10
0.0
 20
0.0
 30
0.0
 70
     1
1001
ACDBBLOCKREPETAG
1070
     1
1071
      110
1005
0
  0
VERTEX
  5
131CEE
  8
HIDDEN
 10
0.0
 20
0.0
 30
0.0
  0
VERTEX
  5
131CEF
  8
HIDDEN
 10
359.99999999987818
 20
0.0
 30
0.0
  0
VERTEX
  5
131CF0
  8
HIDDEN
 10
359.99999999987818
 20
-463.99999999984158
 30
0.0
  0
VERTEX
  5
131CF1
  8
HIDDEN
 10
0.0
 20
-463.99999999984158
 30
0.0
  0
SEQEND
  5
131CF2
  8
HIDDEN
  0
POLYLINE
  5
130CA1
  8
HIDDEN
 66
     1
 10
0.0
 20
0.0
 30
0.0
 70
     1
1001
ACDBBLOCKREPETAG
1070
     1
1071
      120
1005
0
  0
VERTEX
  5
131CF3
  8
HIDDEN
 10
359.99999999987818
 20
-463.99999999984158
 30
0.0
  0
VERTEX
  5
131CF4
  8
HIDDEN
 10
719.99999999975626
 20
-463.99999999984158
 30
0.0
  0
VERTEX
  5
131CF5
  8
HIDDEN
 10
719.99999999975626
 20
-927.9999999996835
 30
0.0
  0
VERTEX
  5
131CF6
  8
HIDDEN
 10
359.99999999987818
 20
-927.9999999996835
 30
0.0
  0
SEQEND
  5
131CF7
  8
HIDDEN
  0
POLYLINE
  5
130CA2
  8
HIDDEN
 66
     1
 10
0.0
 20
0.0
 30
0.0
 70
     1
1001
ACDBBLOCKREPETAG
1070
     1
1071
      125
1005
0
  0
VERTEX
  5
131CF8
  8
HIDDEN
 10
0.0
 20
-463.99999999984158
 30
0.0
  0
VERTEX
  5
131CF9
  8
HIDDEN
 10
359.99999999987818
 20
-463.99999999984158
 30
0.0
  0
VERTEX
  5
131CFA
  8
HIDDEN
 10
359.99999999987818
 20
-927.9999999996835
 30
0.0
  0
VERTEX
  5
131CFB
  8
HIDDEN
 10
0.0
 20
-927.9999999996835
 30
0.0
  0
SEQEND
  5
131CFC
  8
HIDDEN
  0
POLYLINE
  5
130CA3
  8
HIDDEN
 66
     1
 10
0.0
 20
0.0
 30
0.0
 70
     1
1001
ACDBBLOCKREPETAG
1070
     1
1071
      130
1005
0
  0
VERTEX
  5
131CFD
  8
HIDDEN
 10
359.99999999987818
 20
-927.9999999996835
 30
0.0
  0
VERTEX
  5
131CFE
  8
HIDDEN
 10
719.99999999975626
 20
-927.9999999996835
 30
0.0
  0
VERTEX
  5
131CFF
  8
HIDDEN
 10
719.99999999975626
 20
-1391.999999999525
 30
0.0
  0
VERTEX
  5
131D00
  8
HIDDEN
 10
359.99999999987818
 20
-1391.999999999525
 30
0.0
  0
SEQEND
  5
131D01
  8
HIDDEN
  0
POLYLINE
  5
130CA4
  8
HIDDEN
 66
     1
 10
0.0
 20
0.0
 30
0.0
 70
     1
1001
ACDBBLOCKREPETAG
1070
     1
1071
      135
1005
0
  0
VERTEX
  5
131D02
  8
HIDDEN
 10
0.0
 20
-927.9999999996835
 30
0.0
  0
VERTEX
  5
131D03
  8
HIDDEN
 10
359.99999999987818
 20
-927.9999999996835
 30
0.0
  0
VERTEX
  5
131D04
  8
HIDDEN
 10
359.99999999987818
 20
-1391.999999999525
 30
0.0
  0
VERTEX
  5
131D05
  8
HIDDEN
 10
0.0
 20
-1391.999999999525
 30
0.0
  0
SEQEND
  5
131D06
  8
HIDDEN
  0
POLYLINE
  5
130CA5
  8
HIDDEN
 66
     1
 10
0.0
 20
0.0
 30
0.0
 70
     1
1001
ACDBBLOCKREPETAG
1070
     1
1071
      160
1005
0
  0
VERTEX
  5
131D07
  8
HIDDEN
 10
359.99999999987818
 20
-1391.999999999525
 30
0.0
  0
VERTEX
  5
131D08
  8
HIDDEN
 10
719.99999999975626
 20
-1391.999999999525
 30
0.0
  0
VERTEX
  5
131D09
  8
HIDDEN
 10
719.99999999975626
 20
-1855.999999999367
 30
0.0
  0
VERTEX
  5
131D0A
  8
HIDDEN
 10
359.99999999987818
 20
-1855.999999999367
 30
0.0
  0
SEQEND
  5
131D0B
  8
HIDDEN
  0
POLYLINE
  5
130CA6
  8
HIDDEN
 66
     1
 10
0.0
 20
0.0
 30
0.0
 70
     1
1001
ACDBBLOCKREPETAG
1070
     1
1071
      165
1005
0
  0
VERTEX
  5
131D0C
  8
HIDDEN
 10
0.0
 20
-1391.999999999525
 30
0.0
  0
VERTEX
  5
131D0D
  8
HIDDEN
 10
359.99999999987818
 20
-1391.999999999525
 30
0.0
  0
VERTEX
  5
131D0E
  8
HIDDEN
 10
359.99999999987818
 20
-1855.999999999367
 30
0.0
  0
VERTEX
  5
131D0F
  8
HIDDEN
 10
0.0
 20
-1855.999999999367
 30
0.0
  0
SEQEND
  5
131D10
  8
HIDDEN
  0
POLYLINE
  5
130CA7
  8
HIDDEN
 66
     1
 10
0.0
 20
0.0
 30
0.0
 70
     1
1001
ACDBBLOCKREPETAG
1070
     1
1071
      170
1005
0
  0
VERTEX
  5
131D11
  8
HIDDEN
 10
359.99999999987818
 20
-1855.999999999367
 30
0.0
  0
VERTEX
  5
131D12
  8
HIDDEN
 10
719.99999999975626
 20
-1855.999999999367
 30
0.0
  0
VERTEX
  5
131D13
  8
HIDDEN
 10
719.99999999975626
 20
-2319.9999999992092
 30
0.0
  0
VERTEX
  5
131D14
  8
HIDDEN
 10
359.99999999987818
 20
-2319.9999999992092
 30
0.0
  0
SEQEND
  5
131D15
  8
HIDDEN
  0
POLYLINE
  5
130CA8
  8
HIDDEN
 66
     1
 10
0.0
 20
0.0
 30
0.0
 70
     1
1001
ACDBBLOCKREPETAG
1070
     1
1071
      175
1005
0
  0
VERTEX
  5
131D16
  8
HIDDEN
 10
0.0
 20
-1855.999999999367
 30
0.0
  0
VERTEX
  5
131D17
  8
HIDDEN
 10
359.99999999987818
 20
-1855.999999999367
 30
0.0
  0
VERTEX
  5
131D18
  8
HIDDEN
 10
359.99999999987818
 20
-2319.9999999992092
 30
0.0
  0
VERTEX
  5
131D19
  8
HIDDEN
 10
0.0
 20
-2319.9999999992092
 30
0.0
  0
SEQEND
  5
131D1A
  8
HIDDEN
  0
TEXT
  5
130CA9
  8
SLIM
 10
420.17142857124622
 20
-2299.999999999216
 30
0.0
 40
48.0
  1
B404（特）
 41
0.75
1001
ACDBBLOCKREPETAG
1070
     1
1071
      119
1005
12F953
  0
LINE
  5
130CAA
  8
OBJECT
 10
610.99999999849024
 20
-2201.9999999970728
 30
0.0
 11
610.99999999849024
 21
-2194.9999999970728
 31
0.0
1001
ACDBBLOCKREPETAG
1070
     1
1071
       57
1005
130CAA
  0
LINE
  5
130CAB
  8
OBJECT
 10
610.99999999849024
 20
-2194.9999999970728
 30
0.0
 11
460.99999999849018
 21
-2194.9999999970728
 31
0.0
1001
ACDBBLOCKREPETAG
1070
     1
1071
       58
1005
130CAB
  0
LINE
  5
130CAC
  8
OBJECT
 10
607.99999999849024
 20
-2153.4999999970728
 30
0.0
 11
463.99999999849018
 21
-2153.4999999970728
 31
0.0
1001
ACDBBLOCKREPETAG
1070
     1
1071
       59
1005
130CAC
  0
LINE
  5
130CAD
  8
OBJECT
 10
601.49999999849024
 20
-2141.9999999970728
 30
0.0
 11
470.49999999849018
 21
-2141.9999999970728
 31
0.0
1001
ACDBBLOCKREPETAG
1070
     1
1071
       60
1005
130CAD
  0
LINE
  5
130CAE
  8
OBJECT
 10
460.99999999849018
 20
-2194.9999999970728
 30
0.0
 11
460.99999999849018
 21
-2201.9999999970728
 31
0.0
1001
ACDBBLOCKREPETAG
1070
     1
1071
       61
1005
130CAE
  0
LINE
  5
130CAF
  8
OBJECT
 10
460.99999999849018
 20
-2201.9999999970728
 30
0.0
 11
610.99999999849024
 21
-2201.9999999970728
 31
0.0
1001
ACDBBLOCKREPETAG
1070
     1
1071
       62
1005
130CAF
  0
LINE
  5
130CB0
  8
OBJECT
 10
473.99999999849018
 20
-2137.9999999970728
 30
0.0
 11
473.99999999849018
 21
-2131.9999999970751
 31
0.0
1001
ACDBBLOCKREPETAG
1070
     1
1071
       63
1005
130CB0
  0
LINE
  5
130CB1
  8
OBJECT
 10
463.99999999849018
 20
-2194.9999999970728
 30
0.0
 11
463.99999999849018
 21
-2153.4999999970728
 31
0.0
1001
ACDBBLOCKREPETAG
1070
     1
1071
       64
1005
130CB1
  0
LINE
  5
130CB2
  8
OBJECT
 10
463.99999999849018
 20
-2153.4999999970728
 30
0.0
 11
470.49999999849018
 21
-2141.9999999970728
 31
0.0
1001
ACDBBLOCKREPETAG
1070
     1
1071
       65
1005
130CB2
  0
LINE
  5
130CB3
  8
OBJECT
 10
470.49999999849018
 20
-2141.9999999970728
 30
0.0
 11
473.99999999849018
 21
-2137.9999999970728
 31
0.0
1001
ACDBBLOCKREPETAG
1070
     1
1071
       66
1005
130CB3
  0
LINE
  5
130CB4
  8
OBJECT
 10
607.99999999849024
 20
-2153.4999999970728
 30
0.0
 11
601.49999999849024
 21
-2141.9999999970728
 31
0.0
1001
ACDBBLOCKREPETAG
1070
     1
1071
       67
1005
130CB4
  0
LINE
  5
130CB5
  8
OBJECT
 10
601.49999999849024
 20
-2141.9999999970728
 30
0.0
 11
597.99999999849024
 21
-2137.9999999970728
 31
0.0
1001
ACDBBLOCKREPETAG
1070
     1
1071
       68
1005
130CB5
  0
ARC
  5
130CB6
  8
OBJECT
 10
535.99999999849024
 20
-2519.8999999970752
 30
0.0
 40
386.89999999999998
 50
80.778701362368551
 51
99.221298637631435
1001
ACDBBLOCKREPETAG
1070
     1
1071
       69
1005
130CB6
  0
LINE
  5
130CB7
  8
OBJECT
 10
597.99999999849024
 20
-2137.9999999970728
 30
0.0
 11
597.99999999849024
 21
-2131.9999999970751
 31
0.0
1001
ACDBBLOCKREPETAG
1070
     1
1071
       70
1005
130CB7
  0
LINE
  5
130CB8
  8
OBJECT
 10
607.99999999849024
 20
-2194.9999999970728
 30
0.0
 11
607.99999999849024
 21
-2153.4999999970728
 31
0.0
1001
ACDBBLOCKREPETAG
1070
     1
1071
       71
1005
130CB8
  0
INSERT
  5
130CB9
  8
OBJECT
  2
*U41
 10
0.0
 20
0.0
 30
0.0
  0
LINE
  5
130CBA
  8
HIDDEN
 10
478.99999999849018
 20
-2149.9999999970728
 30
0.0
 11
592.99999999849024
 21
-2149.9999999970728
 31
0.0
1001
ACDBBLOCKREPETAG
1070
     1
1071
      437
1005
130CBA
  0
LINE
  5
130CBB
  8
OBJECT
 10
618.99999999849024
 20
-2113.9999999970728
 30
0.0
 11
615.99999999849024
 21
-2113.9999999970728
 31
0.0
1001
ACDBBLOCKREPETAG
1070
     1
1071
      418
1005
130CBB
  0
ARC
  5
130CBC
  8
OBJECT
 10
618.99999999849024
 20
-2110.9999999970728
 30
0.0
 40
3.0
 50
270.0
 51
0.0
1001
ACDBBLOCKREPETAG
1070
     1
1071
      419
1005
130CBC
  0
LINE
  5
130CBD
  8
OBJECT
 10
615.99999999849024
 20
-1989.999999997073
 30
0.0
 11
618.99999999849024
 21
-1989.999999997073
 31
0.0
1001
ACDBBLOCKREPETAG
1070
     1
1071
      420
1005
130CBD
  0
ARC
  5
130CBE
  8
OBJECT
 10
618.99999999849024
 20
-1992.999999997073
 30
0.0
 40
3.0
 50
0.0
 51
90.0
1001
ACDBBLOCKREPETAG
1070
     1
1071
      421
1005
130CBE
  0
LINE
  5
130CBF
  8
OBJECT
 10
621.99999999849024
 20
-1992.999999997073
 30
0.0
 11
621.99999999849024
 21
-2110.9999999970728
 31
0.0
1001
ACDBBLOCKREPETAG
1070
     1
1071
      422
1005
130CBF
  0
LINE
  5
130CC0
  8
OBJECT
 10
460.99999999849018
 20
-1901.999999997073
 30
0.0
 11
460.99999999849018
 21
-1908.999999997073
 31
0.0
1001
ACDBBLOCKREPETAG
1070
     1
1071
       57
1005
130CC0
  0
LINE
  5
130CC1
  8
OBJECT
 10
460.99999999849018
 20
-1908.999999997073
 30
0.0
 11
610.99999999849024
 21
-1908.999999997073
 31
0.0
1001
ACDBBLOCKREPETAG
1070
     1
1071
       58
1005
130CC1
  0
LINE
  5
130CC2
  8
OBJECT
 10
463.99999999849018
 20
-1950.499999997073
 30
0.0
 11
607.99999999849024
 21
-1950.499999997073
 31
0.0
1001
ACDBBLOCKREPETAG
1070
     1
1071
       59
1005
130CC2
  0
LINE
  5
130CC3
  8
OBJECT
 10
470.49999999849018
 20
-1961.999999997073
 30
0.0
 11
601.49999999849024
 21
-1961.999999997073
 31
0.0
1001
ACDBBLOCKREPETAG
1070
     1
1071
       60
1005
130CC3
  0
LINE
  5
130CC4
  8
OBJECT
 10
610.99999999849024
 20
-1908.999999997073
 30
0.0
 11
610.99999999849024
 21
-1901.999999997073
 31
0.0
1001
ACDBBLOCKREPETAG
1070
     1
1071
       61
1005
130CC4
  0
LINE
  5
130CC5
  8
OBJECT
 10
610.99999999849024
 20
-1901.999999997073
 30
0.0
 11
460.99999999849018
 21
-1901.999999997073
 31
0.0
1001
ACDBBLOCKREPETAG
1070
     1
1071
       62
1005
130CC5
  0
LINE
  5
130CC6
  8
OBJECT
 10
597.99999999849024
 20
-1965.999999997073
 30
0.0
 11
597.99999999849024
 21
-1971.999999997073
 31
0.0
1001
ACDBBLOCKREPETAG
1070
     1
1071
       63
1005
130CC6
  0
LINE
  5
130CC7
  8
OBJECT
 10
607.99999999849024
 20
-1908.999999997073
 30
0.0
 11
607.99999999849024
 21
-1950.499999997073
 31
0.0
1001
ACDBBLOCKREPETAG
1070
     1
1071
       64
1005
130CC7
  0
LINE
  5
130CC8
  8
OBJECT
 10
607.99999999849024
 20
-1950.499999997073
 30
0.0
 11
601.49999999849024
 21
-1961.999999997073
 31
0.0
1001
ACDBBLOCKREPETAG
1070
     1
1071
       65
1005
130CC8
  0
LINE
  5
130CC9
  8
OBJECT
 10
601.49999999849024
 20
-1961.999999997073
 30
0.0
 11
597.99999999849024
 21
-1965.999999997073
 31
0.0
1001
ACDBBLOCKREPETAG
1070
     1
1071
       66
1005
130CC9
  0
LINE
  5
130CCA
  8
OBJECT
 10
463.99999999849018
 20
-1950.499999997073
 30
0.0
 11
470.49999999849018
 21
-1961.999999997073
 31
0.0
1001
ACDBBLOCKREPETAG
1070
     1
1071
       67
1005
130CCA
  0
LINE
  5
130CCB
  8
OBJECT
 10
470.49999999849018
 20
-1961.999999997073
 30
0.0
 11
473.99999999849018
 21
-1965.999999997073
 31
0.0
1001
ACDBBLOCKREPETAG
1070
     1
1071
       68
1005
130CCB
  0
ARC
  5
130CCC
  8
OBJECT
 10
535.99999999849024
 20
-1584.099999997072
 30
0.0
 40
386.89999999999998
 50
260.77870136257849
 51
279.22129863742163
1001
ACDBBLOCKREPETAG
1070
     1
1071
       69
1005
130CCC
  0
LINE
  5
130CCD
  8
OBJECT
 10
473.99999999849018
 20
-1965.999999997073
 30
0.0
 11
473.99999999849018
 21
-1971.999999997073
 31
0.0
1001
ACDBBLOCKREPETAG
1070
     1
1071
       70
1005
130CCD
  0
LINE
  5
130CCE
  8
OBJECT
 10
463.99999999849018
 20
-1908.999999997073
 30
0.0
 11
463.99999999849018
 21
-1950.499999997073
 31
0.0
1001
ACDBBLOCKREPETAG
1070
     1
1071
       71
1005
130CCE
  0
INSERT
  5
130CCF
  8
OBJECT
  2
*U42
 10
0.0
 20
0.0
 30
0.0
  0
LINE
  5
130CD0
  8
HIDDEN
 10
592.99999999849024
 20
-1953.999999997073
 30
0.0
 11
478.99999999849018
 21
-1953.999999997073
 31
0.0
1001
ACDBBLOCKREPETAG
1070
     1
1071
      431
1005
130CD0
  0
TEXT
  5
130CD1
  8
SLIM
 10
60.171428571368068
 20
-2299.999999999216
 30
0.0
 40
48.0
  1
B304（特）
 41
0.75
1001
ACDBBLOCKREPETAG
1070
     1
1071
      119
1005
12F953
  0
LINE
  5
130CD2
  8
OBJECT
 10
250.99999999861211
 20
-2201.9999999970728
 30
0.0
 11
250.99999999861211
 21
-2194.9999999970728
 31
0.0
1001
ACDBBLOCKREPETAG
1070
     1
1071
       57
1005
130CD2
  0
LINE
  5
130CD3
  8
OBJECT
 10
250.99999999861211
 20
-2194.9999999970728
 30
0.0
 11
100.9999999986121
 21
-2194.9999999970728
 31
0.0
1001
ACDBBLOCKREPETAG
1070
     1
1071
       58
1005
130CD3
  0
LINE
  5
130CD4
  8
OBJECT
 10
247.99999999861211
 20
-2153.4999999970728
 30
0.0
 11
103.9999999986121
 21
-2153.4999999970728
 31
0.0
1001
ACDBBLOCKREPETAG
1070
     1
1071
       59
1005
130CD4
  0
LINE
  5
130CD5
  8
OBJECT
 10
241.49999999861211
 20
-2141.9999999970728
 30
0.0
 11
110.4999999986121
 21
-2141.9999999970728
 31
0.0
1001
ACDBBLOCKREPETAG
1070
     1
1071
       60
1005
130CD5
  0
LINE
  5
130CD6
  8
OBJECT
 10
100.9999999986121
 20
-2194.9999999970728
 30
0.0
 11
100.9999999986121
 21
-2201.9999999970728
 31
0.0
1001
ACDBBLOCKREPETAG
1070
     1
1071
       61
1005
130CD6
  0
LINE
  5
130CD7
  8
OBJECT
 10
100.9999999986121
 20
-2201.9999999970728
 30
0.0
 11
250.99999999861211
 21
-2201.9999999970728
 31
0.0
1001
ACDBBLOCKREPETAG
1070
     1
1071
       62
1005
130CD7
  0
LINE
  5
130CD8
  8
OBJECT
 10
113.9999999986121
 20
-2137.9999999970728
 30
0.0
 11
113.9999999986121
 21
-2131.9999999970751
 31
0.0
1001
ACDBBLOCKREPETAG
1070
     1
1071
       63
1005
130CD8
  0
LINE
  5
130CD9
  8
OBJECT
 10
103.9999999986121
 20
-2194.9999999970728
 30
0.0
 11
103.9999999986121
 21
-2153.4999999970728
 31
0.0
1001
ACDBBLOCKREPETAG
1070
     1
1071
       64
1005
130CD9
  0
LINE
  5
130CDA
  8
OBJECT
 10
103.9999999986121
 20
-2153.4999999970728
 30
0.0
 11
110.4999999986121
 21
-2141.9999999970728
 31
0.0
1001
ACDBBLOCKREPETAG
1070
     1
1071
       65
1005
130CDA
  0
LINE
  5
130CDB
  8
OBJECT
 10
110.4999999986121
 20
-2141.9999999970728
 30
0.0
 11
113.9999999986121
 21
-2137.9999999970728
 31
0.0
1001
ACDBBLOCKREPETAG
1070
     1
1071
       66
1005
130CDB
  0
LINE
  5
130CDC
  8
OBJECT
 10
247.99999999861211
 20
-2153.4999999970728
 30
0.0
 11
241.49999999861211
 21
-2141.9999999970728
 31
0.0
1001
ACDBBLOCKREPETAG
1070
     1
1071
       67
1005
130CDC
  0
LINE
  5
130CDD
  8
OBJECT
 10
241.49999999861211
 20
-2141.9999999970728
 30
0.0
 11
237.99999999861211
 21
-2137.9999999970728
 31
0.0
1001
ACDBBLOCKREPETAG
1070
     1
1071
       68
1005
130CDD
  0
ARC
  5
130CDE
  8
OBJECT
 10
175.99999999861211
 20
-2519.8999999970752
 30
0.0
 40
386.89999999999998
 50
80.778701362368551
 51
99.221298637631435
1001
ACDBBLOCKREPETAG
1070
     1
1071
       69
1005
130CDE
  0
LINE
  5
130CDF
  8
OBJECT
 10
237.99999999861211
 20
-2137.9999999970728
 30
0.0
 11
237.99999999861211
 21
-2131.9999999970751
 31
0.0
1001
ACDBBLOCKREPETAG
1070
     1
1071
       70
1005
130CDF
  0
LINE
  5
130CE0
  8
OBJECT
 10
247.99999999861211
 20
-2194.9999999970728
 30
0.0
 11
247.99999999861211
 21
-2153.4999999970728
 31
0.0
1001
ACDBBLOCKREPETAG
1070
     1
1071
       71
1005
130CE0
  0
INSERT
  5
130CE1
  8
OBJECT
  2
*U43
 10
0.0
 20
0.0
 30
0.0
  0
LINE
  5
130CE2
  8
HIDDEN
 10
118.9999999986121
 20
-2149.9999999970728
 30
0.0
 11
232.99999999861211
 21
-2149.9999999970728
 31
0.0
1001
ACDBBLOCKREPETAG
1070
     1
1071
      437
1005
130CE2
  0
LINE
  5
130CE3
  8
OBJECT
 10
258.99999999861211
 20
-2113.9999999970728
 30
0.0
 11
255.99999999861211
 21
-2113.9999999970728
 31
0.0
1001
ACDBBLOCKREPETAG
1070
     1
1071
      418
1005
130CE3
  0
ARC
  5
130CE4
  8
OBJECT
 10
258.99999999861211
 20
-2110.9999999970728
 30
0.0
 40
3.0
 50
270.0
 51
0.0
1001
ACDBBLOCKREPETAG
1070
     1
1071
      419
1005
130CE4
  0
LINE
  5
130CE5
  8
OBJECT
 10
255.99999999861211
 20
-1989.999999997073
 30
0.0
 11
258.99999999861211
 21
-1989.999999997073
 31
0.0
1001
ACDBBLOCKREPETAG
1070
     1
1071
      420
1005
130CE5
  0
ARC
  5
130CE6
  8
OBJECT
 10
258.99999999861211
 20
-1992.999999997073
 30
0.0
 40
3.0
 50
0.0
 51
90.0
1001
ACDBBLOCKREPETAG
1070
     1
1071
      421
1005
130CE6
  0
LINE
  5
130CE7
  8
OBJECT
 10
261.99999999861211
 20
-1992.999999997073
 30
0.0
 11
261.99999999861211
 21
-2110.9999999970728
 31
0.0
1001
ACDBBLOCKREPETAG
1070
     1
1071
      422
1005
130CE7
  0
INSERT
  5
130CE8
  8
OBJECT
  2
*U44
 10
0.0
 20
0.0
 30
0.0
  0
LINE
  5
130CE9
  8
OBJECT
 10
113.9999999986121
 20
-1918.999999997073
 30
0.0
 11
113.9999999986121
 21
-1911.999999997073
 31
0.0
1001
ACDBBLOCKREPETAG
1070
     1
1071
       39
1005
130CE9
  0
LINE
  5
130CEA
  8
OBJECT
 10
113.9999999986121
 20
-1911.999999997073
 30
0.0
 11
237.99999999861211
 21
-1911.999999997073
 31
0.0
1001
ACDBBLOCKREPETAG
1070
     1
1071
       40
1005
130CEA
  0
LINE
  5
130CEB
  8
OBJECT
 10
237.99999999861211
 20
-1911.999999997073
 30
0.0
 11
237.99999999861211
 21
-1918.999999997073
 31
0.0
1001
ACDBBLOCKREPETAG
1070
     1
1071
       41
1005
130CEB
  0
LINE
  5
130CEC
  8
OBJECT
 10
237.99999999861211
 20
-1918.999999997073
 30
0.0
 11
113.9999999986121
 21
-1918.999999997073
 31
0.0
1001
ACDBBLOCKREPETAG
1070
     1
1071
       42
1005
130CEC
  0
LINE
  5
130CED
  8
OBJECT
 10
116.9999999986121
 20
-1918.999999997073
 30
0.0
 11
116.9999999986121
 21
-1954.999999997073
 31
0.0
1001
ACDBBLOCKREPETAG
1070
     1
1071
       43
1005
130CED
  0
LINE
  5
130CEE
  8
OBJECT
 10
116.9999999986121
 20
-1954.999999997073
 30
0.0
 11
234.99999999861211
 21
-1954.999999997073
 31
0.0
1001
ACDBBLOCKREPETAG
1070
     1
1071
       44
1005
130CEE
  0
LINE
  5
130CEF
  8
OBJECT
 10
234.99999999861211
 20
-1954.999999997073
 30
0.0
 11
234.99999999861211
 21
-1918.999999997073
 31
0.0
1001
ACDBBLOCKREPETAG
1070
     1
1071
       45
1005
130CEF
  0
LINE
  5
130CF0
  8
OBJECT
 10
121.4999999986121
 20
-1958.999999997073
 30
0.0
 11
121.4999999986121
 21
-1965.999999997073
 31
0.0
1001
ACDBBLOCKREPETAG
1070
     1
1071
       46
1005
130CF0
  0
LINE
  5
130CF1
  8
OBJECT
 10
230.49999999861211
 20
-1965.999999997073
 30
0.0
 11
230.49999999861211
 21
-1958.999999997073
 31
0.0
1001
ACDBBLOCKREPETAG
1070
     1
1071
       47
1005
130CF1
  0
LINE
  5
130CF2
  8
OBJECT
 10
230.49999999861211
 20
-1958.999999997073
 30
0.0
 11
121.4999999986121
 21
-1958.999999997073
 31
0.0
1001
ACDBBLOCKREPETAG
1070
     1
1071
       48
1005
130CF2
  0
LINE
  5
130CF3
  8
OBJECT
 10
116.9999999986121
 20
-1954.999999997073
 30
0.0
 11
121.4999999986121
 21
-1958.999999997073
 31
0.0
1001
ACDBBLOCKREPETAG
1070
     1
1071
       49
1005
130CF3
  0
LINE
  5
130CF4
  8
OBJECT
 10
234.99999999861211
 20
-1954.999999997073
 30
0.0
 11
230.49999999861211
 21
-1958.999999997073
 31
0.0
1001
ACDBBLOCKREPETAG
1070
     1
1071
       50
1005
130CF4
  0
LINE
  5
130CF5
  8
OBJECT
 10
113.9999999986121
 20
-1968.9999999970721
 30
0.0
 11
113.9999999986121
 21
-1971.999999997073
 31
0.0
1001
ACDBBLOCKREPETAG
1070
     1
1071
       51
1005
130CF5
  0
ARC
  5
130CF6
  8
OBJECT
 10
116.9999999986121
 20
-1968.9999999970721
 30
0.0
 40
3.0
 50
90.0
 51
180.0
1001
ACDBBLOCKREPETAG
1070
     1
1071
       52
1005
130CF6
  0
LINE
  5
130CF7
  8
OBJECT
 10
237.99999999861211
 20
-1971.999999997073
 30
0.0
 11
237.99999999861211
 21
-1968.999999997073
 31
0.0
1001
ACDBBLOCKREPETAG
1070
     1
1071
       53
1005
130CF7
  0
ARC
  5
130CF8
  8
OBJECT
 10
234.99999999861211
 20
-1968.999999997073
 30
0.0
 40
3.0
 50
0.0
 51
90.0
1001
ACDBBLOCKREPETAG
1070
     1
1071
       54
1005
130CF8
  0
LINE
  5
130CF9
  8
OBJECT
 10
234.99999999861211
 20
-1965.999999997073
 30
0.0
 11
116.9999999986121
 21
-1965.9999999970721
 31
0.0
1001
ACDBBLOCKREPETAG
1070
     1
1071
       55
1005
130CF9
  0
LINE
  5
130CFA
  8
HIDDEN
 10
131.49999999861211
 20
-1963.999999997073
 30
0.0
 11
220.49999999861211
 21
-1963.999999997073
 31
0.0
1001
ACDBBLOCKREPETAG
1070
     1
1071
      426
1005
130CFA
  0
TEXT
  5
130CFB
  8
SLIM
 10
420.17142857124622
 20
-1835.9999999993749
 30
0.0
 40
48.0
  1
B303（特）
 41
0.75
1001
ACDBBLOCKREPETAG
1070
     1
1071
      119
1005
12F953
  0
LINE
  5
130CFC
  8
OBJECT
 10
597.99999999849024
 20
-1720.999999997231
 30
0.0
 11
597.99999999849024
 21
-1727.999999997231
 31
0.0
1001
ACDBBLOCKREPETAG
1070
     1
1071
       38
1005
130CFC
  0
LINE
  5
130CFD
  8
OBJECT
 10
597.99999999849024
 20
-1727.999999997231
 30
0.0
 11
473.99999999849018
 21
-1727.999999997231
 31
0.0
1001
ACDBBLOCKREPETAG
1070
     1
1071
       39
1005
130CFD
  0
LINE
  5
130CFE
  8
OBJECT
 10
473.99999999849018
 20
-1727.999999997231
 30
0.0
 11
473.99999999849018
 21
-1720.999999997231
 31
0.0
1001
ACDBBLOCKREPETAG
1070
     1
1071
       40
1005
130CFE
  0
LINE
  5
130CFF
  8
OBJECT
 10
473.99999999849018
 20
-1720.999999997231
 30
0.0
 11
597.99999999849024
 21
-1720.999999997231
 31
0.0
1001
ACDBBLOCKREPETAG
1070
     1
1071
       41
1005
130CFF
  0
LINE
  5
130D00
  8
OBJECT
 10
594.99999999849024
 20
-1720.999999997231
 30
0.0
 11
594.99999999849024
 21
-1684.999999997231
 31
0.0
1001
ACDBBLOCKREPETAG
1070
     1
1071
       42
1005
130D00
  0
LINE
  5
130D01
  8
OBJECT
 10
594.99999999849024
 20
-1684.999999997231
 30
0.0
 11
476.99999999849018
 21
-1684.999999997231
 31
0.0
1001
ACDBBLOCKREPETAG
1070
     1
1071
       43
1005
130D01
  0
LINE
  5
130D02
  8
OBJECT
 10
476.99999999849018
 20
-1684.999999997231
 30
0.0
 11
476.99999999849018
 21
-1720.999999997231
 31
0.0
1001
ACDBBLOCKREPETAG
1070
     1
1071
       44
1005
130D02
  0
LINE
  5
130D03
  8
OBJECT
 10
590.49999999849024
 20
-1680.999999997231
 30
0.0
 11
590.49999999849024
 21
-1673.999999997231
 31
0.0
1001
ACDBBLOCKREPETAG
1070
     1
1071
       45
1005
130D03
  0
LINE
  5
130D04
  8
OBJECT
 10
481.49999999849018
 20
-1673.999999997231
 30
0.0
 11
481.49999999849018
 21
-1680.999999997231
 31
0.0
1001
ACDBBLOCKREPETAG
1070
     1
1071
       46
1005
130D04
  0
LINE
  5
130D05
  8
OBJECT
 10
481.49999999849018
 20
-1680.999999997231
 30
0.0
 11
590.49999999849024
 21
-1680.999999997231
 31
0.0
1001
ACDBBLOCKREPETAG
1070
     1
1071
       47
1005
130D05
  0
LINE
  5
130D06
  8
OBJECT
 10
594.99999999849024
 20
-1684.999999997231
 30
0.0
 11
590.49999999849024
 21
-1680.999999997231
 31
0.0
1001
ACDBBLOCKREPETAG
1070
     1
1071
       48
1005
130D06
  0
LINE
  5
130D07
  8
OBJECT
 10
476.99999999849018
 20
-1684.999999997231
 30
0.0
 11
481.49999999849018
 21
-1680.999999997231
 31
0.0
1001
ACDBBLOCKREPETAG
1070
     1
1071
       49
1005
130D07
  0
LINE
  5
130D08
  8
OBJECT
 10
597.99999999849024
 20
-1670.999999997231
 30
0.0
 11
597.99999999849024
 21
-1667.999999997231
 31
0.0
1001
ACDBBLOCKREPETAG
1070
     1
1071
       50
1005
130D08
  0
ARC
  5
130D09
  8
OBJECT
 10
594.99999999849024
 20
-1670.999999997231
 30
0.0
 40
3.0
 50
270.0
 51
0.0
1001
ACDBBLOCKREPETAG
1070
     1
1071
       51
1005
130D09
  0
LINE
  5
130D0A
  8
OBJECT
 10
473.99999999849018
 20
-1667.999999997231
 30
0.0
 11
473.99999999849018
 21
-1670.999999997231
 31
0.0
1001
ACDBBLOCKREPETAG
1070
     1
1071
       52
1005
130D0A
  0
ARC
  5
130D0B
  8
OBJECT
 10
476.99999999849018
 20
-1670.999999997231
 30
0.0
 40
3.0
 50
180.0
 51
270.0
1001
ACDBBLOCKREPETAG
1070
     1
1071
       53
1005
130D0B
  0
LINE
  5
130D0C
  8
OBJECT
 10
476.99999999849018
 20
-1673.9999999972299
 30
0.0
 11
594.99999999849024
 21
-1673.999999997232
 31
0.0
1001
ACDBBLOCKREPETAG
1070
     1
1071
       54
1005
130D0C
  0
INSERT
  5
130D0D
  8
OBJECT
  2
*U45
 10
0.0
 20
0.0
 30
0.0
  0
LINE
  5
130D0E
  8
HIDDEN
 10
580.49999999849024
 20
-1675.999999997231
 30
0.0
 11
491.49999999849018
 21
-1675.999999997231
 31
0.0
1001
ACDBBLOCKREPETAG
1070
     1
1071
      430
1005
130D0E
  0
LINE
  5
130D0F
  8
OBJECT
 10
618.99999999849024
 20
-1649.999999997231
 30
0.0
 11
615.99999999849024
 21
-1649.999999997231
 31
0.0
1001
ACDBBLOCKREPETAG
1070
     1
1071
      418
1005
130D0F
  0
ARC
  5
130D10
  8
OBJECT
 10
618.99999999849024
 20
-1646.999999997231
 30
0.0
 40
3.0
 50
270.0
 51
0.0
1001
ACDBBLOCKREPETAG
1070
     1
1071
      419
1005
130D10
  0
LINE
  5
130D11
  8
OBJECT
 10
615.99999999849024
 20
-1525.999999997231
 30
0.0
 11
618.99999999849024
 21
-1525.999999997231
 31
0.0
1001
ACDBBLOCKREPETAG
1070
     1
1071
      420
1005
130D11
  0
ARC
  5
130D12
  8
OBJECT
 10
618.99999999849024
 20
-1528.999999997231
 30
0.0
 40
3.0
 50
0.0
 51
90.0
1001
ACDBBLOCKREPETAG
1070
     1
1071
      421
1005
130D12
  0
LINE
  5
130D13
  8
OBJECT
 10
621.99999999849024
 20
-1528.999999997231
 30
0.0
 11
621.99999999849024
 21
-1646.999999997231
 31
0.0
1001
ACDBBLOCKREPETAG
1070
     1
1071
      422
1005
130D13
  0
INSERT
  5
130D14
  8
OBJECT
  2
*U46
 10
0.0
 20
0.0
 30
0.0
  0
LINE
  5
130D15
  8
OBJECT
 10
473.99999999849018
 20
-1454.999999997231
 30
0.0
 11
473.99999999849018
 21
-1447.999999997231
 31
0.0
1001
ACDBBLOCKREPETAG
1070
     1
1071
       39
1005
130D15
  0
LINE
  5
130D16
  8
OBJECT
 10
473.99999999849018
 20
-1447.999999997231
 30
0.0
 11
597.99999999849024
 21
-1447.999999997231
 31
0.0
1001
ACDBBLOCKREPETAG
1070
     1
1071
       40
1005
130D16
  0
LINE
  5
130D17
  8
OBJECT
 10
597.99999999849024
 20
-1447.999999997231
 30
0.0
 11
597.99999999849024
 21
-1454.999999997231
 31
0.0
1001
ACDBBLOCKREPETAG
1070
     1
1071
       41
1005
130D17
  0
LINE
  5
130D18
  8
OBJECT
 10
597.99999999849024
 20
-1454.999999997231
 30
0.0
 11
473.99999999849018
 21
-1454.999999997231
 31
0.0
1001
ACDBBLOCKREPETAG
1070
     1
1071
       42
1005
130D18
  0
LINE
  5
130D19
  8
OBJECT
 10
476.99999999849018
 20
-1454.999999997231
 30
0.0
 11
476.99999999849018
 21
-1490.999999997231
 31
0.0
1001
ACDBBLOCKREPETAG
1070
     1
1071
       43
1005
130D19
  0
LINE
  5
130D1A
  8
OBJECT
 10
476.99999999849018
 20
-1490.999999997231
 30
0.0
 11
594.99999999849024
 21
-1490.999999997231
 31
0.0
1001
ACDBBLOCKREPETAG
1070
     1
1071
       44
1005
130D1A
  0
LINE
  5
130D1B
  8
OBJECT
 10
594.99999999849024
 20
-1490.999999997231
 30
0.0
 11
594.99999999849024
 21
-1454.999999997231
 31
0.0
1001
ACDBBLOCKREPETAG
1070
     1
1071
       45
1005
130D1B
  0
LINE
  5
130D1C
  8
OBJECT
 10
481.49999999849018
 20
-1494.999999997231
 30
0.0
 11
481.49999999849018
 21
-1501.999999997231
 31
0.0
1001
ACDBBLOCKREPETAG
1070
     1
1071
       46
1005
130D1C
  0
LINE
  5
130D1D
  8
OBJECT
 10
590.49999999849024
 20
-1501.999999997231
 30
0.0
 11
590.49999999849024
 21
-1494.999999997231
 31
0.0
1001
ACDBBLOCKREPETAG
1070
     1
1071
       47
1005
130D1D
  0
LINE
  5
130D1E
  8
OBJECT
 10
590.49999999849024
 20
-1494.999999997231
 30
0.0
 11
481.49999999849018
 21
-1494.999999997231
 31
0.0
1001
ACDBBLOCKREPETAG
1070
     1
1071
       48
1005
130D1E
  0
LINE
  5
130D1F
  8
OBJECT
 10
476.99999999849018
 20
-1490.999999997231
 30
0.0
 11
481.49999999849018
 21
-1494.999999997231
 31
0.0
1001
ACDBBLOCKREPETAG
1070
     1
1071
       49
1005
130D1F
  0
LINE
  5
130D20
  8
OBJECT
 10
594.99999999849024
 20
-1490.999999997231
 30
0.0
 11
590.49999999849024
 21
-1494.999999997231
 31
0.0
1001
ACDBBLOCKREPETAG
1070
     1
1071
       50
1005
130D20
  0
LINE
  5
130D21
  8
OBJECT
 10
473.99999999849018
 20
-1504.9999999972299
 30
0.0
 11
473.99999999849018
 21
-1507.999999997231
 31
0.0
1001
ACDBBLOCKREPETAG
1070
     1
1071
       51
1005
130D21
  0
ARC
  5
130D22
  8
OBJECT
 10
476.99999999849018
 20
-1504.9999999972299
 30
0.0
 40
3.0
 50
90.0
 51
180.0
1001
ACDBBLOCKREPETAG
1070
     1
1071
       52
1005
130D22
  0
LINE
  5
130D23
  8
OBJECT
 10
597.99999999849024
 20
-1507.999999997231
 30
0.0
 11
597.99999999849024
 21
-1504.999999997232
 31
0.0
1001
ACDBBLOCKREPETAG
1070
     1
1071
       53
1005
130D23
  0
ARC
  5
130D24
  8
OBJECT
 10
594.99999999849024
 20
-1504.999999997232
 30
0.0
 40
3.0
 50
0.0
 51
90.0
1001
ACDBBLOCKREPETAG
1070
     1
1071
       54
1005
130D24
  0
LINE
  5
130D25
  8
OBJECT
 10
594.99999999849024
 20
-1501.999999997232
 30
0.0
 11
476.99999999849018
 21
-1501.9999999972299
 31
0.0
1001
ACDBBLOCKREPETAG
1070
     1
1071
       55
1005
130D25
  0
LINE
  5
130D26
  8
HIDDEN
 10
491.49999999849018
 20
-1499.999999997231
 30
0.0
 11
580.49999999849024
 21
-1499.999999997231
 31
0.0
1001
ACDBBLOCKREPETAG
1070
     1
1071
      426
1005
130D26
  0
TEXT
  5
130D27
  8
SLIM
 10
60.171428571368068
 20
-1835.9999999993749
 30
0.0
 40
48.0
  1
B204（特）
 41
0.75
1001
ACDBBLOCKREPETAG
1070
     1
1071
      119
1005
12F953
  0
LINE
  5
130D28
  8
OBJECT
 10
250.99999999861211
 20
-1737.999999997231
 30
0.0
 11
250.99999999861211
 21
-1730.999999997231
 31
0.0
1001
ACDBBLOCKREPETAG
1070
     1
1071
       57
1005
130D28
  0
LINE
  5
130D29
  8
OBJECT
 10
250.99999999861211
 20
-1730.999999997231
 30
0.0
 11
100.9999999986121
 21
-1730.999999997231
 31
0.0
1001
ACDBBLOCKREPETAG
1070
     1
1071
       58
1005
130D29
  0
LINE
  5
130D2A
  8
OBJECT
 10
247.99999999861211
 20
-1689.499999997232
 30
0.0
 11
103.9999999986121
 21
-1689.499999997232
 31
0.0
1001
ACDBBLOCKREPETAG
1070
     1
1071
       59
1005
130D2A
  0
LINE
  5
130D2B
  8
OBJECT
 10
241.49999999861211
 20
-1677.999999997231
 30
0.0
 11
110.4999999986121
 21
-1677.999999997231
 31
0.0
1001
ACDBBLOCKREPETAG
1070
     1
1071
       60
1005
130D2B
  0
LINE
  5
130D2C
  8
OBJECT
 10
100.9999999986121
 20
-1730.999999997231
 30
0.0
 11
100.9999999986121
 21
-1737.999999997231
 31
0.0
1001
ACDBBLOCKREPETAG
1070
     1
1071
       61
1005
130D2C
  0
LINE
  5
130D2D
  8
OBJECT
 10
100.9999999986121
 20
-1737.999999997231
 30
0.0
 11
250.99999999861211
 21
-1737.999999997231
 31
0.0
1001
ACDBBLOCKREPETAG
1070
     1
1071
       62
1005
130D2D
  0
LINE
  5
130D2E
  8
OBJECT
 10
113.9999999986121
 20
-1673.999999997231
 30
0.0
 11
113.9999999986121
 21
-1667.999999997231
 31
0.0
1001
ACDBBLOCKREPETAG
1070
     1
1071
       63
1005
130D2E
  0
LINE
  5
130D2F
  8
OBJECT
 10
103.9999999986121
 20
-1730.999999997231
 30
0.0
 11
103.9999999986121
 21
-1689.499999997232
 31
0.0
1001
ACDBBLOCKREPETAG
1070
     1
1071
       64
1005
130D2F
  0
LINE
  5
130D30
  8
OBJECT
 10
103.9999999986121
 20
-1689.499999997232
 30
0.0
 11
110.4999999986121
 21
-1677.999999997231
 31
0.0
1001
ACDBBLOCKREPETAG
1070
     1
1071
       65
1005
130D30
  0
LINE
  5
130D31
  8
OBJECT
 10
110.4999999986121
 20
-1677.999999997231
 30
0.0
 11
113.9999999986121
 21
-1673.999999997231
 31
0.0
1001
ACDBBLOCKREPETAG
1070
     1
1071
       66
1005
130D31
  0
LINE
  5
130D32
  8
OBJECT
 10
247.99999999861211
 20
-1689.499999997232
 30
0.0
 11
241.49999999861211
 21
-1677.999999997231
 31
0.0
1001
ACDBBLOCKREPETAG
1070
     1
1071
       67
1005
130D32
  0
LINE
  5
130D33
  8
OBJECT
 10
241.49999999861211
 20
-1677.999999997231
 30
0.0
 11
237.99999999861211
 21
-1673.999999997231
 31
0.0
1001
ACDBBLOCKREPETAG
1070
     1
1071
       68
1005
130D33
  0
ARC
  5
130D34
  8
OBJECT
 10
175.99999999861211
 20
-2055.899999997233
 30
0.0
 40
386.89999999999998
 50
80.778701362368551
 51
99.221298637631435
1001
ACDBBLOCKREPETAG
1070
     1
1071
       69
1005
130D34
  0
LINE
  5
130D35
  8
OBJECT
 10
237.99999999861211
 20
-1673.999999997231
 30
0.0
 11
237.99999999861211
 21
-1667.999999997231
 31
0.0
1001
ACDBBLOCKREPETAG
1070
     1
1071
       70
1005
130D35
  0
LINE
  5
130D36
  8
OBJECT
 10
247.99999999861211
 20
-1730.999999997231
 30
0.0
 11
247.99999999861211
 21
-1689.499999997232
 31
0.0
1001
ACDBBLOCKREPETAG
1070
     1
1071
       71
1005
130D36
  0
INSERT
  5
130D37
  8
OBJECT
  2
*U47
 10
0.0
 20
0.0
 30
0.0
  0
LINE
  5
130D38
  8
HIDDEN
 10
118.9999999986121
 20
-1685.999999997231
 30
0.0
 11
232.99999999861211
 21
-1685.999999997231
 31
0.0
1001
ACDBBLOCKREPETAG
1070
     1
1071
      437
1005
130D38
  0
LINE
  5
130D39
  8
OBJECT
 10
258.99999999861211
 20
-1649.999999997231
 30
0.0
 11
255.99999999861211
 21
-1649.999999997231
 31
0.0
1001
ACDBBLOCKREPETAG
1070
     1
1071
      418
1005
130D39
  0
ARC
  5
130D3A
  8
OBJECT
 10
258.99999999861211
 20
-1646.999999997231
 30
0.0
 40
3.0
 50
270.0
 51
0.0
1001
ACDBBLOCKREPETAG
1070
     1
1071
      419
1005
130D3A
  0
LINE
  5
130D3B
  8
OBJECT
 10
255.99999999861211
 20
-1525.999999997231
 30
0.0
 11
258.99999999861211
 21
-1525.999999997231
 31
0.0
1001
ACDBBLOCKREPETAG
1070
     1
1071
      420
1005
130D3B
  0
ARC
  5
130D3C
  8
OBJECT
 10
258.99999999861211
 20
-1528.999999997231
 30
0.0
 40
3.0
 50
0.0
 51
90.0
1001
ACDBBLOCKREPETAG
1070
     1
1071
      421
1005
130D3C
  0
LINE
  5
130D3D
  8
OBJECT
 10
261.99999999861211
 20
-1528.999999997231
 30
0.0
 11
261.99999999861211
 21
-1646.999999997231
 31
0.0
1001
ACDBBLOCKREPETAG
1070
     1
1071
      422
1005
130D3D
  0
INSERT
  5
130D3E
  8
OBJECT
  2
*U48
 10
0.0
 20
0.0
 30
0.0
  0
LINE
  5
130D3F
  8
OBJECT
 10
120.9999999986121
 20
-1454.999999997231
 30
0.0
 11
120.9999999986121
 21
-1447.999999997231
 31
0.0
1001
ACDBBLOCKREPETAG
1070
     1
1071
       20
1005
130D3F
  0
LINE
  5
130D40
  8
OBJECT
 10
120.9999999986121
 20
-1447.999999997231
 30
0.0
 11
230.99999999861211
 21
-1447.999999997231
 31
0.0
1001
ACDBBLOCKREPETAG
1070
     1
1071
       21
1005
130D40
  0
LINE
  5
130D41
  8
OBJECT
 10
230.99999999861211
 20
-1447.999999997231
 30
0.0
 11
230.99999999861211
 21
-1454.999999997231
 31
0.0
1001
ACDBBLOCKREPETAG
1070
     1
1071
       22
1005
130D41
  0
LINE
  5
130D42
  8
OBJECT
 10
230.99999999861211
 20
-1454.999999997231
 30
0.0
 11
120.9999999986121
 21
-1454.999999997231
 31
0.0
1001
ACDBBLOCKREPETAG
1070
     1
1071
       23
1005
130D42
  0
LINE
  5
130D43
  8
OBJECT
 10
123.9999999986121
 20
-1454.999999997231
 30
0.0
 11
123.9999999986121
 21
-1490.999999997231
 31
0.0
1001
ACDBBLOCKREPETAG
1070
     1
1071
       24
1005
130D43
  0
LINE
  5
130D44
  8
OBJECT
 10
123.9999999986121
 20
-1490.999999997231
 30
0.0
 11
227.99999999861211
 21
-1490.999999997231
 31
0.0
1001
ACDBBLOCKREPETAG
1070
     1
1071
       25
1005
130D44
  0
LINE
  5
130D45
  8
OBJECT
 10
227.99999999861211
 20
-1490.999999997231
 30
0.0
 11
227.99999999861211
 21
-1454.999999997231
 31
0.0
1001
ACDBBLOCKREPETAG
1070
     1
1071
       26
1005
130D45
  0
LINE
  5
130D46
  8
OBJECT
 10
128.49999999861211
 20
-1494.999999997231
 30
0.0
 11
128.49999999861211
 21
-1501.999999997231
 31
0.0
1001
ACDBBLOCKREPETAG
1070
     1
1071
       27
1005
130D46
  0
LINE
  5
130D47
  8
OBJECT
 10
223.49999999861211
 20
-1501.999999997231
 30
0.0
 11
223.49999999861211
 21
-1494.999999997231
 31
0.0
1001
ACDBBLOCKREPETAG
1070
     1
1071
       28
1005
130D47
  0
LINE
  5
130D48
  8
OBJECT
 10
223.49999999861211
 20
-1494.999999997231
 30
0.0
 11
128.49999999861211
 21
-1494.999999997231
 31
0.0
1001
ACDBBLOCKREPETAG
1070
     1
1071
       29
1005
130D48
  0
LINE
  5
130D49
  8
OBJECT
 10
123.9999999986121
 20
-1490.999999997231
 30
0.0
 11
128.49999999861211
 21
-1494.999999997231
 31
0.0
1001
ACDBBLOCKREPETAG
1070
     1
1071
       30
1005
130D49
  0
LINE
  5
130D4A
  8
OBJECT
 10
227.99999999861211
 20
-1490.999999997231
 30
0.0
 11
223.49999999861211
 21
-1494.999999997231
 31
0.0
1001
ACDBBLOCKREPETAG
1070
     1
1071
       31
1005
130D4A
  0
LINE
  5
130D4B
  8
OBJECT
 10
113.9999999986121
 20
-1504.9999999972299
 30
0.0
 11
113.9999999986121
 21
-1507.999999997231
 31
0.0
1001
ACDBBLOCKREPETAG
1070
     1
1071
       32
1005
130D4B
  0
ARC
  5
130D4C
  8
OBJECT
 10
116.9999999986121
 20
-1504.9999999972299
 30
0.0
 40
3.0
 50
90.0
 51
180.0
1001
ACDBBLOCKREPETAG
1070
     1
1071
       33
1005
130D4C
  0
LINE
  5
130D4D
  8
OBJECT
 10
237.99999999861211
 20
-1507.999999997231
 30
0.0
 11
237.99999999861211
 21
-1504.999999997232
 31
0.0
1001
ACDBBLOCKREPETAG
1070
     1
1071
       34
1005
130D4D
  0
ARC
  5
130D4E
  8
OBJECT
 10
234.99999999861211
 20
-1504.999999997232
 30
0.0
 40
3.0
 50
0.0
 51
90.0
1001
ACDBBLOCKREPETAG
1070
     1
1071
       35
1005
130D4E
  0
LINE
  5
130D4F
  8
OBJECT
 10
234.99999999861211
 20
-1501.999999997232
 30
0.0
 11
116.9999999986121
 21
-1501.9999999972299
 31
0.0
1001
ACDBBLOCKREPETAG
1070
     1
1071
       36
1005
130D4F
  0
LINE
  5
130D50
  8
HIDDEN
 10
137.99999999861211
 20
-1499.999999997231
 30
0.0
 11
213.99999999861211
 21
-1499.999999997231
 31
0.0
1001
ACDBBLOCKREPETAG
1070
     1
1071
      423
1005
130D50
  0
TEXT
  5
130D51
  8
SLIM
 10
420.17142857124622
 20
-1371.9999999995321
 30
0.0
 40
48.0
  1
B203（特）
 41
0.75
1001
ACDBBLOCKREPETAG
1070
     1
1071
      119
1005
12F953
  0
LINE
  5
130D52
  8
OBJECT
 10
597.99999999849024
 20
-1256.99999999739
 30
0.0
 11
597.99999999849024
 21
-1263.99999999739
 31
0.0
1001
ACDBBLOCKREPETAG
1070
     1
1071
       38
1005
130D52
  0
LINE
  5
130D53
  8
OBJECT
 10
597.99999999849024
 20
-1263.99999999739
 30
0.0
 11
473.99999999849018
 21
-1263.99999999739
 31
0.0
1001
ACDBBLOCKREPETAG
1070
     1
1071
       39
1005
130D53
  0
LINE
  5
130D54
  8
OBJECT
 10
473.99999999849018
 20
-1263.99999999739
 30
0.0
 11
473.99999999849018
 21
-1256.99999999739
 31
0.0
1001
ACDBBLOCKREPETAG
1070
     1
1071
       40
1005
130D54
  0
LINE
  5
130D55
  8
OBJECT
 10
473.99999999849018
 20
-1256.99999999739
 30
0.0
 11
597.99999999849024
 21
-1256.99999999739
 31
0.0
1001
ACDBBLOCKREPETAG
1070
     1
1071
       41
1005
130D55
  0
LINE
  5
130D56
  8
OBJECT
 10
594.99999999849024
 20
-1256.99999999739
 30
0.0
 11
594.99999999849024
 21
-1220.9999999973891
 31
0.0
1001
ACDBBLOCKREPETAG
1070
     1
1071
       42
1005
130D56
  0
LINE
  5
130D57
  8
OBJECT
 10
594.99999999849024
 20
-1220.9999999973891
 30
0.0
 11
476.99999999849018
 21
-1220.9999999973891
 31
0.0
1001
ACDBBLOCKREPETAG
1070
     1
1071
       43
1005
130D57
  0
LINE
  5
130D58
  8
OBJECT
 10
476.99999999849018
 20
-1220.9999999973891
 30
0.0
 11
476.99999999849018
 21
-1256.99999999739
 31
0.0
1001
ACDBBLOCKREPETAG
1070
     1
1071
       44
1005
130D58
  0
LINE
  5
130D59
  8
OBJECT
 10
590.49999999849024
 20
-1216.99999999739
 30
0.0
 11
590.49999999849024
 21
-1209.99999999739
 31
0.0
1001
ACDBBLOCKREPETAG
1070
     1
1071
       45
1005
130D59
  0
LINE
  5
130D5A
  8
OBJECT
 10
481.49999999849018
 20
-1209.99999999739
 30
0.0
 11
481.49999999849018
 21
-1216.99999999739
 31
0.0
1001
ACDBBLOCKREPETAG
1070
     1
1071
       46
1005
130D5A
  0
LINE
  5
130D5B
  8
OBJECT
 10
481.49999999849018
 20
-1216.99999999739
 30
0.0
 11
590.49999999849024
 21
-1216.99999999739
 31
0.0
1001
ACDBBLOCKREPETAG
1070
     1
1071
       47
1005
130D5B
  0
LINE
  5
130D5C
  8
OBJECT
 10
594.99999999849024
 20
-1220.9999999973891
 30
0.0
 11
590.49999999849024
 21
-1216.99999999739
 31
0.0
1001
ACDBBLOCKREPETAG
1070
     1
1071
       48
1005
130D5C
  0
LINE
  5
130D5D
  8
OBJECT
 10
476.99999999849018
 20
-1220.9999999973891
 30
0.0
 11
481.49999999849018
 21
-1216.99999999739
 31
0.0
1001
ACDBBLOCKREPETAG
1070
     1
1071
       49
1005
130D5D
  0
LINE
  5
130D5E
  8
OBJECT
 10
597.99999999849024
 20
-1206.9999999973909
 30
0.0
 11
597.99999999849024
 21
-1203.99999999739
 31
0.0
1001
ACDBBLOCKREPETAG
1070
     1
1071
       50
1005
130D5E
  0
ARC
  5
130D5F
  8
OBJECT
 10
594.99999999849024
 20
-1206.9999999973909
 30
0.0
 40
3.0
 50
270.0
 51
0.0
1001
ACDBBLOCKREPETAG
1070
     1
1071
       51
1005
130D5F
  0
LINE
  5
130D60
  8
OBJECT
 10
473.99999999849018
 20
-1203.99999999739
 30
0.0
 11
473.99999999849018
 21
-1206.9999999973891
 31
0.0
1001
ACDBBLOCKREPETAG
1070
     1
1071
       52
1005
130D60
  0
ARC
  5
130D61
  8
OBJECT
 10
476.99999999849018
 20
-1206.9999999973891
 30
0.0
 40
3.0
 50
180.0
 51
270.0
1001
ACDBBLOCKREPETAG
1070
     1
1071
       53
1005
130D61
  0
LINE
  5
130D62
  8
OBJECT
 10
476.99999999849018
 20
-1209.9999999973891
 30
0.0
 11
594.99999999849024
 21
-1209.99999999739
 31
0.0
1001
ACDBBLOCKREPETAG
1070
     1
1071
       54
1005
130D62
  0
INSERT
  5
130D63
  8
OBJECT
  2
*U49
 10
0.0
 20
0.0
 30
0.0
  0
LINE
  5
130D64
  8
HIDDEN
 10
580.49999999849024
 20
-1211.99999999739
 30
0.0
 11
491.49999999849018
 21
-1211.99999999739
 31
0.0
1001
ACDBBLOCKREPETAG
1070
     1
1071
      430
1005
130D64
  0
LINE
  5
130D65
  8
OBJECT
 10
618.99999999849024
 20
-1185.99999999739
 30
0.0
 11
615.99999999849024
 21
-1185.99999999739
 31
0.0
1001
ACDBBLOCKREPETAG
1070
     1
1071
      418
1005
130D65
  0
ARC
  5
130D66
  8
OBJECT
 10
618.99999999849024
 20
-1182.99999999739
 30
0.0
 40
3.0
 50
270.0
 51
0.0
1001
ACDBBLOCKREPETAG
1070
     1
1071
      419
1005
130D66
  0
LINE
  5
130D67
  8
OBJECT
 10
615.99999999849024
 20
-1061.9999999973891
 30
0.0
 11
618.99999999849024
 21
-1061.9999999973891
 31
0.0
1001
ACDBBLOCKREPETAG
1070
     1
1071
      420
1005
130D67
  0
ARC
  5
130D68
  8
OBJECT
 10
618.99999999849024
 20
-1064.99999999739
 30
0.0
 40
3.0
 50
0.0
 51
90.0
1001
ACDBBLOCKREPETAG
1070
     1
1071
      421
1005
130D68
  0
LINE
  5
130D69
  8
OBJECT
 10
621.99999999849024
 20
-1064.99999999739
 30
0.0
 11
621.99999999849024
 21
-1182.99999999739
 31
0.0
1001
ACDBBLOCKREPETAG
1070
     1
1071
      422
1005
130D69
  0
INSERT
  5
130D6A
  8
OBJECT
  2
*U50
 10
0.0
 20
0.0
 30
0.0
  0
LINE
  5
130D6B
  8
OBJECT
 10
480.99999999849018
 20
-990.99999999738964
 30
0.0
 11
480.99999999849018
 21
-983.99999999738964
 31
0.0
1001
ACDBBLOCKREPETAG
1070
     1
1071
       20
1005
130D6B
  0
LINE
  5
130D6C
  8
OBJECT
 10
480.99999999849018
 20
-983.99999999738964
 30
0.0
 11
590.99999999849024
 21
-983.99999999738964
 31
0.0
1001
ACDBBLOCKREPETAG
1070
     1
1071
       21
1005
130D6C
  0
LINE
  5
130D6D
  8
OBJECT
 10
590.99999999849024
 20
-983.99999999738964
 30
0.0
 11
590.99999999849024
 21
-990.99999999738964
 31
0.0
1001
ACDBBLOCKREPETAG
1070
     1
1071
       22
1005
130D6D
  0
LINE
  5
130D6E
  8
OBJECT
 10
590.99999999849024
 20
-990.99999999738964
 30
0.0
 11
480.99999999849018
 21
-990.99999999738964
 31
0.0
1001
ACDBBLOCKREPETAG
1070
     1
1071
       23
1005
130D6E
  0
LINE
  5
130D6F
  8
OBJECT
 10
483.99999999849018
 20
-990.99999999738964
 30
0.0
 11
483.99999999849018
 21
-1026.99999999739
 31
0.0
1001
ACDBBLOCKREPETAG
1070
     1
1071
       24
1005
130D6F
  0
LINE
  5
130D70
  8
OBJECT
 10
483.99999999849018
 20
-1026.99999999739
 30
0.0
 11
587.99999999849024
 21
-1026.99999999739
 31
0.0
1001
ACDBBLOCKREPETAG
1070
     1
1071
       25
1005
130D70
  0
LINE
  5
130D71
  8
OBJECT
 10
587.99999999849024
 20
-1026.99999999739
 30
0.0
 11
587.99999999849024
 21
-990.99999999738964
 31
0.0
1001
ACDBBLOCKREPETAG
1070
     1
1071
       26
1005
130D71
  0
LINE
  5
130D72
  8
OBJECT
 10
488.49999999849018
 20
-1030.99999999739
 30
0.0
 11
488.49999999849018
 21
-1037.9999999973891
 31
0.0
1001
ACDBBLOCKREPETAG
1070
     1
1071
       27
1005
130D72
  0
LINE
  5
130D73
  8
OBJECT
 10
583.49999999849024
 20
-1037.9999999973891
 30
0.0
 11
583.49999999849024
 21
-1030.99999999739
 31
0.0
1001
ACDBBLOCKREPETAG
1070
     1
1071
       28
1005
130D73
  0
LINE
  5
130D74
  8
OBJECT
 10
583.49999999849024
 20
-1030.99999999739
 30
0.0
 11
488.49999999849018
 21
-1030.99999999739
 31
0.0
1001
ACDBBLOCKREPETAG
1070
     1
1071
       29
1005
130D74
  0
LINE
  5
130D75
  8
OBJECT
 10
483.99999999849018
 20
-1026.99999999739
 30
0.0
 11
488.49999999849018
 21
-1030.99999999739
 31
0.0
1001
ACDBBLOCKREPETAG
1070
     1
1071
       30
1005
130D75
  0
LINE
  5
130D76
  8
OBJECT
 10
587.99999999849024
 20
-1026.99999999739
 30
0.0
 11
583.49999999849024
 21
-1030.99999999739
 31
0.0
1001
ACDBBLOCKREPETAG
1070
     1
1071
       31
1005
130D76
  0
LINE
  5
130D77
  8
OBJECT
 10
473.99999999849018
 20
-1040.9999999973891
 30
0.0
 11
473.99999999849018
 21
-1043.99999999739
 31
0.0
1001
ACDBBLOCKREPETAG
1070
     1
1071
       32
1005
130D77
  0
ARC
  5
130D78
  8
OBJECT
 10
476.99999999849018
 20
-1040.9999999973891
 30
0.0
 40
3.0
 50
90.0
 51
180.0
1001
ACDBBLOCKREPETAG
1070
     1
1071
       33
1005
130D78
  0
LINE
  5
130D79
  8
OBJECT
 10
597.99999999849024
 20
-1043.99999999739
 30
0.0
 11
597.99999999849024
 21
-1040.99999999739
 31
0.0
1001
ACDBBLOCKREPETAG
1070
     1
1071
       34
1005
130D79
  0
ARC
  5
130D7A
  8
OBJECT
 10
594.99999999849024
 20
-1040.99999999739
 30
0.0
 40
3.0
 50
0.0
 51
90.0
1001
ACDBBLOCKREPETAG
1070
     1
1071
       35
1005
130D7A
  0
LINE
  5
130D7B
  8
OBJECT
 10
594.99999999849024
 20
-1037.99999999739
 30
0.0
 11
476.99999999849018
 21
-1037.9999999973891
 31
0.0
1001
ACDBBLOCKREPETAG
1070
     1
1071
       36
1005
130D7B
  0
LINE
  5
130D7C
  8
HIDDEN
 10
497.99999999849018
 20
-1035.99999999739
 30
0.0
 11
573.99999999849024
 21
-1035.99999999739
 31
0.0
1001
ACDBBLOCKREPETAG
1070
     1
1071
      423
1005
130D7C
  0
TEXT
  5
130D7D
  8
SLIM
 10
115.714285714225
 20
-1371.9999999995321
 30
0.0
 40
48.0
  1
B202
 41
0.75
1001
ACDBBLOCKREPETAG
1070
     1
1071
      119
1005
12F953
  0
LINE
  5
130D7E
  8
OBJECT
 10
230.999999998612
 20
-1256.99999999739
 30
0.0
 11
230.999999998612
 21
-1263.99999999739
 31
0.0
1001
ACDBBLOCKREPETAG
1070
     1
1071
       19
1005
130D7E
  0
LINE
  5
130D7F
  8
OBJECT
 10
230.999999998612
 20
-1263.99999999739
 30
0.0
 11
120.9999999986119
 21
-1263.99999999739
 31
0.0
1001
ACDBBLOCKREPETAG
1070
     1
1071
       20
1005
130D7F
  0
LINE
  5
130D80
  8
OBJECT
 10
120.9999999986119
 20
-1263.99999999739
 30
0.0
 11
120.9999999986119
 21
-1256.99999999739
 31
0.0
1001
ACDBBLOCKREPETAG
1070
     1
1071
       21
1005
130D80
  0
LINE
  5
130D81
  8
OBJECT
 10
120.9999999986119
 20
-1256.99999999739
 30
0.0
 11
230.999999998612
 21
-1256.99999999739
 31
0.0
1001
ACDBBLOCKREPETAG
1070
     1
1071
       22
1005
130D81
  0
LINE
  5
130D82
  8
OBJECT
 10
227.99999999861191
 20
-1256.99999999739
 30
0.0
 11
227.99999999861191
 21
-1220.9999999973891
 31
0.0
1001
ACDBBLOCKREPETAG
1070
     1
1071
       23
1005
130D82
  0
LINE
  5
130D83
  8
OBJECT
 10
227.99999999861191
 20
-1220.9999999973891
 30
0.0
 11
123.9999999986119
 21
-1220.9999999973891
 31
0.0
1001
ACDBBLOCKREPETAG
1070
     1
1071
       24
1005
130D83
  0
LINE
  5
130D84
  8
OBJECT
 10
123.9999999986119
 20
-1220.9999999973891
 30
0.0
 11
123.9999999986119
 21
-1256.99999999739
 31
0.0
1001
ACDBBLOCKREPETAG
1070
     1
1071
       25
1005
130D84
  0
LINE
  5
130D85
  8
OBJECT
 10
223.49999999861191
 20
-1216.99999999739
 30
0.0
 11
223.49999999861191
 21
-1209.99999999739
 31
0.0
1001
ACDBBLOCKREPETAG
1070
     1
1071
       26
1005
130D85
  0
LINE
  5
130D86
  8
OBJECT
 10
128.49999999861191
 20
-1209.99999999739
 30
0.0
 11
128.49999999861191
 21
-1216.99999999739
 31
0.0
1001
ACDBBLOCKREPETAG
1070
     1
1071
       27
1005
130D86
  0
LINE
  5
130D87
  8
OBJECT
 10
128.49999999861191
 20
-1216.99999999739
 30
0.0
 11
223.49999999861191
 21
-1216.99999999739
 31
0.0
1001
ACDBBLOCKREPETAG
1070
     1
1071
       28
1005
130D87
  0
LINE
  5
130D88
  8
OBJECT
 10
227.99999999861191
 20
-1220.9999999973891
 30
0.0
 11
223.49999999861191
 21
-1216.99999999739
 31
0.0
1001
ACDBBLOCKREPETAG
1070
     1
1071
       29
1005
130D88
  0
LINE
  5
130D89
  8
OBJECT
 10
123.9999999986119
 20
-1220.9999999973891
 30
0.0
 11
128.49999999861191
 21
-1216.99999999739
 31
0.0
1001
ACDBBLOCKREPETAG
1070
     1
1071
       30
1005
130D89
  0
LINE
  5
130D8A
  8
OBJECT
 10
237.99999999861191
 20
-1206.9999999973909
 30
0.0
 11
237.99999999861191
 21
-1203.99999999739
 31
0.0
1001
ACDBBLOCKREPETAG
1070
     1
1071
       31
1005
130D8A
  0
ARC
  5
130D8B
  8
OBJECT
 10
234.999999998612
 20
-1206.9999999973909
 30
0.0
 40
3.0
 50
270.0
 51
0.0
1001
ACDBBLOCKREPETAG
1070
     1
1071
       32
1005
130D8B
  0
LINE
  5
130D8C
  8
OBJECT
 10
113.9999999986119
 20
-1203.99999999739
 30
0.0
 11
113.9999999986119
 21
-1206.9999999973891
 31
0.0
1001
ACDBBLOCKREPETAG
1070
     1
1071
       33
1005
130D8C
  0
ARC
  5
130D8D
  8
OBJECT
 10
116.9999999986119
 20
-1206.9999999973891
 30
0.0
 40
3.0
 50
180.0
 51
270.0
1001
ACDBBLOCKREPETAG
1070
     1
1071
       34
1005
130D8D
  0
LINE
  5
130D8E
  8
OBJECT
 10
116.9999999986119
 20
-1209.9999999973891
 30
0.0
 11
234.999999998612
 21
-1209.99999999739
 31
0.0
1001
ACDBBLOCKREPETAG
1070
     1
1071
       35
1005
130D8E
  0
INSERT
  5
130D8F
  8
OBJECT
  2
*U51
 10
0.0
 20
0.0
 30
0.0
  0
LINE
  5
130D90
  8
HIDDEN
 10
213.999999998612
 20
-1211.99999999739
 30
0.0
 11
137.99999999861191
 21
-1211.99999999739
 31
0.0
1001
ACDBBLOCKREPETAG
1070
     1
1071
      427
1005
130D90
  0
LINE
  5
130D91
  8
OBJECT
 10
258.99999999861188
 20
-1185.99999999739
 30
0.0
 11
255.999999998612
 21
-1185.99999999739
 31
0.0
1001
ACDBBLOCKREPETAG
1070
     1
1071
      418
1005
130D91
  0
ARC
  5
130D92
  8
OBJECT
 10
258.99999999861188
 20
-1182.99999999739
 30
0.0
 40
3.0
 50
270.0
 51
0.0
1001
ACDBBLOCKREPETAG
1070
     1
1071
      419
1005
130D92
  0
LINE
  5
130D93
  8
OBJECT
 10
255.999999998612
 20
-1061.9999999973891
 30
0.0
 11
258.99999999861188
 21
-1061.9999999973891
 31
0.0
1001
ACDBBLOCKREPETAG
1070
     1
1071
      420
1005
130D93
  0
ARC
  5
130D94
  8
OBJECT
 10
258.99999999861188
 20
-1064.99999999739
 30
0.0
 40
3.0
 50
0.0
 51
90.0
1001
ACDBBLOCKREPETAG
1070
     1
1071
      421
1005
130D94
  0
LINE
  5
130D95
  8
OBJECT
 10
261.999999998612
 20
-1064.99999999739
 30
0.0
 11
261.999999998612
 21
-1182.99999999739
 31
0.0
1001
ACDBBLOCKREPETAG
1070
     1
1071
      422
1005
130D95
  0
INSERT
  5
130D96
  8
OBJECT
  2
*U52
 10
0.0
 20
0.0
 30
0.0
  0
LINE
  5
130D97
  8
OBJECT
 10
120.9999999986119
 20
-990.99999999738964
 30
0.0
 11
120.9999999986119
 21
-983.99999999738964
 31
0.0
1001
ACDBBLOCKREPETAG
1070
     1
1071
       20
1005
130D97
  0
LINE
  5
130D98
  8
OBJECT
 10
120.9999999986119
 20
-983.99999999738964
 30
0.0
 11
230.999999998612
 21
-983.99999999738964
 31
0.0
1001
ACDBBLOCKREPETAG
1070
     1
1071
       21
1005
130D98
  0
LINE
  5
130D99
  8
OBJECT
 10
230.999999998612
 20
-983.99999999738964
 30
0.0
 11
230.999999998612
 21
-990.99999999738964
 31
0.0
1001
ACDBBLOCKREPETAG
1070
     1
1071
       22
1005
130D99
  0
LINE
  5
130D9A
  8
OBJECT
 10
230.999999998612
 20
-990.99999999738964
 30
0.0
 11
120.9999999986119
 21
-990.99999999738964
 31
0.0
1001
ACDBBLOCKREPETAG
1070
     1
1071
       23
1005
130D9A
  0
LINE
  5
130D9B
  8
OBJECT
 10
123.9999999986119
 20
-990.99999999738964
 30
0.0
 11
123.9999999986119
 21
-1026.99999999739
 31
0.0
1001
ACDBBLOCKREPETAG
1070
     1
1071
       24
1005
130D9B
  0
LINE
  5
130D9C
  8
OBJECT
 10
123.9999999986119
 20
-1026.99999999739
 30
0.0
 11
227.99999999861191
 21
-1026.99999999739
 31
0.0
1001
ACDBBLOCKREPETAG
1070
     1
1071
       25
1005
130D9C
  0
LINE
  5
130D9D
  8
OBJECT
 10
227.99999999861191
 20
-1026.99999999739
 30
0.0
 11
227.99999999861191
 21
-990.99999999738964
 31
0.0
1001
ACDBBLOCKREPETAG
1070
     1
1071
       26
1005
130D9D
  0
LINE
  5
130D9E
  8
OBJECT
 10
128.49999999861191
 20
-1030.99999999739
 30
0.0
 11
128.49999999861191
 21
-1037.9999999973891
 31
0.0
1001
ACDBBLOCKREPETAG
1070
     1
1071
       27
1005
130D9E
  0
LINE
  5
130D9F
  8
OBJECT
 10
223.49999999861191
 20
-1037.9999999973891
 30
0.0
 11
223.49999999861191
 21
-1030.99999999739
 31
0.0
1001
ACDBBLOCKREPETAG
1070
     1
1071
       28
1005
130D9F
  0
LINE
  5
130DA0
  8
OBJECT
 10
223.49999999861191
 20
-1030.99999999739
 30
0.0
 11
128.49999999861191
 21
-1030.99999999739
 31
0.0
1001
ACDBBLOCKREPETAG
1070
     1
1071
       29
1005
130DA0
  0
LINE
  5
130DA1
  8
OBJECT
 10
123.9999999986119
 20
-1026.99999999739
 30
0.0
 11
128.49999999861191
 21
-1030.99999999739
 31
0.0
1001
ACDBBLOCKREPETAG
1070
     1
1071
       30
1005
130DA1
  0
LINE
  5
130DA2
  8
OBJECT
 10
227.99999999861191
 20
-1026.99999999739
 30
0.0
 11
223.49999999861191
 21
-1030.99999999739
 31
0.0
1001
ACDBBLOCKREPETAG
1070
     1
1071
       31
1005
130DA2
  0
LINE
  5
130DA3
  8
OBJECT
 10
113.9999999986119
 20
-1040.9999999973891
 30
0.0
 11
113.9999999986119
 21
-1043.99999999739
 31
0.0
1001
ACDBBLOCKREPETAG
1070
     1
1071
       32
1005
130DA3
  0
ARC
  5
130DA4
  8
OBJECT
 10
116.9999999986119
 20
-1040.9999999973891
 30
0.0
 40
3.0
 50
90.0
 51
180.0
1001
ACDBBLOCKREPETAG
1070
     1
1071
       33
1005
130DA4
  0
LINE
  5
130DA5
  8
OBJECT
 10
237.99999999861191
 20
-1043.99999999739
 30
0.0
 11
237.99999999861191
 21
-1040.99999999739
 31
0.0
1001
ACDBBLOCKREPETAG
1070
     1
1071
       34
1005
130DA5
  0
ARC
  5
130DA6
  8
OBJECT
 10
234.999999998612
 20
-1040.99999999739
 30
0.0
 40
3.0
 50
0.0
 51
90.0
1001
ACDBBLOCKREPETAG
1070
     1
1071
       35
1005
130DA6
  0
LINE
  5
130DA7
  8
OBJECT
 10
234.999999998612
 20
-1037.99999999739
 30
0.0
 11
116.9999999986119
 21
-1037.9999999973891
 31
0.0
1001
ACDBBLOCKREPETAG
1070
     1
1071
       36
1005
130DA7
  0
LINE
  5
130DA8
  8
HIDDEN
 10
137.99999999861191
 20
-1035.99999999739
 30
0.0
 11
213.999999998612
 21
-1035.99999999739
 31
0.0
1001
ACDBBLOCKREPETAG
1070
     1
1071
      423
1005
130DA8
  0
TEXT
  5
130DA9
  8
SLIM
 10
423.59999999981761
 20
-907.999999999691
 30
0.0
 40
48.0
  1
B104（特）
 41
0.75
1001
ACDBBLOCKREPETAG
1070
     1
1071
      119
1005
12F953
  0
LINE
  5
130DAA
  8
OBJECT
 10
610.99999999849024
 20
-809.999999997548
 30
0.0
 11
610.99999999849024
 21
-802.99999999754823
 31
0.0
1001
ACDBBLOCKREPETAG
1070
     1
1071
       57
1005
130DAA
  0
LINE
  5
130DAB
  8
OBJECT
 10
610.99999999849024
 20
-802.99999999754823
 30
0.0
 11
460.99999999849018
 21
-802.99999999754823
 31
0.0
1001
ACDBBLOCKREPETAG
1070
     1
1071
       58
1005
130DAB
  0
LINE
  5
130DAC
  8
OBJECT
 10
607.99999999849024
 20
-761.49999999754812
 30
0.0
 11
463.99999999849018
 21
-761.49999999754812
 31
0.0
1001
ACDBBLOCKREPETAG
1070
     1
1071
       59
1005
130DAC
  0
LINE
  5
130DAD
  8
OBJECT
 10
601.49999999849024
 20
-749.999999997548
 30
0.0
 11
470.49999999849018
 21
-749.999999997548
 31
0.0
1001
ACDBBLOCKREPETAG
1070
     1
1071
       60
1005
130DAD
  0
LINE
  5
130DAE
  8
OBJECT
 10
460.99999999849018
 20
-802.99999999754823
 30
0.0
 11
460.99999999849018
 21
-809.999999997548
 31
0.0
1001
ACDBBLOCKREPETAG
1070
     1
1071
       61
1005
130DAE
  0
LINE
  5
130DAF
  8
OBJECT
 10
460.99999999849018
 20
-809.999999997548
 30
0.0
 11
610.99999999849024
 21
-809.999999997548
 31
0.0
1001
ACDBBLOCKREPETAG
1070
     1
1071
       62
1005
130DAF
  0
LINE
  5
130DB0
  8
OBJECT
 10
473.99999999849018
 20
-745.999999997548
 30
0.0
 11
473.99999999849018
 21
-739.99999999754812
 31
0.0
1001
ACDBBLOCKREPETAG
1070
     1
1071
       63
1005
130DB0
  0
LINE
  5
130DB1
  8
OBJECT
 10
463.99999999849018
 20
-802.99999999754823
 30
0.0
 11
463.99999999849018
 21
-761.49999999754812
 31
0.0
1001
ACDBBLOCKREPETAG
1070
     1
1071
       64
1005
130DB1
  0
LINE
  5
130DB2
  8
OBJECT
 10
463.99999999849018
 20
-761.49999999754812
 30
0.0
 11
470.49999999849018
 21
-749.999999997548
 31
0.0
1001
ACDBBLOCKREPETAG
1070
     1
1071
       65
1005
130DB2
  0
LINE
  5
130DB3
  8
OBJECT
 10
470.49999999849018
 20
-749.999999997548
 30
0.0
 11
473.99999999849018
 21
-745.999999997548
 31
0.0
1001
ACDBBLOCKREPETAG
1070
     1
1071
       66
1005
130DB3
  0
LINE
  5
130DB4
  8
OBJECT
 10
607.99999999849024
 20
-761.49999999754812
 30
0.0
 11
601.49999999849024
 21
-749.999999997548
 31
0.0
1001
ACDBBLOCKREPETAG
1070
     1
1071
       67
1005
130DB4
  0
LINE
  5
130DB5
  8
OBJECT
 10
601.49999999849024
 20
-749.999999997548
 30
0.0
 11
597.99999999849024
 21
-745.999999997548
 31
0.0
1001
ACDBBLOCKREPETAG
1070
     1
1071
       68
1005
130DB5
  0
ARC
  5
130DB6
  8
OBJECT
 10
535.99999999849024
 20
-1127.899999997549
 30
0.0
 40
386.89999999999998
 50
80.778701362367499
 51
99.221298637632543
1001
ACDBBLOCKREPETAG
1070
     1
1071
       69
1005
130DB6
  0
LINE
  5
130DB7
  8
OBJECT
 10
597.99999999849024
 20
-745.999999997548
 30
0.0
 11
597.99999999849024
 21
-739.99999999754812
 31
0.0
1001
ACDBBLOCKREPETAG
1070
     1
1071
       70
1005
130DB7
  0
LINE
  5
130DB8
  8
OBJECT
 10
607.99999999849024
 20
-802.99999999754823
 30
0.0
 11
607.99999999849024
 21
-761.49999999754812
 31
0.0
1001
ACDBBLOCKREPETAG
1070
     1
1071
       71
1005
130DB8
  0
INSERT
  5
130DB9
  8
OBJECT
  2
*U53
 10
0.0
 20
0.0
 30
0.0
  0
LINE
  5
130DBA
  8
HIDDEN
 10
478.99999999849018
 20
-757.99999999754812
 30
0.0
 11
592.99999999849024
 21
-757.99999999754812
 31
0.0
1001
ACDBBLOCKREPETAG
1070
     1
1071
      437
1005
130DBA
  0
LINE
  5
130DBB
  8
OBJECT
 10
618.99999999849024
 20
-721.99999999754812
 30
0.0
 11
615.99999999849024
 21
-721.99999999754812
 31
0.0
1001
ACDBBLOCKREPETAG
1070
     1
1071
      418
1005
130DBB
  0
ARC
  5
130DBC
  8
OBJECT
 10
618.99999999849024
 20
-718.99999999754812
 30
0.0
 40
3.0
 50
270.0
 51
0.0
1001
ACDBBLOCKREPETAG
1070
     1
1071
      419
1005
130DBC
  0
LINE
  5
130DBD
  8
OBJECT
 10
615.99999999849024
 20
-597.999999997548
 30
0.0
 11
618.99999999849024
 21
-597.999999997548
 31
0.0
1001
ACDBBLOCKREPETAG
1070
     1
1071
      420
1005
130DBD
  0
ARC
  5
130DBE
  8
OBJECT
 10
618.99999999849024
 20
-600.99999999754777
 30
0.0
 40
3.0
 50
0.0
 51
90.0
1001
ACDBBLOCKREPETAG
1070
     1
1071
      421
1005
130DBE
  0
LINE
  5
130DBF
  8
OBJECT
 10
621.99999999849024
 20
-600.99999999754777
 30
0.0
 11
621.99999999849024
 21
-718.99999999754812
 31
0.0
1001
ACDBBLOCKREPETAG
1070
     1
1071
      422
1005
130DBF
  0
INSERT
  5
130DC0
  8
OBJECT
  2
*U54
 10
0.0
 20
0.0
 30
0.0
  0
LINE
  5
130DC1
  8
OBJECT
 10
488.99999999849018
 20
-526.999999997548
 30
0.0
 11
488.99999999849018
 21
-519.999999997548
 31
0.0
1001
ACDBBLOCKREPETAG
1070
     1
1071
        1
1005
130DC1
  0
LINE
  5
130DC2
  8
OBJECT
 10
488.99999999849018
 20
-519.999999997548
 30
0.0
 11
582.99999999849024
 21
-519.999999997548
 31
0.0
1001
ACDBBLOCKREPETAG
1070
     1
1071
        2
1005
130DC2
  0
LINE
  5
130DC3
  8
OBJECT
 10
582.99999999849024
 20
-519.999999997548
 30
0.0
 11
582.99999999849024
 21
-526.999999997548
 31
0.0
1001
ACDBBLOCKREPETAG
1070
     1
1071
        3
1005
130DC3
  0
LINE
  5
130DC4
  8
OBJECT
 10
582.99999999849024
 20
-526.999999997548
 30
0.0
 11
488.99999999849018
 21
-526.999999997548
 31
0.0
1001
ACDBBLOCKREPETAG
1070
     1
1071
        4
1005
130DC4
  0
LINE
  5
130DC5
  8
OBJECT
 10
491.99999999849018
 20
-526.999999997548
 30
0.0
 11
491.99999999849018
 21
-562.99999999754789
 31
0.0
1001
ACDBBLOCKREPETAG
1070
     1
1071
        5
1005
130DC5
  0
LINE
  5
130DC6
  8
OBJECT
 10
491.99999999849018
 20
-562.99999999754789
 30
0.0
 11
579.99999999849024
 21
-562.99999999754789
 31
0.0
1001
ACDBBLOCKREPETAG
1070
     1
1071
        6
1005
130DC6
  0
LINE
  5
130DC7
  8
OBJECT
 10
579.99999999849024
 20
-562.99999999754789
 30
0.0
 11
579.99999999849024
 21
-526.999999997548
 31
0.0
1001
ACDBBLOCKREPETAG
1070
     1
1071
        7
1005
130DC7
  0
LINE
  5
130DC8
  8
OBJECT
 10
496.49999999849018
 20
-566.99999999754789
 30
0.0
 11
496.49999999849018
 21
-573.999999997548
 31
0.0
1001
ACDBBLOCKREPETAG
1070
     1
1071
        8
1005
130DC8
  0
LINE
  5
130DC9
  8
OBJECT
 10
575.49999999849024
 20
-573.999999997548
 30
0.0
 11
575.49999999849024
 21
-566.99999999754789
 31
0.0
1001
ACDBBLOCKREPETAG
1070
     1
1071
        9
1005
130DC9
  0
LINE
  5
130DCA
  8
OBJECT
 10
575.49999999849024
 20
-566.99999999754789
 30
0.0
 11
496.49999999849018
 21
-566.99999999754789
 31
0.0
1001
ACDBBLOCKREPETAG
1070
     1
1071
       10
1005
130DCA
  0
LINE
  5
130DCB
  8
OBJECT
 10
491.99999999849018
 20
-562.99999999754789
 30
0.0
 11
496.49999999849018
 21
-566.99999999754789
 31
0.0
1001
ACDBBLOCKREPETAG
1070
     1
1071
       11
1005
130DCB
  0
LINE
  5
130DCC
  8
OBJECT
 10
579.99999999849024
 20
-562.99999999754789
 30
0.0
 11
575.49999999849024
 21
-566.99999999754789
 31
0.0
1001
ACDBBLOCKREPETAG
1070
     1
1071
       12
1005
130DCC
  0
LINE
  5
130DCD
  8
OBJECT
 10
473.99999999849018
 20
-576.99999999754687
 30
0.0
 11
473.99999999849018
 21
-579.99999999754777
 31
0.0
1001
ACDBBLOCKREPETAG
1070
     1
1071
       13
1005
130DCD
  0
ARC
  5
130DCE
  8
OBJECT
 10
476.99999999849018
 20
-576.99999999754687
 30
0.0
 40
3.0
 50
90.0
 51
180.0
1001
ACDBBLOCKREPETAG
1070
     1
1071
       14
1005
130DCE
  0
LINE
  5
130DCF
  8
OBJECT
 10
597.99999999849024
 20
-579.99999999754777
 30
0.0
 11
597.99999999849024
 21
-576.99999999754891
 31
0.0
1001
ACDBBLOCKREPETAG
1070
     1
1071
       15
1005
130DCF
  0
ARC
  5
130DD0
  8
OBJECT
 10
594.99999999849024
 20
-576.99999999754891
 30
0.0
 40
3.0
 50
0.0
 51
90.0
1001
ACDBBLOCKREPETAG
1070
     1
1071
       16
1005
130DD0
  0
LINE
  5
130DD1
  8
OBJECT
 10
594.99999999849024
 20
-573.99999999754891
 30
0.0
 11
476.99999999849018
 21
-573.99999999754721
 31
0.0
1001
ACDBBLOCKREPETAG
1070
     1
1071
       17
1005
130DD1
  0
LINE
  5
130DD2
  8
HIDDEN
 10
505.99999999849018
 20
-571.99999999754777
 30
0.0
 11
565.99999999849024
 21
-571.99999999754777
 31
0.0
1001
ACDBBLOCKREPETAG
1070
     1
1071
      420
1005
130DD2
  0
TEXT
  5
130DD3
  8
SLIM
 10
63.599999999939421
 20
-907.999999999691
 30
0.0
 40
48.0
  1
B103（特）
 41
0.75
1001
ACDBBLOCKREPETAG
1070
     1
1071
      119
1005
12F953
  0
LINE
  5
130DD4
  8
OBJECT
 10
237.99999999861211
 20
-792.99999999754812
 30
0.0
 11
237.99999999861211
 21
-799.999999997548
 31
0.0
1001
ACDBBLOCKREPETAG
1070
     1
1071
       38
1005
130DD4
  0
LINE
  5
130DD5
  8
OBJECT
 10
237.99999999861211
 20
-799.999999997548
 30
0.0
 11
113.999999998612
 21
-799.999999997548
 31
0.0
1001
ACDBBLOCKREPETAG
1070
     1
1071
       39
1005
130DD5
  0
LINE
  5
130DD6
  8
OBJECT
 10
113.999999998612
 20
-799.999999997548
 30
0.0
 11
113.999999998612
 21
-792.99999999754812
 31
0.0
1001
ACDBBLOCKREPETAG
1070
     1
1071
       40
1005
130DD6
  0
LINE
  5
130DD7
  8
OBJECT
 10
113.999999998612
 20
-792.99999999754812
 30
0.0
 11
237.99999999861211
 21
-792.99999999754812
 31
0.0
1001
ACDBBLOCKREPETAG
1070
     1
1071
       41
1005
130DD7
  0
LINE
  5
130DD8
  8
OBJECT
 10
234.999999998612
 20
-792.99999999754812
 30
0.0
 11
234.999999998612
 21
-756.99999999754812
 31
0.0
1001
ACDBBLOCKREPETAG
1070
     1
1071
       42
1005
130DD8
  0
LINE
  5
130DD9
  8
OBJECT
 10
234.999999998612
 20
-756.99999999754812
 30
0.0
 11
116.999999998612
 21
-756.99999999754812
 31
0.0
1001
ACDBBLOCKREPETAG
1070
     1
1071
       43
1005
130DD9
  0
LINE
  5
130DDA
  8
OBJECT
 10
116.999999998612
 20
-756.99999999754812
 30
0.0
 11
116.999999998612
 21
-792.99999999754812
 31
0.0
1001
ACDBBLOCKREPETAG
1070
     1
1071
       44
1005
130DDA
  0
LINE
  5
130DDB
  8
OBJECT
 10
230.49999999861211
 20
-752.99999999754812
 30
0.0
 11
230.49999999861211
 21
-745.999999997548
 31
0.0
1001
ACDBBLOCKREPETAG
1070
     1
1071
       45
1005
130DDB
  0
LINE
  5
130DDC
  8
OBJECT
 10
121.499999998612
 20
-745.999999997548
 30
0.0
 11
121.499999998612
 21
-752.99999999754812
 31
0.0
1001
ACDBBLOCKREPETAG
1070
     1
1071
       46
1005
130DDC
  0
LINE
  5
130DDD
  8
OBJECT
 10
121.499999998612
 20
-752.99999999754812
 30
0.0
 11
230.49999999861211
 21
-752.99999999754812
 31
0.0
1001
ACDBBLOCKREPETAG
1070
     1
1071
       47
1005
130DDD
  0
LINE
  5
130DDE
  8
OBJECT
 10
234.999999998612
 20
-756.99999999754812
 30
0.0
 11
230.49999999861211
 21
-752.99999999754812
 31
0.0
1001
ACDBBLOCKREPETAG
1070
     1
1071
       48
1005
130DDE
  0
LINE
  5
130DDF
  8
OBJECT
 10
116.999999998612
 20
-756.99999999754812
 30
0.0
 11
121.499999998612
 21
-752.99999999754812
 31
0.0
1001
ACDBBLOCKREPETAG
1070
     1
1071
       49
1005
130DDF
  0
LINE
  5
130DE0
  8
OBJECT
 10
237.99999999861211
 20
-742.99999999754903
 30
0.0
 11
237.99999999861211
 21
-739.99999999754812
 31
0.0
1001
ACDBBLOCKREPETAG
1070
     1
1071
       50
1005
130DE0
  0
ARC
  5
130DE1
  8
OBJECT
 10
234.999999998612
 20
-742.99999999754903
 30
0.0
 40
3.0
 50
270.0
 51
0.0
1001
ACDBBLOCKREPETAG
1070
     1
1071
       51
1005
130DE1
  0
LINE
  5
130DE2
  8
OBJECT
 10
113.999999998612
 20
-739.99999999754812
 30
0.0
 11
113.999999998612
 21
-742.99999999754687
 31
0.0
1001
ACDBBLOCKREPETAG
1070
     1
1071
       52
1005
130DE2
  0
ARC
  5
130DE3
  8
OBJECT
 10
116.999999998612
 20
-742.99999999754687
 30
0.0
 40
3.0
 50
180.0
 51
270.0
1001
ACDBBLOCKREPETAG
1070
     1
1071
       53
1005
130DE3
  0
LINE
  5
130DE4
  8
OBJECT
 10
116.999999998612
 20
-745.99999999754721
 30
0.0
 11
234.999999998612
 21
-745.99999999754868
 31
0.0
1001
ACDBBLOCKREPETAG
1070
     1
1071
       54
1005
130DE4
  0
INSERT
  5
130DE5
  8
OBJECT
  2
*U55
 10
0.0
 20
0.0
 30
0.0
  0
LINE
  5
130DE6
  8
HIDDEN
 10
220.499999998612
 20
-747.99999999754812
 30
0.0
 11
131.499999998612
 21
-747.99999999754812
 31
0.0
1001
ACDBBLOCKREPETAG
1070
     1
1071
      430
1005
130DE6
  0
LINE
  5
130DE7
  8
OBJECT
 10
258.99999999861211
 20
-721.99999999754812
 30
0.0
 11
255.999999998612
 21
-721.99999999754812
 31
0.0
1001
ACDBBLOCKREPETAG
1070
     1
1071
      418
1005
130DE7
  0
ARC
  5
130DE8
  8
OBJECT
 10
258.99999999861211
 20
-718.99999999754812
 30
0.0
 40
3.0
 50
270.0
 51
0.0
1001
ACDBBLOCKREPETAG
1070
     1
1071
      419
1005
130DE8
  0
LINE
  5
130DE9
  8
OBJECT
 10
255.999999998612
 20
-597.999999997548
 30
0.0
 11
258.99999999861211
 21
-597.999999997548
 31
0.0
1001
ACDBBLOCKREPETAG
1070
     1
1071
      420
1005
130DE9
  0
ARC
  5
130DEA
  8
OBJECT
 10
258.99999999861211
 20
-600.99999999754777
 30
0.0
 40
3.0
 50
0.0
 51
90.0
1001
ACDBBLOCKREPETAG
1070
     1
1071
      421
1005
130DEA
  0
LINE
  5
130DEB
  8
OBJECT
 10
261.999999998612
 20
-600.99999999754777
 30
0.0
 11
261.999999998612
 21
-718.99999999754812
 31
0.0
1001
ACDBBLOCKREPETAG
1070
     1
1071
      422
1005
130DEB
  0
INSERT
  5
130DEC
  8
OBJECT
  2
*U56
 10
0.0
 20
0.0
 30
0.0
  0
LINE
  5
130DED
  8
OBJECT
 10
128.999999998612
 20
-526.999999997548
 30
0.0
 11
128.999999998612
 21
-519.999999997548
 31
0.0
1001
ACDBBLOCKREPETAG
1070
     1
1071
        1
1005
130DED
  0
LINE
  5
130DEE
  8
OBJECT
 10
128.999999998612
 20
-519.999999997548
 30
0.0
 11
222.999999998612
 21
-519.999999997548
 31
0.0
1001
ACDBBLOCKREPETAG
1070
     1
1071
        2
1005
130DEE
  0
LINE
  5
130DEF
  8
OBJECT
 10
222.999999998612
 20
-519.999999997548
 30
0.0
 11
222.999999998612
 21
-526.999999997548
 31
0.0
1001
ACDBBLOCKREPETAG
1070
     1
1071
        3
1005
130DEF
  0
LINE
  5
130DF0
  8
OBJECT
 10
222.999999998612
 20
-526.999999997548
 30
0.0
 11
128.999999998612
 21
-526.999999997548
 31
0.0
1001
ACDBBLOCKREPETAG
1070
     1
1071
        4
1005
130DF0
  0
LINE
  5
130DF1
  8
OBJECT
 10
131.999999998612
 20
-526.999999997548
 30
0.0
 11
131.999999998612
 21
-562.99999999754789
 31
0.0
1001
ACDBBLOCKREPETAG
1070
     1
1071
        5
1005
130DF1
  0
LINE
  5
130DF2
  8
OBJECT
 10
131.999999998612
 20
-562.99999999754789
 30
0.0
 11
219.99999999861211
 21
-562.99999999754789
 31
0.0
1001
ACDBBLOCKREPETAG
1070
     1
1071
        6
1005
130DF2
  0
LINE
  5
130DF3
  8
OBJECT
 10
219.99999999861211
 20
-562.99999999754789
 30
0.0
 11
219.99999999861211
 21
-526.999999997548
 31
0.0
1001
ACDBBLOCKREPETAG
1070
     1
1071
        7
1005
130DF3
  0
LINE
  5
130DF4
  8
OBJECT
 10
136.499999998612
 20
-566.99999999754789
 30
0.0
 11
136.499999998612
 21
-573.999999997548
 31
0.0
1001
ACDBBLOCKREPETAG
1070
     1
1071
        8
1005
130DF4
  0
LINE
  5
130DF5
  8
OBJECT
 10
215.49999999861211
 20
-573.999999997548
 30
0.0
 11
215.49999999861211
 21
-566.99999999754789
 31
0.0
1001
ACDBBLOCKREPETAG
1070
     1
1071
        9
1005
130DF5
  0
LINE
  5
130DF6
  8
OBJECT
 10
215.49999999861211
 20
-566.99999999754789
 30
0.0
 11
136.499999998612
 21
-566.99999999754789
 31
0.0
1001
ACDBBLOCKREPETAG
1070
     1
1071
       10
1005
130DF6
  0
LINE
  5
130DF7
  8
OBJECT
 10
131.999999998612
 20
-562.99999999754789
 30
0.0
 11
136.499999998612
 21
-566.99999999754789
 31
0.0
1001
ACDBBLOCKREPETAG
1070
     1
1071
       11
1005
130DF7
  0
LINE
  5
130DF8
  8
OBJECT
 10
219.99999999861211
 20
-562.99999999754789
 30
0.0
 11
215.49999999861211
 21
-566.99999999754789
 31
0.0
1001
ACDBBLOCKREPETAG
1070
     1
1071
       12
1005
130DF8
  0
LINE
  5
130DF9
  8
OBJECT
 10
113.999999998612
 20
-576.99999999754687
 30
0.0
 11
113.999999998612
 21
-579.99999999754777
 31
0.0
1001
ACDBBLOCKREPETAG
1070
     1
1071
       13
1005
130DF9
  0
ARC
  5
130DFA
  8
OBJECT
 10
116.999999998612
 20
-576.99999999754687
 30
0.0
 40
3.0
 50
90.0
 51
180.0
1001
ACDBBLOCKREPETAG
1070
     1
1071
       14
1005
130DFA
  0
LINE
  5
130DFB
  8
OBJECT
 10
237.99999999861211
 20
-579.99999999754777
 30
0.0
 11
237.99999999861211
 21
-576.99999999754891
 31
0.0
1001
ACDBBLOCKREPETAG
1070
     1
1071
       15
1005
130DFB
  0
ARC
  5
130DFC
  8
OBJECT
 10
234.999999998612
 20
-576.99999999754891
 30
0.0
 40
3.0
 50
0.0
 51
90.0
1001
ACDBBLOCKREPETAG
1070
     1
1071
       16
1005
130DFC
  0
LINE
  5
130DFD
  8
OBJECT
 10
234.999999998612
 20
-573.99999999754891
 30
0.0
 11
116.999999998612
 21
-573.99999999754721
 31
0.0
1001
ACDBBLOCKREPETAG
1070
     1
1071
       17
1005
130DFD
  0
LINE
  5
130DFE
  8
HIDDEN
 10
145.999999998612
 20
-571.99999999754777
 30
0.0
 11
205.999999998612
 21
-571.99999999754777
 31
0.0
1001
ACDBBLOCKREPETAG
1070
     1
1071
      420
1005
130DFE
  0
TEXT
  5
130DFF
  8
SLIM
 10
479.14285714267481
 20
-443.99999999984919
 30
0.0
 40
48.0
  1
B102
 41
0.75
1001
ACDBBLOCKREPETAG
1070
     1
1071
      119
1005
12F953
  0
LINE
  5
130E00
  8
OBJECT
 10
590.99999999849024
 20
-328.99999999770631
 30
0.0
 11
590.99999999849024
 21
-335.99999999770631
 31
0.0
1001
ACDBBLOCKREPETAG
1070
     1
1071
       19
1005
130E00
  0
LINE
  5
130E01
  8
OBJECT
 10
590.99999999849024
 20
-335.99999999770631
 30
0.0
 11
480.99999999849018
 21
-335.99999999770631
 31
0.0
1001
ACDBBLOCKREPETAG
1070
     1
1071
       20
1005
130E01
  0
LINE
  5
130E02
  8
OBJECT
 10
480.99999999849018
 20
-335.99999999770631
 30
0.0
 11
480.99999999849018
 21
-328.99999999770631
 31
0.0
1001
ACDBBLOCKREPETAG
1070
     1
1071
       21
1005
130E02
  0
LINE
  5
130E03
  8
OBJECT
 10
480.99999999849018
 20
-328.99999999770631
 30
0.0
 11
590.99999999849024
 21
-328.99999999770631
 31
0.0
1001
ACDBBLOCKREPETAG
1070
     1
1071
       22
1005
130E03
  0
LINE
  5
130E04
  8
OBJECT
 10
587.99999999849024
 20
-328.99999999770631
 30
0.0
 11
587.99999999849024
 21
-292.99999999770631
 31
0.0
1001
ACDBBLOCKREPETAG
1070
     1
1071
       23
1005
130E04
  0
LINE
  5
130E05
  8
OBJECT
 10
587.99999999849024
 20
-292.99999999770631
 30
0.0
 11
483.99999999849018
 21
-292.99999999770631
 31
0.0
1001
ACDBBLOCKREPETAG
1070
     1
1071
       24
1005
130E05
  0
LINE
  5
130E06
  8
OBJECT
 10
483.99999999849018
 20
-292.99999999770631
 30
0.0
 11
483.99999999849018
 21
-328.99999999770631
 31
0.0
1001
ACDBBLOCKREPETAG
1070
     1
1071
       25
1005
130E06
  0
LINE
  5
130E07
  8
OBJECT
 10
583.49999999849024
 20
-288.9999999977062
 30
0.0
 11
583.49999999849024
 21
-281.99999999770631
 31
0.0
1001
ACDBBLOCKREPETAG
1070
     1
1071
       26
1005
130E07
  0
LINE
  5
130E08
  8
OBJECT
 10
488.49999999849018
 20
-281.99999999770631
 30
0.0
 11
488.49999999849018
 21
-288.9999999977062
 31
0.0
1001
ACDBBLOCKREPETAG
1070
     1
1071
       27
1005
130E08
  0
LINE
  5
130E09
  8
OBJECT
 10
488.49999999849018
 20
-288.9999999977062
 30
0.0
 11
583.49999999849024
 21
-288.9999999977062
 31
0.0
1001
ACDBBLOCKREPETAG
1070
     1
1071
       28
1005
130E09
  0
LINE
  5
130E0A
  8
OBJECT
 10
587.99999999849024
 20
-292.99999999770631
 30
0.0
 11
583.49999999849024
 21
-288.9999999977062
 31
0.0
1001
ACDBBLOCKREPETAG
1070
     1
1071
       29
1005
130E0A
  0
LINE
  5
130E0B
  8
OBJECT
 10
483.99999999849018
 20
-292.99999999770631
 30
0.0
 11
488.49999999849018
 21
-288.9999999977062
 31
0.0
1001
ACDBBLOCKREPETAG
1070
     1
1071
       30
1005
130E0B
  0
LINE
  5
130E0C
  8
OBJECT
 10
597.99999999849024
 20
-278.99999999770722
 30
0.0
 11
597.99999999849024
 21
-275.99999999770631
 31
0.0
1001
ACDBBLOCKREPETAG
1070
     1
1071
       31
1005
130E0C
  0
ARC
  5
130E0D
  8
OBJECT
 10
594.99999999849024
 20
-278.99999999770722
 30
0.0
 40
3.0
 50
270.0
 51
0.0
1001
ACDBBLOCKREPETAG
1070
     1
1071
       32
1005
130E0D
  0
LINE
  5
130E0E
  8
OBJECT
 10
473.99999999849018
 20
-275.99999999770631
 30
0.0
 11
473.99999999849018
 21
-278.99999999770529
 31
0.0
1001
ACDBBLOCKREPETAG
1070
     1
1071
       33
1005
130E0E
  0
ARC
  5
130E0F
  8
OBJECT
 10
476.99999999849018
 20
-278.99999999770529
 30
0.0
 40
3.0
 50
180.0
 51
270.0
1001
ACDBBLOCKREPETAG
1070
     1
1071
       34
1005
130E0F
  0
LINE
  5
130E10
  8
OBJECT
 10
476.99999999849018
 20
-281.99999999770529
 30
0.0
 11
594.99999999849024
 21
-281.99999999770711
 31
0.0
1001
ACDBBLOCKREPETAG
1070
     1
1071
       35
1005
130E10
  0
INSERT
  5
130E11
  8
OBJECT
  2
*U57
 10
0.0
 20
0.0
 30
0.0
  0
LINE
  5
130E12
  8
HIDDEN
 10
573.99999999849024
 20
-283.99999999770631
 30
0.0
 11
497.99999999849018
 21
-283.99999999770631
 31
0.0
1001
ACDBBLOCKREPETAG
1070
     1
1071
      427
1005
130E12
  0
LINE
  5
130E13
  8
OBJECT
 10
618.99999999849024
 20
-257.9999999977062
 30
0.0
 11
615.99999999849024
 21
-257.9999999977062
 31
0.0
1001
ACDBBLOCKREPETAG
1070
     1
1071
      418
1005
130E13
  0
ARC
  5
130E14
  8
OBJECT
 10
618.99999999849024
 20
-254.99999999770631
 30
0.0
 40
3.0
 50
270.0
 51
0.0
1001
ACDBBLOCKREPETAG
1070
     1
1071
      419
1005
130E14
  0
LINE
  5
130E15
  8
OBJECT
 10
615.99999999849024
 20
-133.9999999977062
 30
0.0
 11
618.99999999849024
 21
-133.9999999977062
 31
0.0
1001
ACDBBLOCKREPETAG
1070
     1
1071
      420
1005
130E15
  0
ARC
  5
130E16
  8
OBJECT
 10
618.99999999849024
 20
-136.9999999977062
 30
0.0
 40
3.0
 50
0.0
 51
90.0
1001
ACDBBLOCKREPETAG
1070
     1
1071
      421
1005
130E16
  0
LINE
  5
130E17
  8
OBJECT
 10
621.99999999849024
 20
-136.9999999977062
 30
0.0
 11
621.99999999849024
 21
-254.99999999770631
 31
0.0
1001
ACDBBLOCKREPETAG
1070
     1
1071
      422
1005
130E17
  0
INSERT
  5
130E18
  8
OBJECT
  2
*U58
 10
0.0
 20
0.0
 30
0.0
  0
LINE
  5
130E19
  8
OBJECT
 10
488.99999999849018
 20
-62.999999997706247
 30
0.0
 11
488.99999999849018
 21
-55.999999997706247
 31
0.0
1001
ACDBBLOCKREPETAG
1070
     1
1071
        1
1005
130E19
  0
LINE
  5
130E1A
  8
OBJECT
 10
488.99999999849018
 20
-55.999999997706247
 30
0.0
 11
582.99999999849024
 21
-55.999999997706247
 31
0.0
1001
ACDBBLOCKREPETAG
1070
     1
1071
        2
1005
130E1A
  0
LINE
  5
130E1B
  8
OBJECT
 10
582.99999999849024
 20
-55.999999997706247
 30
0.0
 11
582.99999999849024
 21
-62.999999997706247
 31
0.0
1001
ACDBBLOCKREPETAG
1070
     1
1071
        3
1005
130E1B
  0
LINE
  5
130E1C
  8
OBJECT
 10
582.99999999849024
 20
-62.999999997706247
 30
0.0
 11
488.99999999849018
 21
-62.999999997706247
 31
0.0
1001
ACDBBLOCKREPETAG
1070
     1
1071
        4
1005
130E1C
  0
LINE
  5
130E1D
  8
OBJECT
 10
491.99999999849018
 20
-62.999999997706247
 30
0.0
 11
491.99999999849018
 21
-98.99999999770624
 31
0.0
1001
ACDBBLOCKREPETAG
1070
     1
1071
        5
1005
130E1D
  0
LINE
  5
130E1E
  8
OBJECT
 10
491.99999999849018
 20
-98.99999999770624
 30
0.0
 11
579.99999999849024
 21
-98.99999999770624
 31
0.0
1001
ACDBBLOCKREPETAG
1070
     1
1071
        6
1005
130E1E
  0
LINE
  5
130E1F
  8
OBJECT
 10
579.99999999849024
 20
-98.99999999770624
 30
0.0
 11
579.99999999849024
 21
-62.999999997706247
 31
0.0
1001
ACDBBLOCKREPETAG
1070
     1
1071
        7
1005
130E1F
  0
LINE
  5
130E20
  8
OBJECT
 10
496.49999999849018
 20
-102.9999999977062
 30
0.0
 11
496.49999999849018
 21
-109.9999999977062
 31
0.0
1001
ACDBBLOCKREPETAG
1070
     1
1071
        8
1005
130E20
  0
LINE
  5
130E21
  8
OBJECT
 10
575.49999999849024
 20
-109.9999999977062
 30
0.0
 11
575.49999999849024
 21
-102.9999999977062
 31
0.0
1001
ACDBBLOCKREPETAG
1070
     1
1071
        9
1005
130E21
  0
LINE
  5
130E22
  8
OBJECT
 10
575.49999999849024
 20
-102.9999999977062
 30
0.0
 11
496.49999999849018
 21
-102.9999999977062
 31
0.0
1001
ACDBBLOCKREPETAG
1070
     1
1071
       10
1005
130E22
  0
LINE
  5
130E23
  8
OBJECT
 10
491.99999999849018
 20
-98.99999999770624
 30
0.0
 11
496.49999999849018
 21
-102.9999999977062
 31
0.0
1001
ACDBBLOCKREPETAG
1070
     1
1071
       11
1005
130E23
  0
LINE
  5
130E24
  8
OBJECT
 10
579.99999999849024
 20
-98.99999999770624
 30
0.0
 11
575.49999999849024
 21
-102.9999999977062
 31
0.0
1001
ACDBBLOCKREPETAG
1070
     1
1071
       12
1005
130E24
  0
LINE
  5
130E25
  8
OBJECT
 10
473.99999999849018
 20
-112.9999999977053
 30
0.0
 11
473.99999999849018
 21
-115.9999999977062
 31
0.0
1001
ACDBBLOCKREPETAG
1070
     1
1071
       13
1005
130E25
  0
ARC
  5
130E26
  8
OBJECT
 10
476.99999999849018
 20
-112.9999999977053
 30
0.0
 40
3.0
 50
90.0
 51
180.0
1001
ACDBBLOCKREPETAG
1070
     1
1071
       14
1005
130E26
  0
LINE
  5
130E27
  8
OBJECT
 10
597.99999999849024
 20
-115.9999999977062
 30
0.0
 11
597.99999999849024
 21
-112.99999999770711
 31
0.0
1001
ACDBBLOCKREPETAG
1070
     1
1071
       15
1005
130E27
  0
ARC
  5
130E28
  8
OBJECT
 10
594.99999999849024
 20
-112.99999999770711
 30
0.0
 40
3.0
 50
0.0
 51
90.0
1001
ACDBBLOCKREPETAG
1070
     1
1071
       16
1005
130E28
  0
LINE
  5
130E29
  8
OBJECT
 10
594.99999999849024
 20
-109.99999999770711
 30
0.0
 11
476.99999999849018
 21
-109.9999999977053
 31
0.0
1001
ACDBBLOCKREPETAG
1070
     1
1071
       17
1005
130E29
  0
LINE
  5
130E2A
  8
HIDDEN
 10
505.99999999849018
 20
-107.9999999977062
 30
0.0
 11
565.99999999849024
 21
-107.9999999977062
 31
0.0
1001
ACDBBLOCKREPETAG
1070
     1
1071
      420
1005
130E2A
  0
LINE
  5
130E2B
  8
OBJECT
 10
1923.0
 20
-570.99999999999432
 30
0.0
 11
1923.0
 21
-549.99999999999432
 31
0.0
1001
ACDBBLOCKREPETAG
1070
     1
1071
       36
1005
130E2B
  0
LINE
  5
130E2C
  8
OBJECT
 10
1923.0
 20
-549.99999999999432
 30
0.0
 11
2077.0
 21
-549.99999999999432
 31
0.0
1001
ACDBBLOCKREPETAG
1070
     1
1071
       37
1005
130E2C
  0
LINE
  5
130E2D
  8
HIDDEN
 10
1943.0
 20
-619.99999999999432
 30
0.0
 11
2057.0
 21
-619.99999999999432
 31
0.0
1001
ACDBBLOCKREPETAG
1070
     1
1071
       38
1005
130E2D
  0
LINE
  5
130E2E
  8
OBJECT
 10
2077.0
 20
-549.99999999999432
 30
0.0
 11
2077.0
 21
-570.99999999999432
 31
0.0
1001
ACDBBLOCKREPETAG
1070
     1
1071
       39
1005
130E2E
  0
LINE
  5
130E2F
  8
OBJECT
 10
2077.0
 20
-570.99999999999432
 30
0.0
 11
1923.0
 21
-570.99999999999432
 31
0.0
1001
ACDBBLOCKREPETAG
1070
     1
1071
       40
1005
130E2F
  0
LINE
  5
130E30
  8
CENTER
 10
2000.0
 20
-534.99999999999432
 30
0.0
 11
2000.0
 21
-769.9999999999942
 31
0.0
1001
ACDBBLOCKREPETAG
1070
     1
1071
       41
1005
130E30
  0
LINE
  5
130E31
  8
OBJECT
 10
1928.0
 20
-570.99999999999432
 30
0.0
 11
1928.0
 21
-633.99999999999432
 31
0.0
1001
ACDBBLOCKREPETAG
1070
     1
1071
       42
1005
130E31
  0
LINE
  5
130E32
  8
OBJECT
 10
2072.0
 20
-633.99999999999432
 30
0.0
 11
2072.0
 21
-570.99999999999432
 31
0.0
1001
ACDBBLOCKREPETAG
1070
     1
1071
       43
1005
130E32
  0
LINE
  5
130E33
  8
OBJECT
 10
1920.0
 20
-757.9999999999942
 30
0.0
 11
2080.0
 21
-757.9999999999942
 31
0.0
1001
ACDBBLOCKREPETAG
1070
     1
1071
       44
1005
130E33
  0
LINE
  5
130E34
  8
OBJECT
 10
2080.0
 20
-633.99999999999432
 30
0.0
 11
1920.0
 21
-633.99999999999432
 31
0.0
1001
ACDBBLOCKREPETAG
1070
     1
1071
       45
1005
130E34
  0
LINE
  5
130E35
  8
OBJECT
 10
1920.0
 20
-757.9999999999942
 30
0.0
 11
1920.0
 21
-769.9999999999942
 31
0.0
1001
ACDBBLOCKREPETAG
1070
     1
1071
       46
1005
130E35
  0
LINE
  5
130E36
  8
OBJECT
 10
1920.0
 20
-769.9999999999942
 30
0.0
 11
2080.0
 21
-769.9999999999942
 31
0.0
1001
ACDBBLOCKREPETAG
1070
     1
1071
       47
1005
130E36
  0
LINE
  5
130E37
  8
OBJECT
 10
2080.0
 20
-769.9999999999942
 30
0.0
 11
2080.0
 21
-757.9999999999942
 31
0.0
1001
ACDBBLOCKREPETAG
1070
     1
1071
       48
1005
130E37
  0
ARC
  5
130E38
  8
OBJECT
 10
2200.6872746716731
 20
-749.40809941010195
 30
0.0
 40
170.6350503965856
 50
137.44134459184301
 51
149.91949581336559
1001
ACDBBLOCKREPETAG
1070
     1
1071
       52
1005
130E38
  0
ARC
  5
130E39
  8
OBJECT
 10
2200.6872746716731
 20
-642.59190058988645
 30
0.0
 40
170.6350503965856
 50
210.0805041866343
 51
222.55865540815699
1001
ACDBBLOCKREPETAG
1070
     1
1071
       53
1005
130E39
  0
ARC
  5
130E3A
  8
OBJECT
 10
1799.312725328326
 20
-749.40809941010195
 30
0.0
 40
170.6350503965856
 50
30.080504186774089
 51
42.558655408447443
1001
ACDBBLOCKREPETAG
1070
     1
1071
       54
1005
130E3A
  0
ARC
  5
130E3B
  8
OBJECT
 10
1799.312725328326
 20
-642.59190058988645
 30
0.0
 40
170.6350503965856
 50
317.44134459155248
 51
329.91949581322592
1001
ACDBBLOCKREPETAG
1070
     1
1071
       55
1005
130E3B
  0
POINT
  5
130E3C
  8
DOTS
 10
2000.0
 20
-754.9999999999942
 30
0.0
1001
ACDBBLOCKREPETAG
1070
     1
1071
      184
1005
130E3C
  0
LINE
  5
130E3D
  8
OBJECT
 10
1867.0
 20
-261.99999999999909
 30
0.0
 11
1860.0
 21
-261.99999999999909
 31
0.0
1001
ACDBBLOCKREPETAG
1070
     1
1071
       47
1005
130E3D
  0
LINE
  5
130E3E
  8
OBJECT
 10
1860.0
 20
-261.99999999999909
 30
0.0
 11
1860.0
 21
-137.99999999999909
 31
0.0
1001
ACDBBLOCKREPETAG
1070
     1
1071
       48
1005
130E3E
  0
LINE
  5
130E3F
  8
OBJECT
 10
1860.0
 20
-137.99999999999909
 30
0.0
 11
1867.0
 21
-137.99999999999909
 31
0.0
1001
ACDBBLOCKREPETAG
1070
     1
1071
       49
1005
130E3F
  0
LINE
  5
130E40
  8
OBJECT
 10
1867.0
 20
-137.99999999999909
 30
0.0
 11
1867.0
 21
-261.99999999999909
 31
0.0
1001
ACDBBLOCKREPETAG
1070
     1
1071
       50
1005
130E40
  0
LINE
  5
130E41
  8
CENTER
 10
1845.0
 20
-199.99999999999909
 30
0.0
 11
1920.0
 21
-199.99999999999909
 31
0.0
1001
ACDBBLOCKREPETAG
1070
     1
1071
       51
1005
130E41
  0
LINE
  5
130E42
  8
OBJECT
 10
1867.0
 20
-258.99999999999909
 30
0.0
 11
1903.0
 21
-258.99999999999909
 31
0.0
1001
ACDBBLOCKREPETAG
1070
     1
1071
       52
1005
130E42
  0
LINE
  5
130E43
  8
OBJECT
 10
1903.0
 20
-258.99999999999909
 30
0.0
 11
1903.0
 21
-140.99999999999909
 31
0.0
1001
ACDBBLOCKREPETAG
1070
     1
1071
       53
1005
130E43
  0
LINE
  5
130E44
  8
OBJECT
 10
1903.0
 20
-140.99999999999909
 30
0.0
 11
1867.0
 21
-140.99999999999909
 31
0.0
1001
ACDBBLOCKREPETAG
1070
     1
1071
       54
1005
130E44
  0
LINE
  5
130E45
  8
OBJECT
 10
1907.0
 20
-254.49999999999909
 30
0.0
 11
1914.0
 21
-254.49999999999909
 31
0.0
1001
ACDBBLOCKREPETAG
1070
     1
1071
       55
1005
130E45
  0
LINE
  5
130E46
  8
OBJECT
 10
1914.0
 20
-145.49999999999909
 30
0.0
 11
1907.0
 21
-145.49999999999909
 31
0.0
1001
ACDBBLOCKREPETAG
1070
     1
1071
       56
1005
130E46
  0
LINE
  5
130E47
  8
OBJECT
 10
1907.0
 20
-145.49999999999909
 30
0.0
 11
1907.0
 21
-254.49999999999909
 31
0.0
1001
ACDBBLOCKREPETAG
1070
     1
1071
       57
1005
130E47
  0
LINE
  5
130E48
  8
OBJECT
 10
1903.0
 20
-258.99999999999909
 30
0.0
 11
1907.0
 21
-254.49999999999909
 31
0.0
1001
ACDBBLOCKREPETAG
1070
     1
1071
       58
1005
130E48
  0
LINE
  5
130E49
  8
OBJECT
 10
1903.0
 20
-140.99999999999909
 30
0.0
 11
1907.0
 21
-145.49999999999909
 31
0.0
1001
ACDBBLOCKREPETAG
1070
     1
1071
       59
1005
130E49
  0
LINE
  5
130E4A
  8
OBJECT
 10
1917.0
 20
-261.99999999999909
 30
0.0
 11
1920.0
 21
-261.99999999999909
 31
0.0
1001
ACDBBLOCKREPETAG
1070
     1
1071
       60
1005
130E4A
  0
ARC
  5
130E4B
  8
OBJECT
 10
1917.0
 20
-258.99999999999909
 30
0.0
 40
3.0
 50
180.0
 51
270.0
1001
ACDBBLOCKREPETAG
1070
     1
1071
       61
1005
130E4B
  0
LINE
  5
130E4C
  8
OBJECT
 10
1920.0
 20
-137.99999999999909
 30
0.0
 11
1917.0
 21
-137.99999999999909
 31
0.0
1001
ACDBBLOCKREPETAG
1070
     1
1071
       62
1005
130E4C
  0
ARC
  5
130E4D
  8
OBJECT
 10
1917.0
 20
-140.99999999999909
 30
0.0
 40
3.0
 50
90.0
 51
180.0
1001
ACDBBLOCKREPETAG
1070
     1
1071
       63
1005
130E4D
  0
LINE
  5
130E4E
  8
OBJECT
 10
1914.0
 20
-140.99999999999909
 30
0.0
 11
1914.0
 21
-258.99999999999909
 31
0.0
1001
ACDBBLOCKREPETAG
1070
     1
1071
       64
1005
130E4E
  0
LINE
  5
130E4F
  8
HIDDEN
 10
1912.0
 20
-244.49999999999909
 30
0.0
 11
1912.0
 21
-155.49999999999909
 31
0.0
1001
ACDBBLOCKREPETAG
1070
     1
1071
       65
1005
130E4F
  0
LINE
  5
130E50
  8
CENTER
 10
2000.0
 20
-300.99999999999898
 30
0.0
 11
2000.0
 21
-279.99999999999909
 31
0.0
1001
ACDBBLOCKREPETAG
1070
     1
1071
        0
1005
130E50
  0
LINE
  5
130E51
  8
OBJECT
 10
2062.0
 20
-283.0
 30
0.0
 11
2062.0
 21
-279.99999999999909
 31
0.0
1001
ACDBBLOCKREPETAG
1070
     1
1071
        1
1005
130E51
  0
ARC
  5
130E52
  8
OBJECT
 10
2059.0
 20
-283.0
 30
0.0
 40
3.0
 50
270.0
 51
0.0
1001
ACDBBLOCKREPETAG
1070
     1
1071
        2
1005
130E52
  0
LINE
  5
130E53
  8
OBJECT
 10
1938.0
 20
-279.99999999999909
 30
0.0
 11
1938.0
 21
-282.99999999999818
 31
0.0
1001
ACDBBLOCKREPETAG
1070
     1
1071
        3
1005
130E53
  0
ARC
  5
130E54
  8
OBJECT
 10
1941.0
 20
-282.99999999999818
 30
0.0
 40
3.0
 50
180.0
 51
270.0
1001
ACDBBLOCKREPETAG
1070
     1
1071
        4
1005
130E54
  0
LINE
  5
130E55
  8
OBJECT
 10
1941.0
 20
-285.99999999999818
 30
0.0
 11
2059.0
 21
-286.0
 31
0.0
1001
ACDBBLOCKREPETAG
1070
     1
1071
        5
1005
130E55
  0
LINE
  5
130E56
  8
OBJECT
 10
2133.0
 20
-137.99999999999909
 30
0.0
 11
2140.0
 21
-137.99999999999909
 31
0.0
1001
ACDBBLOCKREPETAG
1070
     1
1071
       47
1005
130E56
  0
LINE
  5
130E57
  8
OBJECT
 10
2140.0
 20
-137.99999999999909
 30
0.0
 11
2140.0
 21
-261.99999999999909
 31
0.0
1001
ACDBBLOCKREPETAG
1070
     1
1071
       48
1005
130E57
  0
LINE
  5
130E58
  8
OBJECT
 10
2140.0
 20
-261.99999999999909
 30
0.0
 11
2133.0
 21
-261.99999999999909
 31
0.0
1001
ACDBBLOCKREPETAG
1070
     1
1071
       49
1005
130E58
  0
LINE
  5
130E59
  8
OBJECT
 10
2133.0
 20
-261.99999999999909
 30
0.0
 11
2133.0
 21
-137.99999999999909
 31
0.0
1001
ACDBBLOCKREPETAG
1070
     1
1071
       50
1005
130E59
  0
LINE
  5
130E5A
  8
CENTER
 10
2155.0
 20
-199.99999999999909
 30
0.0
 11
2080.0
 21
-199.99999999999909
 31
0.0
1001
ACDBBLOCKREPETAG
1070
     1
1071
       51
1005
130E5A
  0
LINE
  5
130E5B
  8
OBJECT
 10
2133.0
 20
-140.99999999999909
 30
0.0
 11
2097.0
 21
-140.99999999999909
 31
0.0
1001
ACDBBLOCKREPETAG
1070
     1
1071
       52
1005
130E5B
  0
LINE
  5
130E5C
  8
OBJECT
 10
2097.0
 20
-140.99999999999909
 30
0.0
 11
2097.0
 21
-258.99999999999909
 31
0.0
1001
ACDBBLOCKREPETAG
1070
     1
1071
       53
1005
130E5C
  0
LINE
  5
130E5D
  8
OBJECT
 10
2097.0
 20
-258.99999999999909
 30
0.0
 11
2133.0
 21
-258.99999999999909
 31
0.0
1001
ACDBBLOCKREPETAG
1070
     1
1071
       54
1005
130E5D
  0
LINE
  5
130E5E
  8
OBJECT
 10
2093.0
 20
-145.49999999999909
 30
0.0
 11
2086.0
 21
-145.49999999999909
 31
0.0
1001
ACDBBLOCKREPETAG
1070
     1
1071
       55
1005
130E5E
  0
LINE
  5
130E5F
  8
OBJECT
 10
2086.0
 20
-254.49999999999909
 30
0.0
 11
2093.0
 21
-254.49999999999909
 31
0.0
1001
ACDBBLOCKREPETAG
1070
     1
1071
       56
1005
130E5F
  0
LINE
  5
130E60
  8
OBJECT
 10
2093.0
 20
-254.49999999999909
 30
0.0
 11
2093.0
 21
-145.49999999999909
 31
0.0
1001
ACDBBLOCKREPETAG
1070
     1
1071
       57
1005
130E60
  0
LINE
  5
130E61
  8
OBJECT
 10
2097.0
 20
-140.99999999999909
 30
0.0
 11
2093.0
 21
-145.49999999999909
 31
0.0
1001
ACDBBLOCKREPETAG
1070
     1
1071
       58
1005
130E61
  0
LINE
  5
130E62
  8
OBJECT
 10
2097.0
 20
-258.99999999999909
 30
0.0
 11
2093.0
 21
-254.49999999999909
 31
0.0
1001
ACDBBLOCKREPETAG
1070
     1
1071
       59
1005
130E62
  0
LINE
  5
130E63
  8
OBJECT
 10
2083.0
 20
-137.99999999999909
 30
0.0
 11
2080.0
 21
-137.99999999999909
 31
0.0
1001
ACDBBLOCKREPETAG
1070
     1
1071
       60
1005
130E63
  0
ARC
  5
130E64
  8
OBJECT
 10
2083.0
 20
-140.99999999999909
 30
0.0
 40
3.0
 50
0.0
 51
90.0
1001
ACDBBLOCKREPETAG
1070
     1
1071
       61
1005
130E64
  0
LINE
  5
130E65
  8
OBJECT
 10
2080.0
 20
-261.99999999999909
 30
0.0
 11
2083.0
 21
-261.99999999999909
 31
0.0
1001
ACDBBLOCKREPETAG
1070
     1
1071
       62
1005
130E65
  0
ARC
  5
130E66
  8
OBJECT
 10
2083.0
 20
-258.99999999999909
 30
0.0
 40
3.0
 50
270.0
 51
0.0
1001
ACDBBLOCKREPETAG
1070
     1
1071
       63
1005
130E66
  0
LINE
  5
130E67
  8
OBJECT
 10
2086.0
 20
-258.99999999999909
 30
0.0
 11
2086.0
 21
-140.99999999999909
 31
0.0
1001
ACDBBLOCKREPETAG
1070
     1
1071
       64
1005
130E67
  0
LINE
  5
130E68
  8
HIDDEN
 10
2088.0
 20
-155.49999999999909
 30
0.0
 11
2088.0
 21
-244.49999999999909
 31
0.0
1001
ACDBBLOCKREPETAG
1070
     1
1071
       65
1005
130E68
  0
LINE
  5
130E69
  8
OBJECT
 10
1867.0
 20
-634.0
 30
0.0
 11
1860.0
 21
-634.0
 31
0.0
1001
ACDBBLOCKREPETAG
1070
     1
1071
       45
1005
130E69
  0
LINE
  5
130E6A
  8
OBJECT
 10
1860.0
 20
-634.0
 30
0.0
 11
1860.0
 21
-755.0
 31
0.0
1001
ACDBBLOCKREPETAG
1070
     1
1071
       46
1005
130E6A
  0
LINE
  5
130E6B
  8
OBJECT
 10
1867.0
 20
-755.0
 30
0.0
 11
1867.0
 21
-634.0
 31
0.0
1001
ACDBBLOCKREPETAG
1070
     1
1071
       47
1005
130E6B
  0
LINE
  5
130E6C
  8
CENTER
 10
1845.0
 20
-696.0
 30
0.0
 11
1929.0
 21
-696.0
 31
0.0
1001
ACDBBLOCKREPETAG
1070
     1
1071
       48
1005
130E6C
  0
LINE
  5
130E6D
  8
OBJECT
 10
1867.0
 20
-637.0
 30
0.0
 11
1903.0
 21
-637.0
 31
0.0
1001
ACDBBLOCKREPETAG
1070
     1
1071
       49
1005
130E6D
  0
LINE
  5
130E6E
  8
OBJECT
 10
1903.0
 20
-637.0
 30
0.0
 11
1903.0
 21
-755.0
 31
0.0
1001
ACDBBLOCKREPETAG
1070
     1
1071
       50
1005
130E6E
  0
LINE
  5
130E6F
  8
OBJECT
 10
1903.0
 20
-755.0
 30
0.0
 11
1860.0
 21
-755.0
 31
0.0
1001
ACDBBLOCKREPETAG
1070
     1
1071
       51
1005
130E6F
  0
LINE
  5
130E70
  8
OBJECT
 10
1907.0
 20
-641.5
 30
0.0
 11
1914.0
 21
-641.5
 31
0.0
1001
ACDBBLOCKREPETAG
1070
     1
1071
       52
1005
130E70
  0
LINE
  5
130E71
  8
OBJECT
 10
1914.0
 20
-750.49999999999989
 30
0.0
 11
1907.0
 21
-750.49999999999989
 31
0.0
1001
ACDBBLOCKREPETAG
1070
     1
1071
       53
1005
130E71
  0
LINE
  5
130E72
  8
OBJECT
 10
1907.0
 20
-750.49999999999989
 30
0.0
 11
1907.0
 21
-641.5
 31
0.0
1001
ACDBBLOCKREPETAG
1070
     1
1071
       54
1005
130E72
  0
LINE
  5
130E73
  8
OBJECT
 10
1903.0
 20
-637.0
 30
0.0
 11
1907.0
 21
-641.5
 31
0.0
1001
ACDBBLOCKREPETAG
1070
     1
1071
       55
1005
130E73
  0
LINE
  5
130E74
  8
OBJECT
 10
1903.0
 20
-755.0
 30
0.0
 11
1907.0
 21
-750.49999999999989
 31
0.0
1001
ACDBBLOCKREPETAG
1070
     1
1071
       56
1005
130E74
  0
LINE
  5
130E75
  8
OBJECT
 10
1917.0
 20
-634.0
 30
0.0
 11
1920.0
 21
-634.0
 31
0.0
1001
ACDBBLOCKREPETAG
1070
     1
1071
       57
1005
130E75
  0
ARC
  5
130E76
  8
OBJECT
 10
1917.0
 20
-637.0
 30
0.0
 40
3.0
 50
90.0
 51
180.0
1001
ACDBBLOCKREPETAG
1070
     1
1071
       58
1005
130E76
  0
LINE
  5
130E77
  8
OBJECT
 10
1920.0
 20
-758.0
 30
0.0
 11
1917.0
 21
-758.0
 31
0.0
1001
ACDBBLOCKREPETAG
1070
     1
1071
       59
1005
130E77
  0
ARC
  5
130E78
  8
OBJECT
 10
1917.0
 20
-755.0
 30
0.0
 40
3.0
 50
180.0
 51
270.0
1001
ACDBBLOCKREPETAG
1070
     1
1071
       60
1005
130E78
  0
LINE
  5
130E79
  8
OBJECT
 10
1914.0
 20
-755.0
 30
0.0
 11
1914.0
 21
-637.0
 31
0.0
1001
ACDBBLOCKREPETAG
1070
     1
1071
       61
1005
130E79
  0
LINE
  5
130E7A
  8
HIDDEN
 10
1912.0
 20
-651.5
 30
0.0
 11
1912.0
 21
-740.5
 31
0.0
1001
ACDBBLOCKREPETAG
1070
     1
1071
       63
1005
130E7A
  0
CIRCLE
  5
130E7B
  8
OBJECT
 10
2000.0
 20
-696.0
 30
0.0
 40
62.0
1001
ACDBBLOCKREPETAG
1070
     1
1071
        0
1005
130E7B
  0
LINE
  5
130E7C
  8
OBJECT
 10
2133.0
 20
-634.0
 30
0.0
 11
2140.0
 21
-634.0
 31
0.0
1001
ACDBBLOCKREPETAG
1070
     1
1071
       45
1005
130E7C
  0
LINE
  5
130E7D
  8
OBJECT
 10
2140.0
 20
-634.0
 30
0.0
 11
2140.0
 21
-755.0
 31
0.0
1001
ACDBBLOCKREPETAG
1070
     1
1071
       46
1005
130E7D
  0
LINE
  5
130E7E
  8
OBJECT
 10
2133.0
 20
-755.0
 30
0.0
 11
2133.0
 21
-634.0
 31
0.0
1001
ACDBBLOCKREPETAG
1070
     1
1071
       47
1005
130E7E
  0
LINE
  5
130E7F
  8
CENTER
 10
2155.0
 20
-696.0
 30
0.0
 11
2071.0
 21
-696.0
 31
0.0
1001
ACDBBLOCKREPETAG
1070
     1
1071
       48
1005
130E7F
  0
LINE
  5
130E80
  8
OBJECT
 10
2133.0
 20
-637.0
 30
0.0
 11
2097.0
 21
-637.0
 31
0.0
1001
ACDBBLOCKREPETAG
1070
     1
1071
       49
1005
130E80
  0
LINE
  5
130E81
  8
OBJECT
 10
2097.0
 20
-637.0
 30
0.0
 11
2097.0
 21
-755.0
 31
0.0
1001
ACDBBLOCKREPETAG
1070
     1
1071
       50
1005
130E81
  0
LINE
  5
130E82
  8
OBJECT
 10
2097.0
 20
-755.0
 30
0.0
 11
2140.0
 21
-755.0
 31
0.0
1001
ACDBBLOCKREPETAG
1070
     1
1071
       51
1005
130E82
  0
LINE
  5
130E83
  8
OBJECT
 10
2093.0
 20
-641.5
 30
0.0
 11
2086.0
 21
-641.5
 31
0.0
1001
ACDBBLOCKREPETAG
1070
     1
1071
       52
1005
130E83
  0
LINE
  5
130E84
  8
OBJECT
 10
2086.0
 20
-750.49999999999989
 30
0.0
 11
2093.0
 21
-750.49999999999989
 31
0.0
1001
ACDBBLOCKREPETAG
1070
     1
1071
       53
1005
130E84
  0
LINE
  5
130E85
  8
OBJECT
 10
2093.0
 20
-750.49999999999989
 30
0.0
 11
2093.0
 21
-641.5
 31
0.0
1001
ACDBBLOCKREPETAG
1070
     1
1071
       54
1005
130E85
  0
LINE
  5
130E86
  8
OBJECT
 10
2097.0
 20
-637.0
 30
0.0
 11
2093.0
 21
-641.5
 31
0.0
1001
ACDBBLOCKREPETAG
1070
     1
1071
       55
1005
130E86
  0
LINE
  5
130E87
  8
OBJECT
 10
2097.0
 20
-755.0
 30
0.0
 11
2093.0
 21
-750.49999999999989
 31
0.0
1001
ACDBBLOCKREPETAG
1070
     1
1071
       56
1005
130E87
  0
LINE
  5
130E88
  8
OBJECT
 10
2083.0
 20
-634.0
 30
0.0
 11
2080.0
 21
-634.0
 31
0.0
1001
ACDBBLOCKREPETAG
1070
     1
1071
       57
1005
130E88
  0
ARC
  5
130E89
  8
OBJECT
 10
2083.0
 20
-637.0
 30
0.0
 40
3.0
 50
0.0
 51
90.0
1001
ACDBBLOCKREPETAG
1070
     1
1071
       58
1005
130E89
  0
LINE
  5
130E8A
  8
OBJECT
 10
2080.0
 20
-758.0
 30
0.0
 11
2083.0
 21
-758.0
 31
0.0
1001
ACDBBLOCKREPETAG
1070
     1
1071
       59
1005
130E8A
  0
ARC
  5
130E8B
  8
OBJECT
 10
2083.0
 20
-755.0
 30
0.0
 40
3.0
 50
270.0
 51
0.0
1001
ACDBBLOCKREPETAG
1070
     1
1071
       60
1005
130E8B
  0
LINE
  5
130E8C
  8
OBJECT
 10
2086.0
 20
-755.0
 30
0.0
 11
2086.0
 21
-637.0
 31
0.0
1001
ACDBBLOCKREPETAG
1070
     1
1071
       61
1005
130E8C
  0
LINE
  5
130E8D
  8
HIDDEN
 10
2088.0
 20
-651.5
 30
0.0
 11
2088.0
 21
-740.5
 31
0.0
1001
ACDBBLOCKREPETAG
1070
     1
1071
       63
1005
130E8D
  0
TEXT
  5
130E8E
  8
SLIM
 10
126.85714285708239
 20
-443.99999999984919
 30
0.0
 40
48.0
  1
B101
 41
0.75
1001
ACDBBLOCKREPETAG
1070
     1
1071
      119
1005
12F953
  0
TEXT
  5
130E8F
  8
SLIM
 10
0.0000035665234464
 20
24.000004585317601
 30
0.0
 40
79.999999999972701
  1
枝管バリエーション
 41
0.75
1001
ACDBBLOCKREPETAG
1070
     1
1071
      119
1005
12F952
  0
TEXT
  5
130E90
  8
SLIM
 10
-18.199999999993789
 20
-2395.9999999991828
 30
0.0
 40
51.999999999982258
  1
（特）：特注品。対向枝への排水の流入
 41
0.75
1001
ACDBBLOCKREPETAG
1070
     1
1071
      118
1005
12F951
  0
TEXT
  5
130E91
  8
SLIM
 10
0.0
 20
-2465.3333333324931
 30
0.0
 40
51.999999999982258
  1
が無いことを確認した場合のみ製作。
 41
0.75
1001
ACDBBLOCKREPETAG
1070
     1
1071
      118
1005
12F951
  0
LINE
  5
130E92
  8
OBJECT
 10
222.99999999861211
 20
-328.99999999770631
 30
0.0
 11
222.99999999861211
 21
-335.99999999770631
 31
0.0
1001
ACDBBLOCKREPETAG
1070
     1
1071
        0
1005
130E92
  0
LINE
  5
130E93
  8
OBJECT
 10
222.99999999861211
 20
-335.99999999770631
 30
0.0
 11
128.99999999861211
 21
-335.99999999770631
 31
0.0
1001
ACDBBLOCKREPETAG
1070
     1
1071
        1
1005
130E93
  0
LINE
  5
130E94
  8
OBJECT
 10
128.99999999861211
 20
-335.99999999770631
 30
0.0
 11
128.99999999861211
 21
-328.99999999770631
 31
0.0
1001
ACDBBLOCKREPETAG
1070
     1
1071
        2
1005
130E94
  0
LINE
  5
130E95
  8
OBJECT
 10
128.99999999861211
 20
-328.99999999770631
 30
0.0
 11
222.99999999861211
 21
-328.99999999770631
 31
0.0
1001
ACDBBLOCKREPETAG
1070
     1
1071
        3
1005
130E95
  0
LINE
  5
130E96
  8
OBJECT
 10
219.99999999861211
 20
-328.99999999770631
 30
0.0
 11
219.99999999861211
 21
-292.99999999770631
 31
0.0
1001
ACDBBLOCKREPETAG
1070
     1
1071
        4
1005
130E96
  0
LINE
  5
130E97
  8
OBJECT
 10
219.99999999861211
 20
-292.99999999770631
 30
0.0
 11
131.99999999861211
 21
-292.99999999770631
 31
0.0
1001
ACDBBLOCKREPETAG
1070
     1
1071
        5
1005
130E97
  0
LINE
  5
130E98
  8
OBJECT
 10
131.99999999861211
 20
-292.99999999770631
 30
0.0
 11
131.99999999861211
 21
-328.99999999770631
 31
0.0
1001
ACDBBLOCKREPETAG
1070
     1
1071
        6
1005
130E98
  0
LINE
  5
130E99
  8
OBJECT
 10
215.49999999861211
 20
-288.9999999977062
 30
0.0
 11
215.49999999861211
 21
-281.99999999770631
 31
0.0
1001
ACDBBLOCKREPETAG
1070
     1
1071
        7
1005
130E99
  0
LINE
  5
130E9A
  8
OBJECT
 10
136.49999999861211
 20
-281.99999999770631
 30
0.0
 11
136.49999999861211
 21
-288.9999999977062
 31
0.0
1001
ACDBBLOCKREPETAG
1070
     1
1071
        8
1005
130E9A
  0
LINE
  5
130E9B
  8
OBJECT
 10
136.49999999861211
 20
-288.9999999977062
 30
0.0
 11
215.49999999861211
 21
-288.9999999977062
 31
0.0
1001
ACDBBLOCKREPETAG
1070
     1
1071
        9
1005
130E9B
  0
LINE
  5
130E9C
  8
OBJECT
 10
219.99999999861211
 20
-292.99999999770631
 30
0.0
 11
215.49999999861211
 21
-288.9999999977062
 31
0.0
1001
ACDBBLOCKREPETAG
1070
     1
1071
       10
1005
130E9C
  0
LINE
  5
130E9D
  8
OBJECT
 10
131.99999999861211
 20
-292.99999999770631
 30
0.0
 11
136.49999999861211
 21
-288.9999999977062
 31
0.0
1001
ACDBBLOCKREPETAG
1070
     1
1071
       11
1005
130E9D
  0
LINE
  5
130E9E
  8
OBJECT
 10
237.99999999861211
 20
-278.99999999770722
 30
0.0
 11
237.99999999861211
 21
-275.99999999770631
 31
0.0
1001
ACDBBLOCKREPETAG
1070
     1
1071
       12
1005
130E9E
  0
ARC
  5
130E9F
  8
OBJECT
 10
234.99999999861211
 20
-278.99999999770722
 30
0.0
 40
3.0
 50
270.0
 51
0.0
1001
ACDBBLOCKREPETAG
1070
     1
1071
       13
1005
130E9F
  0
LINE
  5
130EA0
  8
OBJECT
 10
113.9999999986121
 20
-275.99999999770631
 30
0.0
 11
113.9999999986121
 21
-278.99999999770529
 31
0.0
1001
ACDBBLOCKREPETAG
1070
     1
1071
       14
1005
130EA0
  0
ARC
  5
130EA1
  8
OBJECT
 10
116.9999999986121
 20
-278.99999999770529
 30
0.0
 40
3.0
 50
180.0
 51
270.0
1001
ACDBBLOCKREPETAG
1070
     1
1071
       15
1005
130EA1
  0
LINE
  5
130EA2
  8
OBJECT
 10
116.9999999986121
 20
-281.99999999770529
 30
0.0
 11
234.99999999861211
 21
-281.99999999770711
 31
0.0
1001
ACDBBLOCKREPETAG
1070
     1
1071
       16
1005
130EA2
  0
INSERT
  5
130EA3
  8
OBJECT
  2
*U59
 10
0.0
 20
0.0
 30
0.0
  0
LINE
  5
130EA4
  8
HIDDEN
 10
205.99999999861211
 20
-283.99999999770631
 30
0.0
 11
145.99999999861211
 21
-283.99999999770631
 31
0.0
1001
ACDBBLOCKREPETAG
1070
     1
1071
      424
1005
130EA4
  0
LINE
  5
130EA5
  8
OBJECT
 10
258.99999999861211
 20
-257.9999999977062
 30
0.0
 11
255.99999999861211
 21
-257.9999999977062
 31
0.0
1001
ACDBBLOCKREPETAG
1070
     1
1071
      418
1005
130EA5
  0
ARC
  5
130EA6
  8
OBJECT
 10
258.99999999861211
 20
-254.99999999770631
 30
0.0
 40
3.0
 50
270.0
 51
0.0
1001
ACDBBLOCKREPETAG
1070
     1
1071
      419
1005
130EA6
  0
LINE
  5
130EA7
  8
OBJECT
 10
255.99999999861211
 20
-133.9999999977062
 30
0.0
 11
258.99999999861211
 21
-133.9999999977062
 31
0.0
1001
ACDBBLOCKREPETAG
1070
     1
1071
      420
1005
130EA7
  0
ARC
  5
130EA8
  8
OBJECT
 10
258.99999999861211
 20
-136.9999999977062
 30
0.0
 40
3.0
 50
0.0
 51
90.0
1001
ACDBBLOCKREPETAG
1070
     1
1071
      421
1005
130EA8
  0
LINE
  5
130EA9
  8
OBJECT
 10
261.99999999861211
 20
-136.9999999977062
 30
0.0
 11
261.99999999861211
 21
-254.99999999770631
 31
0.0
1001
ACDBBLOCKREPETAG
1070
     1
1071
      422
1005
130EA9
  0
INSERT
  5
130EAA
  8
OBJECT
  2
*U60
 10
0.0
 20
0.0
 30
0.0
  0
LINE
  5
130EAB
  8
OBJECT
 10
128.99999999861211
 20
-62.999999997706247
 30
0.0
 11
128.99999999861211
 21
-55.999999997706247
 31
0.0
1001
ACDBBLOCKREPETAG
1070
     1
1071
        1
1005
130EAB
  0
LINE
  5
130EAC
  8
OBJECT
 10
128.99999999861211
 20
-55.999999997706247
 30
0.0
 11
222.99999999861211
 21
-55.999999997706247
 31
0.0
1001
ACDBBLOCKREPETAG
1070
     1
1071
        2
1005
130EAC
  0
LINE
  5
130EAD
  8
OBJECT
 10
222.99999999861211
 20
-55.999999997706247
 30
0.0
 11
222.99999999861211
 21
-62.999999997706247
 31
0.0
1001
ACDBBLOCKREPETAG
1070
     1
1071
        3
1005
130EAD
  0
LINE
  5
130EAE
  8
OBJECT
 10
222.99999999861211
 20
-62.999999997706247
 30
0.0
 11
128.99999999861211
 21
-62.999999997706247
 31
0.0
1001
ACDBBLOCKREPETAG
1070
     1
1071
        4
1005
130EAE
  0
LINE
  5
130EAF
  8
OBJECT
 10
131.99999999861211
 20
-62.999999997706247
 30
0.0
 11
131.99999999861211
 21
-98.99999999770624
 31
0.0
1001
ACDBBLOCKREPETAG
1070
     1
1071
        5
1005
130EAF
  0
LINE
  5
130EB0
  8
OBJECT
 10
131.99999999861211
 20
-98.99999999770624
 30
0.0
 11
219.99999999861211
 21
-98.99999999770624
 31
0.0
1001
ACDBBLOCKREPETAG
1070
     1
1071
        6
1005
130EB0
  0
LINE
  5
130EB1
  8
OBJECT
 10
219.99999999861211
 20
-98.99999999770624
 30
0.0
 11
219.99999999861211
 21
-62.999999997706247
 31
0.0
1001
ACDBBLOCKREPETAG
1070
     1
1071
        7
1005
130EB1
  0
LINE
  5
130EB2
  8
OBJECT
 10
136.49999999861211
 20
-102.9999999977062
 30
0.0
 11
136.49999999861211
 21
-109.9999999977062
 31
0.0
1001
ACDBBLOCKREPETAG
1070
     1
1071
        8
1005
130EB2
  0
LINE
  5
130EB3
  8
OBJECT
 10
215.49999999861211
 20
-109.9999999977062
 30
0.0
 11
215.49999999861211
 21
-102.9999999977062
 31
0.0
1001
ACDBBLOCKREPETAG
1070
     1
1071
        9
1005
130EB3
  0
LINE
  5
130EB4
  8
OBJECT
 10
215.49999999861211
 20
-102.9999999977062
 30
0.0
 11
136.49999999861211
 21
-102.9999999977062
 31
0.0
1001
ACDBBLOCKREPETAG
1070
     1
1071
       10
1005
130EB4
  0
LINE
  5
130EB5
  8
OBJECT
 10
131.99999999861211
 20
-98.99999999770624
 30
0.0
 11
136.49999999861211
 21
-102.9999999977062
 31
0.0
1001
ACDBBLOCKREPETAG
1070
     1
1071
       11
1005
130EB5
  0
LINE
  5
130EB6
  8
OBJECT
 10
219.99999999861211
 20
-98.99999999770624
 30
0.0
 11
215.49999999861211
 21
-102.9999999977062
 31
0.0
1001
ACDBBLOCKREPETAG
1070
     1
1071
       12
1005
130EB6
  0
LINE
  5
130EB7
  8
OBJECT
 10
113.9999999986121
 20
-112.9999999977053
 30
0.0
 11
113.9999999986121
 21
-115.9999999977062
 31
0.0
1001
ACDBBLOCKREPETAG
1070
     1
1071
       13
1005
130EB7
  0
ARC
  5
130EB8
  8
OBJECT
 10
116.9999999986121
 20
-112.9999999977053
 30
0.0
 40
3.0
 50
90.0
 51
180.0
1001
ACDBBLOCKREPETAG
1070
     1
1071
       14
1005
130EB8
  0
LINE
  5
130EB9
  8
OBJECT
 10
237.99999999861211
 20
-115.9999999977062
 30
0.0
 11
237.99999999861211
 21
-112.99999999770711
 31
0.0
1001
ACDBBLOCKREPETAG
1070
     1
1071
       15
1005
130EB9
  0
ARC
  5
130EBA
  8
OBJECT
 10
234.99999999861211
 20
-112.99999999770711
 30
0.0
 40
3.0
 50
0.0
 51
90.0
1001
ACDBBLOCKREPETAG
1070
     1
1071
       16
1005
130EBA
  0
LINE
  5
130EBB
  8
OBJECT
 10
234.99999999861211
 20
-109.99999999770711
 30
0.0
 11
116.9999999986121
 21
-109.9999999977053
 31
0.0
1001
ACDBBLOCKREPETAG
1070
     1
1071
       17
1005
130EBB
  0
LINE
  5
130EBC
  8
HIDDEN
 10
145.99999999861211
 20
-107.9999999977062
 30
0.0
 11
205.99999999861211
 21
-107.9999999977062
 31
0.0
1001
ACDBBLOCKREPETAG
1070
     1
1071
      420
1005
130EBC
  0
TEXT
  5
130EBD
  8
SLIM
 10
1837.75
 20
282.50000000000011
 30
0.0
 40
35.0
  1
（枝管サイズ毎に寸法が異なります。管底の位置は全サイズで同じです）
 41
0.75
  0
TEXT
  5
130EBE
  8
SLIM
 10
1850.0
 20
532.5
 30
0.0
 40
75.0
  1
側面図の代表機種
 41
0.75
  0
TEXT
  5
130EBF
  8
SLIM
 10
1850.0
 20
369.99999999999989
 30
0.0
 40
100.0
  1
4SR-B303（特注品）
 41
0.75
  0
TEXT
  5
130EC0
  8
SLIM
 10
0.0
 20
370.0
 30
0.0
 40
100.0
  1
4SR-BX0X-S
 41
0.75
  0
LINE
  5
130EC1
  8
OBJECT
 10
4923.0
 20
-3395.9999999999968
 30
0.0
 11
4923.0
 21
-3374.9999999999968
 31
0.0
1001
ACDBBLOCKREPETAG
1070
     1
1071
        0
1005
130EC1
  0
LINE
  5
130EC2
  8
OBJECT
 10
4923.0
 20
-3374.9999999999968
 30
0.0
 11
5077.0
 21
-3374.9999999999968
 31
0.0
1001
ACDBBLOCKREPETAG
1070
     1
1071
        1
1005
130EC2
  0
LINE
  5
130EC3
  8
HIDDEN
 10
4943.0
 20
-3444.9999999999968
 30
0.0
 11
5057.0
 21
-3444.9999999999968
 31
0.0
1001
ACDBBLOCKREPETAG
1070
     1
1071
        2
1005
130EC3
  0
LINE
  5
130EC4
  8
OBJECT
 10
5077.0
 20
-3374.9999999999968
 30
0.0
 11
5077.0
 21
-3395.9999999999968
 31
0.0
1001
ACDBBLOCKREPETAG
1070
     1
1071
        3
1005
130EC4
  0
LINE
  5
130EC5
  8
OBJECT
 10
5077.0
 20
-3395.9999999999968
 30
0.0
 11
4923.0
 21
-3395.9999999999968
 31
0.0
1001
ACDBBLOCKREPETAG
1070
     1
1071
        4
1005
130EC5
  0
LINE
  5
130EC6
  8
CENTER
 10
5000.0
 20
-3359.9999999999968
 30
0.0
 11
5000.0
 21
-3594.9999999999968
 31
0.0
1001
ACDBBLOCKREPETAG
1070
     1
1071
        5
1005
130EC6
  0
LINE
  5
130EC7
  8
OBJECT
 10
4925.0
 20
-3458.9999999999968
 30
0.0
 11
4925.0
 21
-3582.9999999999968
 31
0.0
1001
ACDBBLOCKREPETAG
1070
     1
1071
        6
1005
130EC7
  0
LINE
  5
130EC8
  8
OBJECT
 10
4928.0
 20
-3395.9999999999968
 30
0.0
 11
4928.0
 21
-3458.9999999999968
 31
0.0
1001
ACDBBLOCKREPETAG
1070
     1
1071
        7
1005
130EC8
  0
LINE
  5
130EC9
  8
OBJECT
 10
5072.0
 20
-3458.9999999999968
 30
0.0
 11
5072.0
 21
-3395.9999999999968
 31
0.0
1001
ACDBBLOCKREPETAG
1070
     1
1071
        8
1005
130EC9
  0
LINE
  5
130ECA
  8
OBJECT
 10
5074.9999999997999
 20
-3582.9999999997758
 30
0.0
 11
5080.0
 21
-3582.9999999999968
 31
0.0
1001
ACDBBLOCKREPETAG
1070
     1
1071
        9
1005
130ECA
  0
LINE
  5
130ECB
  8
OBJECT
 10
5080.0
 20
-3458.9999999999968
 30
0.0
 11
4925.0
 21
-3458.9999999999968
 31
0.0
1001
ACDBBLOCKREPETAG
1070
     1
1071
       10
1005
130ECB
  0
ARC
  5
130ECC
  8
OBJECT
 10
5200.6872746716726
 20
-3574.408099410105
 30
0.0
 40
170.6350503965856
 50
137.44134459184301
 51
149.9194958133665
1001
ACDBBLOCKREPETAG
1070
     1
1071
       15
1005
130ECC
  0
ARC
  5
130ECD
  8
OBJECT
 10
5118.8455987040506
 20
-3530.8827266953631
 30
0.0
 40
78.072222021763665
 50
147.4551531037684
 51
164.66365997719291
1001
ACDBBLOCKREPETAG
1070
     1
1071
       16
1005
130ECD
  0
ARC
  5
130ECE
  8
OBJECT
 10
5085.7554349608727
 20
-3520.9999999999968
 30
0.0
 40
43.55353926885617
 50
165.6884523008477
 51
194.3115476991523
1001
ACDBBLOCKREPETAG
1070
     1
1071
       17
1005
130ECE
  0
ARC
  5
130ECF
  8
OBJECT
 10
5200.6872746716726
 20
-3467.5919005898891
 30
0.0
 40
170.6350503965856
 50
210.0805041866335
 51
222.55865540815699
1001
ACDBBLOCKREPETAG
1070
     1
1071
       18
1005
130ECF
  0
ARC
  5
130ED0
  8
OBJECT
 10
5118.8455987040506
 20
-3511.1172733046319
 30
0.0
 40
78.072222021763665
 50
195.33634002280701
 51
212.5448468962316
1001
ACDBBLOCKREPETAG
1070
     1
1071
       19
1005
130ED0
  0
POINT
  5
130ED1
  8
DOTS
 10
5000.0
 20
-3579.9999999999968
 30
0.0
1001
ACDBBLOCKREPETAG
1070
     1
1071
      186
1005
130ED1
  0
LINE
  5
130ED2
  8
OBJECT
 10
4323.0
 20
-3395.9999999999968
 30
0.0
 11
4323.0
 21
-3374.9999999999968
 31
0.0
1001
ACDBBLOCKREPETAG
1070
     1
1071
       20
1005
130ED2
  0
LINE
  5
130ED3
  8
OBJECT
 10
4323.0
 20
-3374.9999999999968
 30
0.0
 11
4477.0
 21
-3374.9999999999968
 31
0.0
1001
ACDBBLOCKREPETAG
1070
     1
1071
       21
1005
130ED3
  0
LINE
  5
130ED4
  8
HIDDEN
 10
4343.0
 20
-3444.9999999999968
 30
0.0
 11
4457.0
 21
-3444.9999999999968
 31
0.0
1001
ACDBBLOCKREPETAG
1070
     1
1071
       22
1005
130ED4
  0
LINE
  5
130ED5
  8
OBJECT
 10
4477.0
 20
-3374.9999999999968
 30
0.0
 11
4477.0
 21
-3395.9999999999968
 31
0.0
1001
ACDBBLOCKREPETAG
1070
     1
1071
       23
1005
130ED5
  0
LINE
  5
130ED6
  8
OBJECT
 10
4477.0
 20
-3395.9999999999968
 30
0.0
 11
4323.0
 21
-3395.9999999999968
 31
0.0
1001
ACDBBLOCKREPETAG
1070
     1
1071
       24
1005
130ED6
  0
LINE
  5
130ED7
  8
CENTER
 10
4400.0
 20
-3359.9999999999968
 30
0.0
 11
4400.0
 21
-3594.9999999999968
 31
0.0
1001
ACDBBLOCKREPETAG
1070
     1
1071
       25
1005
130ED7
  0
LINE
  5
130ED8
  8
OBJECT
 10
4325.0
 20
-3458.9999999999968
 30
0.0
 11
4325.0
 21
-3582.9999999999968
 31
0.0
1001
ACDBBLOCKREPETAG
1070
     1
1071
       26
1005
130ED8
  0
LINE
  5
130ED9
  8
OBJECT
 10
4328.0
 20
-3395.9999999999968
 30
0.0
 11
4328.0
 21
-3458.9999999999968
 31
0.0
1001
ACDBBLOCKREPETAG
1070
     1
1071
       27
1005
130ED9
  0
LINE
  5
130EDA
  8
OBJECT
 10
4472.0
 20
-3458.9999999999968
 30
0.0
 11
4472.0
 21
-3395.9999999999968
 31
0.0
1001
ACDBBLOCKREPETAG
1070
     1
1071
       28
1005
130EDA
  0
LINE
  5
130EDB
  8
OBJECT
 10
4475.0
 20
-3458.9999999999968
 30
0.0
 11
4325.0
 21
-3458.9999999999968
 31
0.0
1001
ACDBBLOCKREPETAG
1070
     1
1071
       30
1005
130EDB
  0
LINE
  5
130EDC
  8
OBJECT
 10
4475.0
 20
-3458.9999999999968
 30
0.0
 11
4475.0
 21
-3582.9999999999968
 31
0.0
1001
ACDBBLOCKREPETAG
1070
     1
1071
       34
1005
130EDC
  0
POINT
  5
130EDD
  8
DOTS
 10
4400.0
 20
-3579.9999999999968
 30
0.0
1001
ACDBBLOCKREPETAG
1070
     1
1071
      187
1005
130EDD
  0
LINE
  5
130EDE
  8
OBJECT
 10
3923.0
 20
-3395.9999999999968
 30
0.0
 11
3923.0
 21
-3374.9999999999968
 31
0.0
1001
ACDBBLOCKREPETAG
1070
     1
1071
        0
1005
130EDE
  0
LINE
  5
130EDF
  8
OBJECT
 10
3923.0
 20
-3374.9999999999968
 30
0.0
 11
4077.0
 21
-3374.9999999999968
 31
0.0
1001
ACDBBLOCKREPETAG
1070
     1
1071
        1
1005
130EDF
  0
LINE
  5
130EE0
  8
HIDDEN
 10
3943.0
 20
-3444.9999999999968
 30
0.0
 11
4057.0
 21
-3444.9999999999968
 31
0.0
1001
ACDBBLOCKREPETAG
1070
     1
1071
        2
1005
130EE0
  0
LINE
  5
130EE1
  8
OBJECT
 10
4077.0
 20
-3374.9999999999968
 30
0.0
 11
4077.0
 21
-3395.9999999999968
 31
0.0
1001
ACDBBLOCKREPETAG
1070
     1
1071
        3
1005
130EE1
  0
LINE
  5
130EE2
  8
OBJECT
 10
4077.0
 20
-3395.9999999999968
 30
0.0
 11
3923.0
 21
-3395.9999999999968
 31
0.0
1001
ACDBBLOCKREPETAG
1070
     1
1071
        4
1005
130EE2
  0
LINE
  5
130EE3
  8
CENTER
 10
4000.0
 20
-3359.9999999999968
 30
0.0
 11
4000.0
 21
-3594.9999999999968
 31
0.0
1001
ACDBBLOCKREPETAG
1070
     1
1071
        5
1005
130EE3
  0
LINE
  5
130EE4
  8
OBJECT
 10
3925.0
 20
-3458.9999999999968
 30
0.0
 11
3925.0
 21
-3582.9999999999968
 31
0.0
1001
ACDBBLOCKREPETAG
1070
     1
1071
        6
1005
130EE4
  0
LINE
  5
130EE5
  8
OBJECT
 10
3928.0
 20
-3395.9999999999968
 30
0.0
 11
3928.0
 21
-3458.9999999999968
 31
0.0
1001
ACDBBLOCKREPETAG
1070
     1
1071
        7
1005
130EE5
  0
LINE
  5
130EE6
  8
OBJECT
 10
4072.0
 20
-3458.9999999999968
 30
0.0
 11
4072.0
 21
-3395.9999999999968
 31
0.0
1001
ACDBBLOCKREPETAG
1070
     1
1071
        8
1005
130EE6
  0
LINE
  5
130EE7
  8
OBJECT
 10
4074.999999999799
 20
-3582.9999999997758
 30
0.0
 11
4080.0
 21
-3582.9999999999968
 31
0.0
1001
ACDBBLOCKREPETAG
1070
     1
1071
        9
1005
130EE7
  0
LINE
  5
130EE8
  8
OBJECT
 10
4080.0
 20
-3458.9999999999968
 30
0.0
 11
3925.0
 21
-3458.9999999999968
 31
0.0
1001
ACDBBLOCKREPETAG
1070
     1
1071
       10
1005
130EE8
  0
ARC
  5
130EE9
  8
OBJECT
 10
4200.6872746716726
 20
-3574.408099410105
 30
0.0
 40
170.6350503965856
 50
137.44134459184301
 51
149.9194958133665
1001
ACDBBLOCKREPETAG
1070
     1
1071
       15
1005
130EE9
  0
ARC
  5
130EEA
  8
OBJECT
 10
4118.8455987040506
 20
-3530.8827266953631
 30
0.0
 40
78.072222021763665
 50
147.4551531037684
 51
164.663659977186
1001
ACDBBLOCKREPETAG
1070
     1
1071
       16
1005
130EEA
  0
ARC
  5
130EEB
  8
OBJECT
 10
4085.7554349608722
 20
-3520.9999999999968
 30
0.0
 40
43.55353926885617
 50
165.6884523008477
 51
194.3115476991523
1001
ACDBBLOCKREPETAG
1070
     1
1071
       17
1005
130EEB
  0
ARC
  5
130EEC
  8
OBJECT
 10
4200.6872746716726
 20
-3467.5919005898891
 30
0.0
 40
170.6350503965856
 50
210.0805041866335
 51
222.55865540815699
1001
ACDBBLOCKREPETAG
1070
     1
1071
       18
1005
130EEC
  0
ARC
  5
130EED
  8
OBJECT
 10
4118.8455987040506
 20
-3511.1172733046319
 30
0.0
 40
78.072222021763665
 50
195.33634002281391
 51
212.5448468962316
1001
ACDBBLOCKREPETAG
1070
     1
1071
       19
1005
130EED
  0
POINT
  5
130EEE
  8
DOTS
 10
4000.0
 20
-3579.9999999999968
 30
0.0
1001
ACDBBLOCKREPETAG
1070
     1
1071
      186
1005
130EEE
  0
LINE
  5
130EEF
  8
OBJECT
 10
3323.0
 20
-3395.9999999999968
 30
0.0
 11
3323.0
 21
-3374.9999999999968
 31
0.0
1001
ACDBBLOCKREPETAG
1070
     1
1071
       20
1005
130EEF
  0
LINE
  5
130EF0
  8
OBJECT
 10
3323.0
 20
-3374.9999999999968
 30
0.0
 11
3477.0
 21
-3374.9999999999968
 31
0.0
1001
ACDBBLOCKREPETAG
1070
     1
1071
       21
1005
130EF0
  0
LINE
  5
130EF1
  8
HIDDEN
 10
3343.0
 20
-3444.9999999999968
 30
0.0
 11
3457.0
 21
-3444.9999999999968
 31
0.0
1001
ACDBBLOCKREPETAG
1070
     1
1071
       22
1005
130EF1
  0
LINE
  5
130EF2
  8
OBJECT
 10
3477.0
 20
-3374.9999999999968
 30
0.0
 11
3477.0
 21
-3395.9999999999968
 31
0.0
1001
ACDBBLOCKREPETAG
1070
     1
1071
       23
1005
130EF2
  0
LINE
  5
130EF3
  8
OBJECT
 10
3477.0
 20
-3395.9999999999968
 30
0.0
 11
3323.0
 21
-3395.9999999999968
 31
0.0
1001
ACDBBLOCKREPETAG
1070
     1
1071
       24
1005
130EF3
  0
LINE
  5
130EF4
  8
CENTER
 10
3400.0
 20
-3359.9999999999968
 30
0.0
 11
3400.0
 21
-3594.9999999999968
 31
0.0
1001
ACDBBLOCKREPETAG
1070
     1
1071
       25
1005
130EF4
  0
LINE
  5
130EF5
  8
OBJECT
 10
3325.0
 20
-3458.9999999999968
 30
0.0
 11
3325.0
 21
-3582.9999999999968
 31
0.0
1001
ACDBBLOCKREPETAG
1070
     1
1071
       26
1005
130EF5
  0
LINE
  5
130EF6
  8
OBJECT
 10
3328.0
 20
-3395.9999999999968
 30
0.0
 11
3328.0
 21
-3458.9999999999968
 31
0.0
1001
ACDBBLOCKREPETAG
1070
     1
1071
       27
1005
130EF6
  0
LINE
  5
130EF7
  8
OBJECT
 10
3472.0
 20
-3458.9999999999968
 30
0.0
 11
3472.0
 21
-3395.9999999999968
 31
0.0
1001
ACDBBLOCKREPETAG
1070
     1
1071
       28
1005
130EF7
  0
LINE
  5
130EF8
  8
OBJECT
 10
3475.0
 20
-3458.9999999999968
 30
0.0
 11
3325.0
 21
-3458.9999999999968
 31
0.0
1001
ACDBBLOCKREPETAG
1070
     1
1071
       30
1005
130EF8
  0
LINE
  5
130EF9
  8
OBJECT
 10
3475.0
 20
-3458.9999999999968
 30
0.0
 11
3475.0
 21
-3582.9999999999968
 31
0.0
1001
ACDBBLOCKREPETAG
1070
     1
1071
       34
1005
130EF9
  0
POINT
  5
130EFA
  8
DOTS
 10
3400.0
 20
-3579.9999999999968
 30
0.0
1001
ACDBBLOCKREPETAG
1070
     1
1071
      187
1005
130EFA
  0
LINE
  5
130EFB
  8
OBJECT
 10
2923.0
 20
-3395.9999999999968
 30
0.0
 11
2923.0
 21
-3374.9999999999968
 31
0.0
1001
ACDBBLOCKREPETAG
1070
     1
1071
        0
1005
130EFB
  0
LINE
  5
130EFC
  8
OBJECT
 10
2923.0
 20
-3374.9999999999968
 30
0.0
 11
3077.0
 21
-3374.9999999999968
 31
0.0
1001
ACDBBLOCKREPETAG
1070
     1
1071
        1
1005
130EFC
  0
LINE
  5
130EFD
  8
HIDDEN
 10
2943.0
 20
-3444.9999999999968
 30
0.0
 11
3057.0
 21
-3444.9999999999968
 31
0.0
1001
ACDBBLOCKREPETAG
1070
     1
1071
        2
1005
130EFD
  0
LINE
  5
130EFE
  8
OBJECT
 10
3077.0
 20
-3374.9999999999968
 30
0.0
 11
3077.0
 21
-3395.9999999999968
 31
0.0
1001
ACDBBLOCKREPETAG
1070
     1
1071
        3
1005
130EFE
  0
LINE
  5
130EFF
  8
OBJECT
 10
3077.0
 20
-3395.9999999999968
 30
0.0
 11
2923.0
 21
-3395.9999999999968
 31
0.0
1001
ACDBBLOCKREPETAG
1070
     1
1071
        4
1005
130EFF
  0
LINE
  5
130F00
  8
CENTER
 10
3000.0
 20
-3359.9999999999968
 30
0.0
 11
3000.0
 21
-3594.9999999999968
 31
0.0
1001
ACDBBLOCKREPETAG
1070
     1
1071
        5
1005
130F00
  0
LINE
  5
130F01
  8
OBJECT
 10
2925.0
 20
-3458.9999999999968
 30
0.0
 11
2925.0
 21
-3582.9999999999968
 31
0.0
1001
ACDBBLOCKREPETAG
1070
     1
1071
        6
1005
130F01
  0
LINE
  5
130F02
  8
OBJECT
 10
2928.0
 20
-3395.9999999999968
 30
0.0
 11
2928.0
 21
-3458.9999999999968
 31
0.0
1001
ACDBBLOCKREPETAG
1070
     1
1071
        7
1005
130F02
  0
LINE
  5
130F03
  8
OBJECT
 10
3072.0
 20
-3458.9999999999968
 30
0.0
 11
3072.0
 21
-3395.9999999999968
 31
0.0
1001
ACDBBLOCKREPETAG
1070
     1
1071
        8
1005
130F03
  0
LINE
  5
130F04
  8
OBJECT
 10
3074.9999999997999
 20
-3582.9999999997758
 30
0.0
 11
3080.0
 21
-3582.9999999999968
 31
0.0
1001
ACDBBLOCKREPETAG
1070
     1
1071
        9
1005
130F04
  0
LINE
  5
130F05
  8
OBJECT
 10
3080.0
 20
-3458.9999999999968
 30
0.0
 11
2925.0
 21
-3458.9999999999968
 31
0.0
1001
ACDBBLOCKREPETAG
1070
     1
1071
       10
1005
130F05
  0
ARC
  5
130F06
  8
OBJECT
 10
3200.6872746716722
 20
-3574.408099410105
 30
0.0
 40
170.6350503965856
 50
137.44134459184301
 51
149.9194958133665
1001
ACDBBLOCKREPETAG
1070
     1
1071
       15
1005
130F06
  0
ARC
  5
130F07
  8
OBJECT
 10
3118.8455987040511
 20
-3530.8827266953631
 30
0.0
 40
78.072222021763665
 50
147.4551531037684
 51
164.663659977186
1001
ACDBBLOCKREPETAG
1070
     1
1071
       16
1005
130F07
  0
ARC
  5
130F08
  8
OBJECT
 10
3085.7554349608731
 20
-3520.9999999999968
 30
0.0
 40
43.55353926885617
 50
165.6884523008477
 51
194.3115476991523
1001
ACDBBLOCKREPETAG
1070
     1
1071
       17
1005
130F08
  0
ARC
  5
130F09
  8
OBJECT
 10
3200.6872746716722
 20
-3467.5919005898891
 30
0.0
 40
170.6350503965856
 50
210.0805041866335
 51
222.55865540815699
1001
ACDBBLOCKREPETAG
1070
     1
1071
       18
1005
130F09
  0
ARC
  5
130F0A
  8
OBJECT
 10
3118.8455987040511
 20
-3511.1172733046319
 30
0.0
 40
78.072222021763665
 50
195.33634002281391
 51
212.5448468962316
1001
ACDBBLOCKREPETAG
1070
     1
1071
       19
1005
130F0A
  0
POINT
  5
130F0B
  8
DOTS
 10
3000.0
 20
-3579.9999999999968
 30
0.0
1001
ACDBBLOCKREPETAG
1070
     1
1071
      186
1005
130F0B
  0
LINE
  5
130F0C
  8
OBJECT
 10
2323.0
 20
-3395.9999999999968
 30
0.0
 11
2323.0
 21
-3374.9999999999968
 31
0.0
1001
ACDBBLOCKREPETAG
1070
     1
1071
       20
1005
130F0C
  0
LINE
  5
130F0D
  8
OBJECT
 10
2323.0
 20
-3374.9999999999968
 30
0.0
 11
2477.0
 21
-3374.9999999999968
 31
0.0
1001
ACDBBLOCKREPETAG
1070
     1
1071
       21
1005
130F0D
  0
LINE
  5
130F0E
  8
HIDDEN
 10
2343.0
 20
-3444.9999999999968
 30
0.0
 11
2457.0
 21
-3444.9999999999968
 31
0.0
1001
ACDBBLOCKREPETAG
1070
     1
1071
       22
1005
130F0E
  0
LINE
  5
130F0F
  8
OBJECT
 10
2477.0
 20
-3374.9999999999968
 30
0.0
 11
2477.0
 21
-3395.9999999999968
 31
0.0
1001
ACDBBLOCKREPETAG
1070
     1
1071
       23
1005
130F0F
  0
LINE
  5
130F10
  8
OBJECT
 10
2477.0
 20
-3395.9999999999968
 30
0.0
 11
2323.0
 21
-3395.9999999999968
 31
0.0
1001
ACDBBLOCKREPETAG
1070
     1
1071
       24
1005
130F10
  0
LINE
  5
130F11
  8
CENTER
 10
2400.0
 20
-3359.9999999999968
 30
0.0
 11
2400.0
 21
-3594.9999999999968
 31
0.0
1001
ACDBBLOCKREPETAG
1070
     1
1071
       25
1005
130F11
  0
LINE
  5
130F12
  8
OBJECT
 10
2325.0
 20
-3458.9999999999968
 30
0.0
 11
2325.0
 21
-3582.9999999999968
 31
0.0
1001
ACDBBLOCKREPETAG
1070
     1
1071
       26
1005
130F12
  0
LINE
  5
130F13
  8
OBJECT
 10
2328.0
 20
-3395.9999999999968
 30
0.0
 11
2328.0
 21
-3458.9999999999968
 31
0.0
1001
ACDBBLOCKREPETAG
1070
     1
1071
       27
1005
130F13
  0
LINE
  5
130F14
  8
OBJECT
 10
2472.0
 20
-3458.9999999999968
 30
0.0
 11
2472.0
 21
-3395.9999999999968
 31
0.0
1001
ACDBBLOCKREPETAG
1070
     1
1071
       28
1005
130F14
  0
LINE
  5
130F15
  8
OBJECT
 10
2475.0
 20
-3458.9999999999968
 30
0.0
 11
2325.0
 21
-3458.9999999999968
 31
0.0
1001
ACDBBLOCKREPETAG
1070
     1
1071
       30
1005
130F15
  0
LINE
  5
130F16
  8
OBJECT
 10
2475.0
 20
-3458.9999999999968
 30
0.0
 11
2475.0
 21
-3582.9999999999968
 31
0.0
1001
ACDBBLOCKREPETAG
1070
     1
1071
       34
1005
130F16
  0
POINT
  5
130F17
  8
DOTS
 10
2400.0
 20
-3579.9999999999968
 30
0.0
1001
ACDBBLOCKREPETAG
1070
     1
1071
      187
1005
130F17
  0
LINE
  5
130F18
  8
OBJECT
 10
1923.0
 20
-3395.9999999999968
 30
0.0
 11
1923.0
 21
-3374.9999999999968
 31
0.0
1001
ACDBBLOCKREPETAG
1070
     1
1071
        0
1005
130F18
  0
LINE
  5
130F19
  8
OBJECT
 10
1923.0
 20
-3374.9999999999968
 30
0.0
 11
2077.0
 21
-3374.9999999999968
 31
0.0
1001
ACDBBLOCKREPETAG
1070
     1
1071
        1
1005
130F19
  0
LINE
  5
130F1A
  8
HIDDEN
 10
1943.0
 20
-3444.9999999999968
 30
0.0
 11
2057.0
 21
-3444.9999999999968
 31
0.0
1001
ACDBBLOCKREPETAG
1070
     1
1071
        2
1005
130F1A
  0
LINE
  5
130F1B
  8
OBJECT
 10
2077.0
 20
-3374.9999999999968
 30
0.0
 11
2077.0
 21
-3395.9999999999968
 31
0.0
1001
ACDBBLOCKREPETAG
1070
     1
1071
        3
1005
130F1B
  0
LINE
  5
130F1C
  8
OBJECT
 10
2077.0
 20
-3395.9999999999968
 30
0.0
 11
1923.0
 21
-3395.9999999999968
 31
0.0
1001
ACDBBLOCKREPETAG
1070
     1
1071
        4
1005
130F1C
  0
LINE
  5
130F1D
  8
CENTER
 10
2000.0
 20
-3359.9999999999968
 30
0.0
 11
2000.0
 21
-3594.9999999999968
 31
0.0
1001
ACDBBLOCKREPETAG
1070
     1
1071
        5
1005
130F1D
  0
LINE
  5
130F1E
  8
OBJECT
 10
1925.0
 20
-3458.9999999999968
 30
0.0
 11
1925.0
 21
-3582.9999999999968
 31
0.0
1001
ACDBBLOCKREPETAG
1070
     1
1071
        6
1005
130F1E
  0
LINE
  5
130F1F
  8
OBJECT
 10
1928.0
 20
-3395.9999999999968
 30
0.0
 11
1928.0
 21
-3458.9999999999968
 31
0.0
1001
ACDBBLOCKREPETAG
1070
     1
1071
        7
1005
130F1F
  0
LINE
  5
130F20
  8
OBJECT
 10
2072.0
 20
-3458.9999999999968
 30
0.0
 11
2072.0
 21
-3395.9999999999968
 31
0.0
1001
ACDBBLOCKREPETAG
1070
     1
1071
        8
1005
130F20
  0
LINE
  5
130F21
  8
OBJECT
 10
2074.999999999799
 20
-3582.9999999997758
 30
0.0
 11
2080.0
 21
-3582.9999999999968
 31
0.0
1001
ACDBBLOCKREPETAG
1070
     1
1071
        9
1005
130F21
  0
LINE
  5
130F22
  8
OBJECT
 10
2080.0
 20
-3458.9999999999968
 30
0.0
 11
1925.0
 21
-3458.9999999999968
 31
0.0
1001
ACDBBLOCKREPETAG
1070
     1
1071
       10
1005
130F22
  0
ARC
  5
130F23
  8
OBJECT
 10
2200.6872746716731
 20
-3574.408099410105
 30
0.0
 40
170.6350503965856
 50
137.44134459184301
 51
149.91949581335999
1001
ACDBBLOCKREPETAG
1070
     1
1071
       15
1005
130F23
  0
ARC
  5
130F24
  8
OBJECT
 10
2118.8455987040511
 20
-3530.8827266953631
 30
0.0
 40
78.072222021763665
 50
147.45515310377539
 51
164.663659977186
1001
ACDBBLOCKREPETAG
1070
     1
1071
       16
1005
130F24
  0
ARC
  5
130F25
  8
OBJECT
 10
2085.7554349608731
 20
-3520.9999999999968
 30
0.0
 40
43.55353926885617
 50
165.6884523008477
 51
194.3115476991523
1001
ACDBBLOCKREPETAG
1070
     1
1071
       17
1005
130F25
  0
ARC
  5
130F26
  8
OBJECT
 10
2200.6872746716731
 20
-3467.5919005898891
 30
0.0
 40
170.6350503965856
 50
210.08050418664001
 51
222.55865540815699
1001
ACDBBLOCKREPETAG
1070
     1
1071
       18
1005
130F26
  0
ARC
  5
130F27
  8
OBJECT
 10
2118.8455987040511
 20
-3511.1172733046319
 30
0.0
 40
78.072222021763665
 50
195.33634002281391
 51
212.54484689622461
1001
ACDBBLOCKREPETAG
1070
     1
1071
       19
1005
130F27
  0
POINT
  5
130F28
  8
DOTS
 10
2000.0
 20
-3579.9999999999968
 30
0.0
1001
ACDBBLOCKREPETAG
1070
     1
1071
      186
1005
130F28
  0
LINE
  5
130F29
  8
DIM
 10
2150.0
 20
-3221.9999999999959
 30
0.0
 11
2228.479620594459
 21
-3221.9999999999959
 31
0.0
  0
LINE
  5
130F2A
  8
DIM
 10
2150.0
 20
-3127.9999999999959
 30
0.0
 11
2228.479620594459
 21
-3127.9999999999959
 31
0.0
  0
LINE
  5
130F2B
  8
DIM
 10
2218.479620594459
 20
-3201.9999999999959
 30
0.0
 11
2218.479620594459
 21
-3147.9999999999959
 31
0.0
  0
INSERT
  5
130F2C
  8
DIM
  2
_OPEN30
 10
2218.479620594459
 20
-3221.9999999999959
 30
0.0
 41
20.0
 42
20.0
 43
20.0
 50
270.0
  0
INSERT
  5
130F2D
  8
DIM
  2
_OPEN30
 10
2218.479620594459
 20
-3127.9999999999959
 30
0.0
 41
20.0
 42
20.0
 43
20.0
 50
90.0
  0
INSERT
  5
130F2E
  8
OBJECT
  2
*U61
 10
0.0
 20
0.0
 30
0.0
  0
LINE
  5
130F2F
  8
DIM
 10
2150.0
 20
-3579.9999999999968
 30
0.0
 11
2226.8409284037339
 21
-3579.9999999999968
 31
0.0
  0
LINE
  5
130F30
  8
DIM
 10
2165.0
 20
-3535.9999999999968
 30
0.0
 11
2226.8409284037339
 21
-3535.9999999999968
 31
0.0
  0
LINE
  5
130F31
  8
DIM
 10
2216.840928403733
 20
-3599.9999999999968
 30
0.0
 11
2216.840928403733
 21
-3619.9999999999968
 31
0.0
  0
LINE
  5
130F32
  8
DIM
 10
2216.840928403733
 20
-3515.9999999999968
 30
0.0
 11
2216.840928403733
 21
-3495.9999999999968
 31
0.0
  0
LINE
  5
130F33
  8
DIM
 10
2216.840928403733
 20
-3579.9999999999968
 30
0.0
 11
2216.840928403733
 21
-3535.9999999999968
 31
0.0
  0
INSERT
  5
130F34
  8
DIM
  2
_OPEN30
 10
2216.840928403733
 20
-3579.9999999999968
 30
0.0
 41
20.0
 42
20.0
 43
20.0
 50
90.0
  0
INSERT
  5
130F35
  8
DIM
  2
_OPEN30
 10
2216.840928403733
 20
-3535.9999999999968
 30
0.0
 41
20.0
 42
20.0
 43
20.0
 50
270.0
  0
INSERT
  5
130F36
  8
OBJECT
  2
*U62
 10
0.0
 20
0.0
 30
0.0
  0
LINE
  5
130F37
  8
DIM
 10
2000.0
 20
-3069.9999999999959
 30
0.0
 11
2000.0
 21
-3037.208121984444
 31
0.0
  0
LINE
  5
130F38
  8
DIM
 10
2140.0
 20
-3117.9999999999959
 30
0.0
 11
2140.0
 21
-3037.208121984444
 31
0.0
  0
LINE
  5
130F39
  8
DIM
 10
2020.0
 20
-3047.208121984444
 30
0.0
 11
2120.0
 21
-3047.208121984444
 31
0.0
  0
INSERT
  5
130F3A
  8
DIM
  2
_OPEN30
 10
2000.0
 20
-3047.208121984444
 30
0.0
 41
20.0
 42
20.0
 43
20.0
 50
180.0
  0
INSERT
  5
130F3B
  8
DIM
  2
_OPEN30
 10
2140.0
 20
-3047.208121984444
 30
0.0
 41
20.0
 42
20.0
 43
20.0
  0
INSERT
  5
130F3C
  8
OBJECT
  2
*U63
 10
0.0
 20
0.0
 30
0.0
  0
TEXT
  5
130F3D
  8
SLIM
 10
2631.0
 20
-2952.50001604727
 30
0.0
 40
40.0
  1
C寸法
 41
0.75
  0
TEXT
  5
130F3E
  8
SLIM
 10
2631.0
 20
-2882.50001604727
 30
0.0
 40
40.0
  1
B寸法
 41
0.75
  0
TEXT
  5
130F3F
  8
SLIM
 10
2630.2857142857142
 20
-2812.50001604727
 30
0.0
 40
40.0
  1
A寸法
 41
0.75
  0
TEXT
  5
130F40
  8
SLIM
 10
3159.2857142857151
 20
-2952.50001604727
 30
0.0
 40
40.0
  1
150
 41
0.75
  0
TEXT
  5
130F41
  8
SLIM
 10
3029.2857142857151
 20
-2952.50001604727
 30
0.0
 40
40.0
  1
140
 41
0.75
  0
TEXT
  5
130F42
  8
SLIM
 10
2769.2857142857151
 20
-2952.50001604727
 30
0.0
 40
40.0
  1
140
 41
0.75
  0
TEXT
  5
130F43
  8
SLIM
 10
2899.2857142857151
 20
-2952.50001604727
 30
0.0
 40
40.0
  1
140
 41
0.75
  0
TEXT
  5
130F44
  8
SLIM
 10
3170.7142857142858
 20
-2882.50001604727
 30
0.0
 40
40.0
  1
72
 41
0.75
  0
TEXT
  5
130F45
  8
SLIM
 10
3041.4285714285711
 20
-2882.50001604727
 30
0.0
 40
40.0
  1
59
 41
0.75
  0
TEXT
  5
130F46
  8
SLIM
 10
2780.0
 20
-2882.50001604727
 30
0.0
 40
40.0
  1
44
 41
0.75
  0
TEXT
  5
130F47
  8
SLIM
 10
2910.7142857142858
 20
-2882.50001604727
 30
0.0
 40
40.0
  1
52
 41
0.75
  0
TEXT
  5
130F48
  8
SLIM
 10
2891.0
 20
-2687.50001604727
 30
0.0
 40
40.0
  1
横枝管サイズ
 41
0.75
  0
TEXT
  5
130F49
  8
SLIM
 10
3136.2857142857151
 20
-2742.50001604727
 30
0.0
 40
30.0
  1
100（4）
 41
0.75
  0
TEXT
  5
130F4A
  8
SLIM
 10
3014.857142857144
 20
-2742.50001604727
 30
0.0
 40
30.0
  1
75（3）
 41
0.75
  0
TEXT
  5
130F4B
  8
SLIM
 10
2884.8571428571431
 20
-2742.50001604727
 30
0.0
 40
30.0
  1
65（2）
 41
0.75
  0
TEXT
  5
130F4C
  8
SLIM
 10
2757.0
 20
-2742.50001604727
 30
0.0
 40
30.0
  1
50（1）
 41
0.75
  0
TEXT
  5
130F4D
  8
SLIM
 10
3159.2857142857151
 20
-2812.50001604727
 30
0.0
 40
40.0
  1
150
 41
0.75
  0
TEXT
  5
130F4E
  8
SLIM
 10
3028.571428571428
 20
-2812.50001604727
 30
0.0
 40
40.0
  1
124
 41
0.75
  0
TEXT
  5
130F4F
  8
SLIM
 10
2780.0
 20
-2812.50001604727
 30
0.0
 40
40.0
  1
94
 41
0.75
  0
TEXT
  5
130F50
  8
SLIM
 10
2902.1428571428569
 20
-2812.50001604727
 30
0.0
 40
40.0
  1
110
 41
0.75
  0
TEXT
  5
130F51
  8
SLIM
 10
1849.9999999999991
 20
-2712.5
 30
0.0
 40
75.0
  1
枝管サイズ毎の形状
 41
0.75
  0
LINE
  5
130F52
  8
OBJECT
 10
5150.0
 20
-3432.9999999999968
 30
0.0
 11
5143.0
 21
-3432.9999999999968
 31
0.0
1001
ACDBBLOCKREPETAG
1070
     1
1071
       64
1005
130F52
  0
LINE
  5
130F53
  8
OBJECT
 10
5143.0
 20
-3432.9999999999968
 30
0.0
 11
5143.0
 21
-3579.9999999999968
 31
0.0
1001
ACDBBLOCKREPETAG
1070
     1
1071
       65
1005
130F53
  0
LINE
  5
130F54
  8
OBJECT
 10
5101.5
 20
-3435.9999999999968
 30
0.0
 11
5101.5
 21
-3579.9999999999968
 31
0.0
1001
ACDBBLOCKREPETAG
1070
     1
1071
       66
1005
130F54
  0
LINE
  5
130F55
  8
OBJECT
 10
5090.0
 20
-3442.4999999999968
 30
0.0
 11
5090.0
 21
-3573.4999999999968
 31
0.0
1001
ACDBBLOCKREPETAG
1070
     1
1071
       67
1005
130F55
  0
LINE
  5
130F56
  8
OBJECT
 10
5086.0
 20
-3514.5000000000041
 30
0.0
 11
5086.0
 21
-3579.9999999999968
 31
0.0
1001
ACDBBLOCKREPETAG
1070
     1
1071
       68
1005
130F56
  0
LINE
  5
130F57
  8
OBJECT
 10
5150.0
 20
-3579.9999999999968
 30
0.0
 11
5150.0
 21
-3432.9999999999968
 31
0.0
1001
ACDBBLOCKREPETAG
1070
     1
1071
       69
1005
130F57
  0
LINE
  5
130F58
  8
CENTER
 10
5165.0
 20
-3507.9999999999968
 30
0.0
 11
5070.4144144144157
 21
-3507.9999999999968
 31
0.0
1001
ACDBBLOCKREPETAG
1070
     1
1071
       70
1005
130F58
  0
LINE
  5
130F59
  8
OBJECT
 10
5083.0000000000045
 20
-3582.9999999999968
 30
0.0
 11
5080.0
 21
-3582.9999999999968
 31
0.0
1001
ACDBBLOCKREPETAG
1070
     1
1071
       71
1005
130F59
  0
ARC
  5
130F5A
  8
OBJECT
 10
5091.8815171830656
 20
-3581.4555591801418
 30
0.0
 40
6.0
 50
60.52411099686767
 51
170.6927439126847
1001
ACDBBLOCKREPETAG
1070
     1
1071
       72
1005
130F5A
  0
ARC
  5
130F5B
  8
OBJECT
 10
5083.0
 20
-3579.9999999999968
 30
0.0
 40
3.0
 50
270.0
 51
350.69274391268482
1001
ACDBBLOCKREPETAG
1070
     1
1071
       73
1005
130F5B
  0
LINE
  5
130F5C
  8
OBJECT
 10
5081.0
 20
-3458.9999999999968
 30
0.0
 11
5080.0
 21
-3458.9999999999968
 31
0.0
1001
ACDBBLOCKREPETAG
1070
     1
1071
       74
1005
130F5C
  0
LINE
  5
130F5D
  8
OBJECT
 10
5150.0
 20
-3579.9999999999968
 30
0.0
 11
5101.5
 21
-3579.9999999999968
 31
0.0
1001
ACDBBLOCKREPETAG
1070
     1
1071
       75
1005
130F5D
  0
LINE
  5
130F5E
  8
OBJECT
 10
5101.5
 20
-3435.9999999999968
 30
0.0
 11
5090.0
 21
-3442.4999999999968
 31
0.0
1001
ACDBBLOCKREPETAG
1070
     1
1071
       76
1005
130F5E
  0
LINE
  5
130F5F
  8
OBJECT
 10
5143.0
 20
-3435.9999999999968
 30
0.0
 11
5101.5
 21
-3435.9999999999968
 31
0.0
1001
ACDBBLOCKREPETAG
1070
     1
1071
       77
1005
130F5F
  0
LINE
  5
130F60
  8
OBJECT
 10
5086.0
 20
-3514.5000000000041
 30
0.0
 11
5081.0
 21
-3458.9999999999968
 31
0.0
1001
ACDBBLOCKREPETAG
1070
     1
1071
       78
1005
130F60
  0
LINE
  5
130F61
  8
OBJECT
 10
5090.0
 20
-3442.4999999999968
 30
0.0
 11
5081.0
 21
-3458.9999999999968
 31
0.0
1001
ACDBBLOCKREPETAG
1070
     1
1071
       79
1005
130F61
  0
LINE
  5
130F62
  8
OBJECT
 10
5101.5
 20
-3579.9999999999968
 30
0.0
 11
5094.8338607230708
 21
-3576.232182147819
 31
0.0
1001
ACDBBLOCKREPETAG
1070
     1
1071
       80
1005
130F62
  0
LINE
  5
130F63
  8
HIDDEN
 10
5098.0
 20
-3564.9999999999968
 30
0.0
 11
5098.0
 21
-3450.9999999999968
 31
0.0
1001
ACDBBLOCKREPETAG
1070
     1
1071
       81
1005
130F63
  0
LINE
  5
130F64
  8
OBJECT
 10
5150.0
 20
-3099.9999999999959
 30
0.0
 11
5143.0
 21
-3099.9999999999959
 31
0.0
1001
ACDBBLOCKREPETAG
1070
     1
1071
       67
1005
130F64
  0
LINE
  5
130F65
  8
OBJECT
 10
5143.0
 20
-3099.9999999999959
 30
0.0
 11
5143.0
 21
-3249.9999999999959
 31
0.0
1001
ACDBBLOCKREPETAG
1070
     1
1071
       68
1005
130F65
  0
LINE
  5
130F66
  8
OBJECT
 10
5101.5
 20
-3102.9999999999959
 30
0.0
 11
5101.5
 21
-3246.9999999999959
 31
0.0
1001
ACDBBLOCKREPETAG
1070
     1
1071
       69
1005
130F66
  0
LINE
  5
130F67
  8
OBJECT
 10
5090.0
 20
-3109.4999999999959
 30
0.0
 11
5090.0
 21
-3240.4999999999959
 31
0.0
1001
ACDBBLOCKREPETAG
1070
     1
1071
       70
1005
130F67
  0
LINE
  5
130F68
  8
OBJECT
 10
5143.0
 20
-3249.9999999999959
 30
0.0
 11
5150.0
 21
-3249.9999999999959
 31
0.0
1001
ACDBBLOCKREPETAG
1070
     1
1071
       71
1005
130F68
  0
LINE
  5
130F69
  8
OBJECT
 10
5150.0
 20
-3249.9999999999959
 30
0.0
 11
5150.0
 21
-3099.9999999999959
 31
0.0
1001
ACDBBLOCKREPETAG
1070
     1
1071
       72
1005
130F69
  0
LINE
  5
130F6A
  8
HIDDEN
 10
5098.0
 20
-3231.9999999999959
 30
0.0
 11
5098.0
 21
-3117.9999999999959
 31
0.0
1001
ACDBBLOCKREPETAG
1070
     1
1071
       73
1005
130F6A
  0
LINE
  5
130F6B
  8
CENTER
 10
5165.0
 20
-3174.9999999999959
 30
0.0
 11
5080.0
 21
-3174.9999999999959
 31
0.0
1001
ACDBBLOCKREPETAG
1070
     1
1071
       74
1005
130F6B
  0
LINE
  5
130F6C
  8
OBJECT
 10
5086.0
 20
-3236.9999999999959
 30
0.0
 11
5080.0
 21
-3236.9999999999959
 31
0.0
1001
ACDBBLOCKREPETAG
1070
     1
1071
       75
1005
130F6C
  0
LINE
  5
130F6D
  8
OBJECT
 10
5143.0
 20
-3246.9999999999959
 30
0.0
 11
5101.5
 21
-3246.9999999999959
 31
0.0
1001
ACDBBLOCKREPETAG
1070
     1
1071
       76
1005
130F6D
  0
LINE
  5
130F6E
  8
OBJECT
 10
5101.5
 20
-3246.9999999999959
 30
0.0
 11
5090.0
 21
-3240.4999999999959
 31
0.0
1001
ACDBBLOCKREPETAG
1070
     1
1071
       77
1005
130F6E
  0
LINE
  5
130F6F
  8
OBJECT
 10
5090.0
 20
-3240.4999999999959
 30
0.0
 11
5086.0
 21
-3236.9999999999959
 31
0.0
1001
ACDBBLOCKREPETAG
1070
     1
1071
       78
1005
130F6F
  0
LINE
  5
130F70
  8
OBJECT
 10
5101.5
 20
-3102.9999999999959
 30
0.0
 11
5090.0
 21
-3109.4999999999959
 31
0.0
1001
ACDBBLOCKREPETAG
1070
     1
1071
       79
1005
130F70
  0
LINE
  5
130F71
  8
OBJECT
 10
5090.0
 20
-3109.4999999999959
 30
0.0
 11
5086.0
 21
-3112.9999999999959
 31
0.0
1001
ACDBBLOCKREPETAG
1070
     1
1071
       80
1005
130F71
  0
ARC
  5
130F72
  8
OBJECT
 10
5467.9000000000005
 20
-3174.9999999999959
 30
0.0
 40
386.89999999999998
 50
170.77870136260421
 51
189.22129863739571
1001
ACDBBLOCKREPETAG
1070
     1
1071
       81
1005
130F72
  0
LINE
  5
130F73
  8
OBJECT
 10
5086.0
 20
-3112.9999999999959
 30
0.0
 11
5080.0
 21
-3112.9999999999959
 31
0.0
1001
ACDBBLOCKREPETAG
1070
     1
1071
       82
1005
130F73
  0
LINE
  5
130F74
  8
OBJECT
 10
5143.0
 20
-3102.9999999999959
 30
0.0
 11
5101.5
 21
-3102.9999999999959
 31
0.0
1001
ACDBBLOCKREPETAG
1070
     1
1071
       83
1005
130F74
  0
TEXT
  5
130F75
  8
SLIM
 10
4884.25
 20
-3697.4999999999959
 30
0.0
 40
35.0
  1
通常枝100（4）
 41
0.75
  0
LINE
  5
130F76
  8
CENTER
 10
4477.0
 20
-3520.9999999999968
 30
0.0
 11
4323.0
 21
-3520.9999999999968
 31
0.0
1001
ACDBBLOCKREPETAG
1070
     1
1071
       17
1005
130F76
  0
CIRCLE
  5
130F77
  8
OBJECT
 10
4400.0
 20
-3520.9999999999968
 30
0.0
 40
41.5
1001
ACDBBLOCKREPETAG
1070
     1
1071
       19
1005
130F77
  0
CIRCLE
  5
130F78
  8
OBJECT
 10
4400.0
 20
-3520.9999999999968
 30
0.0
 40
54.0
1001
ACDBBLOCKREPETAG
1070
     1
1071
       20
1005
130F78
  0
ARC
  5
130F79
  8
OBJECT
 10
4400.0
 20
-3520.9999999999968
 30
0.0
 40
62.0
 50
287.89655112921122
 51
252.1034488707887
1001
ACDBBLOCKREPETAG
1070
     1
1071
       21
1005
130F79
  0
LINE
  5
130F7A
  8
OBJECT
 10
4380.947441116743
 20
-3579.9999999999968
 30
0.0
 11
4419.052558883257
 21
-3579.9999999999968
 31
0.0
1001
ACDBBLOCKREPETAG
1070
     1
1071
       22
1005
130F7A
  0
LINE
  5
130F7B
  8
OBJECT
 10
4133.0
 20
-3458.9999999999968
 30
0.0
 11
4140.0
 21
-3458.9999999999968
 31
0.0
1001
ACDBBLOCKREPETAG
1070
     1
1071
       45
1005
130F7B
  0
LINE
  5
130F7C
  8
OBJECT
 10
4140.0
 20
-3458.9999999999968
 30
0.0
 11
4140.0
 21
-3579.9999999999968
 31
0.0
1001
ACDBBLOCKREPETAG
1070
     1
1071
       46
1005
130F7C
  0
LINE
  5
130F7D
  8
OBJECT
 10
4133.0
 20
-3579.9999999999968
 30
0.0
 11
4133.0
 21
-3458.9999999999968
 31
0.0
1001
ACDBBLOCKREPETAG
1070
     1
1071
       47
1005
130F7D
  0
LINE
  5
130F7E
  8
CENTER
 10
4155.0
 20
-3520.9999999999968
 30
0.0
 11
4071.0
 21
-3520.9999999999968
 31
0.0
1001
ACDBBLOCKREPETAG
1070
     1
1071
       48
1005
130F7E
  0
LINE
  5
130F7F
  8
OBJECT
 10
4133.0
 20
-3461.9999999999968
 30
0.0
 11
4097.0
 21
-3461.9999999999968
 31
0.0
1001
ACDBBLOCKREPETAG
1070
     1
1071
       49
1005
130F7F
  0
LINE
  5
130F80
  8
OBJECT
 10
4097.0
 20
-3461.9999999999968
 30
0.0
 11
4097.0
 21
-3579.9999999999968
 31
0.0
1001
ACDBBLOCKREPETAG
1070
     1
1071
       50
1005
130F80
  0
LINE
  5
130F81
  8
OBJECT
 10
4097.0
 20
-3579.9999999999968
 30
0.0
 11
4140.0
 21
-3579.9999999999968
 31
0.0
1001
ACDBBLOCKREPETAG
1070
     1
1071
       51
1005
130F81
  0
LINE
  5
130F82
  8
OBJECT
 10
4093.0
 20
-3466.4999999999968
 30
0.0
 11
4086.0
 21
-3466.4999999999968
 31
0.0
1001
ACDBBLOCKREPETAG
1070
     1
1071
       52
1005
130F82
  0
LINE
  5
130F83
  8
OBJECT
 10
4086.0
 20
-3575.4999999999968
 30
0.0
 11
4093.0
 21
-3575.4999999999968
 31
0.0
1001
ACDBBLOCKREPETAG
1070
     1
1071
       53
1005
130F83
  0
LINE
  5
130F84
  8
OBJECT
 10
4093.0
 20
-3575.4999999999968
 30
0.0
 11
4093.0
 21
-3466.4999999999968
 31
0.0
1001
ACDBBLOCKREPETAG
1070
     1
1071
       54
1005
130F84
  0
LINE
  5
130F85
  8
OBJECT
 10
4097.0
 20
-3461.9999999999968
 30
0.0
 11
4093.0
 21
-3466.4999999999968
 31
0.0
1001
ACDBBLOCKREPETAG
1070
     1
1071
       55
1005
130F85
  0
LINE
  5
130F86
  8
OBJECT
 10
4097.0
 20
-3579.9999999999968
 30
0.0
 11
4093.0
 21
-3575.4999999999968
 31
0.0
1001
ACDBBLOCKREPETAG
1070
     1
1071
       56
1005
130F86
  0
LINE
  5
130F87
  8
OBJECT
 10
4083.0
 20
-3458.9999999999968
 30
0.0
 11
4080.0
 21
-3458.9999999999968
 31
0.0
1001
ACDBBLOCKREPETAG
1070
     1
1071
       57
1005
130F87
  0
ARC
  5
130F88
  8
OBJECT
 10
4083.0
 20
-3461.9999999999968
 30
0.0
 40
3.0
 50
0.0
 51
90.0
1001
ACDBBLOCKREPETAG
1070
     1
1071
       58
1005
130F88
  0
LINE
  5
130F89
  8
OBJECT
 10
4080.0
 20
-3582.9999999999968
 30
0.0
 11
4083.0
 21
-3582.9999999999968
 31
0.0
1001
ACDBBLOCKREPETAG
1070
     1
1071
       59
1005
130F89
  0
ARC
  5
130F8A
  8
OBJECT
 10
4083.0
 20
-3579.9999999999968
 30
0.0
 40
3.0
 50
270.0
 51
0.0
1001
ACDBBLOCKREPETAG
1070
     1
1071
       60
1005
130F8A
  0
LINE
  5
130F8B
  8
OBJECT
 10
4086.0
 20
-3579.9999999999968
 30
0.0
 11
4086.0
 21
-3461.9999999999968
 31
0.0
1001
ACDBBLOCKREPETAG
1070
     1
1071
       61
1005
130F8B
  0
LINE
  5
130F8C
  8
HIDDEN
 10
4088.0
 20
-3476.4999999999968
 30
0.0
 11
4088.0
 21
-3565.4999999999968
 31
0.0
1001
ACDBBLOCKREPETAG
1070
     1
1071
       63
1005
130F8C
  0
LINE
  5
130F8D
  8
OBJECT
 10
4133.0
 20
-3112.9999999999959
 30
0.0
 11
4140.0
 21
-3112.9999999999959
 31
0.0
1001
ACDBBLOCKREPETAG
1070
     1
1071
       47
1005
130F8D
  0
LINE
  5
130F8E
  8
OBJECT
 10
4140.0
 20
-3112.9999999999959
 30
0.0
 11
4140.0
 21
-3236.9999999999959
 31
0.0
1001
ACDBBLOCKREPETAG
1070
     1
1071
       48
1005
130F8E
  0
LINE
  5
130F8F
  8
OBJECT
 10
4140.0
 20
-3236.9999999999959
 30
0.0
 11
4133.0
 21
-3236.9999999999959
 31
0.0
1001
ACDBBLOCKREPETAG
1070
     1
1071
       49
1005
130F8F
  0
LINE
  5
130F90
  8
OBJECT
 10
4133.0
 20
-3236.9999999999959
 30
0.0
 11
4133.0
 21
-3112.9999999999959
 31
0.0
1001
ACDBBLOCKREPETAG
1070
     1
1071
       50
1005
130F90
  0
LINE
  5
130F91
  8
CENTER
 10
4155.0
 20
-3174.9999999999959
 30
0.0
 11
4080.0
 21
-3174.9999999999959
 31
0.0
1001
ACDBBLOCKREPETAG
1070
     1
1071
       51
1005
130F91
  0
LINE
  5
130F92
  8
OBJECT
 10
4133.0
 20
-3115.9999999999959
 30
0.0
 11
4097.0
 21
-3115.9999999999959
 31
0.0
1001
ACDBBLOCKREPETAG
1070
     1
1071
       52
1005
130F92
  0
LINE
  5
130F93
  8
OBJECT
 10
4097.0
 20
-3115.9999999999959
 30
0.0
 11
4097.0
 21
-3233.9999999999959
 31
0.0
1001
ACDBBLOCKREPETAG
1070
     1
1071
       53
1005
130F93
  0
LINE
  5
130F94
  8
OBJECT
 10
4097.0
 20
-3233.9999999999959
 30
0.0
 11
4133.0
 21
-3233.9999999999959
 31
0.0
1001
ACDBBLOCKREPETAG
1070
     1
1071
       54
1005
130F94
  0
LINE
  5
130F95
  8
OBJECT
 10
4093.0
 20
-3120.4999999999959
 30
0.0
 11
4086.0
 21
-3120.4999999999959
 31
0.0
1001
ACDBBLOCKREPETAG
1070
     1
1071
       55
1005
130F95
  0
LINE
  5
130F96
  8
OBJECT
 10
4086.0
 20
-3229.4999999999959
 30
0.0
 11
4093.0
 21
-3229.4999999999959
 31
0.0
1001
ACDBBLOCKREPETAG
1070
     1
1071
       56
1005
130F96
  0
LINE
  5
130F97
  8
OBJECT
 10
4093.0
 20
-3229.4999999999959
 30
0.0
 11
4093.0
 21
-3120.4999999999959
 31
0.0
1001
ACDBBLOCKREPETAG
1070
     1
1071
       57
1005
130F97
  0
LINE
  5
130F98
  8
OBJECT
 10
4097.0
 20
-3115.9999999999959
 30
0.0
 11
4093.0
 21
-3120.4999999999959
 31
0.0
1001
ACDBBLOCKREPETAG
1070
     1
1071
       58
1005
130F98
  0
LINE
  5
130F99
  8
OBJECT
 10
4097.0
 20
-3233.9999999999959
 30
0.0
 11
4093.0
 21
-3229.4999999999959
 31
0.0
1001
ACDBBLOCKREPETAG
1070
     1
1071
       59
1005
130F99
  0
LINE
  5
130F9A
  8
OBJECT
 10
4083.0
 20
-3112.9999999999959
 30
0.0
 11
4080.0
 21
-3112.9999999999959
 31
0.0
1001
ACDBBLOCKREPETAG
1070
     1
1071
       60
1005
130F9A
  0
ARC
  5
130F9B
  8
OBJECT
 10
4083.0
 20
-3115.9999999999959
 30
0.0
 40
3.0
 50
0.0
 51
90.0
1001
ACDBBLOCKREPETAG
1070
     1
1071
       61
1005
130F9B
  0
LINE
  5
130F9C
  8
OBJECT
 10
4080.0
 20
-3236.9999999999959
 30
0.0
 11
4083.0
 21
-3236.9999999999959
 31
0.0
1001
ACDBBLOCKREPETAG
1070
     1
1071
       62
1005
130F9C
  0
ARC
  5
130F9D
  8
OBJECT
 10
4083.0
 20
-3233.9999999999959
 30
0.0
 40
3.0
 50
270.0
 51
0.0
1001
ACDBBLOCKREPETAG
1070
     1
1071
       63
1005
130F9D
  0
LINE
  5
130F9E
  8
OBJECT
 10
4086.0
 20
-3233.9999999999959
 30
0.0
 11
4086.0
 21
-3115.9999999999959
 31
0.0
1001
ACDBBLOCKREPETAG
1070
     1
1071
       64
1005
130F9E
  0
LINE
  5
130F9F
  8
HIDDEN
 10
4088.0
 20
-3130.4999999999959
 30
0.0
 11
4088.0
 21
-3219.4999999999959
 31
0.0
1001
ACDBBLOCKREPETAG
1070
     1
1071
       65
1005
130F9F
  0
TEXT
  5
130FA0
  8
SLIM
 10
3894.25
 20
-3697.4999999999959
 30
0.0
 40
35.0
  1
通常枝75（3）
 41
0.75
  0
CIRCLE
  5
130FA1
  8
OBJECT
 10
3400.0
 20
-3527.9999999999968
 30
0.0
 40
35.5
1001
ACDBBLOCKREPETAG
1070
     1
1071
       10
1005
130FA1
  0
CIRCLE
  5
130FA2
  8
OBJECT
 10
3400.0
 20
-3520.9999999999968
 30
0.0
 40
62.0
1001
ACDBBLOCKREPETAG
1070
     1
1071
       11
1005
130FA2
  0
LINE
  5
130FA3
  8
CENTER
 10
3330.0
 20
-3527.9999999999968
 30
0.0
 11
3470.0
 21
-3527.9999999999968
 31
0.0
1001
ACDBBLOCKREPETAG
1070
     1
1071
       12
1005
130FA3
  0
CIRCLE
  5
130FA4
  8
OBJECT
 10
3400.0
 20
-3527.9999999999968
 30
0.0
 40
47.0
1001
ACDBBLOCKREPETAG
1070
     1
1071
       14
1005
130FA4
  0
ARC
  5
130FA5
  8
OBJECT
 10
3400.0
 20
-3527.9999999999968
 30
0.0
 40
55.0
 50
289.01126526011359
 51
250.98873473988641
1001
ACDBBLOCKREPETAG
1070
     1
1071
       15
1005
130FA5
  0
LINE
  5
130FA6
  8
OBJECT
 10
3382.0835271328328
 20
-3579.9999999999968
 30
0.0
 11
3417.9164728671681
 21
-3579.9999999999968
 31
0.0
1001
ACDBBLOCKREPETAG
1070
     1
1071
       16
1005
130FA6
  0
LINE
  5
130FA7
  8
OBJECT
 10
3133.0
 20
-3472.9999999999968
 30
0.0
 11
3140.0
 21
-3472.9999999999968
 31
0.0
1001
ACDBBLOCKREPETAG
1070
     1
1071
       26
1005
130FA7
  0
LINE
  5
130FA8
  8
OBJECT
 10
3140.0
 20
-3472.9999999999968
 30
0.0
 11
3140.0
 21
-3579.9999999999968
 31
0.0
1001
ACDBBLOCKREPETAG
1070
     1
1071
       27
1005
130FA8
  0
LINE
  5
130FA9
  8
OBJECT
 10
3133.0
 20
-3579.9999999999968
 30
0.0
 11
3133.0
 21
-3472.9999999999968
 31
0.0
1001
ACDBBLOCKREPETAG
1070
     1
1071
       28
1005
130FA9
  0
LINE
  5
130FAA
  8
CENTER
 10
3155.0
 20
-3527.9999999999968
 30
0.0
 11
3071.0
 21
-3527.9999999999968
 31
0.0
1001
ACDBBLOCKREPETAG
1070
     1
1071
       29
1005
130FAA
  0
LINE
  5
130FAB
  8
OBJECT
 10
3133.0
 20
-3475.9999999999968
 30
0.0
 11
3097.0
 21
-3475.9999999999968
 31
0.0
1001
ACDBBLOCKREPETAG
1070
     1
1071
       30
1005
130FAB
  0
LINE
  5
130FAC
  8
OBJECT
 10
3097.0
 20
-3475.9999999999968
 30
0.0
 11
3097.0
 21
-3579.9999999999968
 31
0.0
1001
ACDBBLOCKREPETAG
1070
     1
1071
       31
1005
130FAC
  0
LINE
  5
130FAD
  8
OBJECT
 10
3097.0
 20
-3579.9999999999968
 30
0.0
 11
3140.0
 21
-3579.9999999999968
 31
0.0
1001
ACDBBLOCKREPETAG
1070
     1
1071
       32
1005
130FAD
  0
LINE
  5
130FAE
  8
OBJECT
 10
3093.0
 20
-3480.4999999999968
 30
0.0
 11
3086.0
 21
-3480.4999999999968
 31
0.0
1001
ACDBBLOCKREPETAG
1070
     1
1071
       33
1005
130FAE
  0
LINE
  5
130FAF
  8
OBJECT
 10
3086.0
 20
-3575.4999999999968
 30
0.0
 11
3093.0
 21
-3575.4999999999968
 31
0.0
1001
ACDBBLOCKREPETAG
1070
     1
1071
       34
1005
130FAF
  0
LINE
  5
130FB0
  8
OBJECT
 10
3093.0
 20
-3575.4999999999968
 30
0.0
 11
3093.0
 21
-3480.4999999999968
 31
0.0
1001
ACDBBLOCKREPETAG
1070
     1
1071
       35
1005
130FB0
  0
LINE
  5
130FB1
  8
OBJECT
 10
3097.0
 20
-3475.9999999999968
 30
0.0
 11
3093.0
 21
-3480.4999999999968
 31
0.0
1001
ACDBBLOCKREPETAG
1070
     1
1071
       36
1005
130FB1
  0
LINE
  5
130FB2
  8
OBJECT
 10
3097.0
 20
-3579.9999999999968
 30
0.0
 11
3093.0
 21
-3575.4999999999968
 31
0.0
1001
ACDBBLOCKREPETAG
1070
     1
1071
       37
1005
130FB2
  0
LINE
  5
130FB3
  8
OBJECT
 10
3083.0
 20
-3458.9999999999968
 30
0.0
 11
3080.0
 21
-3458.9999999999968
 31
0.0
1001
ACDBBLOCKREPETAG
1070
     1
1071
       38
1005
130FB3
  0
ARC
  5
130FB4
  8
OBJECT
 10
3083.0
 20
-3461.9999999999968
 30
0.0
 40
3.0
 50
0.0
 51
90.0
1001
ACDBBLOCKREPETAG
1070
     1
1071
       39
1005
130FB4
  0
LINE
  5
130FB5
  8
OBJECT
 10
3080.0
 20
-3582.9999999999968
 30
0.0
 11
3083.0
 21
-3582.9999999999968
 31
0.0
1001
ACDBBLOCKREPETAG
1070
     1
1071
       40
1005
130FB5
  0
ARC
  5
130FB6
  8
OBJECT
 10
3083.0
 20
-3579.9999999999968
 30
0.0
 40
3.0
 50
270.0
 51
0.0
1001
ACDBBLOCKREPETAG
1070
     1
1071
       41
1005
130FB6
  0
LINE
  5
130FB7
  8
OBJECT
 10
3086.0
 20
-3579.9999999999968
 30
0.0
 11
3086.0
 21
-3461.9999999999968
 31
0.0
1001
ACDBBLOCKREPETAG
1070
     1
1071
       42
1005
130FB7
  0
LINE
  5
130FB8
  8
HIDDEN
 10
3088.0
 20
-3489.9999999999968
 30
0.0
 11
3088.0
 21
-3565.9999999999968
 31
0.0
1001
ACDBBLOCKREPETAG
1070
     1
1071
       43
1005
130FB8
  0
LINE
  5
130FB9
  8
OBJECT
 10
3133.0
 20
-3119.9999999999959
 30
0.0
 11
3140.0
 21
-3119.9999999999959
 31
0.0
1001
ACDBBLOCKREPETAG
1070
     1
1071
       27
1005
130FB9
  0
LINE
  5
130FBA
  8
OBJECT
 10
3140.0
 20
-3119.9999999999959
 30
0.0
 11
3140.0
 21
-3229.9999999999959
 31
0.0
1001
ACDBBLOCKREPETAG
1070
     1
1071
       28
1005
130FBA
  0
LINE
  5
130FBB
  8
OBJECT
 10
3140.0
 20
-3229.9999999999959
 30
0.0
 11
3133.0
 21
-3229.9999999999959
 31
0.0
1001
ACDBBLOCKREPETAG
1070
     1
1071
       29
1005
130FBB
  0
LINE
  5
130FBC
  8
OBJECT
 10
3133.0
 20
-3229.9999999999959
 30
0.0
 11
3133.0
 21
-3119.9999999999959
 31
0.0
1001
ACDBBLOCKREPETAG
1070
     1
1071
       30
1005
130FBC
  0
LINE
  5
130FBD
  8
CENTER
 10
3155.0
 20
-3174.9999999999959
 30
0.0
 11
3080.0
 21
-3174.9999999999959
 31
0.0
1001
ACDBBLOCKREPETAG
1070
     1
1071
       31
1005
130FBD
  0
LINE
  5
130FBE
  8
OBJECT
 10
3133.0
 20
-3122.9999999999959
 30
0.0
 11
3097.0
 21
-3122.9999999999959
 31
0.0
1001
ACDBBLOCKREPETAG
1070
     1
1071
       32
1005
130FBE
  0
LINE
  5
130FBF
  8
OBJECT
 10
3097.0
 20
-3122.9999999999959
 30
0.0
 11
3097.0
 21
-3226.9999999999959
 31
0.0
1001
ACDBBLOCKREPETAG
1070
     1
1071
       33
1005
130FBF
  0
LINE
  5
130FC0
  8
OBJECT
 10
3097.0
 20
-3226.9999999999959
 30
0.0
 11
3133.0
 21
-3226.9999999999959
 31
0.0
1001
ACDBBLOCKREPETAG
1070
     1
1071
       34
1005
130FC0
  0
LINE
  5
130FC1
  8
OBJECT
 10
3093.0
 20
-3127.4999999999959
 30
0.0
 11
3086.0
 21
-3127.4999999999959
 31
0.0
1001
ACDBBLOCKREPETAG
1070
     1
1071
       35
1005
130FC1
  0
LINE
  5
130FC2
  8
OBJECT
 10
3086.0
 20
-3222.4999999999959
 30
0.0
 11
3093.0
 21
-3222.4999999999959
 31
0.0
1001
ACDBBLOCKREPETAG
1070
     1
1071
       36
1005
130FC2
  0
LINE
  5
130FC3
  8
OBJECT
 10
3093.0
 20
-3222.4999999999959
 30
0.0
 11
3093.0
 21
-3127.4999999999959
 31
0.0
1001
ACDBBLOCKREPETAG
1070
     1
1071
       37
1005
130FC3
  0
LINE
  5
130FC4
  8
OBJECT
 10
3097.0
 20
-3122.9999999999959
 30
0.0
 11
3093.0
 21
-3127.4999999999959
 31
0.0
1001
ACDBBLOCKREPETAG
1070
     1
1071
       38
1005
130FC4
  0
LINE
  5
130FC5
  8
OBJECT
 10
3097.0
 20
-3226.9999999999959
 30
0.0
 11
3093.0
 21
-3222.4999999999959
 31
0.0
1001
ACDBBLOCKREPETAG
1070
     1
1071
       39
1005
130FC5
  0
LINE
  5
130FC6
  8
OBJECT
 10
3083.0
 20
-3112.9999999999959
 30
0.0
 11
3080.0
 21
-3112.9999999999959
 31
0.0
1001
ACDBBLOCKREPETAG
1070
     1
1071
       40
1005
130FC6
  0
ARC
  5
130FC7
  8
OBJECT
 10
3083.0
 20
-3115.9999999999959
 30
0.0
 40
3.0
 50
0.0
 51
90.0
1001
ACDBBLOCKREPETAG
1070
     1
1071
       41
1005
130FC7
  0
LINE
  5
130FC8
  8
OBJECT
 10
3080.0
 20
-3236.9999999999959
 30
0.0
 11
3083.0
 21
-3236.9999999999959
 31
0.0
1001
ACDBBLOCKREPETAG
1070
     1
1071
       42
1005
130FC8
  0
ARC
  5
130FC9
  8
OBJECT
 10
3083.0
 20
-3233.9999999999959
 30
0.0
 40
3.0
 50
270.0
 51
0.0
1001
ACDBBLOCKREPETAG
1070
     1
1071
       43
1005
130FC9
  0
LINE
  5
130FCA
  8
OBJECT
 10
3086.0
 20
-3233.9999999999959
 30
0.0
 11
3086.0
 21
-3115.9999999999959
 31
0.0
1001
ACDBBLOCKREPETAG
1070
     1
1071
       44
1005
130FCA
  0
LINE
  5
130FCB
  8
HIDDEN
 10
3088.0
 20
-3136.9999999999959
 30
0.0
 11
3088.0
 21
-3212.9999999999959
 31
0.0
1001
ACDBBLOCKREPETAG
1070
     1
1071
       45
1005
130FCB
  0
TEXT
  5
130FCC
  8
SLIM
 10
2894.25
 20
-3697.4999999999959
 30
0.0
 40
35.0
  1
通常枝65（2）
 41
0.75
  0
CIRCLE
  5
130FCD
  8
OBJECT
 10
2400.0
 20
-3520.9999999999968
 30
0.0
 40
62.0
1001
ACDBBLOCKREPETAG
1070
     1
1071
        3
1005
130FCD
  0
LINE
  5
130FCE
  8
CENTER
 10
2338.0
 20
-3535.9999999999968
 30
0.0
 11
2462.0
 21
-3535.9999999999968
 31
0.0
1001
ACDBBLOCKREPETAG
1070
     1
1071
        4
1005
130FCE
  0
CIRCLE
  5
130FCF
  8
OBJECT
 10
2400.0
 20
-3535.9999999999968
 30
0.0
 40
28.0
1001
ACDBBLOCKREPETAG
1070
     1
1071
        6
1005
130FCF
  0
CIRCLE
  5
130FD0
  8
OBJECT
 10
2400.0
 20
-3535.9999999999968
 30
0.0
 40
39.0
1001
ACDBBLOCKREPETAG
1070
     1
1071
        7
1005
130FD0
  0
ARC
  5
130FD1
  8
OBJECT
 10
2400.0
 20
-3535.9999999999968
 30
0.0
 40
47.0
 50
290.58196921144412
 51
249.41803078855591
1001
ACDBBLOCKREPETAG
1070
     1
1071
        8
1005
130FD1
  0
LINE
  5
130FD2
  8
OBJECT
 10
2383.4772883581431
 20
-3579.9999999999968
 30
0.0
 11
2416.5227116418569
 21
-3579.9999999999968
 31
0.0
1001
ACDBBLOCKREPETAG
1070
     1
1071
        9
1005
130FD2
  0
LINE
  5
130FD3
  8
OBJECT
 10
2133.0
 20
-3488.9999999999968
 30
0.0
 11
2140.0
 21
-3488.9999999999968
 31
0.0
1001
ACDBBLOCKREPETAG
1070
     1
1071
        7
1005
130FD3
  0
LINE
  5
130FD4
  8
OBJECT
 10
2140.0
 20
-3488.9999999999968
 30
0.0
 11
2140.0
 21
-3579.9999999999968
 31
0.0
1001
ACDBBLOCKREPETAG
1070
     1
1071
        8
1005
130FD4
  0
LINE
  5
130FD5
  8
OBJECT
 10
2133.0
 20
-3579.9999999999968
 30
0.0
 11
2133.0
 21
-3488.9999999999968
 31
0.0
1001
ACDBBLOCKREPETAG
1070
     1
1071
        9
1005
130FD5
  0
LINE
  5
130FD6
  8
CENTER
 10
2155.0
 20
-3535.9999999999968
 30
0.0
 11
2071.0
 21
-3535.9999999999968
 31
0.0
1001
ACDBBLOCKREPETAG
1070
     1
1071
       10
1005
130FD6
  0
LINE
  5
130FD7
  8
OBJECT
 10
2133.0
 20
-3491.9999999999968
 30
0.0
 11
2097.0
 21
-3491.9999999999968
 31
0.0
1001
ACDBBLOCKREPETAG
1070
     1
1071
       11
1005
130FD7
  0
LINE
  5
130FD8
  8
OBJECT
 10
2097.0
 20
-3491.9999999999968
 30
0.0
 11
2097.0
 21
-3579.9999999999968
 31
0.0
1001
ACDBBLOCKREPETAG
1070
     1
1071
       12
1005
130FD8
  0
LINE
  5
130FD9
  8
OBJECT
 10
2097.0
 20
-3579.9999999999968
 30
0.0
 11
2140.0
 21
-3579.9999999999968
 31
0.0
1001
ACDBBLOCKREPETAG
1070
     1
1071
       13
1005
130FD9
  0
LINE
  5
130FDA
  8
OBJECT
 10
2093.0
 20
-3496.4999999999968
 30
0.0
 11
2086.0
 21
-3496.4999999999968
 31
0.0
1001
ACDBBLOCKREPETAG
1070
     1
1071
       14
1005
130FDA
  0
LINE
  5
130FDB
  8
OBJECT
 10
2086.0
 20
-3575.4999999999968
 30
0.0
 11
2093.0
 21
-3575.4999999999968
 31
0.0
1001
ACDBBLOCKREPETAG
1070
     1
1071
       15
1005
130FDB
  0
LINE
  5
130FDC
  8
OBJECT
 10
2093.0
 20
-3575.4999999999968
 30
0.0
 11
2093.0
 21
-3496.4999999999968
 31
0.0
1001
ACDBBLOCKREPETAG
1070
     1
1071
       16
1005
130FDC
  0
LINE
  5
130FDD
  8
OBJECT
 10
2097.0
 20
-3491.9999999999968
 30
0.0
 11
2093.0
 21
-3496.4999999999968
 31
0.0
1001
ACDBBLOCKREPETAG
1070
     1
1071
       17
1005
130FDD
  0
LINE
  5
130FDE
  8
OBJECT
 10
2097.0
 20
-3579.9999999999968
 30
0.0
 11
2093.0
 21
-3575.4999999999968
 31
0.0
1001
ACDBBLOCKREPETAG
1070
     1
1071
       18
1005
130FDE
  0
LINE
  5
130FDF
  8
OBJECT
 10
2083.0
 20
-3458.9999999999968
 30
0.0
 11
2080.0
 21
-3458.9999999999968
 31
0.0
1001
ACDBBLOCKREPETAG
1070
     1
1071
       19
1005
130FDF
  0
ARC
  5
130FE0
  8
OBJECT
 10
2083.0
 20
-3461.9999999999968
 30
0.0
 40
3.0
 50
0.0
 51
90.0
1001
ACDBBLOCKREPETAG
1070
     1
1071
       20
1005
130FE0
  0
LINE
  5
130FE1
  8
OBJECT
 10
2080.0
 20
-3582.9999999999968
 30
0.0
 11
2083.0
 21
-3582.9999999999968
 31
0.0
1001
ACDBBLOCKREPETAG
1070
     1
1071
       21
1005
130FE1
  0
ARC
  5
130FE2
  8
OBJECT
 10
2083.0
 20
-3579.9999999999968
 30
0.0
 40
3.0
 50
270.0
 51
0.0
1001
ACDBBLOCKREPETAG
1070
     1
1071
       22
1005
130FE2
  0
LINE
  5
130FE3
  8
OBJECT
 10
2086.0
 20
-3579.9999999999968
 30
0.0
 11
2086.0
 21
-3461.9999999999968
 31
0.0
1001
ACDBBLOCKREPETAG
1070
     1
1071
       23
1005
130FE3
  0
LINE
  5
130FE4
  8
HIDDEN
 10
2088.0
 20
-3505.9999999999968
 30
0.0
 11
2088.0
 21
-3565.9999999999968
 31
0.0
1001
ACDBBLOCKREPETAG
1070
     1
1071
       24
1005
130FE4
  0
LINE
  5
130FE5
  8
OBJECT
 10
2133.0
 20
-3127.9999999999959
 30
0.0
 11
2140.0
 21
-3127.9999999999959
 31
0.0
1001
ACDBBLOCKREPETAG
1070
     1
1071
        7
1005
130FE5
  0
LINE
  5
130FE6
  8
OBJECT
 10
2140.0
 20
-3127.9999999999959
 30
0.0
 11
2140.0
 21
-3221.9999999999959
 31
0.0
1001
ACDBBLOCKREPETAG
1070
     1
1071
        8
1005
130FE6
  0
LINE
  5
130FE7
  8
OBJECT
 10
2140.0
 20
-3221.9999999999959
 30
0.0
 11
2133.0
 21
-3221.9999999999959
 31
0.0
1001
ACDBBLOCKREPETAG
1070
     1
1071
        9
1005
130FE7
  0
LINE
  5
130FE8
  8
OBJECT
 10
2133.0
 20
-3221.9999999999959
 30
0.0
 11
2133.0
 21
-3127.9999999999959
 31
0.0
1001
ACDBBLOCKREPETAG
1070
     1
1071
       10
1005
130FE8
  0
LINE
  5
130FE9
  8
CENTER
 10
2155.0
 20
-3174.9999999999959
 30
0.0
 11
2080.0
 21
-3174.9999999999959
 31
0.0
1001
ACDBBLOCKREPETAG
1070
     1
1071
       11
1005
130FE9
  0
LINE
  5
130FEA
  8
OBJECT
 10
2133.0
 20
-3130.9999999999959
 30
0.0
 11
2097.0
 21
-3130.9999999999959
 31
0.0
1001
ACDBBLOCKREPETAG
1070
     1
1071
       12
1005
130FEA
  0
LINE
  5
130FEB
  8
OBJECT
 10
2097.0
 20
-3130.9999999999959
 30
0.0
 11
2097.0
 21
-3218.9999999999959
 31
0.0
1001
ACDBBLOCKREPETAG
1070
     1
1071
       13
1005
130FEB
  0
LINE
  5
130FEC
  8
OBJECT
 10
2097.0
 20
-3218.9999999999959
 30
0.0
 11
2133.0
 21
-3218.9999999999959
 31
0.0
1001
ACDBBLOCKREPETAG
1070
     1
1071
       14
1005
130FEC
  0
LINE
  5
130FED
  8
OBJECT
 10
2093.0
 20
-3135.4999999999959
 30
0.0
 11
2086.0
 21
-3135.4999999999959
 31
0.0
1001
ACDBBLOCKREPETAG
1070
     1
1071
       15
1005
130FED
  0
LINE
  5
130FEE
  8
OBJECT
 10
2086.0
 20
-3214.4999999999959
 30
0.0
 11
2093.0
 21
-3214.4999999999959
 31
0.0
1001
ACDBBLOCKREPETAG
1070
     1
1071
       16
1005
130FEE
  0
LINE
  5
130FEF
  8
OBJECT
 10
2093.0
 20
-3214.4999999999959
 30
0.0
 11
2093.0
 21
-3135.4999999999959
 31
0.0
1001
ACDBBLOCKREPETAG
1070
     1
1071
       17
1005
130FEF
  0
LINE
  5
130FF0
  8
OBJECT
 10
2097.0
 20
-3130.9999999999959
 30
0.0
 11
2093.0
 21
-3135.4999999999959
 31
0.0
1001
ACDBBLOCKREPETAG
1070
     1
1071
       18
1005
130FF0
  0
LINE
  5
130FF1
  8
OBJECT
 10
2097.0
 20
-3218.9999999999959
 30
0.0
 11
2093.0
 21
-3214.4999999999959
 31
0.0
1001
ACDBBLOCKREPETAG
1070
     1
1071
       19
1005
130FF1
  0
LINE
  5
130FF2
  8
OBJECT
 10
2083.0
 20
-3112.9999999999959
 30
0.0
 11
2080.0
 21
-3112.9999999999959
 31
0.0
1001
ACDBBLOCKREPETAG
1070
     1
1071
       20
1005
130FF2
  0
ARC
  5
130FF3
  8
OBJECT
 10
2083.0
 20
-3115.9999999999959
 30
0.0
 40
3.0
 50
0.0
 51
90.0
1001
ACDBBLOCKREPETAG
1070
     1
1071
       21
1005
130FF3
  0
LINE
  5
130FF4
  8
OBJECT
 10
2080.0
 20
-3236.9999999999959
 30
0.0
 11
2083.0
 21
-3236.9999999999959
 31
0.0
1001
ACDBBLOCKREPETAG
1070
     1
1071
       22
1005
130FF4
  0
ARC
  5
130FF5
  8
OBJECT
 10
2083.0
 20
-3233.9999999999959
 30
0.0
 40
3.0
 50
270.0
 51
0.0
1001
ACDBBLOCKREPETAG
1070
     1
1071
       23
1005
130FF5
  0
LINE
  5
130FF6
  8
OBJECT
 10
2086.0
 20
-3233.9999999999959
 30
0.0
 11
2086.0
 21
-3115.9999999999959
 31
0.0
1001
ACDBBLOCKREPETAG
1070
     1
1071
       24
1005
130FF6
  0
LINE
  5
130FF7
  8
HIDDEN
 10
2088.0
 20
-3144.9999999999959
 30
0.0
 11
2088.0
 21
-3204.9999999999959
 31
0.0
1001
ACDBBLOCKREPETAG
1070
     1
1071
       25
1005
130FF7
  0
TEXT
  5
130FF8
  8
SLIM
 10
1896.75
 20
-3697.4999999999959
 30
0.0
 40
35.0
  1
通常枝50（1）
 41
0.75
  0
LINE
  5
130FF9
  8
SLIM
 10
3914.9999999999941
 20
-765.19743878931376
 30
0.0
 11
3925.1974387893092
 21
-754.99999999999875
 31
0.0
1001
ACDBBLOCKREPETAG
1070
     1
1071
        0
1005
0
1001
ACAD
1010
0.0
1020
0.0
1030
0.0
  0
LINE
  5
130FFA
  8
SLIM
 10
3914.999999999995
 20
-783.15795103145035
 30
0.0
 11
3943.1579510314468
 21
-754.99999999999875
 31
0.0
1001
ACAD
1010
0.0
1020
0.0
1030
0.0
1001
ACDBBLOCKREPETAG
1070
     1
1071
       14
1005
130FFA
  0
LINE
  5
130FFB
  8
SLIM
 10
3915.1454972543161
 20
-800.97296601926837
 30
0.0
 11
3961.1184632735849
 21
-754.99999999999875
 31
0.0
1001
ACAD
1010
0.0
1020
0.0
1030
0.0
1001
ACDBBLOCKREPETAG
1070
     1
1071
       15
1005
130FFB
  0
LINE
  5
130FFC
  8
SLIM
 10
3917.104627495245
 20
-816.97434802047826
 30
0.0
 11
3979.0789755157239
 21
-754.99999999999875
 31
0.0
1001
ACAD
1010
0.0
1020
0.0
1030
0.0
1001
ACDBBLOCKREPETAG
1070
     1
1071
       16
1005
130FFC
  0
LINE
  5
130FFD
  8
SLIM
 10
3919.0637577361722
 20
-832.97573002168861
 30
0.0
 11
3997.0394877578619
 21
-754.99999999999875
 31
0.0
1001
ACAD
1010
0.0
1020
0.0
1030
0.0
1001
ACDBBLOCKREPETAG
1070
     1
1071
       17
1005
130FFD
  0
LINE
  5
130FFE
  8
SLIM
 10
3920.0
 20
-849.99999999999875
 30
0.0
 11
4015.0
 21
-754.99999999999875
 31
0.0
1001
ACAD
1010
0.0
1020
0.0
1030
0.0
1001
ACDBBLOCKREPETAG
1070
     1
1071
       18
1005
130FFE
  0
LINE
  5
130FFF
  8
SLIM
 10
3920.0
 20
-867.96051224213716
 30
0.0
 11
4032.9605122421372
 21
-754.99999999999875
 31
0.0
1001
ACAD
1010
0.0
1020
0.0
1030
0.0
1001
ACDBBLOCKREPETAG
1070
     1
1071
       19
1005
130FFF
  0
LINE
  5
131000
  8
SLIM
 10
3920.0
 20
-885.92102448427534
 30
0.0
 11
4050.921024484277
 21
-754.99999999999875
 31
0.0
1001
ACAD
1010
0.0
1020
0.0
1030
0.0
1001
ACDBBLOCKREPETAG
1070
     1
1071
       20
1005
131000
  0
LINE
  5
131001
  8
SLIM
 10
3920.0
 20
-903.88153672641363
 30
0.0
 11
4068.8815367264142
 21
-754.99999999999875
 31
0.0
1001
ACAD
1010
0.0
1020
0.0
1030
0.0
1001
ACDBBLOCKREPETAG
1070
     1
1071
       21
1005
131001
  0
LINE
  5
131002
  8
SLIM
 10
3920.0
 20
-921.84204896855181
 30
0.0
 11
4085.0000000000068
 21
-756.8420489685451
 31
0.0
1001
ACAD
1010
0.0
1020
0.0
1030
0.0
1001
ACDBBLOCKREPETAG
1070
     1
1071
       22
1005
131002
  0
LINE
  5
131003
  8
SLIM
 10
3920.0
 20
-939.80256121069044
 30
0.0
 11
4085.0000000000059
 21
-774.80256121068464
 31
0.0
1001
ACAD
1010
0.0
1020
0.0
1030
0.0
1001
ACDBBLOCKREPETAG
1070
     1
1071
       23
1005
131003
  0
LINE
  5
131004
  8
SLIM
 10
3920.0
 20
-957.76307345282862
 30
0.0
 11
4085.0000000000041
 21
-792.76307345282453
 31
0.0
1001
ACAD
1010
0.0
1020
0.0
1030
0.0
1001
ACDBBLOCKREPETAG
1070
     1
1071
       24
1005
131004
  0
LINE
  5
131005
  8
SLIM
 10
3930.0
 20
-965.72358569496657
 30
0.0
 11
3930.7235856949678
 21
-964.99999999999875
 31
0.0
1001
ACAD
1010
0.0
1020
0.0
1030
0.0
1001
ACDBBLOCKREPETAG
1070
     1
1071
       25
1005
131005
  0
LINE
  5
131006
  8
SLIM
 10
3930.7235856949678
 20
-964.99999999999875
 30
0.0
 11
4083.4738280308079
 21
-812.24975766415855
 31
0.0
1001
ACAD
1010
0.0
1020
0.0
1030
0.0
1001
ACDBBLOCKREPETAG
1070
     1
1071
       26
1005
131006
  0
LINE
  5
131007
  8
SLIM
 10
3930.0
 20
-983.68409793710521
 30
0.0
 11
3948.6840979371068
 21
-964.99999999999875
 31
0.0
1001
ACAD
1010
0.0
1020
0.0
1030
0.0
1001
ACDBBLOCKREPETAG
1070
     1
1071
       27
1005
131007
  0
LINE
  5
131008
  8
SLIM
 10
3948.6840979371068
 20
-964.99999999999875
 30
0.0
 11
4080.9680345671368
 21
-832.71606336996786
 31
0.0
1001
ACAD
1010
0.0
1020
0.0
1030
0.0
1001
ACDBBLOCKREPETAG
1070
     1
1071
       28
1005
131008
  0
LINE
  5
131009
  8
SLIM
 10
3946.6446101792449
 20
-984.99999999999875
 30
0.0
 11
3966.6446101792449
 21
-964.99999999999875
 31
0.0
1001
ACAD
1010
0.0
1020
0.0
1030
0.0
1001
ACDBBLOCKREPETAG
1070
     1
1071
       29
1005
131009
  0
LINE
  5
13100A
  8
SLIM
 10
3966.6446101792449
 20
-964.99999999999875
 30
0.0
 11
4080.0
 21
-851.6446101792435
 31
0.0
1001
ACAD
1010
0.0
1020
0.0
1030
0.0
1001
ACDBBLOCKREPETAG
1070
     1
1071
       30
1005
13100A
  0
LINE
  5
13100B
  8
SLIM
 10
3964.6051224213829
 20
-984.99999999999875
 30
0.0
 11
3984.6051224213829
 21
-964.99999999999875
 31
0.0
1001
ACAD
1010
0.0
1020
0.0
1030
0.0
1001
ACDBBLOCKREPETAG
1070
     1
1071
       31
1005
13100B
  0
LINE
  5
13100C
  8
SLIM
 10
3984.6051224213829
 20
-964.99999999999875
 30
0.0
 11
4080.0
 21
-869.60512242138225
 31
0.0
1001
ACAD
1010
0.0
1020
0.0
1030
0.0
1001
ACDBBLOCKREPETAG
1070
     1
1071
       32
1005
13100C
  0
LINE
  5
13100D
  8
SLIM
 10
3982.565634663521
 20
-984.99999999999875
 30
0.0
 11
4002.565634663521
 21
-964.99999999999875
 31
0.0
1001
ACAD
1010
0.0
1020
0.0
1030
0.0
1001
ACDBBLOCKREPETAG
1070
     1
1071
       33
1005
13100D
  0
LINE
  5
13100E
  8
SLIM
 10
4002.565634663521
 20
-964.99999999999875
 30
0.0
 11
4079.9999999999991
 21
-887.56563466352065
 31
0.0
1001
ACAD
1010
0.0
1020
0.0
1030
0.0
1001
ACDBBLOCKREPETAG
1070
     1
1071
       34
1005
13100E
  0
LINE
  5
13100F
  8
SLIM
 10
4000.5261469056582
 20
-984.99999999999875
 30
0.0
 11
4020.52614690566
 21
-964.99999999999875
 31
0.0
1001
ACAD
1010
0.0
1020
0.0
1030
0.0
1001
ACDBBLOCKREPETAG
1070
     1
1071
       35
1005
13100F
  0
LINE
  5
131010
  8
SLIM
 10
4020.52614690566
 20
-964.99999999999875
 30
0.0
 11
4079.9999999999991
 21
-905.52614690565963
 31
0.0
1001
ACAD
1010
0.0
1020
0.0
1030
0.0
1001
ACDBBLOCKREPETAG
1070
     1
1071
       36
1005
131010
  0
LINE
  5
131011
  8
SLIM
 10
4018.486659147798
 20
-984.99999999999875
 30
0.0
 11
4038.486659147798
 21
-964.99999999999864
 31
0.0
1001
ACAD
1010
0.0
1020
0.0
1030
0.0
1001
ACDBBLOCKREPETAG
1070
     1
1071
       37
1005
131011
  0
LINE
  5
131012
  8
SLIM
 10
4038.486659147798
 20
-964.99999999999864
 30
0.0
 11
4079.9999999999991
 21
-923.48665914779815
 31
0.0
1001
ACAD
1010
0.0
1020
0.0
1030
0.0
1001
ACDBBLOCKREPETAG
1070
     1
1071
       38
1005
131012
  0
LINE
  5
131013
  8
SLIM
 10
4036.4471713899361
 20
-984.99999999999875
 30
0.0
 11
4056.4471713899361
 21
-964.99999999999864
 31
0.0
1001
ACAD
1010
0.0
1020
0.0
1030
0.0
1001
ACDBBLOCKREPETAG
1070
     1
1071
       39
1005
131013
  0
LINE
  5
131014
  8
SLIM
 10
4056.4471713899361
 20
-964.99999999999864
 30
0.0
 11
4079.9999999999991
 21
-941.44717138993633
 31
0.0
1001
ACAD
1010
0.0
1020
0.0
1030
0.0
1001
ACDBBLOCKREPETAG
1070
     1
1071
       40
1005
131014
  0
LINE
  5
131015
  8
SLIM
 10
4054.4076836320728
 20
-984.99999999999875
 30
0.0
 11
4070.0
 21
-969.40768363207314
 31
0.0
1001
ACAD
1010
0.0
1020
0.0
1030
0.0
1001
ACDBBLOCKREPETAG
1070
     1
1071
       41
1005
131015
  0
LINE
  5
131016
  8
SLIM
 10
4074.4076836320728
 20
-964.99999999999864
 30
0.0
 11
4079.9999999999991
 21
-959.40768363207519
 31
0.0
1001
ACAD
1010
0.0
1020
0.0
1030
0.0
1001
ACDBBLOCKREPETAG
1070
     1
1071
       42
1005
131016
  0
LINE
  5
131017
  8
OBJECT
 10
3914.9999999999941
 20
-754.99999999999875
 30
0.0
 11
3914.9999999999968
 21
-799.78460339903359
 31
0.0
1001
ACDBBLOCKREPETAG
1070
     1
1071
        1
1005
131017
  0
LINE
  5
131018
  8
OBJECT
 10
4085.0000000000068
 20
-754.99999999999875
 30
0.0
 11
4085.0000000000032
 21
-799.78460339904063
 31
0.0
1001
ACDBBLOCKREPETAG
1070
     1
1071
        2
1005
131018
  0
LINE
  5
131019
  8
OBJECT
 10
4085.0000000000068
 20
-754.99999999999875
 30
0.0
 11
3914.9999999999941
 21
-754.99999999999875
 31
0.0
1001
ACDBBLOCKREPETAG
1070
     1
1071
        3
1005
131019
  0
LINE
  5
13101A
  8
OBJECT
 10
4079.9999999999991
 20
-964.99999999999864
 30
0.0
 11
3920.0
 21
-964.99999999999875
 31
0.0
1001
ACDBBLOCKREPETAG
1070
     1
1071
        4
1005
13101A
  0
LINE
  5
13101B
  8
OBJECT
 10
3914.9999999999968
 20
-799.78460339903415
 30
0.0
 11
3920.0
 21
-840.62257748298555
 31
0.0
1001
ACDBBLOCKREPETAG
1070
     1
1071
        6
1005
13101B
  0
LINE
  5
13101C
  8
OBJECT
 10
3920.0
 20
-840.62257748298555
 30
0.0
 11
3920.0
 21
-964.99999999999875
 31
0.0
1001
ACDBBLOCKREPETAG
1070
     1
1071
        7
1005
13101C
  0
LINE
  5
13101D
  8
OBJECT
 10
4085.0000000000032
 20
-799.78460339904063
 30
0.0
 11
4080.0
 21
-840.62257748298555
 31
0.0
1001
ACDBBLOCKREPETAG
1070
     1
1071
        8
1005
13101D
  0
LINE
  5
13101E
  8
OBJECT
 10
4080.0
 20
-840.62257748298555
 30
0.0
 11
4079.9999999999991
 21
-964.99999999999864
 31
0.0
1001
ACDBBLOCKREPETAG
1070
     1
1071
        9
1005
13101E
  0
LINE
  5
13101F
  8
OBJECT
 10
3930.0
 20
-964.99999999999875
 30
0.0
 11
3930.0
 21
-984.99999999999875
 31
0.0
1001
ACDBBLOCKREPETAG
1070
     1
1071
       10
1005
13101F
  0
LINE
  5
131020
  8
OBJECT
 10
3930.0
 20
-984.99999999999875
 30
0.0
 11
4070.0
 21
-984.99999999999875
 31
0.0
1001
ACDBBLOCKREPETAG
1070
     1
1071
       11
1005
131020
  0
LINE
  5
131021
  8
OBJECT
 10
4070.0
 20
-984.99999999999875
 30
0.0
 11
4070.0
 21
-964.99999999999864
 31
0.0
1001
ACDBBLOCKREPETAG
1070
     1
1071
       12
1005
131021
  0
LINE
  5
131022
  8
OBJECT
 10
3930.0
 20
-1079.999999999997
 30
0.0
 11
4070.0
 21
-1079.999999999997
 31
0.0
1001
ACDBBLOCKREPETAG
1070
     1
1071
        0
1005
131022
  0
LINE
  5
131023
  8
OBJECT
 10
3930.0
 20
-1079.999999999997
 30
0.0
 11
3930.0
 21
-839.99999999999704
 31
0.0
1001
ACDBBLOCKREPETAG
1070
     1
1071
        1
1005
131023
  0
LINE
  5
131024
  8
OBJECT
 10
4070.0
 20
-1079.999999999997
 30
0.0
 11
4070.0
 21
-839.99999999999704
 31
0.0
1001
ACDBBLOCKREPETAG
1070
     1
1071
        2
1005
131024
  0
LINE
  5
131025
  8
OBJECT
 10
3930.0
 20
-839.99999999999704
 30
0.0
 11
4070.0
 21
-839.99999999999704
 31
0.0
1001
ACDBBLOCKREPETAG
1070
     1
1071
        3
1005
131025
  0
LINE
  5
131026
  8
HIDDEN
 10
3937.5
 20
-839.99999999999704
 30
0.0
 11
3937.5
 21
-1079.999999999997
 31
0.0
1001
ACDBBLOCKREPETAG
1070
     1
1071
        4
1005
131026
  0
LINE
  5
131027
  8
HIDDEN
 10
4062.5
 20
-839.99999999999704
 30
0.0
 11
4062.5
 21
-1079.999999999997
 31
0.0
1001
ACDBBLOCKREPETAG
1070
     1
1071
        5
1005
131027
  0
LINE
  5
131028
  8
CENTER
 10
4000.0
 20
-769.99999999999875
 30
0.0
 11
4000.0
 21
-1094.999999999997
 31
0.0
1001
ACDBBLOCKREPETAG
1070
     1
1071
        6
1005
131028
  0
LINE
  5
131029
  8
OBJECT
 10
3925.0
 20
-769.99999999999875
 30
0.0
 11
3925.0
 21
-799.99999999999693
 31
0.0
1001
ACDBBLOCKREPETAG
1070
     1
1071
        7
1005
131029
  0
LINE
  5
13102A
  8
OBJECT
 10
4075.0000000000032
 20
-769.99999999999875
 30
0.0
 11
4075.0
 21
-799.99999999999693
 31
0.0
1001
ACDBBLOCKREPETAG
1070
     1
1071
        8
1005
13102A
  0
LINE
  5
13102B
  8
OBJECT
 10
3925.0
 20
-799.99999999999693
 30
0.0
 11
4075.0
 21
-799.99999999999693
 31
0.0
1001
ACDBBLOCKREPETAG
1070
     1
1071
        9
1005
13102B
  0
LINE
  5
13102C
  8
OBJECT
 10
3925.0
 20
-799.99999999999693
 30
0.0
 11
3930.0
 21
-839.99999999999704
 31
0.0
1001
ACDBBLOCKREPETAG
1070
     1
1071
       10
1005
13102C
  0
LINE
  5
13102D
  8
OBJECT
 10
4070.0
 20
-839.99999999999704
 30
0.0
 11
4075.0
 21
-799.99999999999693
 31
0.0
1001
ACDBBLOCKREPETAG
1070
     1
1071
       11
1005
13102D
  0
LINE
  5
13102E
  8
OBJECT
 10
1930.0
 20
-1079.999999999998
 30
0.0
 11
2070.0
 21
-1079.999999999998
 31
0.0
1001
ACDBBLOCKREPETAG
1070
     1
1071
        0
1005
13102E
  0
LINE
  5
13102F
  8
OBJECT
 10
1930.0
 20
-1079.999999999998
 30
0.0
 11
1930.0
 21
-839.99999999999795
 31
0.0
1001
ACDBBLOCKREPETAG
1070
     1
1071
        1
1005
13102F
  0
LINE
  5
131030
  8
OBJECT
 10
2070.0
 20
-1079.999999999998
 30
0.0
 11
2070.0
 21
-839.99999999999795
 31
0.0
1001
ACDBBLOCKREPETAG
1070
     1
1071
        2
1005
131030
  0
LINE
  5
131031
  8
OBJECT
 10
1930.0
 20
-839.99999999999795
 30
0.0
 11
2070.0
 21
-839.99999999999795
 31
0.0
1001
ACDBBLOCKREPETAG
1070
     1
1071
        3
1005
131031
  0
LINE
  5
131032
  8
HIDDEN
 10
1937.5
 20
-839.99999999999795
 30
0.0
 11
1937.5
 21
-1079.999999999998
 31
0.0
1001
ACDBBLOCKREPETAG
1070
     1
1071
        4
1005
131032
  0
LINE
  5
131033
  8
HIDDEN
 10
2062.5
 20
-839.99999999999795
 30
0.0
 11
2062.5
 21
-1079.999999999998
 31
0.0
1001
ACDBBLOCKREPETAG
1070
     1
1071
        5
1005
131033
  0
LINE
  5
131034
  8
CENTER
 10
2000.0
 20
-769.99999999999955
 30
0.0
 11
2000.0
 21
-1094.999999999997
 31
0.0
1001
ACDBBLOCKREPETAG
1070
     1
1071
        6
1005
131034
  0
LINE
  5
131035
  8
OBJECT
 10
1925.0
 20
-769.99999999999955
 30
0.0
 11
1925.0
 21
-799.99999999999773
 31
0.0
1001
ACDBBLOCKREPETAG
1070
     1
1071
        7
1005
131035
  0
LINE
  5
131036
  8
OBJECT
 10
2075.0000000000041
 20
-769.99999999999955
 30
0.0
 11
2075.0
 21
-799.99999999999773
 31
0.0
1001
ACDBBLOCKREPETAG
1070
     1
1071
        8
1005
131036
  0
LINE
  5
131037
  8
OBJECT
 10
1925.0
 20
-799.99999999999773
 30
0.0
 11
2075.0
 21
-799.99999999999773
 31
0.0
1001
ACDBBLOCKREPETAG
1070
     1
1071
        9
1005
131037
  0
LINE
  5
131038
  8
OBJECT
 10
1925.0
 20
-799.99999999999773
 30
0.0
 11
1930.0
 21
-839.99999999999795
 31
0.0
1001
ACDBBLOCKREPETAG
1070
     1
1071
       10
1005
131038
  0
LINE
  5
131039
  8
OBJECT
 10
2070.0
 20
-839.99999999999795
 30
0.0
 11
2075.0
 21
-799.99999999999773
 31
0.0
1001
ACDBBLOCKREPETAG
1070
     1
1071
       11
1005
131039
  0
TEXT
  5
13103A
  8
SLIM
 10
3824.5999999999999
 20
-1408.999999999997
 30
0.0
 40
28.0
  1
※ 対応スラブ厚　180～200
 41
0.75
  0
TEXT
  5
13103B
  8
SLIM
 10
3611.5
 20
-1502.3333333333301
 30
0.0
 40
28.0
  1
国土交通大臣認定・（財）日本消防設備安全センター性能評定取得品
 41
0.75
  0
TEXT
  5
13103C
  8
SLIM
 10
3631.1000000000022
 20
-1548.999999999997
 30
0.0
 40
28.0
  1
注）ご採用にあたり、認定書及び評定書の内容をご確認ください。
 41
0.75
  0
TEXT
  5
13103D
  8
SLIM
 10
3741.6250000000009
 20
-1347.499999999997
 30
0.0
 40
35.0
  1
片受けスタイル（S）＋シンドカット
 41
0.75
  0
TEXT
  5
13103E
  8
SLIM
 10
1856.25
 20
-1347.499999999998
 30
0.0
 40
35.0
  1
片受けスタイル（S）
 41
0.75
  0
VIEWPORT
  5
F6BA7
 67
     1
  8
0
 10
145.33033752441401
 20
101.8328354358673
 30
0.0
 40
334.0025019414623
 41
222.19657968139651
 68
     1
 69
     1
1001
ACAD
1000
MVIEW
1002
{
1070
    16
1010
0.0
1020
0.0
1030
0.0
1010
0.0
1020
0.0
1030
1.0
1040
0.0
1040
222.19657968139651
1040
145.33033752441401
1040
101.8328354358673
1040
50.0
1040
0.0
1040
0.0
1070
     0
1070
     0
1070
     1
1070
     1
1070
     0
1070
     0
1070
     0
1070
     0
1040
0.0
1040
0.0
1040
0.0
1040
10.0
1040
10.0
1040
10.0
1040
10.0
1070
     0
1002
{
1002
}
1002
}
  0
VIEWPORT
  5
F6BA9
 67
     1
  8
OBJECT
 10
145.3303314447403
 20
101.8328338861465
 30
0.0
 40
232.5285303115844
 41
162.93253421783439
 68
     2
 69
     2
1001
ACAD
1000
MVIEW
1002
{
1070
    16
1010
0.0
1020
0.0
1030
0.0
1010
0.0
1020
0.0
1030
1.0
1040
0.0
1040
25942.55904403147
1040
2377.604457077377
1040
-7591.5176687056619
1040
50.0
1040
0.0
1040
0.0
1070
     0
1070
   600
1070
     1
1070
     1
1070
     0
1070
     0
1070
     0
1070
     0
1040
0.0
1040
0.0
1040
0.0
1040
1.0
1040
1.0
1040
0.0
1040
0.0
1070
     0
1002
{
1002
}
1002
}
  0
ENDSEC
  0
EOF
