  0
SECTION
  2
HEADER
  9
$ACADVER
  1
AC1009
  9
$INSBASE
 10
0.0
 20
0.0
 30
0.0
  9
$EXTMIN
 10
0.0
 20
-3697.4999999999968
 30
0.0
  9
$EXTMAX
 10
5575.0
 20
607.5
 30
0.0
  9
$LIMMIN
 10
0.0
 20
0.0
  9
$LIMMAX
 10
210.0
 20
297.0
  9
$ORTHOMODE
 70
     0
  9
$REGENMODE
 70
     1
  9
$FILLMODE
 70
     1
  9
$QTEXTMODE
 70
     0
  9
$MIRRTEXT
 70
     0
  9
$DRAGMODE
 70
     2
  9
$LTSCALE
 40
1.0
  9
$OSMODE
 70
   109
  9
$ATTMODE
 70
     1
  9
$TEXTSIZE
 40
4.0
  9
$TRACEWID
 40
0.05
  9
$TEXTSTYLE
  7
STANDARD
  9
$CLAYER
  8
OBJECT
  9
$CELTYPE
  6
BYLAYER
  9
$CECOLOR
 62
   256
  9
$DIMSCALE
 40
10.0
  9
$DIMASZ
 40
2.0
  9
$DIMEXO
 40
1.0
  9
$DIMDLI
 40
10.0
  9
$DIMRND
 40
0.0
  9
$DIMDLE
 40
0.0
  9
$DIMEXE
 40
1.0
  9
$DIMTP
 40
0.0
  9
$DIMTM
 40
0.0
  9
$DIMTXT
 40
3.2000000000000002
  9
$DIMCEN
 40
0.0
  9
$DIMTSZ
 40
0.0
  9
$DIMTOL
 70
     0
  9
$DIMLIM
 70
     0
  9
$DIMTIH
 70
     0
  9
$DIMTOH
 70
     0
  9
$DIMSE1
 70
     0
  9
$DIMSE2
 70
     0
  9
$DIMTAD
 70
     1
  9
$DIMZIN
 70
     8
  9
$DIMBLK
  1
OPEN30
  9
$DIMASO
 70
     1
  9
$DIMSHO
 70
     1
  9
$DIMPOST
  1

  9
$DIMAPOST
  1

  9
$DIMALT
 70
     0
  9
$DIMALTD
 70
     2
  9
$DIMALTF
 40
25.399999999999999
  9
$DIMLFAC
 40
1.0
  9
$DIMTOFL
 70
     1
  9
$DIMTVP
 40
0.0
  9
$DIMTIX
 70
     0
  9
$DIMSOXD
 70
     0
  9
$DIMSAH
 70
     0
  9
$DIMBLK1
  1

  9
$DIMBLK2
  1

  9
$DIMSTYLE
  2
S10
  9
$DIMCLRD
 70
   256
  9
$DIMCLRE
 70
   256
  9
$DIMCLRT
 70
   256
  9
$DIMTFAC
 40
1.0
  9
$DIMGAP
 40
0.9
  9
$LUNITS
 70
     2
  9
$LUPREC
 70
     2
  9
$SKETCHINC
 40
0.1
  9
$FILLETRAD
 40
0.0
  9
$AUNITS
 70
     0
  9
$AUPREC
 70
     2
  9
$MENU
  1
ACAD
  9
$ELEVATION
 40
0.0
  9
$PELEVATION
 40
0.0
  9
$THICKNESS
 40
0.0
  9
$LIMCHECK
 70
     0
  9
$BLIPMODE
 70
     0
  9
$CHAMFERA
 40
2.0
  9
$CHAMFERB
 40
2.0
  9
$SKPOLY
 70
     0
  9
$TDCREATE
 40
2453095.4929404748
  9
$TDUPDATE
 40
2456945.619499132
  9
$TDINDWG
 40
18.348203483799999
  9
$TDUSRTIMER
 40
18.3482029398
  9
$USRTIMER
 70
     1
  9
$ANGBASE
 50
0.0
  9
$ANGDIR
 70
     0
  9
$PDMODE
 70
    35
  9
$PDSIZE
 40
2.0
  9
$PLINEWID
 40
0.0
  9
$COORDS
 70
     1
  9
$SPLFRAME
 70
     0
  9
$SPLINETYPE
 70
     6
  9
$SPLINESEGS
 70
     8
  9
$ATTDIA
 70
     0
  9
$ATTREQ
 70
     1
  9
$HANDLING
 70
     1
  9
$HANDSEED
  5
13105C
  9
$SURFTAB1
 70
     6
  9
$SURFTAB2
 70
     6
  9
$SURFTYPE
 70
     6
  9
$SURFU
 70
     6
  9
$SURFV
 70
     6
  9
$UCSNAME
  2

  9
$UCSORG
 10
0.0
 20
0.0
 30
0.0
  9
$UCSXDIR
 10
1.0
 20
0.0
 30
0.0
  9
$UCSYDIR
 10
0.0
 20
1.0
 30
0.0
  9
$PUCSNAME
  2

  9
$PUCSORG
 10
0.0
 20
0.0
 30
0.0
  9
$PUCSXDIR
 10
1.0
 20
0.0
 30
0.0
  9
$PUCSYDIR
 10
0.0
 20
1.0
 30
0.0
  9
$USERI1
 70
     0
  9
$USERI2
 70
     0
  9
$USERI3
 70
     0
  9
$USERI4
 70
     0
  9
$USERI5
 70
     0
  9
$USERR1
 40
0.0
  9
$USERR2
 40
0.0
  9
$USERR3
 40
0.0
  9
$USERR4
 40
0.0
  9
$USERR5
 40
0.0
  9
$WORLDVIEW
 70
     1
  9
$SHADEDGE
 70
     3
  9
$SHADEDIF
 70
    70
  9
$TILEMODE
 70
     1
  9
$MAXACTVP
 70
    64
  9
$PLIMCHECK
 70
     0
  9
$PEXTMIN
 10
29.066066288948051
 20
20.366566777229309
 30
0.0
  9
$PEXTMAX
 10
261.5945966005325
 20
183.29910099506381
 30
0.0
  9
$PLIMMIN
 10
-3.17498779296875
 20
-3.1749999523162842
  9
$PLIMMAX
 10
293.83566284179687
 20
206.8406708240509
  9
$UNITMODE
 70
     0
  9
$VISRETAIN
 70
     1
  9
$PLINEGEN
 70
     0
  9
$PSLTSCALE
 70
     1
  0
ENDSEC
  0
SECTION
  2
TABLES
  0
TABLE
  2
VPORT
 70
     1
  0
VPORT
  2
*ACTIVE
 70
     0
 10
0.0
 20
0.0
 11
1.0
 21
1.0
 12
2404.6288474380472
 22
-1156.797135386186
 13
0.0
 23
0.0
 14
1.0
 24
1.0
 15
0.0
 25
0.0
 16
0.0
 26
0.0
 36
1.0
 17
0.0
 27
0.0
 37
0.0
 40
5046.5500501539927
 41
1.6494178525226391
 42
50.0
 43
0.0
 44
0.0
 50
0.0
 51
0.0
 71
     0
 72
   600
 73
     1
 74
     1
 75
     0
 76
     0
 77
     0
 78
     0
  0
ENDTAB
  0
TABLE
  2
LTYPE
 70
     4
  0
LTYPE
  2
CONTINUOUS
 70
     0
  3
Solid line
 72
    65
 73
     0
 40
0.0
  0
LTYPE
  2
PHANTOM2
 70
     0
  3
___ _ _ ___ _ _ ___ _ _ ___ _ _
 72
    65
 73
     6
 40
1.25
 49
0.625
 49
-0.125
 49
0.125
 49
-0.125
 49
0.125
 49
-0.125
  0
LTYPE
  2
ACAD_ISO08W100
 70
     0
  3
ISO long-dash short-dash ____ __ ____ __ ____ _
 72
    65
 73
     4
 40
36.0
 49
24.0
 49
-3.0
 49
6.0
 49
-3.0
  0
LTYPE
  2
ACAD_ISO02W100
 70
     0
  3
ISO dash __ __ __ __ __ __ __ __ __ __ __ __ __
 72
    65
 73
     2
 40
15.0
 49
12.0
 49
-3.0
  0
ENDTAB
  0
TABLE
  2
LAYER
 70
     8
  0
LAYER
  2
0
 70
     0
 62
     7
  6
CONTINUOUS
  0
LAYER
  2
OBJECT
 70
     0
 62
     4
  6
CONTINUOUS
  0
LAYER
  2
DEFPOINTS
 70
     0
 62
     7
  6
CONTINUOUS
  0
LAYER
  2
DIM
 70
     0
 62
     7
  6
CONTINUOUS
  0
LAYER
  2
HIDDEN
 70
     0
 62
     2
  6
ACAD_ISO02W100
  0
LAYER
  2
CENTER
 70
     0
 62
     2
  6
ACAD_ISO08W100
  0
LAYER
  2
DOTS
 70
     0
 62
     1
  6
CONTINUOUS
  0
LAYER
  2
SLIM
 70
     0
 62
     2
  6
CONTINUOUS
  0
ENDTAB
  0
TABLE
  2
STYLE
 70
     2
  0
STYLE
  2
STANDARD
 70
     0
 40
0.0
 41
0.75
 50
0.0
 71
     0
 42
4.0
  3
simplex.shx
  4
bigfont.shx
  0
ENDTAB
  0
TABLE
  2
VIEW
 70
     0
  0
ENDTAB
  0
TABLE
  2
UCS
 70
     0
  0
ENDTAB
  0
TABLE
  2
APPID
 70
    18
  0
APPID
  2
ACAD
 70
     0
  0
APPID
  2
ACADANNOTATIVE
 70
     0
  0
APPID
  2
ACAD_PSEXT
 70
     0
  0
APPID
  2
ACAD_EXEMPT_FROM_CAD_STANDARDS
 70
     0
  0
APPID
  2
ACAECLAYERSTANDARD
 70
     0
  0
APPID
  2
ACAUTHENVIRON
 70
     0
  0
APPID
  2
ACDBDYNAMICBLOCKTRUENAME
 70
     0
  0
APPID
  2
ACDBDYNAMICBLOCKGUID
 70
     0
  0
APPID
  2
ACDBBLOCKREPETAG
 70
     0
  0
APPID
  2
ACDBBLOCKREPBTAG
 70
     0
  0
APPID
  2
ACAD_NAV_VCDISPLAY
 70
     0
  0
APPID
  2
ACAD_DSTYLE_DIMRADIAL_EXTENSION
 70
     0
  0
APPID
  2
ACAD_DSTYLE_DIMJAG
 70
     0
  0
APPID
  2
ACAD_DSTYLE_DIMTALN
 70
     0
  0
APPID
  2
ACADANNOPO
 70
     0
  0
APPID
  2
GRADIENTCOLOR1ACI
 70
     0
  0
APPID
  2
GRADIENTCOLOR2ACI
 70
     0
  0
APPID
  2
ACAD_MLEADERVER
 70
     0
  0
ENDTAB
  0
TABLE
  2
DIMSTYLE
 70
     3
  0
DIMSTYLE
  2
STANDARD
 70
     0
  3

  4

  5

  6

  7

 40
1.0
 41
0.18
 42
0.0625
 43
0.38
 44
0.18
 45
0.0
 46
0.0
 47
0.0
 48
0.0
140
0.18
141
0.09
142
0.0
143
25.399999999999999
144
1.0
145
0.0
146
1.0
147
0.09
 71
     0
 72
     0
 73
     1
 74
     1
 75
     0
 76
     0
 77
     0
 78
     0
170
     0
171
     2
172
     0
173
     0
174
     0
175
     0
176
     0
177
     0
178
     0
  0
DIMSTYLE
  2
S10
 70
     0
  3

  4

  5

  6

  7

 40
10.0
 41
2.0
 42
1.0
 43
10.0
 44
1.0
 45
0.0
 46
0.0
 47
0.0
 48
0.0
140
3.2000000000000002
141
0.0
142
0.0
143
25.399999999999999
144
1.0
145
0.0
146
1.0
147
0.9
 71
     0
 72
     0
 73
     0
 74
     0
 75
     0
 76
     0
 77
     1
 78
     8
170
     0
171
     2
172
     1
173
     0
174
     0
175
     0
176
   256
177
   256
178
   256
  0
ENDTAB
  0
ENDSEC
  0
SECTION
  2
BLOCKS
  0
BLOCK
  8
0
  2
$MODEL_SPACE
 70
     0
 10
0.0
 20
0.0
 30
0.0
  3
$MODEL_SPACE
  1

  0
ENDBLK
  5
130E34
  8
0
  0
BLOCK
 67
     1
  8
0
  2
$PAPER_SPACE
 70
     0
 10
0.0
 20
0.0
 30
0.0
  3
$PAPER_SPACE
  1

  0
ENDBLK
  5
130E30
 67
     1
  8
0
  0
BLOCK
  8
0
  2
_OPEN30
 70
     0
 10
0.0
 20
0.0
 30
0.0
  3
_OPEN30
  1

  0
LINE
  5
202
  8
0
  6
BYBLOCK
 62
     0
 10
-1.0
 20
0.26794919
 30
0.0
 11
0.0
 21
0.0
 31
0.0
  0
LINE
  5
203
  8
0
  6
BYBLOCK
 62
     0
 10
0.0
 20
0.0
 30
0.0
 11
-1.0
 21
-0.26794919
 31
0.0
  0
LINE
  5
204
  8
0
  6
BYBLOCK
 62
     0
 10
0.0
 20
0.0
 30
0.0
 11
-1.0
 21
0.0
 31
0.0
  0
ENDBLK
  5
206
  8
0
  0
BLOCK
  8
0
  2
*U201
 70
     1
 10
0.0
 20
0.0
 30
0.0
  3
*U201
  1

  0
TEXT
  5
130D98
  8
SLIM
 10
258.0000000006039
 20
-697.95238095237005
 30
0.0
 40
26.0
  1
75
 50
270.0
  0
ENDBLK
  5
130D9A
  8
0
  0
BLOCK
  8
0
  2
*U202
 70
     1
 10
0.0
 20
0.0
 30
0.0
  3
*U202
  1

  0
TEXT
  5
130D9C
  8
SLIM
 10
122.5714285720324
 20
-547.00000000000364
 30
0.0
 40
26.0
  1
75Z
  0
ENDBLK
  5
130D9E
  8
0
  0
BLOCK
  8
0
  2
*U203
 70
     1
 10
0.0
 20
0.0
 30
0.0
  3
*U203
  1

  0
TEXT
  5
130DA0
  8
SLIM
 10
625.25000000068394
 20
-688.04761904760801
 30
0.0
 40
26.0
  1
100
 50
270.0
  0
ENDBLK
  5
130DA2
  8
0
  0
BLOCK
  8
0
  2
*U204
 70
     1
 10
0.0
 20
0.0
 30
0.0
  3
*U204
  1

  0
TEXT
  5
130DA4
  8
SLIM
 10
482.5714285721125
 20
-547.00000000000364
 30
0.0
 40
26.0
  1
75Z
  0
ENDBLK
  5
130DA6
  8
0
  0
BLOCK
  8
0
  2
*U205
 70
     1
 10
0.0
 20
0.0
 30
0.0
  3
*U205
  1

  0
TEXT
  5
130DA8
  8
SLIM
 10
618.00000000068394
 20
-233.9523809523628
 30
0.0
 40
26.0
  1
65
 50
270.0
  0
ENDBLK
  5
130DAA
  8
0
  0
BLOCK
  8
0
  2
*U206
 70
     1
 10
0.0
 20
0.0
 30
0.0
  3
*U206
  1

  0
TEXT
  5
130DAC
  8
SLIM
 10
482.5714285721125
 20
-82.999999999996334
 30
0.0
 40
26.0
  1
75Z
  0
ENDBLK
  5
130DAE
  8
0
  0
BLOCK
  8
0
  2
*U207
 70
     1
 10
0.0
 20
0.0
 30
0.0
  3
*U207
  1

  0
TEXT
  5
130DB0
  8
SLIM
 10
258.0000000006039
 20
-233.9523809523628
 30
0.0
 40
26.0
  1
50
 50
270.0
  0
ENDBLK
  5
130DB2
  8
0
  0
BLOCK
  8
0
  2
*U208
 70
     1
 10
0.0
 20
0.0
 30
0.0
  3
*U208
  1

  0
TEXT
  5
130DB4
  8
SLIM
 10
122.5714285720324
 20
-82.999999999996334
 30
0.0
 40
26.0
  1
75Z
  0
ENDBLK
  5
130DB6
  8
0
  0
BLOCK
  8
0
  2
*U209
 70
     1
 10
0.0
 20
0.0
 30
0.0
  3
*U209
  1

  0
TEXT
  5
130DB8
  8
DIM
 10
2209.479620594459
 20
-3184.1428571428528
 30
0.0
 40
32.0
  1
A
 50
90.0
 41
0.75
  0
ENDBLK
  5
130DBA
  8
0
  0
BLOCK
  8
0
  2
*U210
 70
     1
 10
0.0
 20
0.0
 30
0.0
  3
*U210
  1

  0
TEXT
  5
130DBC
  8
DIM
 10
2207.8409284037348
 20
-3565.9999999999959
 30
0.0
 40
32.0
  1
B
 50
90.0
 41
0.75
  0
ENDBLK
  5
130DBE
  8
0
  0
BLOCK
  8
0
  2
*U211
 70
     1
 10
0.0
 20
0.0
 30
0.0
  3
*U211
  1

  0
TEXT
  5
130DC0
  8
DIM
 10
2061.428571428572
 20
-3038.208121984444
 30
0.0
 40
32.0
  1
C
 41
0.75
  0
ENDBLK
  5
130DC2
  8
0
  0
ENDSEC
  0
SECTION
  2
ENTITIES
  0
LINE
  5
12515F
  8
OBJECT
 10
1825.0
 20
-3579.9999999999959
 30
0.0
 11
5575.0
 21
-3579.9999999999959
 31
0.0
  0
LINE
  5
125161
  8
SLIM
 10
2616.0
 20
-2637.50001604727
 30
0.0
 11
2616.0
 21
-2967.50001604727
 31
0.0
  0
LINE
  5
125162
  8
SLIM
 10
2740.0
 20
-2637.50001604727
 30
0.0
 11
2740.0
 21
-2967.50001604727
 31
0.0
  0
LINE
  5
125163
  8
SLIM
 10
2870.0
 20
-2697.50001604727
 30
0.0
 11
2870.0
 21
-2967.50001604727
 31
0.0
  0
LINE
  5
125164
  8
SLIM
 10
3000.0
 20
-2697.50001604727
 30
0.0
 11
3000.0
 21
-2967.50001604727
 31
0.0
  0
LINE
  5
125165
  8
SLIM
 10
3130.0
 20
-2967.50001604727
 30
0.0
 11
3130.0
 21
-2697.50001604727
 31
0.0
  0
LINE
  5
125166
  8
SLIM
 10
3260.0
 20
-2967.50001604727
 30
0.0
 11
3260.0
 21
-2637.50001604727
 31
0.0
  0
LINE
  5
125167
  8
SLIM
 10
3260.0
 20
-2637.50001604727
 30
0.0
 11
2616.0
 21
-2637.50001604727
 31
0.0
  0
LINE
  5
125168
  8
SLIM
 10
3260.0
 20
-2697.50001604727
 30
0.0
 11
2740.0
 21
-2697.50001604727
 31
0.0
  0
LINE
  5
125169
  8
SLIM
 10
3260.0
 20
-2757.50001604727
 30
0.0
 11
2616.0
 21
-2757.50001604727
 31
0.0
  0
LINE
  5
12516A
  8
SLIM
 10
3260.0
 20
-2827.50001604727
 30
0.0
 11
2616.0
 21
-2827.50001604727
 31
0.0
  0
LINE
  5
12516B
  8
SLIM
 10
3260.0
 20
-2897.50001604727
 30
0.0
 11
2616.0
 21
-2897.50001604727
 31
0.0
  0
LINE
  5
12516C
  8
SLIM
 10
3260.0
 20
-2967.50001604727
 30
0.0
 11
2616.0
 21
-2967.50001604727
 31
0.0
  0
LINE
  5
125181
  8
SLIM
 10
2740.0
 20
-2757.50001604727
 30
0.0
 11
2615.9999722746579
 21
-2637.5
 31
0.0
  0
LINE
  5
1251B6
  8
OBJECT
 10
5323.0
 20
-3395.9999999999968
 30
0.0
 11
5323.0
 21
-3374.9999999999968
 31
0.0
1001
ACDBBLOCKREPETAG
1070
     1
1071
       20
1005
1251B6
  0
LINE
  5
1251B7
  8
OBJECT
 10
5323.0
 20
-3374.9999999999968
 30
0.0
 11
5477.0
 21
-3374.9999999999968
 31
0.0
1001
ACDBBLOCKREPETAG
1070
     1
1071
       21
1005
1251B7
  0
LINE
  5
1251B8
  8
HIDDEN
 10
5343.0
 20
-3444.9999999999968
 30
0.0
 11
5457.0
 21
-3444.9999999999968
 31
0.0
1001
ACDBBLOCKREPETAG
1070
     1
1071
       22
1005
1251B8
  0
LINE
  5
1251B9
  8
OBJECT
 10
5477.0
 20
-3374.9999999999968
 30
0.0
 11
5477.0
 21
-3395.9999999999968
 31
0.0
1001
ACDBBLOCKREPETAG
1070
     1
1071
       23
1005
1251B9
  0
LINE
  5
1251BA
  8
OBJECT
 10
5477.0
 20
-3395.9999999999968
 30
0.0
 11
5323.0
 21
-3395.9999999999968
 31
0.0
1001
ACDBBLOCKREPETAG
1070
     1
1071
       24
1005
1251BA
  0
LINE
  5
1251BB
  8
CENTER
 10
5400.0
 20
-3359.9999999999968
 30
0.0
 11
5400.0
 21
-3594.9999999999968
 31
0.0
1001
ACDBBLOCKREPETAG
1070
     1
1071
       25
1005
1251BB
  0
LINE
  5
1251BC
  8
OBJECT
 10
5325.0
 20
-3458.9999999999968
 30
0.0
 11
5325.0
 21
-3582.9999999999968
 31
0.0
1001
ACDBBLOCKREPETAG
1070
     1
1071
       26
1005
1251BC
  0
LINE
  5
1251BD
  8
OBJECT
 10
5328.0
 20
-3395.9999999999968
 30
0.0
 11
5328.0
 21
-3458.9999999999968
 31
0.0
1001
ACDBBLOCKREPETAG
1070
     1
1071
       27
1005
1251BD
  0
LINE
  5
1251BE
  8
OBJECT
 10
5472.0
 20
-3458.9999999999968
 30
0.0
 11
5472.0
 21
-3395.9999999999968
 31
0.0
1001
ACDBBLOCKREPETAG
1070
     1
1071
       28
1005
1251BE
  0
LINE
  5
1251BF
  8
OBJECT
 10
5475.0
 20
-3458.9999999999968
 30
0.0
 11
5456.7802782663139
 21
-3458.9999999999968
 31
0.0
1001
ACDBBLOCKREPETAG
1070
     1
1071
       30
1005
1251BF
  0
LINE
  5
1251C0
  8
OBJECT
 10
5475.0
 20
-3458.9999999999968
 30
0.0
 11
5475.0
 21
-3582.9999999999968
 31
0.0
1001
ACDBBLOCKREPETAG
1070
     1
1071
       34
1005
1251C0
  0
POINT
  5
1251C1
  8
DOTS
 10
5400.0
 20
-3579.9999999999968
 30
0.0
1001
ACDBBLOCKREPETAG
1070
     1
1071
      187
1005
1251C1
  0
LINE
  5
1251C2
  8
CENTER
 10
5310.0
 20
-3507.9999999999968
 30
0.0
 11
5490.0
 21
-3507.9999999999968
 31
0.0
1001
ACDBBLOCKREPETAG
1070
     1
1071
       23
1005
1251C2
  0
CIRCLE
  5
1251C3
  8
OBJECT
 10
5400.0
 20
-3507.9999999999968
 30
0.0
 40
53.5
1001
ACDBBLOCKREPETAG
1070
     1
1071
       24
1005
1251C3
  0
CIRCLE
  5
1251C4
  8
OBJECT
 10
5400.0
 20
-3507.9999999999968
 30
0.0
 40
67.0
1001
ACDBBLOCKREPETAG
1070
     1
1071
       25
1005
1251C4
  0
ARC
  5
1251C5
  8
OBJECT
 10
5400.0
 20
-3507.9999999999968
 30
0.0
 40
75.0
 50
286.26020470824369
 51
253.73979529175631
1001
ACDBBLOCKREPETAG
1070
     1
1071
       27
1005
1251C5
  0
LINE
  5
1251C6
  8
OBJECT
 10
5379.0
 20
-3579.9999999999968
 30
0.0
 11
5421.0
 21
-3579.9999999999968
 31
0.0
1001
ACDBBLOCKREPETAG
1070
     1
1071
       28
1005
1251C6
  0
LINE
  5
1251C7
  8
OBJECT
 10
5343.2197217336861
 20
-3458.9999999999968
 30
0.0
 11
5325.0
 21
-3458.9999999999968
 31
0.0
1001
ACDBBLOCKREPETAG
1070
     1
1071
       30
1005
1251BF
  0
TEXT
  5
12CC49
  8
SLIM
 10
-0.0000000000000011
 20
282.5
 30
0.0
 40
35.0
  1
※ 100枝（4）がある場合、品名の最後に【管底】が付きます。
 41
0.9
 11
0.0
 21
300.0
 31
0.0
 73
     2
  0
TEXT
  5
130557
  8
SLIM
 10
52.285714285714313
 20
-444.0
 30
0.0
 40
48.0
  1
Z61-P110
 41
0.75
 72
     4
 11
180.0
 21
-420.0
 31
0.0
  0
TEXT
  5
130558
  8
SLIM
 10
408.85714285714278
 20
-444.0
 30
0.0
 40
48.0
  1
Z62-P110
 41
0.75
 72
     4
 11
540.0
 21
-420.0
 31
0.0
  0
TEXT
  5
130559
  8
SLIM
 10
48.857142857142833
 20
-908.0
 30
0.0
 40
48.0
  1
Z63-P110
 41
0.75
 72
     4
 11
180.0
 21
-884.0
 31
0.0
  0
TEXT
  5
13055A
  8
SLIM
 10
408.85714285714278
 20
-908.0
 30
0.0
 40
48.0
  1
Z64-P110
 41
0.75
 72
     4
 11
540.0
 21
-884.0
 31
0.0
  0
CIRCLE
  5
1305BA
  8
OBJECT
 10
516.00000000060368
 20
-718.9999999999817
 30
0.0
 40
70.0
1001
ACDBBLOCKREPETAG
1070
     1
1071
       43
1005
1305BA
  0
CIRCLE
  5
1305BB
  8
OBJECT
 10
516.00000000060368
 20
-718.9999999999817
 30
0.0
 40
77.0
1001
ACDBBLOCKREPETAG
1070
     1
1071
       44
1005
1305BB
  0
ARC
  5
1305BC
  8
OBJECT
 10
516.00000000060368
 20
-718.9999999999817
 30
0.0
 40
80.0
 50
140.8050325737787
 51
219.1949674262213
1001
ACDBBLOCKREPETAG
1070
     1
1071
       45
1005
1305BC
  0
LINE
  5
1305BD
  8
OBJECT
 10
454.00000000060368
 20
-673.33819977265716
 30
0.0
 11
454.00000000060368
 21
-638.99999999998181
 31
0.0
1001
ACDBBLOCKREPETAG
1070
     1
1071
       46
1005
1305BD
  0
LINE
  5
1305BE
  8
OBJECT
 10
578.00000000060368
 20
-656.99999999998181
 30
0.0
 11
578.00000000060368
 21
-638.99999999998181
 31
0.0
1001
ACDBBLOCKREPETAG
1070
     1
1071
       22
1005
1305BE
  0
LINE
  5
1305BF
  8
OBJECT
 10
578.00000000060368
 20
-656.99999999998181
 30
0.0
 11
596.0000000006039
 21
-656.99999999998181
 31
0.0
1001
ACDBBLOCKREPETAG
1070
     1
1071
       24
1005
1305BF
  0
LINE
  5
1305C0
  8
OBJECT
 10
578.00000000060368
 20
-780.9999999999817
 30
0.0
 11
596.0000000006039
 21
-780.9999999999817
 31
0.0
1001
ACDBBLOCKREPETAG
1070
     1
1071
       25
1005
1305C0
  0
LINE
  5
1305C1
  8
OBJECT
 10
578.00000000060368
 20
-780.9999999999817
 30
0.0
 11
578.00000000060368
 21
-798.9999999999817
 31
0.0
1001
ACDBBLOCKREPETAG
1070
     1
1071
       27
1005
1305C1
  0
LINE
  5
1305C2
  8
OBJECT
 10
454.00000000060368
 20
-764.66180022730623
 30
0.0
 11
454.00000000060368
 21
-798.9999999999817
 31
0.0
1001
ACDBBLOCKREPETAG
1070
     1
1071
       28
1005
1305C2
  0
LINE
  5
1305C3
  8
OBJECT
 10
570.44722215196805
 20
-773.44722215134584
 30
0.0
 11
578.00000000060368
 21
-780.9999999999817
 31
0.0
1001
ACDBBLOCKREPETAG
1070
     1
1071
       37
1005
1305C3
  0
LINE
  5
1305C4
  8
OBJECT
 10
570.44722215196805
 20
-664.55277784861755
 30
0.0
 11
578.00000000060368
 21
-656.99999999998181
 31
0.0
1001
ACDBBLOCKREPETAG
1070
     1
1071
       38
1005
1305C4
  0
POINT
  5
1305C5
  8
DOTS
 10
516.00000000060368
 20
-718.9999999999817
 30
0.0
1001
ACDBBLOCKREPETAG
1070
     1
1071
       39
1005
1305C5
  0
CIRCLE
  5
1305C6
  8
OBJECT
 10
516.00000000060368
 20
-718.9999999999817
 30
0.0
 40
53.5
1001
ACDBBLOCKREPETAG
1070
     1
1071
      153
1005
1305C6
  0
CIRCLE
  5
1305C7
  8
OBJECT
 10
156.0000000006039
 20
-718.9999999999817
 30
0.0
 40
70.0
1001
ACDBBLOCKREPETAG
1070
     1
1071
       43
1005
1305C7
  0
CIRCLE
  5
1305C8
  8
OBJECT
 10
156.0000000006039
 20
-718.9999999999817
 30
0.0
 40
77.0
1001
ACDBBLOCKREPETAG
1070
     1
1071
       44
1005
1305C8
  0
ARC
  5
1305C9
  8
OBJECT
 10
156.0000000006039
 20
-718.9999999999817
 30
0.0
 40
80.0
 50
140.80503257377961
 51
219.1949674262203
1001
ACDBBLOCKREPETAG
1070
     1
1071
       45
1005
1305C9
  0
LINE
  5
1305CA
  8
OBJECT
 10
94.000000000603904
 20
-673.33819977265716
 30
0.0
 11
94.000000000603904
 21
-638.99999999998181
 31
0.0
1001
ACDBBLOCKREPETAG
1070
     1
1071
       46
1005
1305CA
  0
LINE
  5
1305CB
  8
OBJECT
 10
218.0000000006039
 20
-656.99999999998181
 30
0.0
 11
218.0000000006039
 21
-638.99999999998181
 31
0.0
1001
ACDBBLOCKREPETAG
1070
     1
1071
       22
1005
1305CB
  0
LINE
  5
1305CC
  8
OBJECT
 10
218.0000000006039
 20
-656.99999999998181
 30
0.0
 11
236.0000000006039
 21
-656.99999999998181
 31
0.0
1001
ACDBBLOCKREPETAG
1070
     1
1071
       24
1005
1305CC
  0
LINE
  5
1305CD
  8
OBJECT
 10
218.0000000006039
 20
-780.9999999999817
 30
0.0
 11
236.0000000006039
 21
-780.9999999999817
 31
0.0
1001
ACDBBLOCKREPETAG
1070
     1
1071
       25
1005
1305CD
  0
LINE
  5
1305CE
  8
OBJECT
 10
218.0000000006039
 20
-780.9999999999817
 30
0.0
 11
218.0000000006039
 21
-798.9999999999817
 31
0.0
1001
ACDBBLOCKREPETAG
1070
     1
1071
       27
1005
1305CE
  0
LINE
  5
1305CF
  8
OBJECT
 10
94.000000000603904
 20
-764.66180022730623
 30
0.0
 11
94.000000000603904
 21
-798.9999999999817
 31
0.0
1001
ACDBBLOCKREPETAG
1070
     1
1071
       28
1005
1305CF
  0
LINE
  5
1305D0
  8
OBJECT
 10
210.44722215196819
 20
-773.44722215134584
 30
0.0
 11
218.0000000006039
 21
-780.9999999999817
 31
0.0
1001
ACDBBLOCKREPETAG
1070
     1
1071
       37
1005
1305D0
  0
LINE
  5
1305D1
  8
OBJECT
 10
210.44722215196819
 20
-664.55277784861755
 30
0.0
 11
218.0000000006039
 21
-656.99999999998181
 31
0.0
1001
ACDBBLOCKREPETAG
1070
     1
1071
       38
1005
1305D1
  0
POINT
  5
1305D2
  8
DOTS
 10
156.0000000006039
 20
-718.9999999999817
 30
0.0
1001
ACDBBLOCKREPETAG
1070
     1
1071
       39
1005
1305D2
  0
CIRCLE
  5
1305D3
  8
OBJECT
 10
156.0000000006039
 20
-718.9999999999817
 30
0.0
 40
53.5
1001
ACDBBLOCKREPETAG
1070
     1
1071
      153
1005
1305D3
  0
CIRCLE
  5
1305D4
  8
OBJECT
 10
516.00000000060368
 20
-254.99999999998181
 30
0.0
 40
70.0
1001
ACDBBLOCKREPETAG
1070
     1
1071
       43
1005
1305D4
  0
CIRCLE
  5
1305D5
  8
OBJECT
 10
516.00000000060368
 20
-254.99999999998181
 30
0.0
 40
77.0
1001
ACDBBLOCKREPETAG
1070
     1
1071
       44
1005
1305D5
  0
ARC
  5
1305D6
  8
OBJECT
 10
516.00000000060368
 20
-254.99999999998181
 30
0.0
 40
80.0
 50
140.80503257378001
 51
219.19496742621999
1001
ACDBBLOCKREPETAG
1070
     1
1071
       45
1005
1305D6
  0
LINE
  5
1305D7
  8
OBJECT
 10
454.00000000060368
 20
-209.33819977265739
 30
0.0
 11
454.00000000060368
 21
-174.99999999998181
 31
0.0
1001
ACDBBLOCKREPETAG
1070
     1
1071
       46
1005
1305D7
  0
LINE
  5
1305D8
  8
OBJECT
 10
578.00000000060368
 20
-192.99999999998181
 30
0.0
 11
578.00000000060368
 21
-174.99999999998181
 31
0.0
1001
ACDBBLOCKREPETAG
1070
     1
1071
       22
1005
1305D8
  0
LINE
  5
1305D9
  8
OBJECT
 10
578.00000000060368
 20
-192.99999999998181
 30
0.0
 11
596.0000000006039
 21
-192.99999999998181
 31
0.0
1001
ACDBBLOCKREPETAG
1070
     1
1071
       24
1005
1305D9
  0
LINE
  5
1305DA
  8
OBJECT
 10
578.00000000060368
 20
-316.99999999998181
 30
0.0
 11
596.0000000006039
 21
-316.99999999998181
 31
0.0
1001
ACDBBLOCKREPETAG
1070
     1
1071
       25
1005
1305DA
  0
LINE
  5
1305DB
  8
OBJECT
 10
578.00000000060368
 20
-316.99999999998181
 30
0.0
 11
578.00000000060368
 21
-334.99999999998181
 31
0.0
1001
ACDBBLOCKREPETAG
1070
     1
1071
       27
1005
1305DB
  0
LINE
  5
1305DC
  8
OBJECT
 10
454.00000000060368
 20
-300.66180022730617
 30
0.0
 11
454.00000000060368
 21
-334.99999999998181
 31
0.0
1001
ACDBBLOCKREPETAG
1070
     1
1071
       28
1005
1305DC
  0
LINE
  5
1305DD
  8
OBJECT
 10
570.44722215196805
 20
-309.44722215134612
 30
0.0
 11
578.00000000060368
 21
-316.99999999998181
 31
0.0
1001
ACDBBLOCKREPETAG
1070
     1
1071
       37
1005
1305DD
  0
LINE
  5
1305DE
  8
OBJECT
 10
570.44722215196805
 20
-200.5527778486175
 30
0.0
 11
578.00000000060368
 21
-192.99999999998181
 31
0.0
1001
ACDBBLOCKREPETAG
1070
     1
1071
       38
1005
1305DE
  0
POINT
  5
1305DF
  8
DOTS
 10
516.00000000060368
 20
-254.99999999998181
 30
0.0
1001
ACDBBLOCKREPETAG
1070
     1
1071
       39
1005
1305DF
  0
CIRCLE
  5
1305E0
  8
OBJECT
 10
516.00000000060368
 20
-254.99999999998181
 30
0.0
 40
53.5
1001
ACDBBLOCKREPETAG
1070
     1
1071
      153
1005
1305E0
  0
CIRCLE
  5
1305E1
  8
OBJECT
 10
156.0000000006039
 20
-254.99999999998181
 30
0.0
 40
70.0
1001
ACDBBLOCKREPETAG
1070
     1
1071
       43
1005
1305E1
  0
CIRCLE
  5
1305E2
  8
OBJECT
 10
156.0000000006039
 20
-254.99999999998181
 30
0.0
 40
77.0
1001
ACDBBLOCKREPETAG
1070
     1
1071
       44
1005
1305E2
  0
ARC
  5
1305E3
  8
OBJECT
 10
156.0000000006039
 20
-254.99999999998181
 30
0.0
 40
80.0
 50
140.80503257378101
 51
219.19496742621899
1001
ACDBBLOCKREPETAG
1070
     1
1071
       45
1005
1305E3
  0
LINE
  5
1305E4
  8
OBJECT
 10
94.000000000603904
 20
-209.33819977265739
 30
0.0
 11
94.000000000603904
 21
-174.99999999998181
 31
0.0
1001
ACDBBLOCKREPETAG
1070
     1
1071
       46
1005
1305E4
  0
LINE
  5
1305E5
  8
OBJECT
 10
218.0000000006039
 20
-192.99999999998181
 30
0.0
 11
218.0000000006039
 21
-174.99999999998181
 31
0.0
1001
ACDBBLOCKREPETAG
1070
     1
1071
       22
1005
1305E5
  0
LINE
  5
1305E6
  8
OBJECT
 10
218.0000000006039
 20
-192.99999999998181
 30
0.0
 11
236.0000000006039
 21
-192.99999999998181
 31
0.0
1001
ACDBBLOCKREPETAG
1070
     1
1071
       24
1005
1305E6
  0
LINE
  5
1305E7
  8
OBJECT
 10
218.0000000006039
 20
-316.99999999998181
 30
0.0
 11
236.0000000006039
 21
-316.99999999998181
 31
0.0
1001
ACDBBLOCKREPETAG
1070
     1
1071
       25
1005
1305E7
  0
LINE
  5
1305E8
  8
OBJECT
 10
218.0000000006039
 20
-316.99999999998181
 30
0.0
 11
218.0000000006039
 21
-334.99999999998181
 31
0.0
1001
ACDBBLOCKREPETAG
1070
     1
1071
       27
1005
1305E8
  0
LINE
  5
1305E9
  8
OBJECT
 10
94.000000000603904
 20
-300.66180022730617
 30
0.0
 11
94.000000000603904
 21
-334.99999999998181
 31
0.0
1001
ACDBBLOCKREPETAG
1070
     1
1071
       28
1005
1305E9
  0
LINE
  5
1305EA
  8
OBJECT
 10
210.44722215196819
 20
-309.44722215134612
 30
0.0
 11
218.0000000006039
 21
-316.99999999998181
 31
0.0
1001
ACDBBLOCKREPETAG
1070
     1
1071
       37
1005
1305EA
  0
LINE
  5
1305EB
  8
OBJECT
 10
210.44722215196819
 20
-200.5527778486175
 30
0.0
 11
218.0000000006039
 21
-192.99999999998181
 31
0.0
1001
ACDBBLOCKREPETAG
1070
     1
1071
       38
1005
1305EB
  0
POINT
  5
1305EC
  8
DOTS
 10
156.0000000006039
 20
-254.99999999998181
 30
0.0
1001
ACDBBLOCKREPETAG
1070
     1
1071
       39
1005
1305EC
  0
CIRCLE
  5
1305ED
  8
OBJECT
 10
156.0000000006039
 20
-254.99999999998181
 30
0.0
 40
53.5
1001
ACDBBLOCKREPETAG
1070
     1
1071
      153
1005
1305ED
  0
LINE
  5
1305EE
  8
OBJECT
 10
94.000000000603904
 20
-801.9999999999892
 30
0.0
 11
94.000000000603904
 21
-798.99999999998897
 31
0.0
1001
ACDBBLOCKREPETAG
1070
     1
1071
      418
1005
1305EE
  0
ARC
  5
1305EF
  8
OBJECT
 10
97.000000000603904
 20
-801.9999999999892
 30
0.0
 40
3.0
 50
180.0
 51
270.0
1001
ACDBBLOCKREPETAG
1070
     1
1071
      419
1005
1305EF
  0
LINE
  5
1305F0
  8
OBJECT
 10
218.0000000006039
 20
-798.99999999998897
 30
0.0
 11
218.0000000006039
 21
-801.9999999999892
 31
0.0
1001
ACDBBLOCKREPETAG
1070
     1
1071
      420
1005
1305F0
  0
ARC
  5
1305F1
  8
OBJECT
 10
215.0000000006039
 20
-801.9999999999892
 30
0.0
 40
3.0
 50
270.0
 51
0.0
1001
ACDBBLOCKREPETAG
1070
     1
1071
      421
1005
1305F1
  0
LINE
  5
1305F2
  8
OBJECT
 10
215.0000000006039
 20
-804.99999999998897
 30
0.0
 11
97.000000000603904
 21
-804.99999999998897
 31
0.0
1001
ACDBBLOCKREPETAG
1070
     1
1071
      422
1005
1305F2
  0
INSERT
  5
1305F3
  8
OBJECT
  2
*U201
 10
0.0
 20
0.0
 30
0.0
  0
LINE
  5
1305F4
  8
OBJECT
 10
289.00000000060379
 20
-656.99999999998897
 30
0.0
 11
296.0000000006039
 21
-656.99999999998897
 31
0.0
1001
ACDBBLOCKREPETAG
1070
     1
1071
       39
1005
1305F4
  0
LINE
  5
1305F5
  8
OBJECT
 10
296.0000000006039
 20
-656.99999999998897
 30
0.0
 11
296.0000000006039
 21
-780.9999999999892
 31
0.0
1001
ACDBBLOCKREPETAG
1070
     1
1071
       40
1005
1305F5
  0
LINE
  5
1305F6
  8
OBJECT
 10
296.0000000006039
 20
-780.9999999999892
 30
0.0
 11
289.00000000060379
 21
-780.9999999999892
 31
0.0
1001
ACDBBLOCKREPETAG
1070
     1
1071
       41
1005
1305F6
  0
LINE
  5
1305F7
  8
OBJECT
 10
289.00000000060379
 20
-780.9999999999892
 30
0.0
 11
289.00000000060379
 21
-656.99999999998897
 31
0.0
1001
ACDBBLOCKREPETAG
1070
     1
1071
       42
1005
1305F7
  0
LINE
  5
1305F8
  8
OBJECT
 10
289.00000000060379
 20
-659.99999999998886
 30
0.0
 11
253.0000000006039
 21
-659.99999999998886
 31
0.0
1001
ACDBBLOCKREPETAG
1070
     1
1071
       43
1005
1305F8
  0
LINE
  5
1305F9
  8
OBJECT
 10
253.0000000006039
 20
-659.99999999998886
 30
0.0
 11
253.0000000006039
 21
-777.99999999998909
 31
0.0
1001
ACDBBLOCKREPETAG
1070
     1
1071
       44
1005
1305F9
  0
LINE
  5
1305FA
  8
OBJECT
 10
253.0000000006039
 20
-777.99999999998909
 30
0.0
 11
289.00000000060379
 21
-777.99999999998909
 31
0.0
1001
ACDBBLOCKREPETAG
1070
     1
1071
       45
1005
1305FA
  0
LINE
  5
1305FB
  8
OBJECT
 10
249.0000000006039
 20
-664.49999999998886
 30
0.0
 11
242.0000000006039
 21
-664.49999999998886
 31
0.0
1001
ACDBBLOCKREPETAG
1070
     1
1071
       46
1005
1305FB
  0
LINE
  5
1305FC
  8
OBJECT
 10
242.0000000006039
 20
-773.49999999998909
 30
0.0
 11
249.0000000006039
 21
-773.49999999998909
 31
0.0
1001
ACDBBLOCKREPETAG
1070
     1
1071
       47
1005
1305FC
  0
LINE
  5
1305FD
  8
OBJECT
 10
249.0000000006039
 20
-773.49999999998909
 30
0.0
 11
249.0000000006039
 21
-664.49999999998886
 31
0.0
1001
ACDBBLOCKREPETAG
1070
     1
1071
       48
1005
1305FD
  0
LINE
  5
1305FE
  8
OBJECT
 10
253.0000000006039
 20
-659.99999999998886
 30
0.0
 11
249.0000000006039
 21
-664.49999999998886
 31
0.0
1001
ACDBBLOCKREPETAG
1070
     1
1071
       49
1005
1305FE
  0
LINE
  5
1305FF
  8
OBJECT
 10
253.0000000006039
 20
-777.99999999998909
 30
0.0
 11
249.0000000006039
 21
-773.49999999998909
 31
0.0
1001
ACDBBLOCKREPETAG
1070
     1
1071
       50
1005
1305FF
  0
LINE
  5
130600
  8
OBJECT
 10
239.0000000006057
 20
-656.99999999998897
 30
0.0
 11
236.0000000006039
 21
-656.99999999998897
 31
0.0
1001
ACDBBLOCKREPETAG
1070
     1
1071
       51
1005
130600
  0
ARC
  5
130601
  8
OBJECT
 10
239.0000000006057
 20
-659.99999999998886
 30
0.0
 40
3.0
 50
0.0
 51
90.0
1001
ACDBBLOCKREPETAG
1070
     1
1071
       52
1005
130601
  0
LINE
  5
130602
  8
OBJECT
 10
236.0000000006039
 20
-780.9999999999892
 30
0.0
 11
239.00000000060211
 21
-780.9999999999892
 31
0.0
1001
ACDBBLOCKREPETAG
1070
     1
1071
       53
1005
130602
  0
ARC
  5
130603
  8
OBJECT
 10
239.00000000060211
 20
-777.99999999998909
 30
0.0
 40
3.0
 50
270.0
 51
0.0
1001
ACDBBLOCKREPETAG
1070
     1
1071
       54
1005
130603
  0
LINE
  5
130604
  8
OBJECT
 10
242.00000000060211
 20
-777.99999999998909
 30
0.0
 11
242.0000000006057
 21
-659.99999999998886
 31
0.0
1001
ACDBBLOCKREPETAG
1070
     1
1071
       55
1005
130604
  0
LINE
  5
130605
  8
HIDDEN
 10
244.0000000006039
 20
-674.49999999998886
 30
0.0
 11
244.0000000006039
 21
-763.4999999999892
 31
0.0
1001
ACDBBLOCKREPETAG
1070
     1
1071
      430
1005
130605
  0
LINE
  5
130606
  8
OBJECT
 10
94.000000000603904
 20
-516.00000000000364
 30
0.0
 11
94.000000000603904
 21
-509.00000000000358
 31
0.0
1001
ACDBBLOCKREPETAG
1070
     1
1071
       74
1005
130606
  0
LINE
  5
130607
  8
OBJECT
 10
94.000000000603904
 20
-509.00000000000358
 30
0.0
 11
218.0000000006039
 21
-509.00000000000358
 31
0.0
1001
ACDBBLOCKREPETAG
1070
     1
1071
       75
1005
130607
  0
LINE
  5
130608
  8
OBJECT
 10
218.0000000006039
 20
-509.00000000000358
 30
0.0
 11
218.0000000006039
 21
-516.00000000000364
 31
0.0
1001
ACDBBLOCKREPETAG
1070
     1
1071
       76
1005
130608
  0
LINE
  5
130609
  8
OBJECT
 10
218.0000000006039
 20
-516.00000000000364
 30
0.0
 11
94.000000000603904
 21
-516.00000000000364
 31
0.0
1001
ACDBBLOCKREPETAG
1070
     1
1071
       77
1005
130609
  0
LINE
  5
13060A
  8
OBJECT
 10
201.00000000060751
 20
-569.00002503580254
 30
0.0
 11
201.0000000006039
 21
-632.99999999998977
 31
0.0
1001
ACDBBLOCKREPETAG
1070
     1
1071
       78
1005
13060A
  0
LINE
  5
13060B
  8
OBJECT
 10
111.0000000006039
 20
-569.00002503580254
 30
0.0
 11
111.0000000006039
 21
-632.99999999998806
 31
0.0
1001
ACDBBLOCKREPETAG
1070
     1
1071
       79
1005
13060B
  0
LINE
  5
13060C
  8
OBJECT
 10
97.000000000603904
 20
-516.00000000000364
 30
0.0
 11
97.000000000603904
 21
-552.00000000000364
 31
0.0
1001
ACDBBLOCKREPETAG
1070
     1
1071
       80
1005
13060C
  0
LINE
  5
13060D
  8
OBJECT
 10
97.000000000603904
 20
-552.00000000000364
 30
0.0
 11
215.0000000006039
 21
-552.00000000000364
 31
0.0
1001
ACDBBLOCKREPETAG
1070
     1
1071
       81
1005
13060D
  0
LINE
  5
13060E
  8
OBJECT
 10
215.0000000006039
 20
-552.00000000000364
 30
0.0
 11
215.0000000006039
 21
-516.00000000000364
 31
0.0
1001
ACDBBLOCKREPETAG
1070
     1
1071
       82
1005
13060E
  0
LINE
  5
13060F
  8
OBJECT
 10
101.5000000006039
 20
-556.00000000000364
 30
0.0
 11
101.5000000006039
 21
-569.00000000000364
 31
0.0
1001
ACDBBLOCKREPETAG
1070
     1
1071
       83
1005
13060F
  0
LINE
  5
130610
  8
OBJECT
 10
210.5000000006039
 20
-569.00000000000364
 30
0.0
 11
210.5000000006039
 21
-556.00000000000364
 31
0.0
1001
ACDBBLOCKREPETAG
1070
     1
1071
       84
1005
130610
  0
LINE
  5
130611
  8
OBJECT
 10
210.5000000006039
 20
-556.00000000000364
 30
0.0
 11
101.5000000006039
 21
-556.00000000000364
 31
0.0
1001
ACDBBLOCKREPETAG
1070
     1
1071
       85
1005
130611
  0
LINE
  5
130612
  8
OBJECT
 10
97.000000000603904
 20
-552.00000000000364
 30
0.0
 11
101.5000000006039
 21
-556.00000000000364
 31
0.0
1001
ACDBBLOCKREPETAG
1070
     1
1071
       86
1005
130612
  0
LINE
  5
130613
  8
OBJECT
 10
215.0000000006039
 20
-552.00000000000364
 30
0.0
 11
210.5000000006039
 21
-556.00000000000364
 31
0.0
1001
ACDBBLOCKREPETAG
1070
     1
1071
       87
1005
130613
  0
LINE
  5
130614
  8
OBJECT
 10
94.000000000603904
 20
-635.99999999998795
 30
0.0
 11
94.000000000603904
 21
-638.99999999998886
 31
0.0
1001
ACDBBLOCKREPETAG
1070
     1
1071
       88
1005
130614
  0
ARC
  5
130615
  8
OBJECT
 10
97.000000000603904
 20
-635.99999999998795
 30
0.0
 40
3.0
 50
90.0
 51
180.0
1001
ACDBBLOCKREPETAG
1070
     1
1071
       89
1005
130615
  0
LINE
  5
130616
  8
OBJECT
 10
218.0000000006039
 20
-638.99999999998886
 30
0.0
 11
218.0000000006039
 21
-635.99999999998988
 31
0.0
1001
ACDBBLOCKREPETAG
1070
     1
1071
       90
1005
130616
  0
ARC
  5
130617
  8
OBJECT
 10
215.0000000006039
 20
-635.99999999998988
 30
0.0
 40
3.0
 50
0.0
 51
90.0
1001
ACDBBLOCKREPETAG
1070
     1
1071
       91
1005
130617
  0
LINE
  5
130618
  8
OBJECT
 10
215.0000000006039
 20
-632.99999999998977
 30
0.0
 11
166.32279032096261
 21
-632.99999999998806
 31
0.0
1001
ACDBBLOCKREPETAG
1070
     1
1071
       92
1005
130618
  0
LINE
  5
130619
  8
OBJECT
 10
145.67720968024511
 20
-632.99999999998886
 30
0.0
 11
97.000000000603904
 21
-632.99999999998806
 31
0.0
1001
ACDBBLOCKREPETAG
1070
     1
1071
       93
1005
130619
  0
LINE
  5
13061A
  8
OBJECT
 10
210.49995092441529
 20
-569.00002503580254
 30
0.0
 11
101.4999509244153
 21
-569.00002503580254
 31
0.0
1001
ACDBBLOCKREPETAG
1070
     1
1071
       95
1005
13061A
  0
ARC
  5
13061B
  8
OBJECT
 10
156.0000000006039
 20
-589.19999999996605
 30
0.0
 40
45.000000000000547
 50
180.0
 51
0.0
1001
ACDBBLOCKREPETAG
1070
     1
1071
       96
1005
13061B
  0
INSERT
  5
13061C
  8
OBJECT
  2
*U202
 10
0.0
 20
0.0
 30
0.0
  0
LINE
  5
13061D
  8
HIDDEN
 10
111.5000000006039
 20
-561.00000000000364
 30
0.0
 11
200.5000000006039
 21
-561.00000000000364
 31
0.0
1001
ACDBBLOCKREPETAG
1070
     1
1071
      429
1005
13061D
  0
LINE
  5
13061E
  8
OBJECT
 10
454.00000000068388
 20
-801.9999999999892
 30
0.0
 11
454.00000000068388
 21
-798.99999999998897
 31
0.0
1001
ACDBBLOCKREPETAG
1070
     1
1071
      418
1005
13061E
  0
ARC
  5
13061F
  8
OBJECT
 10
457.000000000684
 20
-801.9999999999892
 30
0.0
 40
3.0
 50
180.0
 51
270.0
1001
ACDBBLOCKREPETAG
1070
     1
1071
      419
1005
13061F
  0
LINE
  5
130620
  8
OBJECT
 10
578.00000000068394
 20
-798.99999999998897
 30
0.0
 11
578.00000000068394
 21
-801.9999999999892
 31
0.0
1001
ACDBBLOCKREPETAG
1070
     1
1071
      420
1005
130620
  0
ARC
  5
130621
  8
OBJECT
 10
575.00000000068394
 20
-801.9999999999892
 30
0.0
 40
3.0
 50
270.0
 51
0.0
1001
ACDBBLOCKREPETAG
1070
     1
1071
      421
1005
130621
  0
LINE
  5
130622
  8
OBJECT
 10
575.00000000068394
 20
-804.99999999998897
 30
0.0
 11
457.000000000684
 21
-804.99999999998897
 31
0.0
1001
ACDBBLOCKREPETAG
1070
     1
1071
      422
1005
130622
  0
LINE
  5
130623
  8
OBJECT
 10
666.00000000068394
 20
-643.99999999998897
 30
0.0
 11
659.00000000068394
 21
-643.99999999998897
 31
0.0
1001
ACDBBLOCKREPETAG
1070
     1
1071
       57
1005
130623
  0
LINE
  5
130624
  8
OBJECT
 10
659.00000000068394
 20
-643.99999999998897
 30
0.0
 11
659.00000000068394
 21
-793.9999999999892
 31
0.0
1001
ACDBBLOCKREPETAG
1070
     1
1071
       58
1005
130624
  0
LINE
  5
130625
  8
OBJECT
 10
617.50000000068394
 20
-646.99999999998886
 30
0.0
 11
617.50000000068394
 21
-790.99999999998897
 31
0.0
1001
ACDBBLOCKREPETAG
1070
     1
1071
       59
1005
130625
  0
LINE
  5
130626
  8
OBJECT
 10
606.00000000068394
 20
-653.49999999998897
 30
0.0
 11
606.00000000068394
 21
-784.4999999999892
 31
0.0
1001
ACDBBLOCKREPETAG
1070
     1
1071
       60
1005
130626
  0
LINE
  5
130627
  8
OBJECT
 10
659.00000000068394
 20
-793.9999999999892
 30
0.0
 11
666.00000000068394
 21
-793.9999999999892
 31
0.0
1001
ACDBBLOCKREPETAG
1070
     1
1071
       61
1005
130627
  0
LINE
  5
130628
  8
OBJECT
 10
666.00000000068394
 20
-793.9999999999892
 30
0.0
 11
666.00000000068394
 21
-643.99999999998897
 31
0.0
1001
ACDBBLOCKREPETAG
1070
     1
1071
       62
1005
130628
  0
LINE
  5
130629
  8
OBJECT
 10
602.00000000068394
 20
-780.9999999999892
 30
0.0
 11
596.00000000068394
 21
-780.9999999999892
 31
0.0
1001
ACDBBLOCKREPETAG
1070
     1
1071
       63
1005
130629
  0
LINE
  5
13062A
  8
OBJECT
 10
659.00000000068394
 20
-790.99999999998897
 30
0.0
 11
617.50000000068394
 21
-790.99999999998897
 31
0.0
1001
ACDBBLOCKREPETAG
1070
     1
1071
       64
1005
13062A
  0
LINE
  5
13062B
  8
OBJECT
 10
617.50000000068394
 20
-790.99999999998897
 30
0.0
 11
606.00000000068394
 21
-784.4999999999892
 31
0.0
1001
ACDBBLOCKREPETAG
1070
     1
1071
       65
1005
13062B
  0
LINE
  5
13062C
  8
OBJECT
 10
606.00000000068394
 20
-784.4999999999892
 30
0.0
 11
602.00000000068394
 21
-780.9999999999892
 31
0.0
1001
ACDBBLOCKREPETAG
1070
     1
1071
       66
1005
13062C
  0
LINE
  5
13062D
  8
OBJECT
 10
617.50000000068394
 20
-646.99999999998886
 30
0.0
 11
606.00000000068394
 21
-653.49999999998897
 31
0.0
1001
ACDBBLOCKREPETAG
1070
     1
1071
       67
1005
13062D
  0
LINE
  5
13062E
  8
OBJECT
 10
606.00000000068394
 20
-653.49999999998897
 30
0.0
 11
602.00000000068394
 21
-656.99999999998897
 31
0.0
1001
ACDBBLOCKREPETAG
1070
     1
1071
       68
1005
13062E
  0
ARC
  5
13062F
  8
OBJECT
 10
983.90000000068505
 20
-718.99999999998897
 30
0.0
 40
386.89999999999998
 50
170.7787013626384
 51
189.22129863736151
1001
ACDBBLOCKREPETAG
1070
     1
1071
       69
1005
13062F
  0
LINE
  5
130630
  8
OBJECT
 10
602.00000000068394
 20
-656.99999999998897
 30
0.0
 11
596.00000000068394
 21
-656.99999999998897
 31
0.0
1001
ACDBBLOCKREPETAG
1070
     1
1071
       70
1005
130630
  0
LINE
  5
130631
  8
OBJECT
 10
659.00000000068394
 20
-646.99999999998886
 30
0.0
 11
617.50000000068394
 21
-646.99999999998886
 31
0.0
1001
ACDBBLOCKREPETAG
1070
     1
1071
       71
1005
130631
  0
INSERT
  5
130632
  8
OBJECT
  2
*U203
 10
0.0
 20
0.0
 30
0.0
  0
LINE
  5
130633
  8
HIDDEN
 10
614.00000000068394
 20
-775.9999999999892
 30
0.0
 11
614.00000000068394
 21
-661.99999999998886
 31
0.0
1001
ACDBBLOCKREPETAG
1070
     1
1071
      437
1005
130633
  0
LINE
  5
130634
  8
OBJECT
 10
454.00000000068388
 20
-516.00000000000364
 30
0.0
 11
454.00000000068388
 21
-509.00000000000358
 31
0.0
1001
ACDBBLOCKREPETAG
1070
     1
1071
       74
1005
130634
  0
LINE
  5
130635
  8
OBJECT
 10
454.00000000068388
 20
-509.00000000000358
 30
0.0
 11
578.00000000068394
 21
-509.00000000000358
 31
0.0
1001
ACDBBLOCKREPETAG
1070
     1
1071
       75
1005
130635
  0
LINE
  5
130636
  8
OBJECT
 10
578.00000000068394
 20
-509.00000000000358
 30
0.0
 11
578.00000000068394
 21
-516.00000000000364
 31
0.0
1001
ACDBBLOCKREPETAG
1070
     1
1071
       76
1005
130636
  0
LINE
  5
130637
  8
OBJECT
 10
578.00000000068394
 20
-516.00000000000364
 30
0.0
 11
454.00000000068388
 21
-516.00000000000364
 31
0.0
1001
ACDBBLOCKREPETAG
1070
     1
1071
       77
1005
130637
  0
LINE
  5
130638
  8
OBJECT
 10
561.00000000068735
 20
-569.00002503580254
 30
0.0
 11
561.00000000068394
 21
-632.99999999998977
 31
0.0
1001
ACDBBLOCKREPETAG
1070
     1
1071
       78
1005
130638
  0
LINE
  5
130639
  8
OBJECT
 10
471.00000000068388
 20
-569.00002503580254
 30
0.0
 11
471.00000000068388
 21
-632.99999999998806
 31
0.0
1001
ACDBBLOCKREPETAG
1070
     1
1071
       79
1005
130639
  0
LINE
  5
13063A
  8
OBJECT
 10
457.000000000684
 20
-516.00000000000364
 30
0.0
 11
457.000000000684
 21
-552.00000000000364
 31
0.0
1001
ACDBBLOCKREPETAG
1070
     1
1071
       80
1005
13063A
  0
LINE
  5
13063B
  8
OBJECT
 10
457.000000000684
 20
-552.00000000000364
 30
0.0
 11
575.00000000068394
 21
-552.00000000000364
 31
0.0
1001
ACDBBLOCKREPETAG
1070
     1
1071
       81
1005
13063B
  0
LINE
  5
13063C
  8
OBJECT
 10
575.00000000068394
 20
-552.00000000000364
 30
0.0
 11
575.00000000068394
 21
-516.00000000000364
 31
0.0
1001
ACDBBLOCKREPETAG
1070
     1
1071
       82
1005
13063C
  0
LINE
  5
13063D
  8
OBJECT
 10
461.500000000684
 20
-556.00000000000364
 30
0.0
 11
461.500000000684
 21
-569.00000000000364
 31
0.0
1001
ACDBBLOCKREPETAG
1070
     1
1071
       83
1005
13063D
  0
LINE
  5
13063E
  8
OBJECT
 10
570.50000000068394
 20
-569.00000000000364
 30
0.0
 11
570.50000000068394
 21
-556.00000000000364
 31
0.0
1001
ACDBBLOCKREPETAG
1070
     1
1071
       84
1005
13063E
  0
LINE
  5
13063F
  8
OBJECT
 10
570.50000000068394
 20
-556.00000000000364
 30
0.0
 11
461.500000000684
 21
-556.00000000000364
 31
0.0
1001
ACDBBLOCKREPETAG
1070
     1
1071
       85
1005
13063F
  0
LINE
  5
130640
  8
OBJECT
 10
457.000000000684
 20
-552.00000000000364
 30
0.0
 11
461.500000000684
 21
-556.00000000000364
 31
0.0
1001
ACDBBLOCKREPETAG
1070
     1
1071
       86
1005
130640
  0
LINE
  5
130641
  8
OBJECT
 10
575.00000000068394
 20
-552.00000000000364
 30
0.0
 11
570.50000000068394
 21
-556.00000000000364
 31
0.0
1001
ACDBBLOCKREPETAG
1070
     1
1071
       87
1005
130641
  0
LINE
  5
130642
  8
OBJECT
 10
454.00000000068388
 20
-635.99999999998795
 30
0.0
 11
454.00000000068388
 21
-638.99999999998886
 31
0.0
1001
ACDBBLOCKREPETAG
1070
     1
1071
       88
1005
130642
  0
ARC
  5
130643
  8
OBJECT
 10
457.000000000684
 20
-635.99999999998795
 30
0.0
 40
3.0
 50
90.0
 51
180.0
1001
ACDBBLOCKREPETAG
1070
     1
1071
       89
1005
130643
  0
LINE
  5
130644
  8
OBJECT
 10
578.00000000068394
 20
-638.99999999998886
 30
0.0
 11
578.00000000068394
 21
-635.99999999998988
 31
0.0
1001
ACDBBLOCKREPETAG
1070
     1
1071
       90
1005
130644
  0
ARC
  5
130645
  8
OBJECT
 10
575.00000000068394
 20
-635.99999999998988
 30
0.0
 40
3.0
 50
0.0
 51
90.0
1001
ACDBBLOCKREPETAG
1070
     1
1071
       91
1005
130645
  0
LINE
  5
130646
  8
OBJECT
 10
575.00000000068394
 20
-632.99999999998977
 30
0.0
 11
526.32279032104259
 21
-632.99999999998806
 31
0.0
1001
ACDBBLOCKREPETAG
1070
     1
1071
       92
1005
130646
  0
LINE
  5
130647
  8
OBJECT
 10
505.67720968032518
 20
-632.99999999998886
 30
0.0
 11
457.000000000684
 21
-632.99999999998806
 31
0.0
1001
ACDBBLOCKREPETAG
1070
     1
1071
       93
1005
130647
  0
LINE
  5
130648
  8
OBJECT
 10
570.49995092449535
 20
-569.00002503580254
 30
0.0
 11
461.49995092449518
 21
-569.00002503580254
 31
0.0
1001
ACDBBLOCKREPETAG
1070
     1
1071
       95
1005
130648
  0
ARC
  5
130649
  8
OBJECT
 10
516.00000000068394
 20
-589.19999999996605
 30
0.0
 40
45.000000000000547
 50
180.0
 51
0.0
1001
ACDBBLOCKREPETAG
1070
     1
1071
       96
1005
130649
  0
INSERT
  5
13064A
  8
OBJECT
  2
*U204
 10
0.0
 20
0.0
 30
0.0
  0
LINE
  5
13064B
  8
HIDDEN
 10
471.50000000068388
 20
-561.00000000000364
 30
0.0
 11
560.50000000068394
 21
-561.00000000000364
 31
0.0
1001
ACDBBLOCKREPETAG
1070
     1
1071
      429
1005
13064B
  0
LINE
  5
13064C
  8
OBJECT
 10
454.00000000068388
 20
-337.99999999998181
 30
0.0
 11
454.00000000068388
 21
-334.99999999998181
 31
0.0
1001
ACDBBLOCKREPETAG
1070
     1
1071
      418
1005
13064C
  0
ARC
  5
13064D
  8
OBJECT
 10
457.000000000684
 20
-337.99999999998181
 30
0.0
 40
3.0
 50
180.0
 51
270.0
1001
ACDBBLOCKREPETAG
1070
     1
1071
      419
1005
13064D
  0
LINE
  5
13064E
  8
OBJECT
 10
578.00000000068394
 20
-334.99999999998181
 30
0.0
 11
578.00000000068394
 21
-337.99999999998181
 31
0.0
1001
ACDBBLOCKREPETAG
1070
     1
1071
      420
1005
13064E
  0
ARC
  5
13064F
  8
OBJECT
 10
575.00000000068394
 20
-337.99999999998181
 30
0.0
 40
3.0
 50
270.0
 51
0.0
1001
ACDBBLOCKREPETAG
1070
     1
1071
      421
1005
13064F
  0
LINE
  5
130650
  8
OBJECT
 10
575.00000000068394
 20
-340.99999999998181
 30
0.0
 11
457.000000000684
 21
-340.99999999998181
 31
0.0
1001
ACDBBLOCKREPETAG
1070
     1
1071
      422
1005
130650
  0
INSERT
  5
130651
  8
OBJECT
  2
*U205
 10
0.0
 20
0.0
 30
0.0
  0
LINE
  5
130652
  8
OBJECT
 10
649.00000000068394
 20
-199.99999999998181
 30
0.0
 11
656.00000000068394
 21
-199.99999999998181
 31
0.0
1001
ACDBBLOCKREPETAG
1070
     1
1071
       20
1005
130652
  0
LINE
  5
130653
  8
OBJECT
 10
656.00000000068394
 20
-199.99999999998181
 30
0.0
 11
656.00000000068394
 21
-309.99999999998181
 31
0.0
1001
ACDBBLOCKREPETAG
1070
     1
1071
       21
1005
130653
  0
LINE
  5
130654
  8
OBJECT
 10
656.00000000068394
 20
-309.99999999998181
 30
0.0
 11
649.00000000068394
 21
-309.99999999998181
 31
0.0
1001
ACDBBLOCKREPETAG
1070
     1
1071
       22
1005
130654
  0
LINE
  5
130655
  8
OBJECT
 10
649.00000000068394
 20
-309.99999999998181
 30
0.0
 11
649.00000000068394
 21
-199.99999999998181
 31
0.0
1001
ACDBBLOCKREPETAG
1070
     1
1071
       23
1005
130655
  0
LINE
  5
130656
  8
OBJECT
 10
649.00000000068394
 20
-202.99999999998181
 30
0.0
 11
613.00000000068394
 21
-202.99999999998181
 31
0.0
1001
ACDBBLOCKREPETAG
1070
     1
1071
       24
1005
130656
  0
LINE
  5
130657
  8
OBJECT
 10
613.00000000068394
 20
-202.99999999998181
 30
0.0
 11
613.00000000068394
 21
-306.99999999998181
 31
0.0
1001
ACDBBLOCKREPETAG
1070
     1
1071
       25
1005
130657
  0
LINE
  5
130658
  8
OBJECT
 10
613.00000000068394
 20
-306.99999999998181
 30
0.0
 11
649.00000000068394
 21
-306.99999999998181
 31
0.0
1001
ACDBBLOCKREPETAG
1070
     1
1071
       26
1005
130658
  0
LINE
  5
130659
  8
OBJECT
 10
609.00000000068394
 20
-207.49999999998181
 30
0.0
 11
602.00000000068394
 21
-207.49999999998181
 31
0.0
1001
ACDBBLOCKREPETAG
1070
     1
1071
       27
1005
130659
  0
LINE
  5
13065A
  8
OBJECT
 10
602.00000000068394
 20
-302.49999999998181
 30
0.0
 11
609.00000000068394
 21
-302.49999999998181
 31
0.0
1001
ACDBBLOCKREPETAG
1070
     1
1071
       28
1005
13065A
  0
LINE
  5
13065B
  8
OBJECT
 10
609.00000000068394
 20
-302.49999999998181
 30
0.0
 11
609.00000000068394
 21
-207.49999999998181
 31
0.0
1001
ACDBBLOCKREPETAG
1070
     1
1071
       29
1005
13065B
  0
LINE
  5
13065C
  8
OBJECT
 10
613.00000000068394
 20
-202.99999999998181
 30
0.0
 11
609.00000000068394
 21
-207.49999999998181
 31
0.0
1001
ACDBBLOCKREPETAG
1070
     1
1071
       30
1005
13065C
  0
LINE
  5
13065D
  8
OBJECT
 10
613.00000000068394
 20
-306.99999999998181
 30
0.0
 11
609.00000000068394
 21
-302.49999999998181
 31
0.0
1001
ACDBBLOCKREPETAG
1070
     1
1071
       31
1005
13065D
  0
LINE
  5
13065E
  8
OBJECT
 10
599.00000000068565
 20
-192.99999999998181
 30
0.0
 11
596.00000000068394
 21
-192.99999999998181
 31
0.0
1001
ACDBBLOCKREPETAG
1070
     1
1071
       32
1005
13065E
  0
ARC
  5
13065F
  8
OBJECT
 10
599.00000000068565
 20
-195.99999999998181
 30
0.0
 40
3.0
 50
0.0
 51
90.0
1001
ACDBBLOCKREPETAG
1070
     1
1071
       33
1005
13065F
  0
LINE
  5
130660
  8
OBJECT
 10
596.00000000068394
 20
-316.99999999998181
 30
0.0
 11
599.00000000068212
 21
-316.99999999998181
 31
0.0
1001
ACDBBLOCKREPETAG
1070
     1
1071
       34
1005
130660
  0
ARC
  5
130661
  8
OBJECT
 10
599.00000000068212
 20
-313.99999999998181
 30
0.0
 40
3.0
 50
270.0
 51
0.0
1001
ACDBBLOCKREPETAG
1070
     1
1071
       35
1005
130661
  0
LINE
  5
130662
  8
OBJECT
 10
602.00000000068212
 20
-313.99999999998181
 30
0.0
 11
602.00000000068576
 21
-195.99999999998181
 31
0.0
1001
ACDBBLOCKREPETAG
1070
     1
1071
       36
1005
130662
  0
LINE
  5
130663
  8
HIDDEN
 10
604.00000000068394
 20
-216.99999999998181
 30
0.0
 11
604.00000000068394
 21
-292.99999999998181
 31
0.0
1001
ACDBBLOCKREPETAG
1070
     1
1071
      427
1005
130663
  0
LINE
  5
130664
  8
OBJECT
 10
454.00000000068388
 20
-51.999999999996362
 30
0.0
 11
454.00000000068388
 21
-44.999999999996348
 31
0.0
1001
ACDBBLOCKREPETAG
1070
     1
1071
       74
1005
130664
  0
LINE
  5
130665
  8
OBJECT
 10
454.00000000068388
 20
-44.999999999996348
 30
0.0
 11
578.00000000068394
 21
-44.999999999996348
 31
0.0
1001
ACDBBLOCKREPETAG
1070
     1
1071
       75
1005
130665
  0
LINE
  5
130666
  8
OBJECT
 10
578.00000000068394
 20
-44.999999999996348
 30
0.0
 11
578.00000000068394
 21
-51.999999999996362
 31
0.0
1001
ACDBBLOCKREPETAG
1070
     1
1071
       76
1005
130666
  0
LINE
  5
130667
  8
OBJECT
 10
578.00000000068394
 20
-51.999999999996362
 30
0.0
 11
454.00000000068388
 21
-51.999999999996362
 31
0.0
1001
ACDBBLOCKREPETAG
1070
     1
1071
       77
1005
130667
  0
LINE
  5
130668
  8
OBJECT
 10
561.00000000068735
 20
-105.0000250357952
 30
0.0
 11
561.00000000068394
 21
-168.99999999998269
 31
0.0
1001
ACDBBLOCKREPETAG
1070
     1
1071
       78
1005
130668
  0
LINE
  5
130669
  8
OBJECT
 10
471.00000000068388
 20
-105.0000250357952
 30
0.0
 11
471.00000000068388
 21
-168.9999999999809
 31
0.0
1001
ACDBBLOCKREPETAG
1070
     1
1071
       79
1005
130669
  0
LINE
  5
13066A
  8
OBJECT
 10
457.000000000684
 20
-51.999999999996362
 30
0.0
 11
457.000000000684
 21
-87.999999999996334
 31
0.0
1001
ACDBBLOCKREPETAG
1070
     1
1071
       80
1005
13066A
  0
LINE
  5
13066B
  8
OBJECT
 10
457.000000000684
 20
-87.999999999996334
 30
0.0
 11
575.00000000068394
 21
-87.999999999996334
 31
0.0
1001
ACDBBLOCKREPETAG
1070
     1
1071
       81
1005
13066B
  0
LINE
  5
13066C
  8
OBJECT
 10
575.00000000068394
 20
-87.999999999996334
 30
0.0
 11
575.00000000068394
 21
-51.999999999996362
 31
0.0
1001
ACDBBLOCKREPETAG
1070
     1
1071
       82
1005
13066C
  0
LINE
  5
13066D
  8
OBJECT
 10
461.500000000684
 20
-91.999999999996362
 30
0.0
 11
461.500000000684
 21
-104.99999999999631
 31
0.0
1001
ACDBBLOCKREPETAG
1070
     1
1071
       83
1005
13066D
  0
LINE
  5
13066E
  8
OBJECT
 10
570.50000000068394
 20
-104.99999999999631
 30
0.0
 11
570.50000000068394
 21
-91.999999999996362
 31
0.0
1001
ACDBBLOCKREPETAG
1070
     1
1071
       84
1005
13066E
  0
LINE
  5
13066F
  8
OBJECT
 10
570.50000000068394
 20
-91.999999999996362
 30
0.0
 11
461.500000000684
 21
-91.999999999996362
 31
0.0
1001
ACDBBLOCKREPETAG
1070
     1
1071
       85
1005
13066F
  0
LINE
  5
130670
  8
OBJECT
 10
457.000000000684
 20
-87.999999999996334
 30
0.0
 11
461.500000000684
 21
-91.999999999996362
 31
0.0
1001
ACDBBLOCKREPETAG
1070
     1
1071
       86
1005
130670
  0
LINE
  5
130671
  8
OBJECT
 10
575.00000000068394
 20
-87.999999999996334
 30
0.0
 11
570.50000000068394
 21
-91.999999999996362
 31
0.0
1001
ACDBBLOCKREPETAG
1070
     1
1071
       87
1005
130671
  0
LINE
  5
130672
  8
OBJECT
 10
454.00000000068388
 20
-171.9999999999809
 30
0.0
 11
454.00000000068388
 21
-174.99999999998181
 31
0.0
1001
ACDBBLOCKREPETAG
1070
     1
1071
       88
1005
130672
  0
ARC
  5
130673
  8
OBJECT
 10
457.000000000684
 20
-171.9999999999809
 30
0.0
 40
3.0
 50
90.0
 51
180.0
1001
ACDBBLOCKREPETAG
1070
     1
1071
       89
1005
130673
  0
LINE
  5
130674
  8
OBJECT
 10
578.00000000068394
 20
-174.99999999998181
 30
0.0
 11
578.00000000068394
 21
-171.99999999998269
 31
0.0
1001
ACDBBLOCKREPETAG
1070
     1
1071
       90
1005
130674
  0
ARC
  5
130675
  8
OBJECT
 10
575.00000000068394
 20
-171.99999999998269
 30
0.0
 40
3.0
 50
0.0
 51
90.0
1001
ACDBBLOCKREPETAG
1070
     1
1071
       91
1005
130675
  0
LINE
  5
130676
  8
OBJECT
 10
575.00000000068394
 20
-168.99999999998269
 30
0.0
 11
526.32279032104259
 21
-168.9999999999809
 31
0.0
1001
ACDBBLOCKREPETAG
1070
     1
1071
       92
1005
130676
  0
LINE
  5
130677
  8
OBJECT
 10
505.67720968032518
 20
-168.99999999998181
 30
0.0
 11
457.000000000684
 21
-168.9999999999809
 31
0.0
1001
ACDBBLOCKREPETAG
1070
     1
1071
       93
1005
130677
  0
LINE
  5
130678
  8
OBJECT
 10
570.49995092449535
 20
-105.0000250357952
 30
0.0
 11
461.49995092449518
 21
-105.0000250357952
 31
0.0
1001
ACDBBLOCKREPETAG
1070
     1
1071
       95
1005
130678
  0
ARC
  5
130679
  8
OBJECT
 10
516.00000000068394
 20
-125.19999999995891
 30
0.0
 40
45.000000000000547
 50
180.0
 51
0.0
1001
ACDBBLOCKREPETAG
1070
     1
1071
       96
1005
130679
  0
INSERT
  5
13067A
  8
OBJECT
  2
*U206
 10
0.0
 20
0.0
 30
0.0
  0
LINE
  5
13067B
  8
HIDDEN
 10
471.50000000068388
 20
-96.999999999996362
 30
0.0
 11
560.50000000068394
 21
-96.999999999996362
 31
0.0
1001
ACDBBLOCKREPETAG
1070
     1
1071
      429
1005
13067B
  0
LINE
  5
13067C
  8
OBJECT
 10
94.000000000603904
 20
-337.99999999998181
 30
0.0
 11
94.000000000603904
 21
-334.99999999998181
 31
0.0
1001
ACDBBLOCKREPETAG
1070
     1
1071
      418
1005
13067C
  0
ARC
  5
13067D
  8
OBJECT
 10
97.000000000603904
 20
-337.99999999998181
 30
0.0
 40
3.0
 50
180.0
 51
270.0
1001
ACDBBLOCKREPETAG
1070
     1
1071
      419
1005
13067D
  0
LINE
  5
13067E
  8
OBJECT
 10
218.0000000006039
 20
-334.99999999998181
 30
0.0
 11
218.0000000006039
 21
-337.99999999998181
 31
0.0
1001
ACDBBLOCKREPETAG
1070
     1
1071
      420
1005
13067E
  0
ARC
  5
13067F
  8
OBJECT
 10
215.0000000006039
 20
-337.99999999998181
 30
0.0
 40
3.0
 50
270.0
 51
0.0
1001
ACDBBLOCKREPETAG
1070
     1
1071
      421
1005
13067F
  0
LINE
  5
130680
  8
OBJECT
 10
215.0000000006039
 20
-340.99999999998181
 30
0.0
 11
97.000000000603904
 21
-340.99999999998181
 31
0.0
1001
ACDBBLOCKREPETAG
1070
     1
1071
      422
1005
130680
  0
INSERT
  5
130681
  8
OBJECT
  2
*U207
 10
0.0
 20
0.0
 30
0.0
  0
LINE
  5
130682
  8
OBJECT
 10
289.00000000060379
 20
-207.99999999998181
 30
0.0
 11
296.0000000006039
 21
-207.99999999998181
 31
0.0
1001
ACDBBLOCKREPETAG
1070
     1
1071
        1
1005
130682
  0
LINE
  5
130683
  8
OBJECT
 10
296.0000000006039
 20
-207.99999999998181
 30
0.0
 11
296.0000000006039
 21
-301.99999999998181
 31
0.0
1001
ACDBBLOCKREPETAG
1070
     1
1071
        2
1005
130683
  0
LINE
  5
130684
  8
OBJECT
 10
296.0000000006039
 20
-301.99999999998181
 30
0.0
 11
289.00000000060379
 21
-301.99999999998181
 31
0.0
1001
ACDBBLOCKREPETAG
1070
     1
1071
        3
1005
130684
  0
LINE
  5
130685
  8
OBJECT
 10
289.00000000060379
 20
-301.99999999998181
 30
0.0
 11
289.00000000060379
 21
-207.99999999998181
 31
0.0
1001
ACDBBLOCKREPETAG
1070
     1
1071
        4
1005
130685
  0
LINE
  5
130686
  8
OBJECT
 10
289.00000000060379
 20
-210.99999999998181
 30
0.0
 11
253.0000000006039
 21
-210.99999999998181
 31
0.0
1001
ACDBBLOCKREPETAG
1070
     1
1071
        5
1005
130686
  0
LINE
  5
130687
  8
OBJECT
 10
253.0000000006039
 20
-210.99999999998181
 30
0.0
 11
253.0000000006039
 21
-298.99999999998181
 31
0.0
1001
ACDBBLOCKREPETAG
1070
     1
1071
        6
1005
130687
  0
LINE
  5
130688
  8
OBJECT
 10
253.0000000006039
 20
-298.99999999998181
 30
0.0
 11
289.00000000060379
 21
-298.99999999998181
 31
0.0
1001
ACDBBLOCKREPETAG
1070
     1
1071
        7
1005
130688
  0
LINE
  5
130689
  8
OBJECT
 10
249.0000000006039
 20
-215.49999999998181
 30
0.0
 11
242.0000000006039
 21
-215.49999999998181
 31
0.0
1001
ACDBBLOCKREPETAG
1070
     1
1071
        8
1005
130689
  0
LINE
  5
13068A
  8
OBJECT
 10
242.0000000006039
 20
-294.49999999998181
 30
0.0
 11
249.0000000006039
 21
-294.49999999998181
 31
0.0
1001
ACDBBLOCKREPETAG
1070
     1
1071
        9
1005
13068A
  0
LINE
  5
13068B
  8
OBJECT
 10
249.0000000006039
 20
-294.49999999998181
 30
0.0
 11
249.0000000006039
 21
-215.49999999998181
 31
0.0
1001
ACDBBLOCKREPETAG
1070
     1
1071
       10
1005
13068B
  0
LINE
  5
13068C
  8
OBJECT
 10
253.0000000006039
 20
-210.99999999998181
 30
0.0
 11
249.0000000006039
 21
-215.49999999998181
 31
0.0
1001
ACDBBLOCKREPETAG
1070
     1
1071
       11
1005
13068C
  0
LINE
  5
13068D
  8
OBJECT
 10
253.0000000006039
 20
-298.99999999998181
 30
0.0
 11
249.0000000006039
 21
-294.49999999998181
 31
0.0
1001
ACDBBLOCKREPETAG
1070
     1
1071
       12
1005
13068D
  0
LINE
  5
13068E
  8
OBJECT
 10
239.0000000006057
 20
-192.99999999998181
 30
0.0
 11
236.0000000006039
 21
-192.99999999998181
 31
0.0
1001
ACDBBLOCKREPETAG
1070
     1
1071
       13
1005
13068E
  0
ARC
  5
13068F
  8
OBJECT
 10
239.0000000006057
 20
-195.99999999998181
 30
0.0
 40
3.0
 50
0.0
 51
90.0
1001
ACDBBLOCKREPETAG
1070
     1
1071
       14
1005
13068F
  0
LINE
  5
130690
  8
OBJECT
 10
236.0000000006039
 20
-316.99999999998181
 30
0.0
 11
239.00000000060211
 21
-316.99999999998181
 31
0.0
1001
ACDBBLOCKREPETAG
1070
     1
1071
       15
1005
130690
  0
ARC
  5
130691
  8
OBJECT
 10
239.00000000060211
 20
-313.99999999998181
 30
0.0
 40
3.0
 50
270.0
 51
0.0
1001
ACDBBLOCKREPETAG
1070
     1
1071
       16
1005
130691
  0
LINE
  5
130692
  8
OBJECT
 10
242.00000000060211
 20
-313.99999999998181
 30
0.0
 11
242.0000000006057
 21
-195.99999999998181
 31
0.0
1001
ACDBBLOCKREPETAG
1070
     1
1071
       17
1005
130692
  0
LINE
  5
130693
  8
HIDDEN
 10
244.0000000006039
 20
-224.99999999998181
 30
0.0
 11
244.0000000006039
 21
-284.99999999998181
 31
0.0
1001
ACDBBLOCKREPETAG
1070
     1
1071
      424
1005
130693
  0
LINE
  5
130694
  8
OBJECT
 10
94.000000000603904
 20
-51.999999999996362
 30
0.0
 11
94.000000000603904
 21
-44.999999999996348
 31
0.0
1001
ACDBBLOCKREPETAG
1070
     1
1071
       74
1005
130694
  0
LINE
  5
130695
  8
OBJECT
 10
94.000000000603904
 20
-44.999999999996348
 30
0.0
 11
218.0000000006039
 21
-44.999999999996348
 31
0.0
1001
ACDBBLOCKREPETAG
1070
     1
1071
       75
1005
130695
  0
LINE
  5
130696
  8
OBJECT
 10
218.0000000006039
 20
-44.999999999996348
 30
0.0
 11
218.0000000006039
 21
-51.999999999996362
 31
0.0
1001
ACDBBLOCKREPETAG
1070
     1
1071
       76
1005
130696
  0
LINE
  5
130697
  8
OBJECT
 10
218.0000000006039
 20
-51.999999999996362
 30
0.0
 11
94.000000000603904
 21
-51.999999999996362
 31
0.0
1001
ACDBBLOCKREPETAG
1070
     1
1071
       77
1005
130697
  0
LINE
  5
130698
  8
OBJECT
 10
201.00000000060751
 20
-105.0000250357952
 30
0.0
 11
201.0000000006039
 21
-168.99999999998269
 31
0.0
1001
ACDBBLOCKREPETAG
1070
     1
1071
       78
1005
130698
  0
LINE
  5
130699
  8
OBJECT
 10
111.0000000006039
 20
-105.0000250357952
 30
0.0
 11
111.0000000006039
 21
-168.9999999999809
 31
0.0
1001
ACDBBLOCKREPETAG
1070
     1
1071
       79
1005
130699
  0
LINE
  5
13069A
  8
OBJECT
 10
97.000000000603904
 20
-51.999999999996362
 30
0.0
 11
97.000000000603904
 21
-87.999999999996334
 31
0.0
1001
ACDBBLOCKREPETAG
1070
     1
1071
       80
1005
13069A
  0
LINE
  5
13069B
  8
OBJECT
 10
97.000000000603904
 20
-87.999999999996334
 30
0.0
 11
215.0000000006039
 21
-87.999999999996334
 31
0.0
1001
ACDBBLOCKREPETAG
1070
     1
1071
       81
1005
13069B
  0
LINE
  5
13069C
  8
OBJECT
 10
215.0000000006039
 20
-87.999999999996334
 30
0.0
 11
215.0000000006039
 21
-51.999999999996362
 31
0.0
1001
ACDBBLOCKREPETAG
1070
     1
1071
       82
1005
13069C
  0
LINE
  5
13069D
  8
OBJECT
 10
101.5000000006039
 20
-91.999999999996362
 30
0.0
 11
101.5000000006039
 21
-104.99999999999631
 31
0.0
1001
ACDBBLOCKREPETAG
1070
     1
1071
       83
1005
13069D
  0
LINE
  5
13069E
  8
OBJECT
 10
210.5000000006039
 20
-104.99999999999631
 30
0.0
 11
210.5000000006039
 21
-91.999999999996362
 31
0.0
1001
ACDBBLOCKREPETAG
1070
     1
1071
       84
1005
13069E
  0
LINE
  5
13069F
  8
OBJECT
 10
210.5000000006039
 20
-91.999999999996362
 30
0.0
 11
101.5000000006039
 21
-91.999999999996362
 31
0.0
1001
ACDBBLOCKREPETAG
1070
     1
1071
       85
1005
13069F
  0
LINE
  5
1306A0
  8
OBJECT
 10
97.000000000603904
 20
-87.999999999996334
 30
0.0
 11
101.5000000006039
 21
-91.999999999996362
 31
0.0
1001
ACDBBLOCKREPETAG
1070
     1
1071
       86
1005
1306A0
  0
LINE
  5
1306A1
  8
OBJECT
 10
215.0000000006039
 20
-87.999999999996334
 30
0.0
 11
210.5000000006039
 21
-91.999999999996362
 31
0.0
1001
ACDBBLOCKREPETAG
1070
     1
1071
       87
1005
1306A1
  0
LINE
  5
1306A2
  8
OBJECT
 10
94.000000000603904
 20
-171.9999999999809
 30
0.0
 11
94.000000000603904
 21
-174.99999999998181
 31
0.0
1001
ACDBBLOCKREPETAG
1070
     1
1071
       88
1005
1306A2
  0
ARC
  5
1306A3
  8
OBJECT
 10
97.000000000603904
 20
-171.9999999999809
 30
0.0
 40
3.0
 50
90.0
 51
180.0
1001
ACDBBLOCKREPETAG
1070
     1
1071
       89
1005
1306A3
  0
LINE
  5
1306A4
  8
OBJECT
 10
218.0000000006039
 20
-174.99999999998181
 30
0.0
 11
218.0000000006039
 21
-171.99999999998269
 31
0.0
1001
ACDBBLOCKREPETAG
1070
     1
1071
       90
1005
1306A4
  0
ARC
  5
1306A5
  8
OBJECT
 10
215.0000000006039
 20
-171.99999999998269
 30
0.0
 40
3.0
 50
0.0
 51
90.0
1001
ACDBBLOCKREPETAG
1070
     1
1071
       91
1005
1306A5
  0
LINE
  5
1306A6
  8
OBJECT
 10
215.0000000006039
 20
-168.99999999998269
 30
0.0
 11
166.32279032096261
 21
-168.9999999999809
 31
0.0
1001
ACDBBLOCKREPETAG
1070
     1
1071
       92
1005
1306A6
  0
LINE
  5
1306A7
  8
OBJECT
 10
145.67720968024511
 20
-168.99999999998181
 30
0.0
 11
97.000000000603904
 21
-168.9999999999809
 31
0.0
1001
ACDBBLOCKREPETAG
1070
     1
1071
       93
1005
1306A7
  0
LINE
  5
1306A8
  8
OBJECT
 10
210.49995092441529
 20
-105.0000250357952
 30
0.0
 11
101.4999509244153
 21
-105.0000250357952
 31
0.0
1001
ACDBBLOCKREPETAG
1070
     1
1071
       95
1005
1306A8
  0
ARC
  5
1306A9
  8
OBJECT
 10
156.0000000006039
 20
-125.19999999995891
 30
0.0
 40
45.000000000000547
 50
180.0
 51
0.0
1001
ACDBBLOCKREPETAG
1070
     1
1071
       96
1005
1306A9
  0
INSERT
  5
1306AA
  8
OBJECT
  2
*U208
 10
0.0
 20
0.0
 30
0.0
  0
LINE
  5
1306AB
  8
HIDDEN
 10
111.5000000006039
 20
-96.999999999996362
 30
0.0
 11
200.5000000006039
 21
-96.999999999996362
 31
0.0
1001
ACDBBLOCKREPETAG
1070
     1
1071
      429
1005
1306AB
  0
LINE
  5
1306AC
  8
HIDDEN
 10
0.0
 20
0.0
 30
0.0
 11
360.0
 21
0.0
 31
0.0
1001
ACDBBLOCKREPETAG
1070
     1
1071
       49
1005
0
  0
LINE
  5
1306AD
  8
HIDDEN
 10
360.0
 20
0.0
 30
0.0
 11
360.0
 21
-464.0
 31
0.0
1001
ACDBBLOCKREPETAG
1070
     1
1071
       49
1005
0
  0
LINE
  5
1306AE
  8
HIDDEN
 10
360.0
 20
-464.0
 30
0.0
 11
0.0
 21
-464.0
 31
0.0
1001
ACDBBLOCKREPETAG
1070
     1
1071
       49
1005
0
  0
LINE
  5
1306AF
  8
HIDDEN
 10
0.0
 20
-464.0
 30
0.0
 11
0.0
 21
0.0
 31
0.0
1001
ACDBBLOCKREPETAG
1070
     1
1071
       49
1005
0
  0
LINE
  5
1306B0
  8
HIDDEN
 10
0.0
 20
-464.0
 30
0.0
 11
360.0
 21
-464.0
 31
0.0
1001
ACDBBLOCKREPETAG
1070
     1
1071
       36
1005
0
  0
LINE
  5
1306B1
  8
HIDDEN
 10
360.0
 20
-464.0
 30
0.0
 11
360.0
 21
-928.0
 31
0.0
1001
ACDBBLOCKREPETAG
1070
     1
1071
       36
1005
0
  0
LINE
  5
1306B2
  8
HIDDEN
 10
360.0
 20
-928.0
 30
0.0
 11
0.0
 21
-928.0
 31
0.0
1001
ACDBBLOCKREPETAG
1070
     1
1071
       36
1005
0
  0
LINE
  5
1306B3
  8
HIDDEN
 10
0.0
 20
-928.0
 30
0.0
 11
0.0
 21
-464.0
 31
0.0
1001
ACDBBLOCKREPETAG
1070
     1
1071
       36
1005
0
  0
LINE
  5
1306B4
  8
HIDDEN
 10
360.0
 20
0.0
 30
0.0
 11
720.0
 21
0.0
 31
0.0
1001
ACDBBLOCKREPETAG
1070
     1
1071
       35
1005
0
  0
LINE
  5
1306B5
  8
HIDDEN
 10
720.0
 20
0.0
 30
0.0
 11
720.0
 21
-464.0
 31
0.0
1001
ACDBBLOCKREPETAG
1070
     1
1071
       35
1005
0
  0
LINE
  5
1306B6
  8
HIDDEN
 10
720.0
 20
-464.0
 30
0.0
 11
360.0
 21
-464.0
 31
0.0
1001
ACDBBLOCKREPETAG
1070
     1
1071
       35
1005
0
  0
LINE
  5
1306B7
  8
HIDDEN
 10
360.0
 20
-464.0
 30
0.0
 11
360.0
 21
0.0
 31
0.0
1001
ACDBBLOCKREPETAG
1070
     1
1071
       35
1005
0
  0
LINE
  5
1306B8
  8
HIDDEN
 10
360.0
 20
-464.0
 30
0.0
 11
720.0
 21
-464.0
 31
0.0
1001
ACDBBLOCKREPETAG
1070
     1
1071
       34
1005
0
  0
LINE
  5
1306B9
  8
HIDDEN
 10
720.0
 20
-464.0
 30
0.0
 11
720.0
 21
-928.0
 31
0.0
1001
ACDBBLOCKREPETAG
1070
     1
1071
       34
1005
0
  0
LINE
  5
1306BA
  8
HIDDEN
 10
720.0
 20
-928.0
 30
0.0
 11
360.0
 21
-928.0
 31
0.0
1001
ACDBBLOCKREPETAG
1070
     1
1071
       34
1005
0
  0
LINE
  5
1306BB
  8
HIDDEN
 10
360.0
 20
-928.0
 30
0.0
 11
360.0
 21
-464.0
 31
0.0
1001
ACDBBLOCKREPETAG
1070
     1
1071
       34
1005
0
  0
LINE
  5
1306BC
  8
OBJECT
 10
3923.0
 20
-570.99999999999955
 30
0.0
 11
3923.0
 21
-549.99999999999955
 31
0.0
1001
ACDBBLOCKREPETAG
1070
     1
1071
       36
1005
1306BC
  0
LINE
  5
1306BD
  8
OBJECT
 10
3923.0
 20
-549.99999999999955
 30
0.0
 11
4077.0
 21
-549.99999999999955
 31
0.0
1001
ACDBBLOCKREPETAG
1070
     1
1071
       37
1005
1306BD
  0
LINE
  5
1306BE
  8
HIDDEN
 10
3943.0
 20
-619.99999999999955
 30
0.0
 11
4057.0
 21
-619.99999999999955
 31
0.0
1001
ACDBBLOCKREPETAG
1070
     1
1071
       38
1005
1306BE
  0
LINE
  5
1306BF
  8
OBJECT
 10
4077.0
 20
-549.99999999999955
 30
0.0
 11
4077.0
 21
-570.99999999999955
 31
0.0
1001
ACDBBLOCKREPETAG
1070
     1
1071
       39
1005
1306BF
  0
LINE
  5
1306C0
  8
OBJECT
 10
4077.0
 20
-570.99999999999955
 30
0.0
 11
3923.0
 21
-570.99999999999955
 31
0.0
1001
ACDBBLOCKREPETAG
1070
     1
1071
       40
1005
1306C0
  0
LINE
  5
1306C1
  8
CENTER
 10
4000.0
 20
-534.99999999999955
 30
0.0
 11
4000.0
 21
-769.99999999999955
 31
0.0
1001
ACDBBLOCKREPETAG
1070
     1
1071
       41
1005
1306C1
  0
LINE
  5
1306C2
  8
OBJECT
 10
3928.0
 20
-570.99999999999955
 30
0.0
 11
3928.0
 21
-633.99999999999955
 31
0.0
1001
ACDBBLOCKREPETAG
1070
     1
1071
       42
1005
1306C2
  0
LINE
  5
1306C3
  8
OBJECT
 10
4072.0
 20
-633.99999999999955
 30
0.0
 11
4072.0
 21
-570.99999999999955
 31
0.0
1001
ACDBBLOCKREPETAG
1070
     1
1071
       43
1005
1306C3
  0
LINE
  5
1306C4
  8
OBJECT
 10
3920.0
 20
-757.99999999999955
 30
0.0
 11
4080.0
 21
-757.99999999999955
 31
0.0
1001
ACDBBLOCKREPETAG
1070
     1
1071
       44
1005
1306C4
  0
LINE
  5
1306C5
  8
OBJECT
 10
4080.0
 20
-633.99999999999955
 30
0.0
 11
3920.0
 21
-633.99999999999955
 31
0.0
1001
ACDBBLOCKREPETAG
1070
     1
1071
       45
1005
1306C5
  0
LINE
  5
1306C6
  8
OBJECT
 10
3920.0
 20
-757.99999999999955
 30
0.0
 11
3920.0
 21
-769.99999999999955
 31
0.0
1001
ACDBBLOCKREPETAG
1070
     1
1071
       46
1005
1306C6
  0
LINE
  5
1306C7
  8
OBJECT
 10
3920.0
 20
-769.99999999999955
 30
0.0
 11
4080.0
 21
-769.99999999999955
 31
0.0
1001
ACDBBLOCKREPETAG
1070
     1
1071
       47
1005
1306C7
  0
LINE
  5
1306C8
  8
OBJECT
 10
4080.0
 20
-769.99999999999955
 30
0.0
 11
4080.0
 21
-757.99999999999955
 31
0.0
1001
ACDBBLOCKREPETAG
1070
     1
1071
       48
1005
1306C8
  0
ARC
  5
1306C9
  8
OBJECT
 10
4200.6872746716726
 20
-749.40809941010718
 30
0.0
 40
170.6350503965856
 50
137.44134459184301
 51
149.91949581337221
1001
ACDBBLOCKREPETAG
1070
     1
1071
       52
1005
1306C9
  0
ARC
  5
1306CA
  8
OBJECT
 10
4200.6872746716726
 20
-642.59190058989179
 30
0.0
 40
170.6350503965856
 50
210.08050418662771
 51
222.55865540815699
1001
ACDBBLOCKREPETAG
1070
     1
1071
       53
1005
1306CA
  0
ARC
  5
1306CB
  8
OBJECT
 10
3799.3127253283278
 20
-749.40809941010718
 30
0.0
 40
170.6350503965856
 50
30.080504186774089
 51
42.558655408456282
1001
ACDBBLOCKREPETAG
1070
     1
1071
       54
1005
1306CB
  0
ARC
  5
1306CC
  8
OBJECT
 10
3799.3127253283278
 20
-642.59190058989179
 30
0.0
 40
170.6350503965856
 50
317.44134459154373
 51
329.91949581322592
1001
ACDBBLOCKREPETAG
1070
     1
1071
       55
1005
1306CC
  0
POINT
  5
1306CD
  8
DOTS
 10
4000.0
 20
-754.99999999999955
 30
0.0
1001
ACDBBLOCKREPETAG
1070
     1
1071
      184
1005
1306CD
  0
LINE
  5
1306CE
  8
SLIM
 10
3945.2566704261012
 20
-137.99999999999909
 30
0.0
 11
3955.9548403695781
 21
-127.30183005652231
 31
0.0
1001
GRADIENTCOLOR1ACI
1070
     5
1001
GRADIENTCOLOR2ACI
1070
     2
1001
ACAD
1010
0.0
1020
0.0
1030
0.0
1001
ACDBBLOCKREPETAG
1070
     1
1071
      422
1005
1306CE
  0
LINE
  5
1306CF
  8
SLIM
 10
3954.2369265471712
 20
-137.99999999999909
 30
0.0
 11
3972.7507744763329
 21
-119.4861520708364
 31
0.0
1001
GRADIENTCOLOR1ACI
1070
     5
1001
GRADIENTCOLOR2ACI
1070
     2
1001
ACAD
1010
0.0
1020
0.0
1030
0.0
1001
ACDBBLOCKREPETAG
1070
     1
1071
      423
1005
1306CF
  0
LINE
  5
1306D0
  8
SLIM
 10
3973.521224312457
 20
-127.6959583557812
 30
0.0
 11
3984.8575146748631
 21
-116.359667993377
 31
0.0
1001
GRADIENTCOLOR1ACI
1070
     5
1001
GRADIENTCOLOR2ACI
1070
     2
1001
ACAD
1010
0.0
1020
0.0
1030
0.0
1001
ACDBBLOCKREPETAG
1070
     1
1071
      424
1005
1306D0
  0
LINE
  5
1306D1
  8
SLIM
 10
3985.8944171461271
 20
-124.30302164318159
 30
0.0
 11
3995.0533812002559
 21
-115.1440575890517
 31
0.0
1001
GRADIENTCOLOR1ACI
1070
     5
1001
GRADIENTCOLOR2ACI
1070
     2
1001
ACAD
1010
0.0
1020
0.0
1030
0.0
1001
ACDBBLOCKREPETAG
1070
     1
1071
      425
1005
1306D1
  0
LINE
  5
1306D2
  8
SLIM
 10
3996.0777327492078
 20
-123.0999621611699
 30
0.0
 11
4000.0
 21
-119.1776949103767
 31
0.0
1001
GRADIENTCOLOR1ACI
1070
     5
1001
GRADIENTCOLOR2ACI
1070
     2
1001
ACAD
1010
0.0
1020
0.0
1030
0.0
1001
ACDBBLOCKREPETAG
1070
     1
1071
      426
1005
1306D2
  0
LINE
  5
1306D3
  8
SLIM
 10
4000.0
 20
-119.1776949103767
 30
0.0
 11
4004.0797313529042
 21
-115.0979635574724
 31
0.0
1001
GRADIENTCOLOR1ACI
1070
     5
1001
GRADIENTCOLOR2ACI
1070
     2
1001
ACAD
1010
0.0
1020
0.0
1030
0.0
1001
ACDBBLOCKREPETAG
1070
     1
1071
      427
1005
1306D3
  0
LINE
  5
1306D4
  8
SLIM
 10
4004.9957202542769
 20
-123.1622307771683
 30
0.0
 11
4012.2679784105749
 21
-115.88997262087101
 31
0.0
1001
GRADIENTCOLOR1ACI
1070
     5
1001
GRADIENTCOLOR2ACI
1070
     2
1001
ACAD
1010
0.0
1020
0.0
1030
0.0
1001
ACDBBLOCKREPETAG
1070
     1
1071
      428
1005
1306D4
  0
LINE
  5
1306D5
  8
SLIM
 10
4013.028059366964
 20
-124.1101477855505
 30
0.0
 11
4019.799941457361
 21
-117.3382656951526
 31
0.0
1001
GRADIENTCOLOR1ACI
1070
     5
1001
GRADIENTCOLOR2ACI
1070
     2
1001
ACAD
1010
0.0
1020
0.0
1030
0.0
1001
ACDBBLOCKREPETAG
1070
     1
1071
      429
1005
1306D5
  0
LINE
  5
1306D6
  8
SLIM
 10
4020.3740813142458
 20
-125.7443819593383
 30
0.0
 11
4026.7872038672799
 21
-119.3312594063044
 31
0.0
1001
GRADIENTCOLOR1ACI
1070
     5
1001
GRADIENTCOLOR2ACI
1070
     2
1001
ACAD
1010
0.0
1020
0.0
1030
0.0
1001
ACDBBLOCKREPETAG
1070
     1
1071
      430
1005
1306D6
  0
LINE
  5
1306D7
  8
SLIM
 10
4027.1524719988752
 20
-127.946247395778
 30
0.0
 11
4033.3030030760328
 21
-121.7957163186195
 31
0.0
1001
GRADIENTCOLOR1ACI
1070
     5
1001
GRADIENTCOLOR2ACI
1070
     2
1001
ACAD
1010
0.0
1020
0.0
1030
0.0
1001
ACDBBLOCKREPETAG
1070
     1
1071
      431
1005
1306D7
  0
LINE
  5
1306D8
  8
SLIM
 10
4033.4390986513308
 20
-130.63987686439191
 30
0.0
 11
4039.3973119843781
 21
-124.6816635313439
 31
0.0
1001
GRADIENTCOLOR1ACI
1070
     5
1001
GRADIENTCOLOR2ACI
1070
     2
1001
ACAD
1010
0.0
1020
0.0
1030
0.0
1001
ACDBBLOCKREPETAG
1070
     1
1071
      432
1005
1306D8
  0
LINE
  5
1306D9
  8
SLIM
 10
4039.284224621797
 20
-133.77500701499321
 30
0.0
 11
4045.1047705343681
 21
-127.95446110242381
 31
0.0
1001
GRADIENTCOLOR1ACI
1070
     5
1001
GRADIENTCOLOR2ACI
1070
     2
1001
ACAD
1010
0.0
1020
0.0
1030
0.0
1001
ACDBBLOCKREPETAG
1070
     1
1071
      433
1005
1306D9
  0
LINE
  5
1306DA
  8
SLIM
 10
4044.7212801698038
 20
-137.31820758805651
 30
0.0
 11
4050.4491557891961
 21
-131.59033196866449
 31
0.0
1001
GRADIENTCOLOR1ACI
1070
     5
1001
GRADIENTCOLOR2ACI
1070
     2
1001
ACAD
1010
0.0
1020
0.0
1030
0.0
1001
ACDBBLOCKREPETAG
1070
     1
1071
      434
1005
1306DA
  0
LINE
  5
1306DB
  8
SLIM
 10
4053.0197438789291
 20
-137.99999999999909
 30
0.0
 11
4055.4459941864038
 21
-135.57374969252561
 31
0.0
1001
GRADIENTCOLOR1ACI
1070
     5
1001
GRADIENTCOLOR2ACI
1070
     2
1001
ACAD
1010
0.0
1020
0.0
1030
0.0
1001
ACDBBLOCKREPETAG
1070
     1
1071
      435
1005
1306DB
  0
LINE
  5
1306DC
  8
CENTER
 10
4000.0
 20
-279.99999999999909
 30
0.0
 11
4000.0
 21
-99.999999999999091
 31
0.0
1001
ACDBBLOCKREPETAG
1070
     1
1071
      160
1005
1306DC
  0
CIRCLE
  5
1306DD
  8
OBJECT
 10
4000.0
 20
-199.99999999999909
 30
0.0
 40
70.0
1001
ACDBBLOCKREPETAG
1070
     1
1071
      161
1005
1306DD
  0
CIRCLE
  5
1306DE
  8
OBJECT
 10
4000.0
 20
-199.99999999999909
 30
0.0
 40
77.0
1001
ACDBBLOCKREPETAG
1070
     1
1071
      162
1005
1306DE
  0
LINE
  5
1306DF
  8
OBJECT
 10
4045.661800227324
 20
-137.99999999999909
 30
0.0
 11
4080.0
 21
-137.99999999999909
 31
0.0
1001
ACDBBLOCKREPETAG
1070
     1
1071
      164
1005
1306DF
  0
LINE
  5
1306E0
  8
OBJECT
 10
4062.0
 20
-261.99999999999909
 30
0.0
 11
4080.0
 21
-261.99999999999909
 31
0.0
1001
ACDBBLOCKREPETAG
1070
     1
1071
      165
1005
1306E0
  0
LINE
  5
1306E1
  8
OBJECT
 10
4062.0
 20
-261.99999999999909
 30
0.0
 11
4062.0
 21
-279.99999999999909
 31
0.0
1001
ACDBBLOCKREPETAG
1070
     1
1071
      167
1005
1306E1
  0
LINE
  5
1306E2
  8
OBJECT
 10
3938.0
 20
-261.99999999999909
 30
0.0
 11
3938.0
 21
-279.99999999999909
 31
0.0
1001
ACDBBLOCKREPETAG
1070
     1
1071
      168
1005
1306E2
  0
LINE
  5
1306E3
  8
OBJECT
 10
3938.0
 20
-261.99999999999909
 30
0.0
 11
3920.0
 21
-261.99999999999909
 31
0.0
1001
ACDBBLOCKREPETAG
1070
     1
1071
      170
1005
1306E3
  0
LINE
  5
1306E4
  8
OBJECT
 10
3954.338199772676
 20
-137.99999999999909
 30
0.0
 11
3920.0
 21
-137.99999999999909
 31
0.0
1001
ACDBBLOCKREPETAG
1070
     1
1071
      171
1005
1306E4
  0
LINE
  5
1306E5
  8
OBJECT
 10
3945.5527778486362
 20
-254.44722215136329
 30
0.0
 11
3938.0
 21
-261.99999999999909
 31
0.0
1001
ACDBBLOCKREPETAG
1070
     1
1071
      180
1005
1306E5
  0
LINE
  5
1306E6
  8
OBJECT
 10
4054.4472221513638
 20
-254.44722215136329
 30
0.0
 11
4062.0
 21
-261.99999999999909
 31
0.0
1001
ACDBBLOCKREPETAG
1070
     1
1071
      181
1005
1306E6
  0
POINT
  5
1306E7
  8
DOTS
 10
4000.0
 20
-199.99999999999909
 30
0.0
 50
270.0
1001
ACDBBLOCKREPETAG
1070
     1
1071
      182
1005
1306E7
  0
ARC
  5
1306E8
  8
OBJECT
 10
4000.0
 20
-199.99999999999909
 30
0.0
 40
85.0
 50
46.837102859806208
 51
133.16289714019371
1001
ACDBBLOCKREPETAG
1070
     1
1071
      183
1005
1306E8
  0
CIRCLE
  5
1306E9
  8
OBJECT
 10
4000.0
 20
-199.99999999999909
 30
0.0
 40
53.5
1001
ACDBBLOCKREPETAG
1070
     1
1071
      352
1005
1306E9
  0
LINE
  5
1306EA
  8
CENTER
 10
4080.0
 20
-199.99999999999909
 30
0.0
 11
3920.0
 21
-199.99999999999909
 31
0.0
1001
ACDBBLOCKREPETAG
1070
     1
1071
      158
1005
1306EA
  0
LINE
  5
1306EB
  8
CENTER
 10
3899.0
 20
-199.99999999999909
 30
0.0
 11
3920.0
 21
-199.99999999999909
 31
0.0
1001
ACDBBLOCKREPETAG
1070
     1
1071
        0
1005
1306EB
  0
LINE
  5
1306EC
  8
OBJECT
 10
3917.0
 20
-261.99999999999909
 30
0.0
 11
3920.0
 21
-261.99999999999909
 31
0.0
1001
ACDBBLOCKREPETAG
1070
     1
1071
        1
1005
1306EC
  0
ARC
  5
1306ED
  8
OBJECT
 10
3917.0
 20
-258.99999999999909
 30
0.0
 40
3.0
 50
180.0
 51
270.0
1001
ACDBBLOCKREPETAG
1070
     1
1071
        2
1005
1306ED
  0
LINE
  5
1306EE
  8
OBJECT
 10
3920.0
 20
-137.99999999999909
 30
0.0
 11
3917.0
 21
-137.99999999999909
 31
0.0
1001
ACDBBLOCKREPETAG
1070
     1
1071
        3
1005
1306EE
  0
ARC
  5
1306EF
  8
OBJECT
 10
3917.0
 20
-140.99999999999909
 30
0.0
 40
3.0
 50
90.0
 51
180.0
1001
ACDBBLOCKREPETAG
1070
     1
1071
        4
1005
1306EF
  0
LINE
  5
1306F0
  8
OBJECT
 10
3914.0
 20
-140.99999999999909
 30
0.0
 11
3914.0
 21
-258.99999999999909
 31
0.0
1001
ACDBBLOCKREPETAG
1070
     1
1071
        5
1005
1306F0
  0
LINE
  5
1306F1
  8
OBJECT
 10
4062.0
 20
-332.99999999999898
 30
0.0
 11
4062.0
 21
-339.99999999999909
 31
0.0
1001
ACDBBLOCKREPETAG
1070
     1
1071
       47
1005
1306F1
  0
LINE
  5
1306F2
  8
OBJECT
 10
4062.0
 20
-339.99999999999909
 30
0.0
 11
3938.0
 21
-339.99999999999909
 31
0.0
1001
ACDBBLOCKREPETAG
1070
     1
1071
       48
1005
1306F2
  0
LINE
  5
1306F3
  8
OBJECT
 10
3938.0
 20
-339.99999999999909
 30
0.0
 11
3938.0
 21
-332.99999999999898
 31
0.0
1001
ACDBBLOCKREPETAG
1070
     1
1071
       49
1005
1306F3
  0
LINE
  5
1306F4
  8
OBJECT
 10
3938.0
 20
-332.99999999999898
 30
0.0
 11
4062.0
 21
-332.99999999999898
 31
0.0
1001
ACDBBLOCKREPETAG
1070
     1
1071
       50
1005
1306F4
  0
LINE
  5
1306F5
  8
CENTER
 10
4000.0
 20
-354.99999999999909
 30
0.0
 11
4000.0
 21
-279.99999999999909
 31
0.0
1001
ACDBBLOCKREPETAG
1070
     1
1071
       51
1005
1306F5
  0
LINE
  5
1306F6
  8
OBJECT
 10
4059.0
 20
-332.99999999999898
 30
0.0
 11
4059.0
 21
-296.99999999999898
 31
0.0
1001
ACDBBLOCKREPETAG
1070
     1
1071
       52
1005
1306F6
  0
LINE
  5
1306F7
  8
OBJECT
 10
4059.0
 20
-296.99999999999898
 30
0.0
 11
3941.0
 21
-296.99999999999898
 31
0.0
1001
ACDBBLOCKREPETAG
1070
     1
1071
       53
1005
1306F7
  0
LINE
  5
1306F8
  8
OBJECT
 10
3941.0
 20
-296.99999999999898
 30
0.0
 11
3941.0
 21
-332.99999999999898
 31
0.0
1001
ACDBBLOCKREPETAG
1070
     1
1071
       54
1005
1306F8
  0
LINE
  5
1306F9
  8
OBJECT
 10
4054.4999999999991
 20
-292.99999999999898
 30
0.0
 11
4054.4999999999991
 21
-285.99999999999898
 31
0.0
1001
ACDBBLOCKREPETAG
1070
     1
1071
       55
1005
1306F9
  0
LINE
  5
1306FA
  8
OBJECT
 10
3945.5
 20
-285.99999999999898
 30
0.0
 11
3945.5
 21
-292.99999999999898
 31
0.0
1001
ACDBBLOCKREPETAG
1070
     1
1071
       56
1005
1306FA
  0
LINE
  5
1306FB
  8
OBJECT
 10
3945.5
 20
-292.99999999999898
 30
0.0
 11
4054.4999999999991
 21
-292.99999999999898
 31
0.0
1001
ACDBBLOCKREPETAG
1070
     1
1071
       57
1005
1306FB
  0
LINE
  5
1306FC
  8
OBJECT
 10
4059.0
 20
-296.99999999999898
 30
0.0
 11
4054.4999999999991
 21
-292.99999999999898
 31
0.0
1001
ACDBBLOCKREPETAG
1070
     1
1071
       58
1005
1306FC
  0
LINE
  5
1306FD
  8
OBJECT
 10
3941.0
 20
-296.99999999999898
 30
0.0
 11
3945.5
 21
-292.99999999999898
 31
0.0
1001
ACDBBLOCKREPETAG
1070
     1
1071
       59
1005
1306FD
  0
LINE
  5
1306FE
  8
OBJECT
 10
4062.0
 20
-283.0
 30
0.0
 11
4062.0
 21
-279.99999999999909
 31
0.0
1001
ACDBBLOCKREPETAG
1070
     1
1071
       60
1005
1306FE
  0
ARC
  5
1306FF
  8
OBJECT
 10
4059.0
 20
-283.0
 30
0.0
 40
3.0
 50
270.0
 51
0.0
1001
ACDBBLOCKREPETAG
1070
     1
1071
       61
1005
1306FF
  0
LINE
  5
130700
  8
OBJECT
 10
3938.0
 20
-279.99999999999909
 30
0.0
 11
3938.0
 21
-282.99999999999818
 31
0.0
1001
ACDBBLOCKREPETAG
1070
     1
1071
       62
1005
130700
  0
ARC
  5
130701
  8
OBJECT
 10
3941.0
 20
-282.99999999999818
 30
0.0
 40
3.0
 50
180.0
 51
270.0
1001
ACDBBLOCKREPETAG
1070
     1
1071
       63
1005
130701
  0
LINE
  5
130702
  8
OBJECT
 10
3941.0
 20
-285.99999999999818
 30
0.0
 11
4059.0
 21
-286.0
 31
0.0
1001
ACDBBLOCKREPETAG
1070
     1
1071
       64
1005
130702
  0
LINE
  5
130703
  8
HIDDEN
 10
4044.5
 20
-287.99999999999909
 30
0.0
 11
3955.5
 21
-287.99999999999909
 31
0.0
1001
ACDBBLOCKREPETAG
1070
     1
1071
       65
1005
130703
  0
LINE
  5
130704
  8
OBJECT
 10
4202.9999999999854
 20
-137.99999999999909
 30
0.0
 11
4209.9999999999854
 21
-137.99999999999909
 31
0.0
1001
ACDBBLOCKREPETAG
1070
     1
1071
       85
1005
130704
  0
LINE
  5
130705
  8
OBJECT
 10
4209.9999999999854
 20
-137.99999999999909
 30
0.0
 11
4209.9999999999854
 21
-261.99999999999909
 31
0.0
1001
ACDBBLOCKREPETAG
1070
     1
1071
       86
1005
130705
  0
LINE
  5
130706
  8
OBJECT
 10
4209.9999999999854
 20
-261.99999999999909
 30
0.0
 11
4202.9999999999854
 21
-261.99999999999909
 31
0.0
1001
ACDBBLOCKREPETAG
1070
     1
1071
       87
1005
130706
  0
LINE
  5
130707
  8
OBJECT
 10
4202.9999999999854
 20
-261.99999999999909
 30
0.0
 11
4202.9999999999854
 21
-137.99999999999909
 31
0.0
1001
ACDBBLOCKREPETAG
1070
     1
1071
       88
1005
130707
  0
LINE
  5
130708
  8
CENTER
 10
4224.9999999999864
 20
-199.99999999999909
 30
0.0
 11
4080.0
 21
-199.99999999999909
 31
0.0
1001
ACDBBLOCKREPETAG
1070
     1
1071
       89
1005
130708
  0
LINE
  5
130709
  8
OBJECT
 10
4149.9999749641856
 20
-245.0000000000027
 30
0.0
 11
4086.0
 21
-244.99999999999909
 31
0.0
1001
ACDBBLOCKREPETAG
1070
     1
1071
       90
1005
130709
  0
LINE
  5
13070A
  8
OBJECT
 10
4149.9999749641856
 20
-154.99999999999909
 30
0.0
 11
4086.0
 21
-154.99999999999909
 31
0.0
1001
ACDBBLOCKREPETAG
1070
     1
1071
       91
1005
13070A
  0
LINE
  5
13070B
  8
OBJECT
 10
4202.9999999999854
 20
-140.99999999999909
 30
0.0
 11
4166.9999999999854
 21
-140.99999999999909
 31
0.0
1001
ACDBBLOCKREPETAG
1070
     1
1071
       92
1005
13070B
  0
LINE
  5
13070C
  8
OBJECT
 10
4166.9999999999854
 20
-140.99999999999909
 30
0.0
 11
4166.9999999999854
 21
-258.99999999999909
 31
0.0
1001
ACDBBLOCKREPETAG
1070
     1
1071
       93
1005
13070C
  0
LINE
  5
13070D
  8
OBJECT
 10
4166.9999999999854
 20
-258.99999999999909
 30
0.0
 11
4202.9999999999854
 21
-258.99999999999909
 31
0.0
1001
ACDBBLOCKREPETAG
1070
     1
1071
       94
1005
13070D
  0
LINE
  5
13070E
  8
OBJECT
 10
4162.9999999999854
 20
-145.49999999999909
 30
0.0
 11
4149.9999999999864
 21
-145.49999999999909
 31
0.0
1001
ACDBBLOCKREPETAG
1070
     1
1071
       95
1005
13070E
  0
LINE
  5
13070F
  8
OBJECT
 10
4149.9999999999864
 20
-254.49999999999909
 30
0.0
 11
4162.9999999999854
 21
-254.49999999999909
 31
0.0
1001
ACDBBLOCKREPETAG
1070
     1
1071
       96
1005
13070F
  0
LINE
  5
130710
  8
OBJECT
 10
4162.9999999999854
 20
-254.49999999999909
 30
0.0
 11
4162.9999999999854
 21
-145.49999999999909
 31
0.0
1001
ACDBBLOCKREPETAG
1070
     1
1071
       97
1005
130710
  0
LINE
  5
130711
  8
OBJECT
 10
4166.9999999999854
 20
-140.99999999999909
 30
0.0
 11
4162.9999999999854
 21
-145.49999999999909
 31
0.0
1001
ACDBBLOCKREPETAG
1070
     1
1071
       98
1005
130711
  0
LINE
  5
130712
  8
OBJECT
 10
4166.9999999999854
 20
-258.99999999999909
 30
0.0
 11
4162.9999999999854
 21
-254.49999999999909
 31
0.0
1001
ACDBBLOCKREPETAG
1070
     1
1071
       99
1005
130712
  0
LINE
  5
130713
  8
OBJECT
 10
4083.0
 20
-137.99999999999909
 30
0.0
 11
4080.0
 21
-137.99999999999909
 31
0.0
1001
ACDBBLOCKREPETAG
1070
     1
1071
      100
1005
130713
  0
ARC
  5
130714
  8
OBJECT
 10
4083.0
 20
-140.99999999999909
 30
0.0
 40
3.0
 50
0.0
 51
90.0
1001
ACDBBLOCKREPETAG
1070
     1
1071
      101
1005
130714
  0
LINE
  5
130715
  8
OBJECT
 10
4080.0
 20
-261.99999999999909
 30
0.0
 11
4083.0
 21
-261.99999999999909
 31
0.0
1001
ACDBBLOCKREPETAG
1070
     1
1071
      102
1005
130715
  0
ARC
  5
130716
  8
OBJECT
 10
4083.0
 20
-258.99999999999909
 30
0.0
 40
3.0
 50
270.0
 51
0.0
1001
ACDBBLOCKREPETAG
1070
     1
1071
      103
1005
130716
  0
LINE
  5
130717
  8
OBJECT
 10
4086.0
 20
-258.99999999999909
 30
0.0
 11
4086.0
 21
-210.3227903203578
 31
0.0
1001
ACDBBLOCKREPETAG
1070
     1
1071
      104
1005
130717
  0
LINE
  5
130718
  8
OBJECT
 10
4086.0
 20
-189.6772096796403
 30
0.0
 11
4086.0
 21
-140.99999999999909
 31
0.0
1001
ACDBBLOCKREPETAG
1070
     1
1071
      105
1005
130718
  0
LINE
  5
130719
  8
HIDDEN
 10
4157.9999999999864
 20
-155.49999999999909
 30
0.0
 11
4157.9999999999864
 21
-244.49999999999909
 31
0.0
1001
ACDBBLOCKREPETAG
1070
     1
1071
      106
1005
130719
  0
LINE
  5
13071A
  8
OBJECT
 10
4149.9999749641856
 20
-254.4999509238105
 30
0.0
 11
4149.9999749641856
 21
-145.4999509238105
 31
0.0
1001
ACDBBLOCKREPETAG
1070
     1
1071
      108
1005
13071A
  0
ARC
  5
13071B
  8
OBJECT
 10
4129.8000000000247
 20
-199.99999999999909
 30
0.0
 40
45.000000000000547
 50
90.0
 51
270.0
1001
ACDBBLOCKREPETAG
1070
     1
1071
      109
1005
13071B
  0
LINE
  5
13071C
  8
OBJECT
 10
3917.0
 20
-634.0
 30
0.0
 11
3920.0
 21
-634.0
 31
0.0
1001
ACDBBLOCKREPETAG
1070
     1
1071
        1
1005
13071C
  0
ARC
  5
13071D
  8
OBJECT
 10
3917.0
 20
-637.0
 30
0.0
 40
3.0
 50
90.0
 51
180.0
1001
ACDBBLOCKREPETAG
1070
     1
1071
        2
1005
13071D
  0
LINE
  5
13071E
  8
OBJECT
 10
3920.0
 20
-758.0
 30
0.0
 11
3917.0
 21
-758.0
 31
0.0
1001
ACDBBLOCKREPETAG
1070
     1
1071
        3
1005
13071E
  0
ARC
  5
13071F
  8
OBJECT
 10
3917.0
 20
-755.0
 30
0.0
 40
3.0
 50
180.0
 51
270.0
1001
ACDBBLOCKREPETAG
1070
     1
1071
        4
1005
13071F
  0
LINE
  5
130720
  8
OBJECT
 10
3914.0
 20
-755.0
 30
0.0
 11
3914.0
 21
-637.0
 31
0.0
1001
ACDBBLOCKREPETAG
1070
     1
1071
        5
1005
130720
  0
LINE
  5
130721
  8
CENTER
 10
4077.0
 20
-696.0
 30
0.0
 11
3923.0
 21
-696.0
 31
0.0
1001
ACDBBLOCKREPETAG
1070
     1
1071
       17
1005
130721
  0
CIRCLE
  5
130722
  8
OBJECT
 10
4000.0
 20
-696.0
 30
0.0
 40
41.5
1001
ACDBBLOCKREPETAG
1070
     1
1071
       19
1005
130722
  0
CIRCLE
  5
130723
  8
OBJECT
 10
4000.0
 20
-696.0
 30
0.0
 40
54.0
1001
ACDBBLOCKREPETAG
1070
     1
1071
       20
1005
130723
  0
ARC
  5
130724
  8
OBJECT
 10
4000.0
 20
-696.0
 30
0.0
 40
62.0
 50
287.89655112920718
 51
252.10344887079279
1001
ACDBBLOCKREPETAG
1070
     1
1071
       21
1005
130724
  0
LINE
  5
130725
  8
OBJECT
 10
3980.947441116743
 20
-755.0
 30
0.0
 11
4019.052558883257
 21
-755.0
 31
0.0
1001
ACDBBLOCKREPETAG
1070
     1
1071
       22
1005
130725
  0
LINE
  5
130726
  8
OBJECT
 10
4202.9999999999854
 20
-583.0000000000008
 30
0.0
 11
4209.9999999999854
 21
-583.0000000000008
 31
0.0
1001
ACDBBLOCKREPETAG
1070
     1
1071
       83
1005
130726
  0
LINE
  5
130727
  8
OBJECT
 10
4209.9999999999854
 20
-583.0000000000008
 30
0.0
 11
4209.9999999999854
 21
-707.00000000000091
 31
0.0
1001
ACDBBLOCKREPETAG
1070
     1
1071
       84
1005
130727
  0
LINE
  5
130728
  8
OBJECT
 10
4085.9999999999859
 20
-653.3502637757274
 30
0.0
 11
4085.9999999999859
 21
-755.00000000000102
 31
0.0
1001
ACDBBLOCKREPETAG
1070
     1
1071
       85
1005
130728
  0
LINE
  5
130729
  8
OBJECT
 10
4209.9999999999854
 20
-707.00000000000091
 30
0.0
 11
4202.9999999999854
 21
-707.00000000000091
 31
0.0
1001
ACDBBLOCKREPETAG
1070
     1
1071
       86
1005
130729
  0
LINE
  5
13072A
  8
OBJECT
 10
4202.9999999999854
 20
-707.00000000000091
 30
0.0
 11
4202.9999999999854
 21
-583.0000000000008
 31
0.0
1001
ACDBBLOCKREPETAG
1070
     1
1071
       87
1005
13072A
  0
LINE
  5
13072B
  8
CENTER
 10
4134.9999999999854
 20
-645.0000000000008
 30
0.0
 11
4224.9999999999864
 21
-645.0000000000008
 31
0.0
1001
ACDBBLOCKREPETAG
1070
     1
1071
       88
1005
13072B
  0
LINE
  5
13072C
  8
OBJECT
 10
4079.9999999999818
 20
-758.0
 30
0.0
 11
4082.999999999985
 21
-758.0000000000008
 31
0.0
1001
ACDBBLOCKREPETAG
1070
     1
1071
       89
1005
13072C
  0
ARC
  5
13072D
  8
OBJECT
 10
4082.999999999985
 20
-755.00000000000102
 30
0.0
 40
3.0
 50
270.0
 51
0.0
1001
ACDBBLOCKREPETAG
1070
     1
1071
       90
1005
13072D
  0
LINE
  5
13072E
  8
OBJECT
 10
4202.9999999999854
 20
-586.0000000000008
 30
0.0
 11
4166.9999999999854
 21
-586.0000000000008
 31
0.0
1001
ACDBBLOCKREPETAG
1070
     1
1071
       91
1005
13072E
  0
LINE
  5
13072F
  8
OBJECT
 10
4166.9999999999854
 20
-586.0000000000008
 30
0.0
 11
4166.9999999999854
 21
-704.0000000000008
 31
0.0
1001
ACDBBLOCKREPETAG
1070
     1
1071
       92
1005
13072F
  0
LINE
  5
130730
  8
OBJECT
 10
4162.9999999999854
 20
-590.5000000000008
 30
0.0
 11
4162.9999999999854
 21
-699.5000000000008
 31
0.0
1001
ACDBBLOCKREPETAG
1070
     1
1071
       93
1005
130730
  0
LINE
  5
130731
  8
OBJECT
 10
4162.9999999999854
 20
-590.5000000000008
 30
0.0
 11
4149.9999999999864
 21
-590.5000000000008
 31
0.0
1001
ACDBBLOCKREPETAG
1070
     1
1071
       94
1005
130731
  0
LINE
  5
130732
  8
OBJECT
 10
4166.9999999999854
 20
-704.0000000000008
 30
0.0
 11
4202.9999999999854
 21
-704.0000000000008
 31
0.0
1001
ACDBBLOCKREPETAG
1070
     1
1071
       95
1005
130732
  0
LINE
  5
130733
  8
OBJECT
 10
4166.9999999999854
 20
-586.0000000000008
 30
0.0
 11
4162.9999999999854
 21
-590.5000000000008
 31
0.0
1001
ACDBBLOCKREPETAG
1070
     1
1071
       96
1005
130733
  0
LINE
  5
130734
  8
OBJECT
 10
4149.9999999999864
 20
-590.5000000000008
 30
0.0
 11
4149.9999999999864
 21
-675.74491827928784
 31
0.0
1001
ACDBBLOCKREPETAG
1070
     1
1071
       97
1005
130734
  0
ARC
  5
130735
  8
OBJECT
 10
4152.7999999999838
 20
-685.0000000000008
 30
0.0
 40
85.0
 50
91.887731891831123
 51
143.1301023540934
1001
ACDBBLOCKREPETAG
1070
     1
1071
       98
1005
130735
  0
LINE
  5
130736
  8
HIDDEN
 10
4157.9999999999864
 20
-600.50000000000068
 30
0.0
 11
4157.9999999999864
 21
-689.50000000000091
 31
0.0
1001
ACDBBLOCKREPETAG
1070
     1
1071
      100
1005
130736
  0
LINE
  5
130737
  8
OBJECT
 10
4085.9999999999859
 20
-751.07945073181781
 30
0.0
 11
4156.6313199210299
 21
-699.5000000000008
 31
0.0
1001
ACDBBLOCKREPETAG
1070
     1
1071
      101
1005
130737
  0
LINE
  5
130738
  8
OBJECT
 10
4079.9999999999818
 20
-634.0
 30
0.0
 11
4084.7999999999852
 21
-634.0
 31
0.0
1001
ACDBBLOCKREPETAG
1070
     1
1071
      102
1005
130738
  0
LINE
  5
130739
  8
OBJECT
 10
4085.9999999999859
 20
-653.35026377573013
 30
0.0
 11
4084.7999999999852
 21
-634.0
 31
0.0
1001
ACDBBLOCKREPETAG
1070
     1
1071
      103
1005
130739
  0
LINE
  5
13073A
  8
OBJECT
 10
4162.9999999999854
 20
-699.5000000000008
 30
0.0
 11
4156.6313199210299
 21
-699.5000000000008
 31
0.0
1001
ACDBBLOCKREPETAG
1070
     1
1071
      104
1005
13073A
  0
LINE
  5
13073B
  8
OBJECT
 10
4166.9999999999854
 20
-704.0000000000008
 30
0.0
 11
4162.9999999999854
 21
-699.5000000000008
 31
0.0
1001
ACDBBLOCKREPETAG
1070
     1
1071
      105
1005
13073B
  0
TEXT
  5
13073C
  8
SLIM
 10
1850.0
 20
532.5
 30
0.0
 40
75.0
  1
側面図の代表機種
 41
0.75
  0
LINE
  5
13073D
  8
SLIM
 10
3914.9999999999941
 20
-765.19743878931376
 30
0.0
 11
3925.1974387893092
 21
-754.99999999999875
 31
0.0
1001
ACDBBLOCKREPETAG
1070
     1
1071
        0
1005
0
1001
ACAD
1010
0.0
1020
0.0
1030
0.0
  0
LINE
  5
13073E
  8
SLIM
 10
3914.999999999995
 20
-783.15795103145035
 30
0.0
 11
3943.1579510314468
 21
-754.99999999999875
 31
0.0
1001
ACAD
1010
0.0
1020
0.0
1030
0.0
1001
ACDBBLOCKREPETAG
1070
     1
1071
       14
1005
13073E
  0
LINE
  5
13073F
  8
SLIM
 10
3915.1454972543161
 20
-800.97296601926837
 30
0.0
 11
3961.1184632735849
 21
-754.99999999999875
 31
0.0
1001
ACAD
1010
0.0
1020
0.0
1030
0.0
1001
ACDBBLOCKREPETAG
1070
     1
1071
       15
1005
13073F
  0
LINE
  5
130740
  8
SLIM
 10
3917.104627495245
 20
-816.97434802047826
 30
0.0
 11
3979.0789755157239
 21
-754.99999999999875
 31
0.0
1001
ACAD
1010
0.0
1020
0.0
1030
0.0
1001
ACDBBLOCKREPETAG
1070
     1
1071
       16
1005
130740
  0
LINE
  5
130741
  8
SLIM
 10
3919.0637577361722
 20
-832.97573002168861
 30
0.0
 11
3997.0394877578619
 21
-754.99999999999875
 31
0.0
1001
ACAD
1010
0.0
1020
0.0
1030
0.0
1001
ACDBBLOCKREPETAG
1070
     1
1071
       17
1005
130741
  0
LINE
  5
130742
  8
SLIM
 10
3920.0
 20
-849.99999999999875
 30
0.0
 11
4015.0
 21
-754.99999999999875
 31
0.0
1001
ACAD
1010
0.0
1020
0.0
1030
0.0
1001
ACDBBLOCKREPETAG
1070
     1
1071
       18
1005
130742
  0
LINE
  5
130743
  8
SLIM
 10
3920.0
 20
-867.96051224213716
 30
0.0
 11
4032.9605122421372
 21
-754.99999999999875
 31
0.0
1001
ACAD
1010
0.0
1020
0.0
1030
0.0
1001
ACDBBLOCKREPETAG
1070
     1
1071
       19
1005
130743
  0
LINE
  5
130744
  8
SLIM
 10
3920.0
 20
-885.92102448427534
 30
0.0
 11
4050.921024484277
 21
-754.99999999999875
 31
0.0
1001
ACAD
1010
0.0
1020
0.0
1030
0.0
1001
ACDBBLOCKREPETAG
1070
     1
1071
       20
1005
130744
  0
LINE
  5
130745
  8
SLIM
 10
3920.0
 20
-903.88153672641363
 30
0.0
 11
4068.8815367264142
 21
-754.99999999999875
 31
0.0
1001
ACAD
1010
0.0
1020
0.0
1030
0.0
1001
ACDBBLOCKREPETAG
1070
     1
1071
       21
1005
130745
  0
LINE
  5
130746
  8
SLIM
 10
3920.0
 20
-921.84204896855181
 30
0.0
 11
4085.0000000000068
 21
-756.8420489685451
 31
0.0
1001
ACAD
1010
0.0
1020
0.0
1030
0.0
1001
ACDBBLOCKREPETAG
1070
     1
1071
       22
1005
130746
  0
LINE
  5
130747
  8
SLIM
 10
3920.0
 20
-939.80256121069044
 30
0.0
 11
4085.0000000000059
 21
-774.80256121068464
 31
0.0
1001
ACAD
1010
0.0
1020
0.0
1030
0.0
1001
ACDBBLOCKREPETAG
1070
     1
1071
       23
1005
130747
  0
LINE
  5
130748
  8
SLIM
 10
3920.0
 20
-957.76307345282862
 30
0.0
 11
4085.0000000000041
 21
-792.76307345282453
 31
0.0
1001
ACAD
1010
0.0
1020
0.0
1030
0.0
1001
ACDBBLOCKREPETAG
1070
     1
1071
       24
1005
130748
  0
LINE
  5
130749
  8
SLIM
 10
3930.0
 20
-965.72358569496657
 30
0.0
 11
3930.7235856949678
 21
-964.99999999999875
 31
0.0
1001
ACAD
1010
0.0
1020
0.0
1030
0.0
1001
ACDBBLOCKREPETAG
1070
     1
1071
       25
1005
130749
  0
LINE
  5
13074A
  8
SLIM
 10
3930.7235856949678
 20
-964.99999999999875
 30
0.0
 11
4083.4738280308079
 21
-812.24975766415855
 31
0.0
1001
ACAD
1010
0.0
1020
0.0
1030
0.0
1001
ACDBBLOCKREPETAG
1070
     1
1071
       26
1005
13074A
  0
LINE
  5
13074B
  8
SLIM
 10
3930.0
 20
-983.68409793710521
 30
0.0
 11
3948.6840979371068
 21
-964.99999999999875
 31
0.0
1001
ACAD
1010
0.0
1020
0.0
1030
0.0
1001
ACDBBLOCKREPETAG
1070
     1
1071
       27
1005
13074B
  0
LINE
  5
13074C
  8
SLIM
 10
3948.6840979371068
 20
-964.99999999999875
 30
0.0
 11
4080.9680345671368
 21
-832.71606336996786
 31
0.0
1001
ACAD
1010
0.0
1020
0.0
1030
0.0
1001
ACDBBLOCKREPETAG
1070
     1
1071
       28
1005
13074C
  0
LINE
  5
13074D
  8
SLIM
 10
3946.6446101792449
 20
-984.99999999999875
 30
0.0
 11
3966.6446101792449
 21
-964.99999999999875
 31
0.0
1001
ACAD
1010
0.0
1020
0.0
1030
0.0
1001
ACDBBLOCKREPETAG
1070
     1
1071
       29
1005
13074D
  0
LINE
  5
13074E
  8
SLIM
 10
3966.6446101792449
 20
-964.99999999999875
 30
0.0
 11
4080.0
 21
-851.6446101792435
 31
0.0
1001
ACAD
1010
0.0
1020
0.0
1030
0.0
1001
ACDBBLOCKREPETAG
1070
     1
1071
       30
1005
13074E
  0
LINE
  5
13074F
  8
SLIM
 10
3964.6051224213829
 20
-984.99999999999875
 30
0.0
 11
3984.6051224213829
 21
-964.99999999999875
 31
0.0
1001
ACAD
1010
0.0
1020
0.0
1030
0.0
1001
ACDBBLOCKREPETAG
1070
     1
1071
       31
1005
13074F
  0
LINE
  5
130750
  8
SLIM
 10
3984.6051224213829
 20
-964.99999999999875
 30
0.0
 11
4080.0
 21
-869.60512242138225
 31
0.0
1001
ACAD
1010
0.0
1020
0.0
1030
0.0
1001
ACDBBLOCKREPETAG
1070
     1
1071
       32
1005
130750
  0
LINE
  5
130751
  8
SLIM
 10
3982.565634663521
 20
-984.99999999999875
 30
0.0
 11
4002.565634663521
 21
-964.99999999999875
 31
0.0
1001
ACAD
1010
0.0
1020
0.0
1030
0.0
1001
ACDBBLOCKREPETAG
1070
     1
1071
       33
1005
130751
  0
LINE
  5
130752
  8
SLIM
 10
4002.565634663521
 20
-964.99999999999875
 30
0.0
 11
4079.9999999999991
 21
-887.56563466352065
 31
0.0
1001
ACAD
1010
0.0
1020
0.0
1030
0.0
1001
ACDBBLOCKREPETAG
1070
     1
1071
       34
1005
130752
  0
LINE
  5
130753
  8
SLIM
 10
4000.5261469056582
 20
-984.99999999999875
 30
0.0
 11
4020.52614690566
 21
-964.99999999999875
 31
0.0
1001
ACAD
1010
0.0
1020
0.0
1030
0.0
1001
ACDBBLOCKREPETAG
1070
     1
1071
       35
1005
130753
  0
LINE
  5
130754
  8
SLIM
 10
4020.52614690566
 20
-964.99999999999875
 30
0.0
 11
4079.9999999999991
 21
-905.52614690565963
 31
0.0
1001
ACAD
1010
0.0
1020
0.0
1030
0.0
1001
ACDBBLOCKREPETAG
1070
     1
1071
       36
1005
130754
  0
LINE
  5
130755
  8
SLIM
 10
4018.486659147798
 20
-984.99999999999875
 30
0.0
 11
4038.486659147798
 21
-964.99999999999864
 31
0.0
1001
ACAD
1010
0.0
1020
0.0
1030
0.0
1001
ACDBBLOCKREPETAG
1070
     1
1071
       37
1005
130755
  0
LINE
  5
130756
  8
SLIM
 10
4038.486659147798
 20
-964.99999999999864
 30
0.0
 11
4079.9999999999991
 21
-923.48665914779815
 31
0.0
1001
ACAD
1010
0.0
1020
0.0
1030
0.0
1001
ACDBBLOCKREPETAG
1070
     1
1071
       38
1005
130756
  0
LINE
  5
130757
  8
SLIM
 10
4036.4471713899361
 20
-984.99999999999875
 30
0.0
 11
4056.4471713899361
 21
-964.99999999999864
 31
0.0
1001
ACAD
1010
0.0
1020
0.0
1030
0.0
1001
ACDBBLOCKREPETAG
1070
     1
1071
       39
1005
130757
  0
LINE
  5
130758
  8
SLIM
 10
4056.4471713899361
 20
-964.99999999999864
 30
0.0
 11
4079.9999999999991
 21
-941.44717138993633
 31
0.0
1001
ACAD
1010
0.0
1020
0.0
1030
0.0
1001
ACDBBLOCKREPETAG
1070
     1
1071
       40
1005
130758
  0
LINE
  5
130759
  8
SLIM
 10
4054.4076836320728
 20
-984.99999999999875
 30
0.0
 11
4070.0
 21
-969.40768363207314
 31
0.0
1001
ACAD
1010
0.0
1020
0.0
1030
0.0
1001
ACDBBLOCKREPETAG
1070
     1
1071
       41
1005
130759
  0
LINE
  5
13075A
  8
SLIM
 10
4074.4076836320728
 20
-964.99999999999864
 30
0.0
 11
4079.9999999999991
 21
-959.40768363207519
 31
0.0
1001
ACAD
1010
0.0
1020
0.0
1030
0.0
1001
ACDBBLOCKREPETAG
1070
     1
1071
       42
1005
13075A
  0
LINE
  5
13075B
  8
OBJECT
 10
3914.9999999999941
 20
-754.99999999999875
 30
0.0
 11
3914.9999999999968
 21
-799.78460339903359
 31
0.0
1001
ACDBBLOCKREPETAG
1070
     1
1071
        1
1005
13075B
  0
LINE
  5
13075C
  8
OBJECT
 10
4085.0000000000068
 20
-754.99999999999875
 30
0.0
 11
4085.0000000000032
 21
-799.78460339904063
 31
0.0
1001
ACDBBLOCKREPETAG
1070
     1
1071
        2
1005
13075C
  0
LINE
  5
13075D
  8
OBJECT
 10
4085.0000000000068
 20
-754.99999999999875
 30
0.0
 11
3914.9999999999941
 21
-754.99999999999875
 31
0.0
1001
ACDBBLOCKREPETAG
1070
     1
1071
        3
1005
13075D
  0
LINE
  5
13075E
  8
OBJECT
 10
4079.9999999999991
 20
-964.99999999999864
 30
0.0
 11
3920.0
 21
-964.99999999999875
 31
0.0
1001
ACDBBLOCKREPETAG
1070
     1
1071
        4
1005
13075E
  0
LINE
  5
13075F
  8
OBJECT
 10
3914.9999999999968
 20
-799.78460339903415
 30
0.0
 11
3920.0
 21
-840.62257748298555
 31
0.0
1001
ACDBBLOCKREPETAG
1070
     1
1071
        6
1005
13075F
  0
LINE
  5
130760
  8
OBJECT
 10
3920.0
 20
-840.62257748298555
 30
0.0
 11
3920.0
 21
-964.99999999999875
 31
0.0
1001
ACDBBLOCKREPETAG
1070
     1
1071
        7
1005
130760
  0
LINE
  5
130761
  8
OBJECT
 10
4085.0000000000032
 20
-799.78460339904063
 30
0.0
 11
4080.0
 21
-840.62257748298555
 31
0.0
1001
ACDBBLOCKREPETAG
1070
     1
1071
        8
1005
130761
  0
LINE
  5
130762
  8
OBJECT
 10
4080.0
 20
-840.62257748298555
 30
0.0
 11
4079.9999999999991
 21
-964.99999999999864
 31
0.0
1001
ACDBBLOCKREPETAG
1070
     1
1071
        9
1005
130762
  0
LINE
  5
130763
  8
OBJECT
 10
3930.0
 20
-964.99999999999875
 30
0.0
 11
3930.0
 21
-984.99999999999875
 31
0.0
1001
ACDBBLOCKREPETAG
1070
     1
1071
       10
1005
130763
  0
LINE
  5
130764
  8
OBJECT
 10
3930.0
 20
-984.99999999999875
 30
0.0
 11
4070.0
 21
-984.99999999999875
 31
0.0
1001
ACDBBLOCKREPETAG
1070
     1
1071
       11
1005
130764
  0
LINE
  5
130765
  8
OBJECT
 10
4070.0
 20
-984.99999999999875
 30
0.0
 11
4070.0
 21
-964.99999999999864
 31
0.0
1001
ACDBBLOCKREPETAG
1070
     1
1071
       12
1005
130765
  0
LINE
  5
130766
  8
OBJECT
 10
1923.0
 20
-570.99999999999955
 30
0.0
 11
1923.0
 21
-549.99999999999955
 31
0.0
1001
ACDBBLOCKREPETAG
1070
     1
1071
       36
1005
130766
  0
LINE
  5
130767
  8
OBJECT
 10
1923.0
 20
-549.99999999999955
 30
0.0
 11
2077.0
 21
-549.99999999999955
 31
0.0
1001
ACDBBLOCKREPETAG
1070
     1
1071
       37
1005
130767
  0
LINE
  5
130768
  8
HIDDEN
 10
1943.0
 20
-619.99999999999955
 30
0.0
 11
2057.0
 21
-619.99999999999955
 31
0.0
1001
ACDBBLOCKREPETAG
1070
     1
1071
       38
1005
130768
  0
LINE
  5
130769
  8
OBJECT
 10
2077.0
 20
-549.99999999999955
 30
0.0
 11
2077.0
 21
-570.99999999999955
 31
0.0
1001
ACDBBLOCKREPETAG
1070
     1
1071
       39
1005
130769
  0
LINE
  5
13076A
  8
OBJECT
 10
2077.0
 20
-570.99999999999955
 30
0.0
 11
1923.0
 21
-570.99999999999955
 31
0.0
1001
ACDBBLOCKREPETAG
1070
     1
1071
       40
1005
13076A
  0
LINE
  5
13076B
  8
CENTER
 10
2000.0
 20
-534.99999999999955
 30
0.0
 11
2000.0
 21
-769.99999999999955
 31
0.0
1001
ACDBBLOCKREPETAG
1070
     1
1071
       41
1005
13076B
  0
LINE
  5
13076C
  8
OBJECT
 10
1928.0
 20
-570.99999999999955
 30
0.0
 11
1928.0
 21
-633.99999999999955
 31
0.0
1001
ACDBBLOCKREPETAG
1070
     1
1071
       42
1005
13076C
  0
LINE
  5
13076D
  8
OBJECT
 10
2072.0
 20
-633.99999999999955
 30
0.0
 11
2072.0
 21
-570.99999999999955
 31
0.0
1001
ACDBBLOCKREPETAG
1070
     1
1071
       43
1005
13076D
  0
LINE
  5
13076E
  8
OBJECT
 10
1920.0
 20
-757.99999999999955
 30
0.0
 11
2080.0
 21
-757.99999999999955
 31
0.0
1001
ACDBBLOCKREPETAG
1070
     1
1071
       44
1005
13076E
  0
LINE
  5
13076F
  8
OBJECT
 10
2080.0
 20
-633.99999999999955
 30
0.0
 11
1920.0
 21
-633.99999999999955
 31
0.0
1001
ACDBBLOCKREPETAG
1070
     1
1071
       45
1005
13076F
  0
LINE
  5
130770
  8
OBJECT
 10
1920.0
 20
-757.99999999999955
 30
0.0
 11
1920.0
 21
-769.99999999999955
 31
0.0
1001
ACDBBLOCKREPETAG
1070
     1
1071
       46
1005
130770
  0
LINE
  5
130771
  8
OBJECT
 10
1920.0
 20
-769.99999999999955
 30
0.0
 11
2080.0
 21
-769.99999999999955
 31
0.0
1001
ACDBBLOCKREPETAG
1070
     1
1071
       47
1005
130771
  0
LINE
  5
130772
  8
OBJECT
 10
2080.0
 20
-769.99999999999955
 30
0.0
 11
2080.0
 21
-757.99999999999955
 31
0.0
1001
ACDBBLOCKREPETAG
1070
     1
1071
       48
1005
130772
  0
ARC
  5
130773
  8
OBJECT
 10
2200.6872746716731
 20
-749.40809941010718
 30
0.0
 40
170.6350503965856
 50
137.44134459184301
 51
149.91949581336559
1001
ACDBBLOCKREPETAG
1070
     1
1071
       52
1005
130773
  0
ARC
  5
130774
  8
OBJECT
 10
2200.6872746716731
 20
-642.59190058989179
 30
0.0
 40
170.6350503965856
 50
210.0805041866343
 51
222.55865540815699
1001
ACDBBLOCKREPETAG
1070
     1
1071
       53
1005
130774
  0
ARC
  5
130775
  8
OBJECT
 10
1799.312725328326
 20
-749.40809941010718
 30
0.0
 40
170.6350503965856
 50
30.080504186774089
 51
42.558655408447443
1001
ACDBBLOCKREPETAG
1070
     1
1071
       54
1005
130775
  0
ARC
  5
130776
  8
OBJECT
 10
1799.312725328326
 20
-642.59190058989179
 30
0.0
 40
170.6350503965856
 50
317.44134459155248
 51
329.91949581322592
1001
ACDBBLOCKREPETAG
1070
     1
1071
       55
1005
130776
  0
POINT
  5
130777
  8
DOTS
 10
2000.0
 20
-754.99999999999955
 30
0.0
1001
ACDBBLOCKREPETAG
1070
     1
1071
      184
1005
130777
  0
CIRCLE
  5
130778
  8
OBJECT
 10
5000.0
 20
-3174.9999999999959
 30
0.0
 40
53.5
1001
ACDBBLOCKREPETAG
1070
     1
1071
      344
1005
130778
  0
LINE
  5
130779
  8
CENTER
 10
5080.0
 20
-3174.9999999999959
 30
0.0
 11
4905.0
 21
-3174.9999999999959
 31
0.0
1001
ACDBBLOCKREPETAG
1070
     1
1071
       14
1005
130779
  0
LINE
  5
13077A
  8
CENTER
 10
5000.0
 20
-3269.9999999999959
 30
0.0
 11
5000.0
 21
-3079.9999999999959
 31
0.0
1001
ACDBBLOCKREPETAG
1070
     1
1071
       15
1005
13077A
  0
CIRCLE
  5
13077B
  8
OBJECT
 10
5000.0
 20
-3174.9999999999959
 30
0.0
 40
70.0
1001
ACDBBLOCKREPETAG
1070
     1
1071
       16
1005
13077B
  0
CIRCLE
  5
13077C
  8
OBJECT
 10
5000.0
 20
-3174.9999999999959
 30
0.0
 40
77.0
1001
ACDBBLOCKREPETAG
1070
     1
1071
       17
1005
13077C
  0
ARC
  5
13077D
  8
OBJECT
 10
5000.0
 20
-3174.9999999999959
 30
0.0
 40
80.0
 50
50.805032573882329
 51
309.19496742611773
1001
ACDBBLOCKREPETAG
1070
     1
1071
       18
1005
13077D
  0
LINE
  5
13077E
  8
OBJECT
 10
5045.6618002273253
 20
-3112.9999999999959
 30
0.0
 11
5080.0
 21
-3112.9999999999959
 31
0.0
1001
ACDBBLOCKREPETAG
1070
     1
1071
       19
1005
13077E
  0
LINE
  5
13077F
  8
OBJECT
 10
5045.6618002273253
 20
-3236.9999999999959
 30
0.0
 11
5080.0
 21
-3236.9999999999959
 31
0.0
1001
ACDBBLOCKREPETAG
1070
     1
1071
       20
1005
13077F
  0
POINT
  5
130780
  8
DOTS
 10
5000.0
 20
-3174.9999999999959
 30
0.0
1001
ACDBBLOCKREPETAG
1070
     1
1071
       21
1005
130780
  0
CIRCLE
  5
130781
  8
OBJECT
 10
4000.0
 20
-3174.9999999999959
 30
0.0
 40
53.5
1001
ACDBBLOCKREPETAG
1070
     1
1071
      344
1005
130781
  0
LINE
  5
130782
  8
CENTER
 10
4080.0
 20
-3174.9999999999959
 30
0.0
 11
3905.0
 21
-3174.9999999999959
 31
0.0
1001
ACDBBLOCKREPETAG
1070
     1
1071
       14
1005
130782
  0
LINE
  5
130783
  8
CENTER
 10
4000.0
 20
-3269.9999999999959
 30
0.0
 11
4000.0
 21
-3079.9999999999959
 31
0.0
1001
ACDBBLOCKREPETAG
1070
     1
1071
       15
1005
130783
  0
CIRCLE
  5
130784
  8
OBJECT
 10
4000.0
 20
-3174.9999999999959
 30
0.0
 40
70.0
1001
ACDBBLOCKREPETAG
1070
     1
1071
       16
1005
130784
  0
CIRCLE
  5
130785
  8
OBJECT
 10
4000.0
 20
-3174.9999999999959
 30
0.0
 40
77.0
1001
ACDBBLOCKREPETAG
1070
     1
1071
       17
1005
130785
  0
ARC
  5
130786
  8
OBJECT
 10
4000.0
 20
-3174.9999999999959
 30
0.0
 40
80.0
 50
50.805032573862128
 51
309.19496742613791
1001
ACDBBLOCKREPETAG
1070
     1
1071
       18
1005
130786
  0
LINE
  5
130787
  8
OBJECT
 10
4045.661800227324
 20
-3112.9999999999959
 30
0.0
 11
4080.0
 21
-3112.9999999999959
 31
0.0
1001
ACDBBLOCKREPETAG
1070
     1
1071
       19
1005
130787
  0
LINE
  5
130788
  8
OBJECT
 10
4045.661800227324
 20
-3236.9999999999959
 30
0.0
 11
4080.0
 21
-3236.9999999999959
 31
0.0
1001
ACDBBLOCKREPETAG
1070
     1
1071
       20
1005
130788
  0
POINT
  5
130789
  8
DOTS
 10
4000.0
 20
-3174.9999999999959
 30
0.0
1001
ACDBBLOCKREPETAG
1070
     1
1071
       21
1005
130789
  0
CIRCLE
  5
13078A
  8
OBJECT
 10
3000.0
 20
-3174.9999999999959
 30
0.0
 40
53.5
1001
ACDBBLOCKREPETAG
1070
     1
1071
      344
1005
13078A
  0
LINE
  5
13078B
  8
CENTER
 10
3080.0
 20
-3174.9999999999959
 30
0.0
 11
2905.0
 21
-3174.9999999999959
 31
0.0
1001
ACDBBLOCKREPETAG
1070
     1
1071
       14
1005
13078B
  0
LINE
  5
13078C
  8
CENTER
 10
3000.0
 20
-3269.9999999999959
 30
0.0
 11
3000.0
 21
-3079.9999999999959
 31
0.0
1001
ACDBBLOCKREPETAG
1070
     1
1071
       15
1005
13078C
  0
CIRCLE
  5
13078D
  8
OBJECT
 10
3000.0
 20
-3174.9999999999959
 30
0.0
 40
70.0
1001
ACDBBLOCKREPETAG
1070
     1
1071
       16
1005
13078D
  0
CIRCLE
  5
13078E
  8
OBJECT
 10
3000.0
 20
-3174.9999999999959
 30
0.0
 40
77.0
1001
ACDBBLOCKREPETAG
1070
     1
1071
       17
1005
13078E
  0
ARC
  5
13078F
  8
OBJECT
 10
3000.0
 20
-3174.9999999999959
 30
0.0
 40
80.0
 50
50.805032573862128
 51
309.19496742613791
1001
ACDBBLOCKREPETAG
1070
     1
1071
       18
1005
13078F
  0
LINE
  5
130790
  8
OBJECT
 10
3045.6618002273249
 20
-3112.9999999999959
 30
0.0
 11
3080.0
 21
-3112.9999999999959
 31
0.0
1001
ACDBBLOCKREPETAG
1070
     1
1071
       19
1005
130790
  0
LINE
  5
130791
  8
OBJECT
 10
3045.6618002273249
 20
-3236.9999999999959
 30
0.0
 11
3080.0
 21
-3236.9999999999959
 31
0.0
1001
ACDBBLOCKREPETAG
1070
     1
1071
       20
1005
130791
  0
POINT
  5
130792
  8
DOTS
 10
3000.0
 20
-3174.9999999999959
 30
0.0
1001
ACDBBLOCKREPETAG
1070
     1
1071
       21
1005
130792
  0
CIRCLE
  5
130793
  8
OBJECT
 10
2000.0
 20
-3174.9999999999959
 30
0.0
 40
53.5
1001
ACDBBLOCKREPETAG
1070
     1
1071
      344
1005
130793
  0
LINE
  5
130794
  8
CENTER
 10
2080.0
 20
-3174.9999999999959
 30
0.0
 11
1905.0
 21
-3174.9999999999959
 31
0.0
1001
ACDBBLOCKREPETAG
1070
     1
1071
       14
1005
130794
  0
LINE
  5
130795
  8
CENTER
 10
2000.0
 20
-3269.9999999999959
 30
0.0
 11
2000.0
 21
-3079.9999999999959
 31
0.0
1001
ACDBBLOCKREPETAG
1070
     1
1071
       15
1005
130795
  0
CIRCLE
  5
130796
  8
OBJECT
 10
2000.0
 20
-3174.9999999999959
 30
0.0
 40
70.0
1001
ACDBBLOCKREPETAG
1070
     1
1071
       16
1005
130796
  0
CIRCLE
  5
130797
  8
OBJECT
 10
2000.0
 20
-3174.9999999999959
 30
0.0
 40
77.0
1001
ACDBBLOCKREPETAG
1070
     1
1071
       17
1005
130797
  0
ARC
  5
130798
  8
OBJECT
 10
2000.0
 20
-3174.9999999999959
 30
0.0
 40
80.0
 50
50.805032573862128
 51
309.19496742613791
1001
ACDBBLOCKREPETAG
1070
     1
1071
       18
1005
130798
  0
LINE
  5
130799
  8
OBJECT
 10
2045.6618002273251
 20
-3112.9999999999959
 30
0.0
 11
2080.0
 21
-3112.9999999999959
 31
0.0
1001
ACDBBLOCKREPETAG
1070
     1
1071
       19
1005
130799
  0
LINE
  5
13079A
  8
OBJECT
 10
2045.6618002273251
 20
-3236.9999999999959
 30
0.0
 11
2080.0
 21
-3236.9999999999959
 31
0.0
1001
ACDBBLOCKREPETAG
1070
     1
1071
       20
1005
13079A
  0
POINT
  5
13079B
  8
DOTS
 10
2000.0
 20
-3174.9999999999959
 30
0.0
1001
ACDBBLOCKREPETAG
1070
     1
1071
       21
1005
13079B
  0
CIRCLE
  5
13079C
  8
OBJECT
 10
2000.0
 20
-199.99999999999909
 30
0.0
 40
53.5
1001
ACDBBLOCKREPETAG
1070
     1
1071
      340
1005
13079C
  0
LINE
  5
13079D
  8
CENTER
 10
2080.0
 20
-199.99999999999909
 30
0.0
 11
1920.0
 21
-199.99999999999909
 31
0.0
1001
ACDBBLOCKREPETAG
1070
     1
1071
       49
1005
13079D
  0
LINE
  5
13079E
  8
CENTER
 10
2000.0
 20
-279.99999999999909
 30
0.0
 11
2000.0
 21
-104.9999999999991
 31
0.0
1001
ACDBBLOCKREPETAG
1070
     1
1071
       50
1005
13079E
  0
CIRCLE
  5
13079F
  8
OBJECT
 10
2000.0
 20
-199.99999999999909
 30
0.0
 40
70.0
1001
ACDBBLOCKREPETAG
1070
     1
1071
       51
1005
13079F
  0
CIRCLE
  5
1307A0
  8
OBJECT
 10
2000.0
 20
-199.99999999999909
 30
0.0
 40
77.0
1001
ACDBBLOCKREPETAG
1070
     1
1071
       52
1005
1307A0
  0
ARC
  5
1307A1
  8
OBJECT
 10
2000.0
 20
-199.99999999999909
 30
0.0
 40
80.0
 50
50.805032573864182
 51
129.1949674261358
1001
ACDBBLOCKREPETAG
1070
     1
1071
       53
1005
1307A1
  0
LINE
  5
1307A2
  8
OBJECT
 10
2045.6618002273251
 20
-137.99999999999909
 30
0.0
 11
2080.0
 21
-137.99999999999909
 31
0.0
1001
ACDBBLOCKREPETAG
1070
     1
1071
       54
1005
1307A2
  0
LINE
  5
1307A3
  8
OBJECT
 10
2062.0
 20
-261.99999999999909
 30
0.0
 11
2080.0
 21
-261.99999999999909
 31
0.0
1001
ACDBBLOCKREPETAG
1070
     1
1071
       55
1005
1307A3
  0
LINE
  5
1307A4
  8
OBJECT
 10
2062.0
 20
-261.99999999999909
 30
0.0
 11
2062.0
 21
-279.99999999999909
 31
0.0
1001
ACDBBLOCKREPETAG
1070
     1
1071
       57
1005
1307A4
  0
LINE
  5
1307A5
  8
OBJECT
 10
1938.0
 20
-261.99999999999909
 30
0.0
 11
1938.0
 21
-279.99999999999909
 31
0.0
1001
ACDBBLOCKREPETAG
1070
     1
1071
       58
1005
1307A5
  0
POINT
  5
1307A6
  8
DOTS
 10
2000.0
 20
-199.99999999999909
 30
0.0
 50
90.0
1001
ACDBBLOCKREPETAG
1070
     1
1071
       59
1005
1307A6
  0
LINE
  5
1307A7
  8
OBJECT
 10
1938.0
 20
-261.99999999999909
 30
0.0
 11
1920.0
 21
-261.99999999999909
 31
0.0
1001
ACDBBLOCKREPETAG
1070
     1
1071
       60
1005
1307A7
  0
LINE
  5
1307A8
  8
OBJECT
 10
1954.3381997726749
 20
-137.99999999999909
 30
0.0
 11
1920.0
 21
-137.99999999999909
 31
0.0
1001
ACDBBLOCKREPETAG
1070
     1
1071
       61
1005
1307A8
  0
LINE
  5
1307A9
  8
OBJECT
 10
1945.5527778486351
 20
-254.44722215136329
 30
0.0
 11
1938.0
 21
-261.99999999999909
 31
0.0
1001
ACDBBLOCKREPETAG
1070
     1
1071
       42
1005
1307A9
  0
LINE
  5
1307AA
  8
OBJECT
 10
2054.4472221513638
 20
-254.44722215136329
 30
0.0
 11
2062.0
 21
-261.99999999999909
 31
0.0
1001
ACDBBLOCKREPETAG
1070
     1
1071
       43
1005
1307AA
  0
LINE
  5
1307AB
  8
CENTER
 10
1899.0
 20
-199.99999999999909
 30
0.0
 11
1920.0
 21
-199.99999999999909
 31
0.0
1001
ACDBBLOCKREPETAG
1070
     1
1071
        0
1005
1307AB
  0
LINE
  5
1307AC
  8
OBJECT
 10
1917.0
 20
-261.99999999999909
 30
0.0
 11
1920.0
 21
-261.99999999999909
 31
0.0
1001
ACDBBLOCKREPETAG
1070
     1
1071
        1
1005
1307AC
  0
ARC
  5
1307AD
  8
OBJECT
 10
1917.0
 20
-258.99999999999909
 30
0.0
 40
3.0
 50
180.0
 51
270.0
1001
ACDBBLOCKREPETAG
1070
     1
1071
        2
1005
1307AD
  0
LINE
  5
1307AE
  8
OBJECT
 10
1920.0
 20
-137.99999999999909
 30
0.0
 11
1917.0
 21
-137.99999999999909
 31
0.0
1001
ACDBBLOCKREPETAG
1070
     1
1071
        3
1005
1307AE
  0
ARC
  5
1307AF
  8
OBJECT
 10
1917.0
 20
-140.99999999999909
 30
0.0
 40
3.0
 50
90.0
 51
180.0
1001
ACDBBLOCKREPETAG
1070
     1
1071
        4
1005
1307AF
  0
LINE
  5
1307B0
  8
OBJECT
 10
1914.0
 20
-140.99999999999909
 30
0.0
 11
1914.0
 21
-258.99999999999909
 31
0.0
1001
ACDBBLOCKREPETAG
1070
     1
1071
        5
1005
1307B0
  0
LINE
  5
1307B1
  8
OBJECT
 10
2062.0
 20
-332.99999999999898
 30
0.0
 11
2062.0
 21
-339.99999999999909
 31
0.0
1001
ACDBBLOCKREPETAG
1070
     1
1071
       47
1005
1307B1
  0
LINE
  5
1307B2
  8
OBJECT
 10
2062.0
 20
-339.99999999999909
 30
0.0
 11
1938.0
 21
-339.99999999999909
 31
0.0
1001
ACDBBLOCKREPETAG
1070
     1
1071
       48
1005
1307B2
  0
LINE
  5
1307B3
  8
OBJECT
 10
1938.0
 20
-339.99999999999909
 30
0.0
 11
1938.0
 21
-332.99999999999898
 31
0.0
1001
ACDBBLOCKREPETAG
1070
     1
1071
       49
1005
1307B3
  0
LINE
  5
1307B4
  8
OBJECT
 10
1938.0
 20
-332.99999999999898
 30
0.0
 11
2062.0
 21
-332.99999999999898
 31
0.0
1001
ACDBBLOCKREPETAG
1070
     1
1071
       50
1005
1307B4
  0
LINE
  5
1307B5
  8
CENTER
 10
2000.0
 20
-354.99999999999909
 30
0.0
 11
2000.0
 21
-279.99999999999909
 31
0.0
1001
ACDBBLOCKREPETAG
1070
     1
1071
       51
1005
1307B5
  0
LINE
  5
1307B6
  8
OBJECT
 10
2059.0
 20
-332.99999999999898
 30
0.0
 11
2059.0
 21
-296.99999999999898
 31
0.0
1001
ACDBBLOCKREPETAG
1070
     1
1071
       52
1005
1307B6
  0
LINE
  5
1307B7
  8
OBJECT
 10
2059.0
 20
-296.99999999999898
 30
0.0
 11
1941.0
 21
-296.99999999999898
 31
0.0
1001
ACDBBLOCKREPETAG
1070
     1
1071
       53
1005
1307B7
  0
LINE
  5
1307B8
  8
OBJECT
 10
1941.0
 20
-296.99999999999898
 30
0.0
 11
1941.0
 21
-332.99999999999898
 31
0.0
1001
ACDBBLOCKREPETAG
1070
     1
1071
       54
1005
1307B8
  0
LINE
  5
1307B9
  8
OBJECT
 10
2054.5
 20
-292.99999999999898
 30
0.0
 11
2054.5
 21
-285.99999999999898
 31
0.0
1001
ACDBBLOCKREPETAG
1070
     1
1071
       55
1005
1307B9
  0
LINE
  5
1307BA
  8
OBJECT
 10
1945.5
 20
-285.99999999999898
 30
0.0
 11
1945.5
 21
-292.99999999999898
 31
0.0
1001
ACDBBLOCKREPETAG
1070
     1
1071
       56
1005
1307BA
  0
LINE
  5
1307BB
  8
OBJECT
 10
1945.5
 20
-292.99999999999898
 30
0.0
 11
2054.5
 21
-292.99999999999898
 31
0.0
1001
ACDBBLOCKREPETAG
1070
     1
1071
       57
1005
1307BB
  0
LINE
  5
1307BC
  8
OBJECT
 10
2059.0
 20
-296.99999999999898
 30
0.0
 11
2054.5
 21
-292.99999999999898
 31
0.0
1001
ACDBBLOCKREPETAG
1070
     1
1071
       58
1005
1307BC
  0
LINE
  5
1307BD
  8
OBJECT
 10
1941.0
 20
-296.99999999999898
 30
0.0
 11
1945.5
 21
-292.99999999999898
 31
0.0
1001
ACDBBLOCKREPETAG
1070
     1
1071
       59
1005
1307BD
  0
LINE
  5
1307BE
  8
OBJECT
 10
2062.0
 20
-283.0
 30
0.0
 11
2062.0
 21
-279.99999999999909
 31
0.0
1001
ACDBBLOCKREPETAG
1070
     1
1071
       60
1005
1307BE
  0
ARC
  5
1307BF
  8
OBJECT
 10
2059.0
 20
-283.0
 30
0.0
 40
3.0
 50
270.0
 51
0.0
1001
ACDBBLOCKREPETAG
1070
     1
1071
       61
1005
1307BF
  0
LINE
  5
1307C0
  8
OBJECT
 10
1938.0
 20
-279.99999999999909
 30
0.0
 11
1938.0
 21
-282.99999999999818
 31
0.0
1001
ACDBBLOCKREPETAG
1070
     1
1071
       62
1005
1307C0
  0
ARC
  5
1307C1
  8
OBJECT
 10
1941.0
 20
-282.99999999999818
 30
0.0
 40
3.0
 50
180.0
 51
270.0
1001
ACDBBLOCKREPETAG
1070
     1
1071
       63
1005
1307C1
  0
LINE
  5
1307C2
  8
OBJECT
 10
1941.0
 20
-285.99999999999818
 30
0.0
 11
2059.0
 21
-286.0
 31
0.0
1001
ACDBBLOCKREPETAG
1070
     1
1071
       64
1005
1307C2
  0
LINE
  5
1307C3
  8
HIDDEN
 10
2044.5
 20
-287.99999999999909
 30
0.0
 11
1955.5
 21
-287.99999999999909
 31
0.0
1001
ACDBBLOCKREPETAG
1070
     1
1071
       65
1005
1307C3
  0
LINE
  5
1307C4
  8
OBJECT
 10
2202.9999999999859
 20
-137.99999999999909
 30
0.0
 11
2209.9999999999859
 21
-137.99999999999909
 31
0.0
1001
ACDBBLOCKREPETAG
1070
     1
1071
       85
1005
1307C4
  0
LINE
  5
1307C5
  8
OBJECT
 10
2209.9999999999859
 20
-137.99999999999909
 30
0.0
 11
2209.9999999999859
 21
-261.99999999999909
 31
0.0
1001
ACDBBLOCKREPETAG
1070
     1
1071
       86
1005
1307C5
  0
LINE
  5
1307C6
  8
OBJECT
 10
2209.9999999999859
 20
-261.99999999999909
 30
0.0
 11
2202.9999999999859
 21
-261.99999999999909
 31
0.0
1001
ACDBBLOCKREPETAG
1070
     1
1071
       87
1005
1307C6
  0
LINE
  5
1307C7
  8
OBJECT
 10
2202.9999999999859
 20
-261.99999999999909
 30
0.0
 11
2202.9999999999859
 21
-137.99999999999909
 31
0.0
1001
ACDBBLOCKREPETAG
1070
     1
1071
       88
1005
1307C7
  0
LINE
  5
1307C8
  8
CENTER
 10
2224.999999999985
 20
-199.99999999999909
 30
0.0
 11
2080.0
 21
-199.99999999999909
 31
0.0
1001
ACDBBLOCKREPETAG
1070
     1
1071
       89
1005
1307C8
  0
LINE
  5
1307C9
  8
OBJECT
 10
2149.9999749641861
 20
-245.0000000000027
 30
0.0
 11
2086.0
 21
-244.99999999999909
 31
0.0
1001
ACDBBLOCKREPETAG
1070
     1
1071
       90
1005
1307C9
  0
LINE
  5
1307CA
  8
OBJECT
 10
2149.9999749641861
 20
-154.99999999999909
 30
0.0
 11
2086.0
 21
-154.99999999999909
 31
0.0
1001
ACDBBLOCKREPETAG
1070
     1
1071
       91
1005
1307CA
  0
LINE
  5
1307CB
  8
OBJECT
 10
2202.9999999999859
 20
-140.99999999999909
 30
0.0
 11
2166.9999999999859
 21
-140.99999999999909
 31
0.0
1001
ACDBBLOCKREPETAG
1070
     1
1071
       92
1005
1307CB
  0
LINE
  5
1307CC
  8
OBJECT
 10
2166.9999999999859
 20
-140.99999999999909
 30
0.0
 11
2166.9999999999859
 21
-258.99999999999909
 31
0.0
1001
ACDBBLOCKREPETAG
1070
     1
1071
       93
1005
1307CC
  0
LINE
  5
1307CD
  8
OBJECT
 10
2166.9999999999859
 20
-258.99999999999909
 30
0.0
 11
2202.9999999999859
 21
-258.99999999999909
 31
0.0
1001
ACDBBLOCKREPETAG
1070
     1
1071
       94
1005
1307CD
  0
LINE
  5
1307CE
  8
OBJECT
 10
2162.9999999999859
 20
-145.49999999999909
 30
0.0
 11
2149.9999999999859
 21
-145.49999999999909
 31
0.0
1001
ACDBBLOCKREPETAG
1070
     1
1071
       95
1005
1307CE
  0
LINE
  5
1307CF
  8
OBJECT
 10
2149.9999999999859
 20
-254.49999999999909
 30
0.0
 11
2162.9999999999859
 21
-254.49999999999909
 31
0.0
1001
ACDBBLOCKREPETAG
1070
     1
1071
       96
1005
1307CF
  0
LINE
  5
1307D0
  8
OBJECT
 10
2162.9999999999859
 20
-254.49999999999909
 30
0.0
 11
2162.9999999999859
 21
-145.49999999999909
 31
0.0
1001
ACDBBLOCKREPETAG
1070
     1
1071
       97
1005
1307D0
  0
LINE
  5
1307D1
  8
OBJECT
 10
2166.9999999999859
 20
-140.99999999999909
 30
0.0
 11
2162.9999999999859
 21
-145.49999999999909
 31
0.0
1001
ACDBBLOCKREPETAG
1070
     1
1071
       98
1005
1307D1
  0
LINE
  5
1307D2
  8
OBJECT
 10
2166.9999999999859
 20
-258.99999999999909
 30
0.0
 11
2162.9999999999859
 21
-254.49999999999909
 31
0.0
1001
ACDBBLOCKREPETAG
1070
     1
1071
       99
1005
1307D2
  0
LINE
  5
1307D3
  8
OBJECT
 10
2083.0
 20
-137.99999999999909
 30
0.0
 11
2080.0
 21
-137.99999999999909
 31
0.0
1001
ACDBBLOCKREPETAG
1070
     1
1071
      100
1005
1307D3
  0
ARC
  5
1307D4
  8
OBJECT
 10
2083.0
 20
-140.99999999999909
 30
0.0
 40
3.0
 50
0.0
 51
90.0
1001
ACDBBLOCKREPETAG
1070
     1
1071
      101
1005
1307D4
  0
LINE
  5
1307D5
  8
OBJECT
 10
2080.0
 20
-261.99999999999909
 30
0.0
 11
2083.0
 21
-261.99999999999909
 31
0.0
1001
ACDBBLOCKREPETAG
1070
     1
1071
      102
1005
1307D5
  0
ARC
  5
1307D6
  8
OBJECT
 10
2083.0
 20
-258.99999999999909
 30
0.0
 40
3.0
 50
270.0
 51
0.0
1001
ACDBBLOCKREPETAG
1070
     1
1071
      103
1005
1307D6
  0
LINE
  5
1307D7
  8
OBJECT
 10
2086.0
 20
-258.99999999999909
 30
0.0
 11
2086.0
 21
-210.3227903203578
 31
0.0
1001
ACDBBLOCKREPETAG
1070
     1
1071
      104
1005
1307D7
  0
LINE
  5
1307D8
  8
OBJECT
 10
2086.0
 20
-189.6772096796403
 30
0.0
 11
2086.0
 21
-140.99999999999909
 31
0.0
1001
ACDBBLOCKREPETAG
1070
     1
1071
      105
1005
1307D8
  0
LINE
  5
1307D9
  8
HIDDEN
 10
2157.9999999999859
 20
-155.49999999999909
 30
0.0
 11
2157.9999999999859
 21
-244.49999999999909
 31
0.0
1001
ACDBBLOCKREPETAG
1070
     1
1071
      106
1005
1307D9
  0
LINE
  5
1307DA
  8
OBJECT
 10
2149.9999749641861
 20
-254.4999509238105
 30
0.0
 11
2149.9999749641861
 21
-145.4999509238105
 31
0.0
1001
ACDBBLOCKREPETAG
1070
     1
1071
      108
1005
1307DA
  0
ARC
  5
1307DB
  8
OBJECT
 10
2129.8000000000252
 20
-199.99999999999909
 30
0.0
 40
45.000000000000547
 50
90.0
 51
270.0
1001
ACDBBLOCKREPETAG
1070
     1
1071
      109
1005
1307DB
  0
LINE
  5
1307DC
  8
OBJECT
 10
1917.0
 20
-634.0
 30
0.0
 11
1920.0
 21
-634.0
 31
0.0
1001
ACDBBLOCKREPETAG
1070
     1
1071
        1
1005
1307DC
  0
ARC
  5
1307DD
  8
OBJECT
 10
1917.0
 20
-637.0
 30
0.0
 40
3.0
 50
90.0
 51
180.0
1001
ACDBBLOCKREPETAG
1070
     1
1071
        2
1005
1307DD
  0
LINE
  5
1307DE
  8
OBJECT
 10
1920.0
 20
-758.0
 30
0.0
 11
1917.0
 21
-758.0
 31
0.0
1001
ACDBBLOCKREPETAG
1070
     1
1071
        3
1005
1307DE
  0
ARC
  5
1307DF
  8
OBJECT
 10
1917.0
 20
-755.0
 30
0.0
 40
3.0
 50
180.0
 51
270.0
1001
ACDBBLOCKREPETAG
1070
     1
1071
        4
1005
1307DF
  0
LINE
  5
1307E0
  8
OBJECT
 10
1914.0
 20
-755.0
 30
0.0
 11
1914.0
 21
-637.0
 31
0.0
1001
ACDBBLOCKREPETAG
1070
     1
1071
        5
1005
1307E0
  0
LINE
  5
1307E1
  8
CENTER
 10
2077.0
 20
-696.0
 30
0.0
 11
1923.0
 21
-696.0
 31
0.0
1001
ACDBBLOCKREPETAG
1070
     1
1071
       17
1005
1307E1
  0
CIRCLE
  5
1307E2
  8
OBJECT
 10
2000.0
 20
-696.0
 30
0.0
 40
41.5
1001
ACDBBLOCKREPETAG
1070
     1
1071
       19
1005
1307E2
  0
CIRCLE
  5
1307E3
  8
OBJECT
 10
2000.0
 20
-696.0
 30
0.0
 40
54.0
1001
ACDBBLOCKREPETAG
1070
     1
1071
       20
1005
1307E3
  0
ARC
  5
1307E4
  8
OBJECT
 10
2000.0
 20
-696.0
 30
0.0
 40
62.0
 50
287.89655112920718
 51
252.10344887079279
1001
ACDBBLOCKREPETAG
1070
     1
1071
       21
1005
1307E4
  0
LINE
  5
1307E5
  8
OBJECT
 10
1980.947441116743
 20
-755.0
 30
0.0
 11
2019.052558883257
 21
-755.0
 31
0.0
1001
ACDBBLOCKREPETAG
1070
     1
1071
       22
1005
1307E5
  0
LINE
  5
1307E6
  8
OBJECT
 10
2202.9999999999859
 20
-583.0000000000008
 30
0.0
 11
2209.9999999999859
 21
-583.0000000000008
 31
0.0
1001
ACDBBLOCKREPETAG
1070
     1
1071
       83
1005
1307E6
  0
LINE
  5
1307E7
  8
OBJECT
 10
2209.9999999999859
 20
-583.0000000000008
 30
0.0
 11
2209.9999999999859
 21
-707.00000000000091
 31
0.0
1001
ACDBBLOCKREPETAG
1070
     1
1071
       84
1005
1307E7
  0
LINE
  5
1307E8
  8
OBJECT
 10
2085.9999999999859
 20
-653.3502637757274
 30
0.0
 11
2085.9999999999859
 21
-755.00000000000102
 31
0.0
1001
ACDBBLOCKREPETAG
1070
     1
1071
       85
1005
1307E8
  0
LINE
  5
1307E9
  8
OBJECT
 10
2209.9999999999859
 20
-707.00000000000091
 30
0.0
 11
2202.9999999999859
 21
-707.00000000000091
 31
0.0
1001
ACDBBLOCKREPETAG
1070
     1
1071
       86
1005
1307E9
  0
LINE
  5
1307EA
  8
OBJECT
 10
2202.9999999999859
 20
-707.00000000000091
 30
0.0
 11
2202.9999999999859
 21
-583.0000000000008
 31
0.0
1001
ACDBBLOCKREPETAG
1070
     1
1071
       87
1005
1307EA
  0
LINE
  5
1307EB
  8
CENTER
 10
2134.9999999999859
 20
-645.0000000000008
 30
0.0
 11
2224.999999999985
 21
-645.0000000000008
 31
0.0
1001
ACDBBLOCKREPETAG
1070
     1
1071
       88
1005
1307EB
  0
LINE
  5
1307EC
  8
OBJECT
 10
2079.9999999999809
 20
-758.0
 30
0.0
 11
2082.999999999985
 21
-758.0000000000008
 31
0.0
1001
ACDBBLOCKREPETAG
1070
     1
1071
       89
1005
1307EC
  0
ARC
  5
1307ED
  8
OBJECT
 10
2082.999999999985
 20
-755.00000000000102
 30
0.0
 40
3.0
 50
270.0
 51
0.0
1001
ACDBBLOCKREPETAG
1070
     1
1071
       90
1005
1307ED
  0
LINE
  5
1307EE
  8
OBJECT
 10
2202.9999999999859
 20
-586.0000000000008
 30
0.0
 11
2166.9999999999859
 21
-586.0000000000008
 31
0.0
1001
ACDBBLOCKREPETAG
1070
     1
1071
       91
1005
1307EE
  0
LINE
  5
1307EF
  8
OBJECT
 10
2166.9999999999859
 20
-586.0000000000008
 30
0.0
 11
2166.9999999999859
 21
-704.0000000000008
 31
0.0
1001
ACDBBLOCKREPETAG
1070
     1
1071
       92
1005
1307EF
  0
LINE
  5
1307F0
  8
OBJECT
 10
2162.9999999999859
 20
-590.5000000000008
 30
0.0
 11
2162.9999999999859
 21
-699.5000000000008
 31
0.0
1001
ACDBBLOCKREPETAG
1070
     1
1071
       93
1005
1307F0
  0
LINE
  5
1307F1
  8
OBJECT
 10
2162.9999999999859
 20
-590.5000000000008
 30
0.0
 11
2149.9999999999859
 21
-590.5000000000008
 31
0.0
1001
ACDBBLOCKREPETAG
1070
     1
1071
       94
1005
1307F1
  0
LINE
  5
1307F2
  8
OBJECT
 10
2166.9999999999859
 20
-704.0000000000008
 30
0.0
 11
2202.9999999999859
 21
-704.0000000000008
 31
0.0
1001
ACDBBLOCKREPETAG
1070
     1
1071
       95
1005
1307F2
  0
LINE
  5
1307F3
  8
OBJECT
 10
2166.9999999999859
 20
-586.0000000000008
 30
0.0
 11
2162.9999999999859
 21
-590.5000000000008
 31
0.0
1001
ACDBBLOCKREPETAG
1070
     1
1071
       96
1005
1307F3
  0
LINE
  5
1307F4
  8
OBJECT
 10
2149.9999999999859
 20
-590.5000000000008
 30
0.0
 11
2149.9999999999859
 21
-675.74491827928784
 31
0.0
1001
ACDBBLOCKREPETAG
1070
     1
1071
       97
1005
1307F4
  0
ARC
  5
1307F5
  8
OBJECT
 10
2152.7999999999838
 20
-685.0000000000008
 30
0.0
 40
85.0
 50
91.887731891831123
 51
143.1301023540934
1001
ACDBBLOCKREPETAG
1070
     1
1071
       98
1005
1307F5
  0
LINE
  5
1307F6
  8
HIDDEN
 10
2157.9999999999859
 20
-600.50000000000068
 30
0.0
 11
2157.9999999999859
 21
-689.50000000000091
 31
0.0
1001
ACDBBLOCKREPETAG
1070
     1
1071
      100
1005
1307F6
  0
LINE
  5
1307F7
  8
OBJECT
 10
2085.9999999999859
 20
-751.07945073181781
 30
0.0
 11
2156.6313199210308
 21
-699.5000000000008
 31
0.0
1001
ACDBBLOCKREPETAG
1070
     1
1071
      101
1005
1307F7
  0
LINE
  5
1307F8
  8
OBJECT
 10
2079.9999999999809
 20
-634.0
 30
0.0
 11
2084.7999999999852
 21
-634.0
 31
0.0
1001
ACDBBLOCKREPETAG
1070
     1
1071
      102
1005
1307F8
  0
LINE
  5
1307F9
  8
OBJECT
 10
2085.9999999999859
 20
-653.35026377573013
 30
0.0
 11
2084.7999999999852
 21
-634.0
 31
0.0
1001
ACDBBLOCKREPETAG
1070
     1
1071
      103
1005
1307F9
  0
LINE
  5
1307FA
  8
OBJECT
 10
2162.9999999999859
 20
-699.5000000000008
 30
0.0
 11
2156.6313199210308
 21
-699.5000000000008
 31
0.0
1001
ACDBBLOCKREPETAG
1070
     1
1071
      104
1005
1307FA
  0
LINE
  5
1307FB
  8
OBJECT
 10
2166.9999999999859
 20
-704.0000000000008
 30
0.0
 11
2162.9999999999859
 21
-699.5000000000008
 31
0.0
1001
ACDBBLOCKREPETAG
1070
     1
1071
      105
1005
1307FB
  0
TEXT
  5
1307FC
  8
SLIM
 10
0.0000035665234464
 20
24.000004585317601
 30
0.0
 40
79.999999999972701
  1
枝管バリエーション
 41
0.75
1001
ACDBBLOCKREPETAG
1070
     1
1071
      119
1005
12CC4A
  0
TEXT
  5
1307FD
  8
SLIM
 10
1837.75
 20
282.50000000000011
 30
0.0
 40
35.0
  1
（枝管サイズ毎に寸法が異なります。管底の位置は50～100で同じです）
 41
0.75
  0
TEXT
  5
1307FE
  8
SLIM
 10
1850.0
 20
369.99999999999989
 30
0.0
 40
100.0
  1
4SR-Z63-P110
 41
0.75
  0
TEXT
  5
1307FF
  8
SLIM
 10
0.0
 20
369.99999999999989
 30
0.0
 40
100.0
  1
4SR-Z6X-P110-S
 41
0.75
  0
LINE
  5
130800
  8
OBJECT
 10
4923.0
 20
-3395.9999999999968
 30
0.0
 11
4923.0
 21
-3374.9999999999968
 31
0.0
1001
ACDBBLOCKREPETAG
1070
     1
1071
        0
1005
130800
  0
LINE
  5
130801
  8
OBJECT
 10
4923.0
 20
-3374.9999999999968
 30
0.0
 11
5077.0
 21
-3374.9999999999968
 31
0.0
1001
ACDBBLOCKREPETAG
1070
     1
1071
        1
1005
130801
  0
LINE
  5
130802
  8
HIDDEN
 10
4943.0
 20
-3444.9999999999968
 30
0.0
 11
5057.0
 21
-3444.9999999999968
 31
0.0
1001
ACDBBLOCKREPETAG
1070
     1
1071
        2
1005
130802
  0
LINE
  5
130803
  8
OBJECT
 10
5077.0
 20
-3374.9999999999968
 30
0.0
 11
5077.0
 21
-3395.9999999999968
 31
0.0
1001
ACDBBLOCKREPETAG
1070
     1
1071
        3
1005
130803
  0
LINE
  5
130804
  8
OBJECT
 10
5077.0
 20
-3395.9999999999968
 30
0.0
 11
4923.0
 21
-3395.9999999999968
 31
0.0
1001
ACDBBLOCKREPETAG
1070
     1
1071
        4
1005
130804
  0
LINE
  5
130805
  8
CENTER
 10
5000.0
 20
-3359.9999999999968
 30
0.0
 11
5000.0
 21
-3594.9999999999968
 31
0.0
1001
ACDBBLOCKREPETAG
1070
     1
1071
        5
1005
130805
  0
LINE
  5
130806
  8
OBJECT
 10
4925.0
 20
-3458.9999999999968
 30
0.0
 11
4925.0
 21
-3582.9999999999968
 31
0.0
1001
ACDBBLOCKREPETAG
1070
     1
1071
        6
1005
130806
  0
LINE
  5
130807
  8
OBJECT
 10
4928.0
 20
-3395.9999999999968
 30
0.0
 11
4928.0
 21
-3458.9999999999968
 31
0.0
1001
ACDBBLOCKREPETAG
1070
     1
1071
        7
1005
130807
  0
LINE
  5
130808
  8
OBJECT
 10
5072.0
 20
-3458.9999999999968
 30
0.0
 11
5072.0
 21
-3395.9999999999968
 31
0.0
1001
ACDBBLOCKREPETAG
1070
     1
1071
        8
1005
130808
  0
LINE
  5
130809
  8
OBJECT
 10
5074.9999999997999
 20
-3582.9999999997758
 30
0.0
 11
5080.0
 21
-3582.9999999999968
 31
0.0
1001
ACDBBLOCKREPETAG
1070
     1
1071
        9
1005
130809
  0
LINE
  5
13080A
  8
OBJECT
 10
5080.0
 20
-3458.9999999999968
 30
0.0
 11
4925.0
 21
-3458.9999999999968
 31
0.0
1001
ACDBBLOCKREPETAG
1070
     1
1071
       10
1005
13080A
  0
ARC
  5
13080B
  8
OBJECT
 10
5200.6872746716726
 20
-3574.408099410105
 30
0.0
 40
170.6350503965856
 50
137.44134459184301
 51
149.9194958133665
1001
ACDBBLOCKREPETAG
1070
     1
1071
       15
1005
13080B
  0
ARC
  5
13080C
  8
OBJECT
 10
5118.8455987040506
 20
-3530.8827266953631
 30
0.0
 40
78.072222021763665
 50
147.4551531037684
 51
164.66365997719291
1001
ACDBBLOCKREPETAG
1070
     1
1071
       16
1005
13080C
  0
ARC
  5
13080D
  8
OBJECT
 10
5085.7554349608727
 20
-3520.9999999999968
 30
0.0
 40
43.55353926885617
 50
165.6884523008477
 51
194.3115476991523
1001
ACDBBLOCKREPETAG
1070
     1
1071
       17
1005
13080D
  0
ARC
  5
13080E
  8
OBJECT
 10
5200.6872746716726
 20
-3467.5919005898891
 30
0.0
 40
170.6350503965856
 50
210.0805041866335
 51
222.55865540815699
1001
ACDBBLOCKREPETAG
1070
     1
1071
       18
1005
13080E
  0
ARC
  5
13080F
  8
OBJECT
 10
5118.8455987040506
 20
-3511.1172733046319
 30
0.0
 40
78.072222021763665
 50
195.33634002280701
 51
212.5448468962316
1001
ACDBBLOCKREPETAG
1070
     1
1071
       19
1005
13080F
  0
POINT
  5
130810
  8
DOTS
 10
5000.0
 20
-3579.9999999999968
 30
0.0
1001
ACDBBLOCKREPETAG
1070
     1
1071
      186
1005
130810
  0
LINE
  5
130811
  8
OBJECT
 10
4323.0
 20
-3395.9999999999968
 30
0.0
 11
4323.0
 21
-3374.9999999999968
 31
0.0
1001
ACDBBLOCKREPETAG
1070
     1
1071
       20
1005
130811
  0
LINE
  5
130812
  8
OBJECT
 10
4323.0
 20
-3374.9999999999968
 30
0.0
 11
4477.0
 21
-3374.9999999999968
 31
0.0
1001
ACDBBLOCKREPETAG
1070
     1
1071
       21
1005
130812
  0
LINE
  5
130813
  8
HIDDEN
 10
4343.0
 20
-3444.9999999999968
 30
0.0
 11
4457.0
 21
-3444.9999999999968
 31
0.0
1001
ACDBBLOCKREPETAG
1070
     1
1071
       22
1005
130813
  0
LINE
  5
130814
  8
OBJECT
 10
4477.0
 20
-3374.9999999999968
 30
0.0
 11
4477.0
 21
-3395.9999999999968
 31
0.0
1001
ACDBBLOCKREPETAG
1070
     1
1071
       23
1005
130814
  0
LINE
  5
130815
  8
OBJECT
 10
4477.0
 20
-3395.9999999999968
 30
0.0
 11
4323.0
 21
-3395.9999999999968
 31
0.0
1001
ACDBBLOCKREPETAG
1070
     1
1071
       24
1005
130815
  0
LINE
  5
130816
  8
CENTER
 10
4400.0
 20
-3359.9999999999968
 30
0.0
 11
4400.0
 21
-3594.9999999999968
 31
0.0
1001
ACDBBLOCKREPETAG
1070
     1
1071
       25
1005
130816
  0
LINE
  5
130817
  8
OBJECT
 10
4325.0
 20
-3458.9999999999968
 30
0.0
 11
4325.0
 21
-3582.9999999999968
 31
0.0
1001
ACDBBLOCKREPETAG
1070
     1
1071
       26
1005
130817
  0
LINE
  5
130818
  8
OBJECT
 10
4328.0
 20
-3395.9999999999968
 30
0.0
 11
4328.0
 21
-3458.9999999999968
 31
0.0
1001
ACDBBLOCKREPETAG
1070
     1
1071
       27
1005
130818
  0
LINE
  5
130819
  8
OBJECT
 10
4472.0
 20
-3458.9999999999968
 30
0.0
 11
4472.0
 21
-3395.9999999999968
 31
0.0
1001
ACDBBLOCKREPETAG
1070
     1
1071
       28
1005
130819
  0
LINE
  5
13081A
  8
OBJECT
 10
4475.0
 20
-3458.9999999999968
 30
0.0
 11
4325.0
 21
-3458.9999999999968
 31
0.0
1001
ACDBBLOCKREPETAG
1070
     1
1071
       30
1005
13081A
  0
LINE
  5
13081B
  8
OBJECT
 10
4475.0
 20
-3458.9999999999968
 30
0.0
 11
4475.0
 21
-3582.9999999999968
 31
0.0
1001
ACDBBLOCKREPETAG
1070
     1
1071
       34
1005
13081B
  0
POINT
  5
13081C
  8
DOTS
 10
4400.0
 20
-3579.9999999999968
 30
0.0
1001
ACDBBLOCKREPETAG
1070
     1
1071
      187
1005
13081C
  0
LINE
  5
13081D
  8
OBJECT
 10
3923.0
 20
-3395.9999999999968
 30
0.0
 11
3923.0
 21
-3374.9999999999968
 31
0.0
1001
ACDBBLOCKREPETAG
1070
     1
1071
        0
1005
13081D
  0
LINE
  5
13081E
  8
OBJECT
 10
3923.0
 20
-3374.9999999999968
 30
0.0
 11
4077.0
 21
-3374.9999999999968
 31
0.0
1001
ACDBBLOCKREPETAG
1070
     1
1071
        1
1005
13081E
  0
LINE
  5
13081F
  8
HIDDEN
 10
3943.0
 20
-3444.9999999999968
 30
0.0
 11
4057.0
 21
-3444.9999999999968
 31
0.0
1001
ACDBBLOCKREPETAG
1070
     1
1071
        2
1005
13081F
  0
LINE
  5
130820
  8
OBJECT
 10
4077.0
 20
-3374.9999999999968
 30
0.0
 11
4077.0
 21
-3395.9999999999968
 31
0.0
1001
ACDBBLOCKREPETAG
1070
     1
1071
        3
1005
130820
  0
LINE
  5
130821
  8
OBJECT
 10
4077.0
 20
-3395.9999999999968
 30
0.0
 11
3923.0
 21
-3395.9999999999968
 31
0.0
1001
ACDBBLOCKREPETAG
1070
     1
1071
        4
1005
130821
  0
LINE
  5
130822
  8
CENTER
 10
4000.0
 20
-3359.9999999999968
 30
0.0
 11
4000.0
 21
-3594.9999999999968
 31
0.0
1001
ACDBBLOCKREPETAG
1070
     1
1071
        5
1005
130822
  0
LINE
  5
130823
  8
OBJECT
 10
3925.0
 20
-3458.9999999999968
 30
0.0
 11
3925.0
 21
-3582.9999999999968
 31
0.0
1001
ACDBBLOCKREPETAG
1070
     1
1071
        6
1005
130823
  0
LINE
  5
130824
  8
OBJECT
 10
3928.0
 20
-3395.9999999999968
 30
0.0
 11
3928.0
 21
-3458.9999999999968
 31
0.0
1001
ACDBBLOCKREPETAG
1070
     1
1071
        7
1005
130824
  0
LINE
  5
130825
  8
OBJECT
 10
4072.0
 20
-3458.9999999999968
 30
0.0
 11
4072.0
 21
-3395.9999999999968
 31
0.0
1001
ACDBBLOCKREPETAG
1070
     1
1071
        8
1005
130825
  0
LINE
  5
130826
  8
OBJECT
 10
4074.999999999799
 20
-3582.9999999997758
 30
0.0
 11
4080.0
 21
-3582.9999999999968
 31
0.0
1001
ACDBBLOCKREPETAG
1070
     1
1071
        9
1005
130826
  0
LINE
  5
130827
  8
OBJECT
 10
4080.0
 20
-3458.9999999999968
 30
0.0
 11
3925.0
 21
-3458.9999999999968
 31
0.0
1001
ACDBBLOCKREPETAG
1070
     1
1071
       10
1005
130827
  0
ARC
  5
130828
  8
OBJECT
 10
4200.6872746716726
 20
-3574.408099410105
 30
0.0
 40
170.6350503965856
 50
137.44134459184301
 51
149.9194958133665
1001
ACDBBLOCKREPETAG
1070
     1
1071
       15
1005
130828
  0
ARC
  5
130829
  8
OBJECT
 10
4118.8455987040506
 20
-3530.8827266953631
 30
0.0
 40
78.072222021763665
 50
147.4551531037684
 51
164.663659977186
1001
ACDBBLOCKREPETAG
1070
     1
1071
       16
1005
130829
  0
ARC
  5
13082A
  8
OBJECT
 10
4085.7554349608722
 20
-3520.9999999999968
 30
0.0
 40
43.55353926885617
 50
165.6884523008477
 51
194.3115476991523
1001
ACDBBLOCKREPETAG
1070
     1
1071
       17
1005
13082A
  0
ARC
  5
13082B
  8
OBJECT
 10
4200.6872746716726
 20
-3467.5919005898891
 30
0.0
 40
170.6350503965856
 50
210.0805041866335
 51
222.55865540815699
1001
ACDBBLOCKREPETAG
1070
     1
1071
       18
1005
13082B
  0
ARC
  5
13082C
  8
OBJECT
 10
4118.8455987040506
 20
-3511.1172733046319
 30
0.0
 40
78.072222021763665
 50
195.33634002281391
 51
212.5448468962316
1001
ACDBBLOCKREPETAG
1070
     1
1071
       19
1005
13082C
  0
POINT
  5
13082D
  8
DOTS
 10
4000.0
 20
-3579.9999999999968
 30
0.0
1001
ACDBBLOCKREPETAG
1070
     1
1071
      186
1005
13082D
  0
LINE
  5
13082E
  8
OBJECT
 10
3323.0
 20
-3395.9999999999968
 30
0.0
 11
3323.0
 21
-3374.9999999999968
 31
0.0
1001
ACDBBLOCKREPETAG
1070
     1
1071
       20
1005
13082E
  0
LINE
  5
13082F
  8
OBJECT
 10
3323.0
 20
-3374.9999999999968
 30
0.0
 11
3477.0
 21
-3374.9999999999968
 31
0.0
1001
ACDBBLOCKREPETAG
1070
     1
1071
       21
1005
13082F
  0
LINE
  5
130830
  8
HIDDEN
 10
3343.0
 20
-3444.9999999999968
 30
0.0
 11
3457.0
 21
-3444.9999999999968
 31
0.0
1001
ACDBBLOCKREPETAG
1070
     1
1071
       22
1005
130830
  0
LINE
  5
130831
  8
OBJECT
 10
3477.0
 20
-3374.9999999999968
 30
0.0
 11
3477.0
 21
-3395.9999999999968
 31
0.0
1001
ACDBBLOCKREPETAG
1070
     1
1071
       23
1005
130831
  0
LINE
  5
130832
  8
OBJECT
 10
3477.0
 20
-3395.9999999999968
 30
0.0
 11
3323.0
 21
-3395.9999999999968
 31
0.0
1001
ACDBBLOCKREPETAG
1070
     1
1071
       24
1005
130832
  0
LINE
  5
130833
  8
CENTER
 10
3400.0
 20
-3359.9999999999968
 30
0.0
 11
3400.0
 21
-3594.9999999999968
 31
0.0
1001
ACDBBLOCKREPETAG
1070
     1
1071
       25
1005
130833
  0
LINE
  5
130834
  8
OBJECT
 10
3325.0
 20
-3458.9999999999968
 30
0.0
 11
3325.0
 21
-3582.9999999999968
 31
0.0
1001
ACDBBLOCKREPETAG
1070
     1
1071
       26
1005
130834
  0
LINE
  5
130835
  8
OBJECT
 10
3328.0
 20
-3395.9999999999968
 30
0.0
 11
3328.0
 21
-3458.9999999999968
 31
0.0
1001
ACDBBLOCKREPETAG
1070
     1
1071
       27
1005
130835
  0
LINE
  5
130836
  8
OBJECT
 10
3472.0
 20
-3458.9999999999968
 30
0.0
 11
3472.0
 21
-3395.9999999999968
 31
0.0
1001
ACDBBLOCKREPETAG
1070
     1
1071
       28
1005
130836
  0
LINE
  5
130837
  8
OBJECT
 10
3475.0
 20
-3458.9999999999968
 30
0.0
 11
3325.0
 21
-3458.9999999999968
 31
0.0
1001
ACDBBLOCKREPETAG
1070
     1
1071
       30
1005
130837
  0
LINE
  5
130838
  8
OBJECT
 10
3475.0
 20
-3458.9999999999968
 30
0.0
 11
3475.0
 21
-3582.9999999999968
 31
0.0
1001
ACDBBLOCKREPETAG
1070
     1
1071
       34
1005
130838
  0
POINT
  5
130839
  8
DOTS
 10
3400.0
 20
-3579.9999999999968
 30
0.0
1001
ACDBBLOCKREPETAG
1070
     1
1071
      187
1005
130839
  0
LINE
  5
13083A
  8
OBJECT
 10
2923.0
 20
-3395.9999999999968
 30
0.0
 11
2923.0
 21
-3374.9999999999968
 31
0.0
1001
ACDBBLOCKREPETAG
1070
     1
1071
        0
1005
13083A
  0
LINE
  5
13083B
  8
OBJECT
 10
2923.0
 20
-3374.9999999999968
 30
0.0
 11
3077.0
 21
-3374.9999999999968
 31
0.0
1001
ACDBBLOCKREPETAG
1070
     1
1071
        1
1005
13083B
  0
LINE
  5
13083C
  8
HIDDEN
 10
2943.0
 20
-3444.9999999999968
 30
0.0
 11
3057.0
 21
-3444.9999999999968
 31
0.0
1001
ACDBBLOCKREPETAG
1070
     1
1071
        2
1005
13083C
  0
LINE
  5
13083D
  8
OBJECT
 10
3077.0
 20
-3374.9999999999968
 30
0.0
 11
3077.0
 21
-3395.9999999999968
 31
0.0
1001
ACDBBLOCKREPETAG
1070
     1
1071
        3
1005
13083D
  0
LINE
  5
13083E
  8
OBJECT
 10
3077.0
 20
-3395.9999999999968
 30
0.0
 11
2923.0
 21
-3395.9999999999968
 31
0.0
1001
ACDBBLOCKREPETAG
1070
     1
1071
        4
1005
13083E
  0
LINE
  5
13083F
  8
CENTER
 10
3000.0
 20
-3359.9999999999968
 30
0.0
 11
3000.0
 21
-3594.9999999999968
 31
0.0
1001
ACDBBLOCKREPETAG
1070
     1
1071
        5
1005
13083F
  0
LINE
  5
130840
  8
OBJECT
 10
2925.0
 20
-3458.9999999999968
 30
0.0
 11
2925.0
 21
-3582.9999999999968
 31
0.0
1001
ACDBBLOCKREPETAG
1070
     1
1071
        6
1005
130840
  0
LINE
  5
130841
  8
OBJECT
 10
2928.0
 20
-3395.9999999999968
 30
0.0
 11
2928.0
 21
-3458.9999999999968
 31
0.0
1001
ACDBBLOCKREPETAG
1070
     1
1071
        7
1005
130841
  0
LINE
  5
130842
  8
OBJECT
 10
3072.0
 20
-3458.9999999999968
 30
0.0
 11
3072.0
 21
-3395.9999999999968
 31
0.0
1001
ACDBBLOCKREPETAG
1070
     1
1071
        8
1005
130842
  0
LINE
  5
130843
  8
OBJECT
 10
3074.9999999997999
 20
-3582.9999999997758
 30
0.0
 11
3080.0
 21
-3582.9999999999968
 31
0.0
1001
ACDBBLOCKREPETAG
1070
     1
1071
        9
1005
130843
  0
LINE
  5
130844
  8
OBJECT
 10
3080.0
 20
-3458.9999999999968
 30
0.0
 11
2925.0
 21
-3458.9999999999968
 31
0.0
1001
ACDBBLOCKREPETAG
1070
     1
1071
       10
1005
130844
  0
ARC
  5
130845
  8
OBJECT
 10
3200.6872746716722
 20
-3574.408099410105
 30
0.0
 40
170.6350503965856
 50
137.44134459184301
 51
149.9194958133665
1001
ACDBBLOCKREPETAG
1070
     1
1071
       15
1005
130845
  0
ARC
  5
130846
  8
OBJECT
 10
3118.8455987040511
 20
-3530.8827266953631
 30
0.0
 40
78.072222021763665
 50
147.4551531037684
 51
164.663659977186
1001
ACDBBLOCKREPETAG
1070
     1
1071
       16
1005
130846
  0
ARC
  5
130847
  8
OBJECT
 10
3085.7554349608731
 20
-3520.9999999999968
 30
0.0
 40
43.55353926885617
 50
165.6884523008477
 51
194.3115476991523
1001
ACDBBLOCKREPETAG
1070
     1
1071
       17
1005
130847
  0
ARC
  5
130848
  8
OBJECT
 10
3200.6872746716722
 20
-3467.5919005898891
 30
0.0
 40
170.6350503965856
 50
210.0805041866335
 51
222.55865540815699
1001
ACDBBLOCKREPETAG
1070
     1
1071
       18
1005
130848
  0
ARC
  5
130849
  8
OBJECT
 10
3118.8455987040511
 20
-3511.1172733046319
 30
0.0
 40
78.072222021763665
 50
195.33634002281391
 51
212.5448468962316
1001
ACDBBLOCKREPETAG
1070
     1
1071
       19
1005
130849
  0
POINT
  5
13084A
  8
DOTS
 10
3000.0
 20
-3579.9999999999968
 30
0.0
1001
ACDBBLOCKREPETAG
1070
     1
1071
      186
1005
13084A
  0
LINE
  5
13084B
  8
OBJECT
 10
2323.0
 20
-3395.9999999999968
 30
0.0
 11
2323.0
 21
-3374.9999999999968
 31
0.0
1001
ACDBBLOCKREPETAG
1070
     1
1071
       20
1005
13084B
  0
LINE
  5
13084C
  8
OBJECT
 10
2323.0
 20
-3374.9999999999968
 30
0.0
 11
2477.0
 21
-3374.9999999999968
 31
0.0
1001
ACDBBLOCKREPETAG
1070
     1
1071
       21
1005
13084C
  0
LINE
  5
13084D
  8
HIDDEN
 10
2343.0
 20
-3444.9999999999968
 30
0.0
 11
2457.0
 21
-3444.9999999999968
 31
0.0
1001
ACDBBLOCKREPETAG
1070
     1
1071
       22
1005
13084D
  0
LINE
  5
13084E
  8
OBJECT
 10
2477.0
 20
-3374.9999999999968
 30
0.0
 11
2477.0
 21
-3395.9999999999968
 31
0.0
1001
ACDBBLOCKREPETAG
1070
     1
1071
       23
1005
13084E
  0
LINE
  5
13084F
  8
OBJECT
 10
2477.0
 20
-3395.9999999999968
 30
0.0
 11
2323.0
 21
-3395.9999999999968
 31
0.0
1001
ACDBBLOCKREPETAG
1070
     1
1071
       24
1005
13084F
  0
LINE
  5
130850
  8
CENTER
 10
2400.0
 20
-3359.9999999999968
 30
0.0
 11
2400.0
 21
-3594.9999999999968
 31
0.0
1001
ACDBBLOCKREPETAG
1070
     1
1071
       25
1005
130850
  0
LINE
  5
130851
  8
OBJECT
 10
2325.0
 20
-3458.9999999999968
 30
0.0
 11
2325.0
 21
-3582.9999999999968
 31
0.0
1001
ACDBBLOCKREPETAG
1070
     1
1071
       26
1005
130851
  0
LINE
  5
130852
  8
OBJECT
 10
2328.0
 20
-3395.9999999999968
 30
0.0
 11
2328.0
 21
-3458.9999999999968
 31
0.0
1001
ACDBBLOCKREPETAG
1070
     1
1071
       27
1005
130852
  0
LINE
  5
130853
  8
OBJECT
 10
2472.0
 20
-3458.9999999999968
 30
0.0
 11
2472.0
 21
-3395.9999999999968
 31
0.0
1001
ACDBBLOCKREPETAG
1070
     1
1071
       28
1005
130853
  0
LINE
  5
130854
  8
OBJECT
 10
2475.0
 20
-3458.9999999999968
 30
0.0
 11
2325.0
 21
-3458.9999999999968
 31
0.0
1001
ACDBBLOCKREPETAG
1070
     1
1071
       30
1005
130854
  0
LINE
  5
130855
  8
OBJECT
 10
2475.0
 20
-3458.9999999999968
 30
0.0
 11
2475.0
 21
-3582.9999999999968
 31
0.0
1001
ACDBBLOCKREPETAG
1070
     1
1071
       34
1005
130855
  0
POINT
  5
130856
  8
DOTS
 10
2400.0
 20
-3579.9999999999968
 30
0.0
1001
ACDBBLOCKREPETAG
1070
     1
1071
      187
1005
130856
  0
LINE
  5
130857
  8
OBJECT
 10
1923.0
 20
-3395.9999999999968
 30
0.0
 11
1923.0
 21
-3374.9999999999968
 31
0.0
1001
ACDBBLOCKREPETAG
1070
     1
1071
        0
1005
130857
  0
LINE
  5
130858
  8
OBJECT
 10
1923.0
 20
-3374.9999999999968
 30
0.0
 11
2077.0
 21
-3374.9999999999968
 31
0.0
1001
ACDBBLOCKREPETAG
1070
     1
1071
        1
1005
130858
  0
LINE
  5
130859
  8
HIDDEN
 10
1943.0
 20
-3444.9999999999968
 30
0.0
 11
2057.0
 21
-3444.9999999999968
 31
0.0
1001
ACDBBLOCKREPETAG
1070
     1
1071
        2
1005
130859
  0
LINE
  5
13085A
  8
OBJECT
 10
2077.0
 20
-3374.9999999999968
 30
0.0
 11
2077.0
 21
-3395.9999999999968
 31
0.0
1001
ACDBBLOCKREPETAG
1070
     1
1071
        3
1005
13085A
  0
LINE
  5
13085B
  8
OBJECT
 10
2077.0
 20
-3395.9999999999968
 30
0.0
 11
1923.0
 21
-3395.9999999999968
 31
0.0
1001
ACDBBLOCKREPETAG
1070
     1
1071
        4
1005
13085B
  0
LINE
  5
13085C
  8
CENTER
 10
2000.0
 20
-3359.9999999999968
 30
0.0
 11
2000.0
 21
-3594.9999999999968
 31
0.0
1001
ACDBBLOCKREPETAG
1070
     1
1071
        5
1005
13085C
  0
LINE
  5
13085D
  8
OBJECT
 10
1925.0
 20
-3458.9999999999968
 30
0.0
 11
1925.0
 21
-3582.9999999999968
 31
0.0
1001
ACDBBLOCKREPETAG
1070
     1
1071
        6
1005
13085D
  0
LINE
  5
13085E
  8
OBJECT
 10
1928.0
 20
-3395.9999999999968
 30
0.0
 11
1928.0
 21
-3458.9999999999968
 31
0.0
1001
ACDBBLOCKREPETAG
1070
     1
1071
        7
1005
13085E
  0
LINE
  5
13085F
  8
OBJECT
 10
2072.0
 20
-3458.9999999999968
 30
0.0
 11
2072.0
 21
-3395.9999999999968
 31
0.0
1001
ACDBBLOCKREPETAG
1070
     1
1071
        8
1005
13085F
  0
LINE
  5
130860
  8
OBJECT
 10
2074.999999999799
 20
-3582.9999999997758
 30
0.0
 11
2080.0
 21
-3582.9999999999968
 31
0.0
1001
ACDBBLOCKREPETAG
1070
     1
1071
        9
1005
130860
  0
LINE
  5
130861
  8
OBJECT
 10
2080.0
 20
-3458.9999999999968
 30
0.0
 11
1925.0
 21
-3458.9999999999968
 31
0.0
1001
ACDBBLOCKREPETAG
1070
     1
1071
       10
1005
130861
  0
ARC
  5
130862
  8
OBJECT
 10
2200.6872746716731
 20
-3574.408099410105
 30
0.0
 40
170.6350503965856
 50
137.44134459184301
 51
149.91949581335999
1001
ACDBBLOCKREPETAG
1070
     1
1071
       15
1005
130862
  0
ARC
  5
130863
  8
OBJECT
 10
2118.8455987040511
 20
-3530.8827266953631
 30
0.0
 40
78.072222021763665
 50
147.45515310377539
 51
164.663659977186
1001
ACDBBLOCKREPETAG
1070
     1
1071
       16
1005
130863
  0
ARC
  5
130864
  8
OBJECT
 10
2085.7554349608731
 20
-3520.9999999999968
 30
0.0
 40
43.55353926885617
 50
165.6884523008477
 51
194.3115476991523
1001
ACDBBLOCKREPETAG
1070
     1
1071
       17
1005
130864
  0
ARC
  5
130865
  8
OBJECT
 10
2200.6872746716731
 20
-3467.5919005898891
 30
0.0
 40
170.6350503965856
 50
210.08050418664001
 51
222.55865540815699
1001
ACDBBLOCKREPETAG
1070
     1
1071
       18
1005
130865
  0
ARC
  5
130866
  8
OBJECT
 10
2118.8455987040511
 20
-3511.1172733046319
 30
0.0
 40
78.072222021763665
 50
195.33634002281391
 51
212.54484689622461
1001
ACDBBLOCKREPETAG
1070
     1
1071
       19
1005
130866
  0
POINT
  5
130867
  8
DOTS
 10
2000.0
 20
-3579.9999999999968
 30
0.0
1001
ACDBBLOCKREPETAG
1070
     1
1071
      186
1005
130867
  0
LINE
  5
130868
  8
DIM
 10
2150.0
 20
-3221.9999999999959
 30
0.0
 11
2228.479620594459
 21
-3221.9999999999959
 31
0.0
  0
LINE
  5
130869
  8
DIM
 10
2150.0
 20
-3127.9999999999959
 30
0.0
 11
2228.479620594459
 21
-3127.9999999999959
 31
0.0
  0
LINE
  5
13086A
  8
DIM
 10
2218.479620594459
 20
-3201.9999999999959
 30
0.0
 11
2218.479620594459
 21
-3147.9999999999959
 31
0.0
  0
INSERT
  5
13086B
  8
DIM
  2
_OPEN30
 10
2218.479620594459
 20
-3221.9999999999959
 30
0.0
 41
20.0
 42
20.0
 43
20.0
 50
270.0
  0
INSERT
  5
13086C
  8
DIM
  2
_OPEN30
 10
2218.479620594459
 20
-3127.9999999999959
 30
0.0
 41
20.0
 42
20.0
 43
20.0
 50
90.0
  0
INSERT
  5
13086D
  8
OBJECT
  2
*U209
 10
0.0
 20
0.0
 30
0.0
  0
LINE
  5
13086E
  8
DIM
 10
2150.0
 20
-3579.9999999999968
 30
0.0
 11
2226.8409284037339
 21
-3579.9999999999968
 31
0.0
  0
LINE
  5
13086F
  8
DIM
 10
2165.0
 20
-3535.9999999999968
 30
0.0
 11
2226.8409284037339
 21
-3535.9999999999968
 31
0.0
  0
LINE
  5
130870
  8
DIM
 10
2216.840928403733
 20
-3599.9999999999968
 30
0.0
 11
2216.840928403733
 21
-3619.9999999999968
 31
0.0
  0
LINE
  5
130871
  8
DIM
 10
2216.840928403733
 20
-3515.9999999999968
 30
0.0
 11
2216.840928403733
 21
-3495.9999999999968
 31
0.0
  0
LINE
  5
130872
  8
DIM
 10
2216.840928403733
 20
-3579.9999999999968
 30
0.0
 11
2216.840928403733
 21
-3535.9999999999968
 31
0.0
  0
INSERT
  5
130873
  8
DIM
  2
_OPEN30
 10
2216.840928403733
 20
-3579.9999999999968
 30
0.0
 41
20.0
 42
20.0
 43
20.0
 50
90.0
  0
INSERT
  5
130874
  8
DIM
  2
_OPEN30
 10
2216.840928403733
 20
-3535.9999999999968
 30
0.0
 41
20.0
 42
20.0
 43
20.0
 50
270.0
  0
INSERT
  5
130875
  8
OBJECT
  2
*U210
 10
0.0
 20
0.0
 30
0.0
  0
LINE
  5
130876
  8
DIM
 10
2000.0
 20
-3069.9999999999959
 30
0.0
 11
2000.0
 21
-3037.208121984444
 31
0.0
  0
LINE
  5
130877
  8
DIM
 10
2140.0
 20
-3117.9999999999959
 30
0.0
 11
2140.0
 21
-3037.208121984444
 31
0.0
  0
LINE
  5
130878
  8
DIM
 10
2020.0
 20
-3047.208121984444
 30
0.0
 11
2120.0
 21
-3047.208121984444
 31
0.0
  0
INSERT
  5
130879
  8
DIM
  2
_OPEN30
 10
2000.0
 20
-3047.208121984444
 30
0.0
 41
20.0
 42
20.0
 43
20.0
 50
180.0
  0
INSERT
  5
13087A
  8
DIM
  2
_OPEN30
 10
2140.0
 20
-3047.208121984444
 30
0.0
 41
20.0
 42
20.0
 43
20.0
  0
INSERT
  5
13087B
  8
OBJECT
  2
*U211
 10
0.0
 20
0.0
 30
0.0
  0
TEXT
  5
13087C
  8
SLIM
 10
2631.0
 20
-2952.50001604727
 30
0.0
 40
40.0
  1
C寸法
 41
0.75
  0
TEXT
  5
13087D
  8
SLIM
 10
2631.0
 20
-2882.50001604727
 30
0.0
 40
40.0
  1
B寸法
 41
0.75
  0
TEXT
  5
13087E
  8
SLIM
 10
2630.2857142857142
 20
-2812.50001604727
 30
0.0
 40
40.0
  1
A寸法
 41
0.75
  0
TEXT
  5
13087F
  8
SLIM
 10
3159.2857142857151
 20
-2952.50001604727
 30
0.0
 40
40.0
  1
150
 41
0.75
  0
TEXT
  5
130880
  8
SLIM
 10
3029.2857142857151
 20
-2952.50001604727
 30
0.0
 40
40.0
  1
140
 41
0.75
  0
TEXT
  5
130881
  8
SLIM
 10
2769.2857142857151
 20
-2952.50001604727
 30
0.0
 40
40.0
  1
140
 41
0.75
  0
TEXT
  5
130882
  8
SLIM
 10
2899.2857142857151
 20
-2952.50001604727
 30
0.0
 40
40.0
  1
140
 41
0.75
  0
TEXT
  5
130883
  8
SLIM
 10
3170.7142857142858
 20
-2882.50001604727
 30
0.0
 40
40.0
  1
72
 41
0.75
  0
TEXT
  5
130884
  8
SLIM
 10
3041.4285714285711
 20
-2882.50001604727
 30
0.0
 40
40.0
  1
59
 41
0.75
  0
TEXT
  5
130885
  8
SLIM
 10
2780.0
 20
-2882.50001604727
 30
0.0
 40
40.0
  1
44
 41
0.75
  0
TEXT
  5
130886
  8
SLIM
 10
2910.7142857142858
 20
-2882.50001604727
 30
0.0
 40
40.0
  1
52
 41
0.75
  0
TEXT
  5
130887
  8
SLIM
 10
2891.0
 20
-2687.50001604727
 30
0.0
 40
40.0
  1
横枝管サイズ
 41
0.75
  0
TEXT
  5
130888
  8
SLIM
 10
3136.2857142857151
 20
-2742.50001604727
 30
0.0
 40
30.0
  1
100（4）
 41
0.75
  0
TEXT
  5
130889
  8
SLIM
 10
3014.857142857144
 20
-2742.50001604727
 30
0.0
 40
30.0
  1
75（3）
 41
0.75
  0
TEXT
  5
13088A
  8
SLIM
 10
2884.8571428571431
 20
-2742.50001604727
 30
0.0
 40
30.0
  1
65（2）
 41
0.75
  0
TEXT
  5
13088B
  8
SLIM
 10
2757.0
 20
-2742.50001604727
 30
0.0
 40
30.0
  1
50（1）
 41
0.75
  0
TEXT
  5
13088C
  8
SLIM
 10
3159.2857142857151
 20
-2812.50001604727
 30
0.0
 40
40.0
  1
150
 41
0.75
  0
TEXT
  5
13088D
  8
SLIM
 10
3028.571428571428
 20
-2812.50001604727
 30
0.0
 40
40.0
  1
124
 41
0.75
  0
TEXT
  5
13088E
  8
SLIM
 10
2780.0
 20
-2812.50001604727
 30
0.0
 40
40.0
  1
94
 41
0.75
  0
TEXT
  5
13088F
  8
SLIM
 10
2902.1428571428569
 20
-2812.50001604727
 30
0.0
 40
40.0
  1
110
 41
0.75
  0
TEXT
  5
130890
  8
SLIM
 10
1849.9999999999991
 20
-2712.5
 30
0.0
 40
75.0
  1
枝管サイズ毎の形状
 41
0.75
  0
LINE
  5
130891
  8
OBJECT
 10
5150.0
 20
-3432.9999999999968
 30
0.0
 11
5143.0
 21
-3432.9999999999968
 31
0.0
1001
ACDBBLOCKREPETAG
1070
     1
1071
       64
1005
130891
  0
LINE
  5
130892
  8
OBJECT
 10
5143.0
 20
-3432.9999999999968
 30
0.0
 11
5143.0
 21
-3579.9999999999968
 31
0.0
1001
ACDBBLOCKREPETAG
1070
     1
1071
       65
1005
130892
  0
LINE
  5
130893
  8
OBJECT
 10
5101.5
 20
-3435.9999999999968
 30
0.0
 11
5101.5
 21
-3579.9999999999968
 31
0.0
1001
ACDBBLOCKREPETAG
1070
     1
1071
       66
1005
130893
  0
LINE
  5
130894
  8
OBJECT
 10
5090.0
 20
-3442.4999999999968
 30
0.0
 11
5090.0
 21
-3573.4999999999968
 31
0.0
1001
ACDBBLOCKREPETAG
1070
     1
1071
       67
1005
130894
  0
LINE
  5
130895
  8
OBJECT
 10
5086.0
 20
-3514.5000000000041
 30
0.0
 11
5086.0
 21
-3579.9999999999968
 31
0.0
1001
ACDBBLOCKREPETAG
1070
     1
1071
       68
1005
130895
  0
LINE
  5
130896
  8
OBJECT
 10
5150.0
 20
-3579.9999999999968
 30
0.0
 11
5150.0
 21
-3432.9999999999968
 31
0.0
1001
ACDBBLOCKREPETAG
1070
     1
1071
       69
1005
130896
  0
LINE
  5
130897
  8
CENTER
 10
5165.0
 20
-3507.9999999999968
 30
0.0
 11
5070.4144144144157
 21
-3507.9999999999968
 31
0.0
1001
ACDBBLOCKREPETAG
1070
     1
1071
       70
1005
130897
  0
LINE
  5
130898
  8
OBJECT
 10
5083.0000000000045
 20
-3582.9999999999968
 30
0.0
 11
5080.0
 21
-3582.9999999999968
 31
0.0
1001
ACDBBLOCKREPETAG
1070
     1
1071
       71
1005
130898
  0
ARC
  5
130899
  8
OBJECT
 10
5091.8815171830656
 20
-3581.4555591801418
 30
0.0
 40
6.0
 50
60.52411099686767
 51
170.6927439126847
1001
ACDBBLOCKREPETAG
1070
     1
1071
       72
1005
130899
  0
ARC
  5
13089A
  8
OBJECT
 10
5083.0
 20
-3579.9999999999968
 30
0.0
 40
3.0
 50
270.0
 51
350.69274391268482
1001
ACDBBLOCKREPETAG
1070
     1
1071
       73
1005
13089A
  0
LINE
  5
13089B
  8
OBJECT
 10
5081.0
 20
-3458.9999999999968
 30
0.0
 11
5080.0
 21
-3458.9999999999968
 31
0.0
1001
ACDBBLOCKREPETAG
1070
     1
1071
       74
1005
13089B
  0
LINE
  5
13089C
  8
OBJECT
 10
5150.0
 20
-3579.9999999999968
 30
0.0
 11
5101.5
 21
-3579.9999999999968
 31
0.0
1001
ACDBBLOCKREPETAG
1070
     1
1071
       75
1005
13089C
  0
LINE
  5
13089D
  8
OBJECT
 10
5101.5
 20
-3435.9999999999968
 30
0.0
 11
5090.0
 21
-3442.4999999999968
 31
0.0
1001
ACDBBLOCKREPETAG
1070
     1
1071
       76
1005
13089D
  0
LINE
  5
13089E
  8
OBJECT
 10
5143.0
 20
-3435.9999999999968
 30
0.0
 11
5101.5
 21
-3435.9999999999968
 31
0.0
1001
ACDBBLOCKREPETAG
1070
     1
1071
       77
1005
13089E
  0
LINE
  5
13089F
  8
OBJECT
 10
5086.0
 20
-3514.5000000000041
 30
0.0
 11
5081.0
 21
-3458.9999999999968
 31
0.0
1001
ACDBBLOCKREPETAG
1070
     1
1071
       78
1005
13089F
  0
LINE
  5
1308A0
  8
OBJECT
 10
5090.0
 20
-3442.4999999999968
 30
0.0
 11
5081.0
 21
-3458.9999999999968
 31
0.0
1001
ACDBBLOCKREPETAG
1070
     1
1071
       79
1005
1308A0
  0
LINE
  5
1308A1
  8
OBJECT
 10
5101.5
 20
-3579.9999999999968
 30
0.0
 11
5094.8338607230708
 21
-3576.232182147819
 31
0.0
1001
ACDBBLOCKREPETAG
1070
     1
1071
       80
1005
1308A1
  0
LINE
  5
1308A2
  8
HIDDEN
 10
5098.0
 20
-3564.9999999999968
 30
0.0
 11
5098.0
 21
-3450.9999999999968
 31
0.0
1001
ACDBBLOCKREPETAG
1070
     1
1071
       81
1005
1308A2
  0
LINE
  5
1308A3
  8
OBJECT
 10
5150.0
 20
-3099.9999999999959
 30
0.0
 11
5143.0
 21
-3099.9999999999959
 31
0.0
1001
ACDBBLOCKREPETAG
1070
     1
1071
       67
1005
1308A3
  0
LINE
  5
1308A4
  8
OBJECT
 10
5143.0
 20
-3099.9999999999959
 30
0.0
 11
5143.0
 21
-3249.9999999999959
 31
0.0
1001
ACDBBLOCKREPETAG
1070
     1
1071
       68
1005
1308A4
  0
LINE
  5
1308A5
  8
OBJECT
 10
5101.5
 20
-3102.9999999999959
 30
0.0
 11
5101.5
 21
-3246.9999999999959
 31
0.0
1001
ACDBBLOCKREPETAG
1070
     1
1071
       69
1005
1308A5
  0
LINE
  5
1308A6
  8
OBJECT
 10
5090.0
 20
-3109.4999999999959
 30
0.0
 11
5090.0
 21
-3240.4999999999959
 31
0.0
1001
ACDBBLOCKREPETAG
1070
     1
1071
       70
1005
1308A6
  0
LINE
  5
1308A7
  8
OBJECT
 10
5143.0
 20
-3249.9999999999959
 30
0.0
 11
5150.0
 21
-3249.9999999999959
 31
0.0
1001
ACDBBLOCKREPETAG
1070
     1
1071
       71
1005
1308A7
  0
LINE
  5
1308A8
  8
OBJECT
 10
5150.0
 20
-3249.9999999999959
 30
0.0
 11
5150.0
 21
-3099.9999999999959
 31
0.0
1001
ACDBBLOCKREPETAG
1070
     1
1071
       72
1005
1308A8
  0
LINE
  5
1308A9
  8
HIDDEN
 10
5098.0
 20
-3231.9999999999959
 30
0.0
 11
5098.0
 21
-3117.9999999999959
 31
0.0
1001
ACDBBLOCKREPETAG
1070
     1
1071
       73
1005
1308A9
  0
LINE
  5
1308AA
  8
CENTER
 10
5165.0
 20
-3174.9999999999959
 30
0.0
 11
5080.0
 21
-3174.9999999999959
 31
0.0
1001
ACDBBLOCKREPETAG
1070
     1
1071
       74
1005
1308AA
  0
LINE
  5
1308AB
  8
OBJECT
 10
5086.0
 20
-3236.9999999999959
 30
0.0
 11
5080.0
 21
-3236.9999999999959
 31
0.0
1001
ACDBBLOCKREPETAG
1070
     1
1071
       75
1005
1308AB
  0
LINE
  5
1308AC
  8
OBJECT
 10
5143.0
 20
-3246.9999999999959
 30
0.0
 11
5101.5
 21
-3246.9999999999959
 31
0.0
1001
ACDBBLOCKREPETAG
1070
     1
1071
       76
1005
1308AC
  0
LINE
  5
1308AD
  8
OBJECT
 10
5101.5
 20
-3246.9999999999959
 30
0.0
 11
5090.0
 21
-3240.4999999999959
 31
0.0
1001
ACDBBLOCKREPETAG
1070
     1
1071
       77
1005
1308AD
  0
LINE
  5
1308AE
  8
OBJECT
 10
5090.0
 20
-3240.4999999999959
 30
0.0
 11
5086.0
 21
-3236.9999999999959
 31
0.0
1001
ACDBBLOCKREPETAG
1070
     1
1071
       78
1005
1308AE
  0
LINE
  5
1308AF
  8
OBJECT
 10
5101.5
 20
-3102.9999999999959
 30
0.0
 11
5090.0
 21
-3109.4999999999959
 31
0.0
1001
ACDBBLOCKREPETAG
1070
     1
1071
       79
1005
1308AF
  0
LINE
  5
1308B0
  8
OBJECT
 10
5090.0
 20
-3109.4999999999959
 30
0.0
 11
5086.0
 21
-3112.9999999999959
 31
0.0
1001
ACDBBLOCKREPETAG
1070
     1
1071
       80
1005
1308B0
  0
ARC
  5
1308B1
  8
OBJECT
 10
5467.9000000000005
 20
-3174.9999999999959
 30
0.0
 40
386.89999999999998
 50
170.77870136260421
 51
189.22129863739571
1001
ACDBBLOCKREPETAG
1070
     1
1071
       81
1005
1308B1
  0
LINE
  5
1308B2
  8
OBJECT
 10
5086.0
 20
-3112.9999999999959
 30
0.0
 11
5080.0
 21
-3112.9999999999959
 31
0.0
1001
ACDBBLOCKREPETAG
1070
     1
1071
       82
1005
1308B2
  0
LINE
  5
1308B3
  8
OBJECT
 10
5143.0
 20
-3102.9999999999959
 30
0.0
 11
5101.5
 21
-3102.9999999999959
 31
0.0
1001
ACDBBLOCKREPETAG
1070
     1
1071
       83
1005
1308B3
  0
TEXT
  5
1308B4
  8
SLIM
 10
4884.25
 20
-3697.4999999999959
 30
0.0
 40
35.0
  1
通常枝100（4）
 41
0.75
  0
LINE
  5
1308B5
  8
CENTER
 10
4477.0
 20
-3520.9999999999968
 30
0.0
 11
4323.0
 21
-3520.9999999999968
 31
0.0
1001
ACDBBLOCKREPETAG
1070
     1
1071
       17
1005
1308B5
  0
CIRCLE
  5
1308B6
  8
OBJECT
 10
4400.0
 20
-3520.9999999999968
 30
0.0
 40
41.5
1001
ACDBBLOCKREPETAG
1070
     1
1071
       19
1005
1308B6
  0
CIRCLE
  5
1308B7
  8
OBJECT
 10
4400.0
 20
-3520.9999999999968
 30
0.0
 40
54.0
1001
ACDBBLOCKREPETAG
1070
     1
1071
       20
1005
1308B7
  0
ARC
  5
1308B8
  8
OBJECT
 10
4400.0
 20
-3520.9999999999968
 30
0.0
 40
62.0
 50
287.89655112921122
 51
252.1034488707887
1001
ACDBBLOCKREPETAG
1070
     1
1071
       21
1005
1308B8
  0
LINE
  5
1308B9
  8
OBJECT
 10
4380.947441116743
 20
-3579.9999999999968
 30
0.0
 11
4419.052558883257
 21
-3579.9999999999968
 31
0.0
1001
ACDBBLOCKREPETAG
1070
     1
1071
       22
1005
1308B9
  0
LINE
  5
1308BA
  8
OBJECT
 10
4133.0
 20
-3458.9999999999968
 30
0.0
 11
4140.0
 21
-3458.9999999999968
 31
0.0
1001
ACDBBLOCKREPETAG
1070
     1
1071
       45
1005
1308BA
  0
LINE
  5
1308BB
  8
OBJECT
 10
4140.0
 20
-3458.9999999999968
 30
0.0
 11
4140.0
 21
-3579.9999999999968
 31
0.0
1001
ACDBBLOCKREPETAG
1070
     1
1071
       46
1005
1308BB
  0
LINE
  5
1308BC
  8
OBJECT
 10
4133.0
 20
-3579.9999999999968
 30
0.0
 11
4133.0
 21
-3458.9999999999968
 31
0.0
1001
ACDBBLOCKREPETAG
1070
     1
1071
       47
1005
1308BC
  0
LINE
  5
1308BD
  8
CENTER
 10
4155.0
 20
-3520.9999999999968
 30
0.0
 11
4071.0
 21
-3520.9999999999968
 31
0.0
1001
ACDBBLOCKREPETAG
1070
     1
1071
       48
1005
1308BD
  0
LINE
  5
1308BE
  8
OBJECT
 10
4133.0
 20
-3461.9999999999968
 30
0.0
 11
4097.0
 21
-3461.9999999999968
 31
0.0
1001
ACDBBLOCKREPETAG
1070
     1
1071
       49
1005
1308BE
  0
LINE
  5
1308BF
  8
OBJECT
 10
4097.0
 20
-3461.9999999999968
 30
0.0
 11
4097.0
 21
-3579.9999999999968
 31
0.0
1001
ACDBBLOCKREPETAG
1070
     1
1071
       50
1005
1308BF
  0
LINE
  5
1308C0
  8
OBJECT
 10
4097.0
 20
-3579.9999999999968
 30
0.0
 11
4140.0
 21
-3579.9999999999968
 31
0.0
1001
ACDBBLOCKREPETAG
1070
     1
1071
       51
1005
1308C0
  0
LINE
  5
1308C1
  8
OBJECT
 10
4093.0
 20
-3466.4999999999968
 30
0.0
 11
4086.0
 21
-3466.4999999999968
 31
0.0
1001
ACDBBLOCKREPETAG
1070
     1
1071
       52
1005
1308C1
  0
LINE
  5
1308C2
  8
OBJECT
 10
4086.0
 20
-3575.4999999999968
 30
0.0
 11
4093.0
 21
-3575.4999999999968
 31
0.0
1001
ACDBBLOCKREPETAG
1070
     1
1071
       53
1005
1308C2
  0
LINE
  5
1308C3
  8
OBJECT
 10
4093.0
 20
-3575.4999999999968
 30
0.0
 11
4093.0
 21
-3466.4999999999968
 31
0.0
1001
ACDBBLOCKREPETAG
1070
     1
1071
       54
1005
1308C3
  0
LINE
  5
1308C4
  8
OBJECT
 10
4097.0
 20
-3461.9999999999968
 30
0.0
 11
4093.0
 21
-3466.4999999999968
 31
0.0
1001
ACDBBLOCKREPETAG
1070
     1
1071
       55
1005
1308C4
  0
LINE
  5
1308C5
  8
OBJECT
 10
4097.0
 20
-3579.9999999999968
 30
0.0
 11
4093.0
 21
-3575.4999999999968
 31
0.0
1001
ACDBBLOCKREPETAG
1070
     1
1071
       56
1005
1308C5
  0
LINE
  5
1308C6
  8
OBJECT
 10
4083.0
 20
-3458.9999999999968
 30
0.0
 11
4080.0
 21
-3458.9999999999968
 31
0.0
1001
ACDBBLOCKREPETAG
1070
     1
1071
       57
1005
1308C6
  0
ARC
  5
1308C7
  8
OBJECT
 10
4083.0
 20
-3461.9999999999968
 30
0.0
 40
3.0
 50
0.0
 51
90.0
1001
ACDBBLOCKREPETAG
1070
     1
1071
       58
1005
1308C7
  0
LINE
  5
1308C8
  8
OBJECT
 10
4080.0
 20
-3582.9999999999968
 30
0.0
 11
4083.0
 21
-3582.9999999999968
 31
0.0
1001
ACDBBLOCKREPETAG
1070
     1
1071
       59
1005
1308C8
  0
ARC
  5
1308C9
  8
OBJECT
 10
4083.0
 20
-3579.9999999999968
 30
0.0
 40
3.0
 50
270.0
 51
0.0
1001
ACDBBLOCKREPETAG
1070
     1
1071
       60
1005
1308C9
  0
LINE
  5
1308CA
  8
OBJECT
 10
4086.0
 20
-3579.9999999999968
 30
0.0
 11
4086.0
 21
-3461.9999999999968
 31
0.0
1001
ACDBBLOCKREPETAG
1070
     1
1071
       61
1005
1308CA
  0
LINE
  5
1308CB
  8
HIDDEN
 10
4088.0
 20
-3476.4999999999968
 30
0.0
 11
4088.0
 21
-3565.4999999999968
 31
0.0
1001
ACDBBLOCKREPETAG
1070
     1
1071
       63
1005
1308CB
  0
LINE
  5
1308CC
  8
OBJECT
 10
4133.0
 20
-3112.9999999999959
 30
0.0
 11
4140.0
 21
-3112.9999999999959
 31
0.0
1001
ACDBBLOCKREPETAG
1070
     1
1071
       47
1005
1308CC
  0
LINE
  5
1308CD
  8
OBJECT
 10
4140.0
 20
-3112.9999999999959
 30
0.0
 11
4140.0
 21
-3236.9999999999959
 31
0.0
1001
ACDBBLOCKREPETAG
1070
     1
1071
       48
1005
1308CD
  0
LINE
  5
1308CE
  8
OBJECT
 10
4140.0
 20
-3236.9999999999959
 30
0.0
 11
4133.0
 21
-3236.9999999999959
 31
0.0
1001
ACDBBLOCKREPETAG
1070
     1
1071
       49
1005
1308CE
  0
LINE
  5
1308CF
  8
OBJECT
 10
4133.0
 20
-3236.9999999999959
 30
0.0
 11
4133.0
 21
-3112.9999999999959
 31
0.0
1001
ACDBBLOCKREPETAG
1070
     1
1071
       50
1005
1308CF
  0
LINE
  5
1308D0
  8
CENTER
 10
4155.0
 20
-3174.9999999999959
 30
0.0
 11
4080.0
 21
-3174.9999999999959
 31
0.0
1001
ACDBBLOCKREPETAG
1070
     1
1071
       51
1005
1308D0
  0
LINE
  5
1308D1
  8
OBJECT
 10
4133.0
 20
-3115.9999999999959
 30
0.0
 11
4097.0
 21
-3115.9999999999959
 31
0.0
1001
ACDBBLOCKREPETAG
1070
     1
1071
       52
1005
1308D1
  0
LINE
  5
1308D2
  8
OBJECT
 10
4097.0
 20
-3115.9999999999959
 30
0.0
 11
4097.0
 21
-3233.9999999999959
 31
0.0
1001
ACDBBLOCKREPETAG
1070
     1
1071
       53
1005
1308D2
  0
LINE
  5
1308D3
  8
OBJECT
 10
4097.0
 20
-3233.9999999999959
 30
0.0
 11
4133.0
 21
-3233.9999999999959
 31
0.0
1001
ACDBBLOCKREPETAG
1070
     1
1071
       54
1005
1308D3
  0
LINE
  5
1308D4
  8
OBJECT
 10
4093.0
 20
-3120.4999999999959
 30
0.0
 11
4086.0
 21
-3120.4999999999959
 31
0.0
1001
ACDBBLOCKREPETAG
1070
     1
1071
       55
1005
1308D4
  0
LINE
  5
1308D5
  8
OBJECT
 10
4086.0
 20
-3229.4999999999959
 30
0.0
 11
4093.0
 21
-3229.4999999999959
 31
0.0
1001
ACDBBLOCKREPETAG
1070
     1
1071
       56
1005
1308D5
  0
LINE
  5
1308D6
  8
OBJECT
 10
4093.0
 20
-3229.4999999999959
 30
0.0
 11
4093.0
 21
-3120.4999999999959
 31
0.0
1001
ACDBBLOCKREPETAG
1070
     1
1071
       57
1005
1308D6
  0
LINE
  5
1308D7
  8
OBJECT
 10
4097.0
 20
-3115.9999999999959
 30
0.0
 11
4093.0
 21
-3120.4999999999959
 31
0.0
1001
ACDBBLOCKREPETAG
1070
     1
1071
       58
1005
1308D7
  0
LINE
  5
1308D8
  8
OBJECT
 10
4097.0
 20
-3233.9999999999959
 30
0.0
 11
4093.0
 21
-3229.4999999999959
 31
0.0
1001
ACDBBLOCKREPETAG
1070
     1
1071
       59
1005
1308D8
  0
LINE
  5
1308D9
  8
OBJECT
 10
4083.0
 20
-3112.9999999999959
 30
0.0
 11
4080.0
 21
-3112.9999999999959
 31
0.0
1001
ACDBBLOCKREPETAG
1070
     1
1071
       60
1005
1308D9
  0
ARC
  5
1308DA
  8
OBJECT
 10
4083.0
 20
-3115.9999999999959
 30
0.0
 40
3.0
 50
0.0
 51
90.0
1001
ACDBBLOCKREPETAG
1070
     1
1071
       61
1005
1308DA
  0
LINE
  5
1308DB
  8
OBJECT
 10
4080.0
 20
-3236.9999999999959
 30
0.0
 11
4083.0
 21
-3236.9999999999959
 31
0.0
1001
ACDBBLOCKREPETAG
1070
     1
1071
       62
1005
1308DB
  0
ARC
  5
1308DC
  8
OBJECT
 10
4083.0
 20
-3233.9999999999959
 30
0.0
 40
3.0
 50
270.0
 51
0.0
1001
ACDBBLOCKREPETAG
1070
     1
1071
       63
1005
1308DC
  0
LINE
  5
1308DD
  8
OBJECT
 10
4086.0
 20
-3233.9999999999959
 30
0.0
 11
4086.0
 21
-3115.9999999999959
 31
0.0
1001
ACDBBLOCKREPETAG
1070
     1
1071
       64
1005
1308DD
  0
LINE
  5
1308DE
  8
HIDDEN
 10
4088.0
 20
-3130.4999999999959
 30
0.0
 11
4088.0
 21
-3219.4999999999959
 31
0.0
1001
ACDBBLOCKREPETAG
1070
     1
1071
       65
1005
1308DE
  0
TEXT
  5
1308DF
  8
SLIM
 10
3894.25
 20
-3697.4999999999959
 30
0.0
 40
35.0
  1
通常枝75（3）
 41
0.75
  0
CIRCLE
  5
1308E0
  8
OBJECT
 10
3400.0
 20
-3527.9999999999968
 30
0.0
 40
35.5
1001
ACDBBLOCKREPETAG
1070
     1
1071
       10
1005
1308E0
  0
CIRCLE
  5
1308E1
  8
OBJECT
 10
3400.0
 20
-3520.9999999999968
 30
0.0
 40
62.0
1001
ACDBBLOCKREPETAG
1070
     1
1071
       11
1005
1308E1
  0
LINE
  5
1308E2
  8
CENTER
 10
3330.0
 20
-3527.9999999999968
 30
0.0
 11
3470.0
 21
-3527.9999999999968
 31
0.0
1001
ACDBBLOCKREPETAG
1070
     1
1071
       12
1005
1308E2
  0
CIRCLE
  5
1308E3
  8
OBJECT
 10
3400.0
 20
-3527.9999999999968
 30
0.0
 40
47.0
1001
ACDBBLOCKREPETAG
1070
     1
1071
       14
1005
1308E3
  0
ARC
  5
1308E4
  8
OBJECT
 10
3400.0
 20
-3527.9999999999968
 30
0.0
 40
55.0
 50
289.01126526011359
 51
250.98873473988641
1001
ACDBBLOCKREPETAG
1070
     1
1071
       15
1005
1308E4
  0
LINE
  5
1308E5
  8
OBJECT
 10
3382.0835271328328
 20
-3579.9999999999968
 30
0.0
 11
3417.9164728671681
 21
-3579.9999999999968
 31
0.0
1001
ACDBBLOCKREPETAG
1070
     1
1071
       16
1005
1308E5
  0
LINE
  5
1308E6
  8
OBJECT
 10
3133.0
 20
-3472.9999999999968
 30
0.0
 11
3140.0
 21
-3472.9999999999968
 31
0.0
1001
ACDBBLOCKREPETAG
1070
     1
1071
       26
1005
1308E6
  0
LINE
  5
1308E7
  8
OBJECT
 10
3140.0
 20
-3472.9999999999968
 30
0.0
 11
3140.0
 21
-3579.9999999999968
 31
0.0
1001
ACDBBLOCKREPETAG
1070
     1
1071
       27
1005
1308E7
  0
LINE
  5
1308E8
  8
OBJECT
 10
3133.0
 20
-3579.9999999999968
 30
0.0
 11
3133.0
 21
-3472.9999999999968
 31
0.0
1001
ACDBBLOCKREPETAG
1070
     1
1071
       28
1005
1308E8
  0
LINE
  5
1308E9
  8
CENTER
 10
3155.0
 20
-3527.9999999999968
 30
0.0
 11
3071.0
 21
-3527.9999999999968
 31
0.0
1001
ACDBBLOCKREPETAG
1070
     1
1071
       29
1005
1308E9
  0
LINE
  5
1308EA
  8
OBJECT
 10
3133.0
 20
-3475.9999999999968
 30
0.0
 11
3097.0
 21
-3475.9999999999968
 31
0.0
1001
ACDBBLOCKREPETAG
1070
     1
1071
       30
1005
1308EA
  0
LINE
  5
1308EB
  8
OBJECT
 10
3097.0
 20
-3475.9999999999968
 30
0.0
 11
3097.0
 21
-3579.9999999999968
 31
0.0
1001
ACDBBLOCKREPETAG
1070
     1
1071
       31
1005
1308EB
  0
LINE
  5
1308EC
  8
OBJECT
 10
3097.0
 20
-3579.9999999999968
 30
0.0
 11
3140.0
 21
-3579.9999999999968
 31
0.0
1001
ACDBBLOCKREPETAG
1070
     1
1071
       32
1005
1308EC
  0
LINE
  5
1308ED
  8
OBJECT
 10
3093.0
 20
-3480.4999999999968
 30
0.0
 11
3086.0
 21
-3480.4999999999968
 31
0.0
1001
ACDBBLOCKREPETAG
1070
     1
1071
       33
1005
1308ED
  0
LINE
  5
1308EE
  8
OBJECT
 10
3086.0
 20
-3575.4999999999968
 30
0.0
 11
3093.0
 21
-3575.4999999999968
 31
0.0
1001
ACDBBLOCKREPETAG
1070
     1
1071
       34
1005
1308EE
  0
LINE
  5
1308EF
  8
OBJECT
 10
3093.0
 20
-3575.4999999999968
 30
0.0
 11
3093.0
 21
-3480.4999999999968
 31
0.0
1001
ACDBBLOCKREPETAG
1070
     1
1071
       35
1005
1308EF
  0
LINE
  5
1308F0
  8
OBJECT
 10
3097.0
 20
-3475.9999999999968
 30
0.0
 11
3093.0
 21
-3480.4999999999968
 31
0.0
1001
ACDBBLOCKREPETAG
1070
     1
1071
       36
1005
1308F0
  0
LINE
  5
1308F1
  8
OBJECT
 10
3097.0
 20
-3579.9999999999968
 30
0.0
 11
3093.0
 21
-3575.4999999999968
 31
0.0
1001
ACDBBLOCKREPETAG
1070
     1
1071
       37
1005
1308F1
  0
LINE
  5
1308F2
  8
OBJECT
 10
3083.0
 20
-3458.9999999999968
 30
0.0
 11
3080.0
 21
-3458.9999999999968
 31
0.0
1001
ACDBBLOCKREPETAG
1070
     1
1071
       38
1005
1308F2
  0
ARC
  5
1308F3
  8
OBJECT
 10
3083.0
 20
-3461.9999999999968
 30
0.0
 40
3.0
 50
0.0
 51
90.0
1001
ACDBBLOCKREPETAG
1070
     1
1071
       39
1005
1308F3
  0
LINE
  5
1308F4
  8
OBJECT
 10
3080.0
 20
-3582.9999999999968
 30
0.0
 11
3083.0
 21
-3582.9999999999968
 31
0.0
1001
ACDBBLOCKREPETAG
1070
     1
1071
       40
1005
1308F4
  0
ARC
  5
1308F5
  8
OBJECT
 10
3083.0
 20
-3579.9999999999968
 30
0.0
 40
3.0
 50
270.0
 51
0.0
1001
ACDBBLOCKREPETAG
1070
     1
1071
       41
1005
1308F5
  0
LINE
  5
1308F6
  8
OBJECT
 10
3086.0
 20
-3579.9999999999968
 30
0.0
 11
3086.0
 21
-3461.9999999999968
 31
0.0
1001
ACDBBLOCKREPETAG
1070
     1
1071
       42
1005
1308F6
  0
LINE
  5
1308F7
  8
HIDDEN
 10
3088.0
 20
-3489.9999999999968
 30
0.0
 11
3088.0
 21
-3565.9999999999968
 31
0.0
1001
ACDBBLOCKREPETAG
1070
     1
1071
       43
1005
1308F7
  0
LINE
  5
1308F8
  8
OBJECT
 10
3133.0
 20
-3119.9999999999959
 30
0.0
 11
3140.0
 21
-3119.9999999999959
 31
0.0
1001
ACDBBLOCKREPETAG
1070
     1
1071
       27
1005
1308F8
  0
LINE
  5
1308F9
  8
OBJECT
 10
3140.0
 20
-3119.9999999999959
 30
0.0
 11
3140.0
 21
-3229.9999999999959
 31
0.0
1001
ACDBBLOCKREPETAG
1070
     1
1071
       28
1005
1308F9
  0
LINE
  5
1308FA
  8
OBJECT
 10
3140.0
 20
-3229.9999999999959
 30
0.0
 11
3133.0
 21
-3229.9999999999959
 31
0.0
1001
ACDBBLOCKREPETAG
1070
     1
1071
       29
1005
1308FA
  0
LINE
  5
1308FB
  8
OBJECT
 10
3133.0
 20
-3229.9999999999959
 30
0.0
 11
3133.0
 21
-3119.9999999999959
 31
0.0
1001
ACDBBLOCKREPETAG
1070
     1
1071
       30
1005
1308FB
  0
LINE
  5
1308FC
  8
CENTER
 10
3155.0
 20
-3174.9999999999959
 30
0.0
 11
3080.0
 21
-3174.9999999999959
 31
0.0
1001
ACDBBLOCKREPETAG
1070
     1
1071
       31
1005
1308FC
  0
LINE
  5
1308FD
  8
OBJECT
 10
3133.0
 20
-3122.9999999999959
 30
0.0
 11
3097.0
 21
-3122.9999999999959
 31
0.0
1001
ACDBBLOCKREPETAG
1070
     1
1071
       32
1005
1308FD
  0
LINE
  5
1308FE
  8
OBJECT
 10
3097.0
 20
-3122.9999999999959
 30
0.0
 11
3097.0
 21
-3226.9999999999959
 31
0.0
1001
ACDBBLOCKREPETAG
1070
     1
1071
       33
1005
1308FE
  0
LINE
  5
1308FF
  8
OBJECT
 10
3097.0
 20
-3226.9999999999959
 30
0.0
 11
3133.0
 21
-3226.9999999999959
 31
0.0
1001
ACDBBLOCKREPETAG
1070
     1
1071
       34
1005
1308FF
  0
LINE
  5
130900
  8
OBJECT
 10
3093.0
 20
-3127.4999999999959
 30
0.0
 11
3086.0
 21
-3127.4999999999959
 31
0.0
1001
ACDBBLOCKREPETAG
1070
     1
1071
       35
1005
130900
  0
LINE
  5
130901
  8
OBJECT
 10
3086.0
 20
-3222.4999999999959
 30
0.0
 11
3093.0
 21
-3222.4999999999959
 31
0.0
1001
ACDBBLOCKREPETAG
1070
     1
1071
       36
1005
130901
  0
LINE
  5
130902
  8
OBJECT
 10
3093.0
 20
-3222.4999999999959
 30
0.0
 11
3093.0
 21
-3127.4999999999959
 31
0.0
1001
ACDBBLOCKREPETAG
1070
     1
1071
       37
1005
130902
  0
LINE
  5
130903
  8
OBJECT
 10
3097.0
 20
-3122.9999999999959
 30
0.0
 11
3093.0
 21
-3127.4999999999959
 31
0.0
1001
ACDBBLOCKREPETAG
1070
     1
1071
       38
1005
130903
  0
LINE
  5
130904
  8
OBJECT
 10
3097.0
 20
-3226.9999999999959
 30
0.0
 11
3093.0
 21
-3222.4999999999959
 31
0.0
1001
ACDBBLOCKREPETAG
1070
     1
1071
       39
1005
130904
  0
LINE
  5
130905
  8
OBJECT
 10
3083.0
 20
-3112.9999999999959
 30
0.0
 11
3080.0
 21
-3112.9999999999959
 31
0.0
1001
ACDBBLOCKREPETAG
1070
     1
1071
       40
1005
130905
  0
ARC
  5
130906
  8
OBJECT
 10
3083.0
 20
-3115.9999999999959
 30
0.0
 40
3.0
 50
0.0
 51
90.0
1001
ACDBBLOCKREPETAG
1070
     1
1071
       41
1005
130906
  0
LINE
  5
130907
  8
OBJECT
 10
3080.0
 20
-3236.9999999999959
 30
0.0
 11
3083.0
 21
-3236.9999999999959
 31
0.0
1001
ACDBBLOCKREPETAG
1070
     1
1071
       42
1005
130907
  0
ARC
  5
130908
  8
OBJECT
 10
3083.0
 20
-3233.9999999999959
 30
0.0
 40
3.0
 50
270.0
 51
0.0
1001
ACDBBLOCKREPETAG
1070
     1
1071
       43
1005
130908
  0
LINE
  5
130909
  8
OBJECT
 10
3086.0
 20
-3233.9999999999959
 30
0.0
 11
3086.0
 21
-3115.9999999999959
 31
0.0
1001
ACDBBLOCKREPETAG
1070
     1
1071
       44
1005
130909
  0
LINE
  5
13090A
  8
HIDDEN
 10
3088.0
 20
-3136.9999999999959
 30
0.0
 11
3088.0
 21
-3212.9999999999959
 31
0.0
1001
ACDBBLOCKREPETAG
1070
     1
1071
       45
1005
13090A
  0
TEXT
  5
13090B
  8
SLIM
 10
2894.25
 20
-3697.4999999999959
 30
0.0
 40
35.0
  1
通常枝65（2）
 41
0.75
  0
CIRCLE
  5
13090C
  8
OBJECT
 10
2400.0
 20
-3520.9999999999968
 30
0.0
 40
62.0
1001
ACDBBLOCKREPETAG
1070
     1
1071
        3
1005
13090C
  0
LINE
  5
13090D
  8
CENTER
 10
2338.0
 20
-3535.9999999999968
 30
0.0
 11
2462.0
 21
-3535.9999999999968
 31
0.0
1001
ACDBBLOCKREPETAG
1070
     1
1071
        4
1005
13090D
  0
CIRCLE
  5
13090E
  8
OBJECT
 10
2400.0
 20
-3535.9999999999968
 30
0.0
 40
28.0
1001
ACDBBLOCKREPETAG
1070
     1
1071
        6
1005
13090E
  0
CIRCLE
  5
13090F
  8
OBJECT
 10
2400.0
 20
-3535.9999999999968
 30
0.0
 40
39.0
1001
ACDBBLOCKREPETAG
1070
     1
1071
        7
1005
13090F
  0
ARC
  5
130910
  8
OBJECT
 10
2400.0
 20
-3535.9999999999968
 30
0.0
 40
47.0
 50
290.58196921144412
 51
249.41803078855591
1001
ACDBBLOCKREPETAG
1070
     1
1071
        8
1005
130910
  0
LINE
  5
130911
  8
OBJECT
 10
2383.4772883581431
 20
-3579.9999999999968
 30
0.0
 11
2416.5227116418569
 21
-3579.9999999999968
 31
0.0
1001
ACDBBLOCKREPETAG
1070
     1
1071
        9
1005
130911
  0
LINE
  5
130912
  8
OBJECT
 10
2133.0
 20
-3488.9999999999968
 30
0.0
 11
2140.0
 21
-3488.9999999999968
 31
0.0
1001
ACDBBLOCKREPETAG
1070
     1
1071
        7
1005
130912
  0
LINE
  5
130913
  8
OBJECT
 10
2140.0
 20
-3488.9999999999968
 30
0.0
 11
2140.0
 21
-3579.9999999999968
 31
0.0
1001
ACDBBLOCKREPETAG
1070
     1
1071
        8
1005
130913
  0
LINE
  5
130914
  8
OBJECT
 10
2133.0
 20
-3579.9999999999968
 30
0.0
 11
2133.0
 21
-3488.9999999999968
 31
0.0
1001
ACDBBLOCKREPETAG
1070
     1
1071
        9
1005
130914
  0
LINE
  5
130915
  8
CENTER
 10
2155.0
 20
-3535.9999999999968
 30
0.0
 11
2071.0
 21
-3535.9999999999968
 31
0.0
1001
ACDBBLOCKREPETAG
1070
     1
1071
       10
1005
130915
  0
LINE
  5
130916
  8
OBJECT
 10
2133.0
 20
-3491.9999999999968
 30
0.0
 11
2097.0
 21
-3491.9999999999968
 31
0.0
1001
ACDBBLOCKREPETAG
1070
     1
1071
       11
1005
130916
  0
LINE
  5
130917
  8
OBJECT
 10
2097.0
 20
-3491.9999999999968
 30
0.0
 11
2097.0
 21
-3579.9999999999968
 31
0.0
1001
ACDBBLOCKREPETAG
1070
     1
1071
       12
1005
130917
  0
LINE
  5
130918
  8
OBJECT
 10
2097.0
 20
-3579.9999999999968
 30
0.0
 11
2140.0
 21
-3579.9999999999968
 31
0.0
1001
ACDBBLOCKREPETAG
1070
     1
1071
       13
1005
130918
  0
LINE
  5
130919
  8
OBJECT
 10
2093.0
 20
-3496.4999999999968
 30
0.0
 11
2086.0
 21
-3496.4999999999968
 31
0.0
1001
ACDBBLOCKREPETAG
1070
     1
1071
       14
1005
130919
  0
LINE
  5
13091A
  8
OBJECT
 10
2086.0
 20
-3575.4999999999968
 30
0.0
 11
2093.0
 21
-3575.4999999999968
 31
0.0
1001
ACDBBLOCKREPETAG
1070
     1
1071
       15
1005
13091A
  0
LINE
  5
13091B
  8
OBJECT
 10
2093.0
 20
-3575.4999999999968
 30
0.0
 11
2093.0
 21
-3496.4999999999968
 31
0.0
1001
ACDBBLOCKREPETAG
1070
     1
1071
       16
1005
13091B
  0
LINE
  5
13091C
  8
OBJECT
 10
2097.0
 20
-3491.9999999999968
 30
0.0
 11
2093.0
 21
-3496.4999999999968
 31
0.0
1001
ACDBBLOCKREPETAG
1070
     1
1071
       17
1005
13091C
  0
LINE
  5
13091D
  8
OBJECT
 10
2097.0
 20
-3579.9999999999968
 30
0.0
 11
2093.0
 21
-3575.4999999999968
 31
0.0
1001
ACDBBLOCKREPETAG
1070
     1
1071
       18
1005
13091D
  0
LINE
  5
13091E
  8
OBJECT
 10
2083.0
 20
-3458.9999999999968
 30
0.0
 11
2080.0
 21
-3458.9999999999968
 31
0.0
1001
ACDBBLOCKREPETAG
1070
     1
1071
       19
1005
13091E
  0
ARC
  5
13091F
  8
OBJECT
 10
2083.0
 20
-3461.9999999999968
 30
0.0
 40
3.0
 50
0.0
 51
90.0
1001
ACDBBLOCKREPETAG
1070
     1
1071
       20
1005
13091F
  0
LINE
  5
130920
  8
OBJECT
 10
2080.0
 20
-3582.9999999999968
 30
0.0
 11
2083.0
 21
-3582.9999999999968
 31
0.0
1001
ACDBBLOCKREPETAG
1070
     1
1071
       21
1005
130920
  0
ARC
  5
130921
  8
OBJECT
 10
2083.0
 20
-3579.9999999999968
 30
0.0
 40
3.0
 50
270.0
 51
0.0
1001
ACDBBLOCKREPETAG
1070
     1
1071
       22
1005
130921
  0
LINE
  5
130922
  8
OBJECT
 10
2086.0
 20
-3579.9999999999968
 30
0.0
 11
2086.0
 21
-3461.9999999999968
 31
0.0
1001
ACDBBLOCKREPETAG
1070
     1
1071
       23
1005
130922
  0
LINE
  5
130923
  8
HIDDEN
 10
2088.0
 20
-3505.9999999999968
 30
0.0
 11
2088.0
 21
-3565.9999999999968
 31
0.0
1001
ACDBBLOCKREPETAG
1070
     1
1071
       24
1005
130923
  0
LINE
  5
130924
  8
OBJECT
 10
2133.0
 20
-3127.9999999999959
 30
0.0
 11
2140.0
 21
-3127.9999999999959
 31
0.0
1001
ACDBBLOCKREPETAG
1070
     1
1071
        7
1005
130924
  0
LINE
  5
130925
  8
OBJECT
 10
2140.0
 20
-3127.9999999999959
 30
0.0
 11
2140.0
 21
-3221.9999999999959
 31
0.0
1001
ACDBBLOCKREPETAG
1070
     1
1071
        8
1005
130925
  0
LINE
  5
130926
  8
OBJECT
 10
2140.0
 20
-3221.9999999999959
 30
0.0
 11
2133.0
 21
-3221.9999999999959
 31
0.0
1001
ACDBBLOCKREPETAG
1070
     1
1071
        9
1005
130926
  0
LINE
  5
130927
  8
OBJECT
 10
2133.0
 20
-3221.9999999999959
 30
0.0
 11
2133.0
 21
-3127.9999999999959
 31
0.0
1001
ACDBBLOCKREPETAG
1070
     1
1071
       10
1005
130927
  0
LINE
  5
130928
  8
CENTER
 10
2155.0
 20
-3174.9999999999959
 30
0.0
 11
2080.0
 21
-3174.9999999999959
 31
0.0
1001
ACDBBLOCKREPETAG
1070
     1
1071
       11
1005
130928
  0
LINE
  5
130929
  8
OBJECT
 10
2133.0
 20
-3130.9999999999959
 30
0.0
 11
2097.0
 21
-3130.9999999999959
 31
0.0
1001
ACDBBLOCKREPETAG
1070
     1
1071
       12
1005
130929
  0
LINE
  5
13092A
  8
OBJECT
 10
2097.0
 20
-3130.9999999999959
 30
0.0
 11
2097.0
 21
-3218.9999999999959
 31
0.0
1001
ACDBBLOCKREPETAG
1070
     1
1071
       13
1005
13092A
  0
LINE
  5
13092B
  8
OBJECT
 10
2097.0
 20
-3218.9999999999959
 30
0.0
 11
2133.0
 21
-3218.9999999999959
 31
0.0
1001
ACDBBLOCKREPETAG
1070
     1
1071
       14
1005
13092B
  0
LINE
  5
13092C
  8
OBJECT
 10
2093.0
 20
-3135.4999999999959
 30
0.0
 11
2086.0
 21
-3135.4999999999959
 31
0.0
1001
ACDBBLOCKREPETAG
1070
     1
1071
       15
1005
13092C
  0
LINE
  5
13092D
  8
OBJECT
 10
2086.0
 20
-3214.4999999999959
 30
0.0
 11
2093.0
 21
-3214.4999999999959
 31
0.0
1001
ACDBBLOCKREPETAG
1070
     1
1071
       16
1005
13092D
  0
LINE
  5
13092E
  8
OBJECT
 10
2093.0
 20
-3214.4999999999959
 30
0.0
 11
2093.0
 21
-3135.4999999999959
 31
0.0
1001
ACDBBLOCKREPETAG
1070
     1
1071
       17
1005
13092E
  0
LINE
  5
13092F
  8
OBJECT
 10
2097.0
 20
-3130.9999999999959
 30
0.0
 11
2093.0
 21
-3135.4999999999959
 31
0.0
1001
ACDBBLOCKREPETAG
1070
     1
1071
       18
1005
13092F
  0
LINE
  5
130930
  8
OBJECT
 10
2097.0
 20
-3218.9999999999959
 30
0.0
 11
2093.0
 21
-3214.4999999999959
 31
0.0
1001
ACDBBLOCKREPETAG
1070
     1
1071
       19
1005
130930
  0
LINE
  5
130931
  8
OBJECT
 10
2083.0
 20
-3112.9999999999959
 30
0.0
 11
2080.0
 21
-3112.9999999999959
 31
0.0
1001
ACDBBLOCKREPETAG
1070
     1
1071
       20
1005
130931
  0
ARC
  5
130932
  8
OBJECT
 10
2083.0
 20
-3115.9999999999959
 30
0.0
 40
3.0
 50
0.0
 51
90.0
1001
ACDBBLOCKREPETAG
1070
     1
1071
       21
1005
130932
  0
LINE
  5
130933
  8
OBJECT
 10
2080.0
 20
-3236.9999999999959
 30
0.0
 11
2083.0
 21
-3236.9999999999959
 31
0.0
1001
ACDBBLOCKREPETAG
1070
     1
1071
       22
1005
130933
  0
ARC
  5
130934
  8
OBJECT
 10
2083.0
 20
-3233.9999999999959
 30
0.0
 40
3.0
 50
270.0
 51
0.0
1001
ACDBBLOCKREPETAG
1070
     1
1071
       23
1005
130934
  0
LINE
  5
130935
  8
OBJECT
 10
2086.0
 20
-3233.9999999999959
 30
0.0
 11
2086.0
 21
-3115.9999999999959
 31
0.0
1001
ACDBBLOCKREPETAG
1070
     1
1071
       24
1005
130935
  0
LINE
  5
130936
  8
HIDDEN
 10
2088.0
 20
-3144.9999999999959
 30
0.0
 11
2088.0
 21
-3204.9999999999959
 31
0.0
1001
ACDBBLOCKREPETAG
1070
     1
1071
       25
1005
130936
  0
TEXT
  5
130937
  8
SLIM
 10
1896.75
 20
-3697.4999999999959
 30
0.0
 40
35.0
  1
通常枝50（1）
 41
0.75
  0
LINE
  5
130938
  8
OBJECT
 10
3930.0
 20
-1079.999999999997
 30
0.0
 11
4070.0
 21
-1079.999999999997
 31
0.0
1001
ACDBBLOCKREPETAG
1070
     1
1071
        0
1005
130938
  0
LINE
  5
130939
  8
OBJECT
 10
3930.0
 20
-1079.999999999997
 30
0.0
 11
3930.0
 21
-839.99999999999704
 31
0.0
1001
ACDBBLOCKREPETAG
1070
     1
1071
        1
1005
130939
  0
LINE
  5
13093A
  8
OBJECT
 10
4070.0
 20
-1079.999999999997
 30
0.0
 11
4070.0
 21
-839.99999999999704
 31
0.0
1001
ACDBBLOCKREPETAG
1070
     1
1071
        2
1005
13093A
  0
LINE
  5
13093B
  8
OBJECT
 10
3930.0
 20
-839.99999999999704
 30
0.0
 11
4070.0
 21
-839.99999999999704
 31
0.0
1001
ACDBBLOCKREPETAG
1070
     1
1071
        3
1005
13093B
  0
LINE
  5
13093C
  8
HIDDEN
 10
3937.5
 20
-839.99999999999704
 30
0.0
 11
3937.5
 21
-1079.999999999997
 31
0.0
1001
ACDBBLOCKREPETAG
1070
     1
1071
        4
1005
13093C
  0
LINE
  5
13093D
  8
HIDDEN
 10
4062.5
 20
-839.99999999999704
 30
0.0
 11
4062.5
 21
-1079.999999999997
 31
0.0
1001
ACDBBLOCKREPETAG
1070
     1
1071
        5
1005
13093D
  0
LINE
  5
13093E
  8
CENTER
 10
4000.0
 20
-769.99999999999875
 30
0.0
 11
4000.0
 21
-1094.999999999997
 31
0.0
1001
ACDBBLOCKREPETAG
1070
     1
1071
        6
1005
13093E
  0
LINE
  5
13093F
  8
OBJECT
 10
3925.0
 20
-769.99999999999875
 30
0.0
 11
3925.0
 21
-799.99999999999693
 31
0.0
1001
ACDBBLOCKREPETAG
1070
     1
1071
        7
1005
13093F
  0
LINE
  5
130940
  8
OBJECT
 10
4075.0000000000032
 20
-769.99999999999875
 30
0.0
 11
4075.0
 21
-799.99999999999693
 31
0.0
1001
ACDBBLOCKREPETAG
1070
     1
1071
        8
1005
130940
  0
LINE
  5
130941
  8
OBJECT
 10
3925.0
 20
-799.99999999999693
 30
0.0
 11
4075.0
 21
-799.99999999999693
 31
0.0
1001
ACDBBLOCKREPETAG
1070
     1
1071
        9
1005
130941
  0
LINE
  5
130942
  8
OBJECT
 10
3925.0
 20
-799.99999999999693
 30
0.0
 11
3930.0
 21
-839.99999999999704
 31
0.0
1001
ACDBBLOCKREPETAG
1070
     1
1071
       10
1005
130942
  0
LINE
  5
130943
  8
OBJECT
 10
4070.0
 20
-839.99999999999704
 30
0.0
 11
4075.0
 21
-799.99999999999693
 31
0.0
1001
ACDBBLOCKREPETAG
1070
     1
1071
       11
1005
130943
  0
LINE
  5
130944
  8
OBJECT
 10
1930.0
 20
-1079.999999999998
 30
0.0
 11
2070.0
 21
-1079.999999999998
 31
0.0
1001
ACDBBLOCKREPETAG
1070
     1
1071
        0
1005
130944
  0
LINE
  5
130945
  8
OBJECT
 10
1930.0
 20
-1079.999999999998
 30
0.0
 11
1930.0
 21
-839.99999999999795
 31
0.0
1001
ACDBBLOCKREPETAG
1070
     1
1071
        1
1005
130945
  0
LINE
  5
130946
  8
OBJECT
 10
2070.0
 20
-1079.999999999998
 30
0.0
 11
2070.0
 21
-839.99999999999795
 31
0.0
1001
ACDBBLOCKREPETAG
1070
     1
1071
        2
1005
130946
  0
LINE
  5
130947
  8
OBJECT
 10
1930.0
 20
-839.99999999999795
 30
0.0
 11
2070.0
 21
-839.99999999999795
 31
0.0
1001
ACDBBLOCKREPETAG
1070
     1
1071
        3
1005
130947
  0
LINE
  5
130948
  8
HIDDEN
 10
1937.5
 20
-839.99999999999795
 30
0.0
 11
1937.5
 21
-1079.999999999998
 31
0.0
1001
ACDBBLOCKREPETAG
1070
     1
1071
        4
1005
130948
  0
LINE
  5
130949
  8
HIDDEN
 10
2062.5
 20
-839.99999999999795
 30
0.0
 11
2062.5
 21
-1079.999999999998
 31
0.0
1001
ACDBBLOCKREPETAG
1070
     1
1071
        5
1005
130949
  0
LINE
  5
13094A
  8
CENTER
 10
2000.0
 20
-769.99999999999955
 30
0.0
 11
2000.0
 21
-1094.999999999997
 31
0.0
1001
ACDBBLOCKREPETAG
1070
     1
1071
        6
1005
13094A
  0
LINE
  5
13094B
  8
OBJECT
 10
1925.0
 20
-769.99999999999955
 30
0.0
 11
1925.0
 21
-799.99999999999773
 31
0.0
1001
ACDBBLOCKREPETAG
1070
     1
1071
        7
1005
13094B
  0
LINE
  5
13094C
  8
OBJECT
 10
2075.0000000000041
 20
-769.99999999999955
 30
0.0
 11
2075.0
 21
-799.99999999999773
 31
0.0
1001
ACDBBLOCKREPETAG
1070
     1
1071
        8
1005
13094C
  0
LINE
  5
13094D
  8
OBJECT
 10
1925.0
 20
-799.99999999999773
 30
0.0
 11
2075.0
 21
-799.99999999999773
 31
0.0
1001
ACDBBLOCKREPETAG
1070
     1
1071
        9
1005
13094D
  0
LINE
  5
13094E
  8
OBJECT
 10
1925.0
 20
-799.99999999999773
 30
0.0
 11
1930.0
 21
-839.99999999999795
 31
0.0
1001
ACDBBLOCKREPETAG
1070
     1
1071
       10
1005
13094E
  0
LINE
  5
13094F
  8
OBJECT
 10
2070.0
 20
-839.99999999999795
 30
0.0
 11
2075.0
 21
-799.99999999999773
 31
0.0
1001
ACDBBLOCKREPETAG
1070
     1
1071
       11
1005
13094F
  0
TEXT
  5
130950
  8
SLIM
 10
3824.5999999999999
 20
-1408.999999999997
 30
0.0
 40
28.0
  1
※ 対応スラブ厚　180～200
 41
0.75
  0
TEXT
  5
130951
  8
SLIM
 10
3611.5
 20
-1502.3333333333301
 30
0.0
 40
28.0
  1
国土交通大臣認定・（財）日本消防設備安全センター性能評定取得品
 41
0.75
  0
TEXT
  5
130952
  8
SLIM
 10
3631.1000000000022
 20
-1548.999999999997
 30
0.0
 40
28.0
  1
注）ご採用にあたり、認定書及び評定書の内容をご確認ください。
 41
0.75
  0
TEXT
  5
130953
  8
SLIM
 10
3741.6250000000009
 20
-1347.499999999997
 30
0.0
 40
35.0
  1
片受けスタイル（S）＋シンドカット
 41
0.75
  0
TEXT
  5
130954
  8
SLIM
 10
1856.25
 20
-1347.499999999998
 30
0.0
 40
35.0
  1
片受けスタイル（S）
 41
0.75
  0
VIEWPORT
  5
F6BA7
 67
     1
  8
0
 10
145.33033752441401
 20
101.8328354358673
 30
0.0
 40
334.0025019414623
 41
222.19657968139651
 68
     1
 69
     1
1001
ACAD
1000
MVIEW
1002
{
1070
    16
1010
0.0
1020
0.0
1030
0.0
1010
0.0
1020
0.0
1030
1.0
1040
0.0
1040
222.19657968139651
1040
145.33033752441401
1040
101.8328354358673
1040
50.0
1040
0.0
1040
0.0
1070
     0
1070
     0
1070
     1
1070
     1
1070
     0
1070
     0
1070
     0
1070
     0
1040
0.0
1040
0.0
1040
0.0
1040
10.0
1040
10.0
1040
10.0
1040
10.0
1070
     0
1002
{
1002
}
1002
}
  0
VIEWPORT
  5
F6BA9
 67
     1
  8
OBJECT
 10
145.3303314447403
 20
101.8328338861465
 30
0.0
 40
232.5285303115844
 41
162.93253421783439
 68
     2
 69
     2
1001
ACAD
1000
MVIEW
1002
{
1070
    16
1010
0.0
1020
0.0
1030
0.0
1010
0.0
1020
0.0
1030
1.0
1040
0.0
1040
25942.55904403147
1040
2377.604457077377
1040
-7591.5176687056619
1040
50.0
1040
0.0
1040
0.0
1070
     0
1070
   600
1070
     1
1070
     1
1070
     0
1070
     0
1070
     0
1070
     0
1040
0.0
1040
0.0
1040
0.0
1040
1.0
1040
1.0
1040
0.0
1040
0.0
1070
     0
1002
{
1002
}
1002
}
  0
ENDSEC
  0
EOF
