  0
SECTION
  2
HEADER
  9
$ACADVER
  1
AC1009
  9
$INSBASE
 10
0.0
 20
0.0
 30
0.0
  9
$EXTMIN
 10
0.0
 20
-3697.4999999999968
 30
0.0
  9
$EXTMAX
 10
5575.0
 20
607.5
 30
0.0
  9
$LIMMIN
 10
0.0
 20
0.0
  9
$LIMMAX
 10
210.0
 20
297.0
  9
$ORTHOMODE
 70
     0
  9
$REGENMODE
 70
     1
  9
$FILLMODE
 70
     1
  9
$QTEXTMODE
 70
     0
  9
$MIRRTEXT
 70
     0
  9
$DRAGMODE
 70
     2
  9
$LTSCALE
 40
1.0
  9
$OSMODE
 70
   109
  9
$ATTMODE
 70
     1
  9
$TEXTSIZE
 40
4.0
  9
$TRACEWID
 40
0.05
  9
$TEXTSTYLE
  7
STANDARD
  9
$CLAYER
  8
OBJECT
  9
$CELTYPE
  6
BYLAYER
  9
$CECOLOR
 62
   256
  9
$DIMSCALE
 40
10.0
  9
$DIMASZ
 40
2.0
  9
$DIMEXO
 40
1.0
  9
$DIMDLI
 40
10.0
  9
$DIMRND
 40
0.0
  9
$DIMDLE
 40
0.0
  9
$DIMEXE
 40
1.0
  9
$DIMTP
 40
0.0
  9
$DIMTM
 40
0.0
  9
$DIMTXT
 40
3.2000000000000002
  9
$DIMCEN
 40
0.0
  9
$DIMTSZ
 40
0.0
  9
$DIMTOL
 70
     0
  9
$DIMLIM
 70
     0
  9
$DIMTIH
 70
     0
  9
$DIMTOH
 70
     0
  9
$DIMSE1
 70
     0
  9
$DIMSE2
 70
     0
  9
$DIMTAD
 70
     1
  9
$DIMZIN
 70
     8
  9
$DIMBLK
  1
OPEN30
  9
$DIMASO
 70
     1
  9
$DIMSHO
 70
     1
  9
$DIMPOST
  1

  9
$DIMAPOST
  1

  9
$DIMALT
 70
     0
  9
$DIMALTD
 70
     2
  9
$DIMALTF
 40
25.399999999999999
  9
$DIMLFAC
 40
1.0
  9
$DIMTOFL
 70
     1
  9
$DIMTVP
 40
0.0
  9
$DIMTIX
 70
     0
  9
$DIMSOXD
 70
     0
  9
$DIMSAH
 70
     0
  9
$DIMBLK1
  1

  9
$DIMBLK2
  1

  9
$DIMSTYLE
  2
S10
  9
$DIMCLRD
 70
   256
  9
$DIMCLRE
 70
   256
  9
$DIMCLRT
 70
   256
  9
$DIMTFAC
 40
1.0
  9
$DIMGAP
 40
0.9
  9
$LUNITS
 70
     2
  9
$LUPREC
 70
     2
  9
$SKETCHINC
 40
0.1
  9
$FILLETRAD
 40
0.0
  9
$AUNITS
 70
     0
  9
$AUPREC
 70
     2
  9
$MENU
  1
ACAD
  9
$ELEVATION
 40
0.0
  9
$PELEVATION
 40
0.0
  9
$THICKNESS
 40
0.0
  9
$LIMCHECK
 70
     0
  9
$BLIPMODE
 70
     0
  9
$CHAMFERA
 40
2.0
  9
$CHAMFERB
 40
2.0
  9
$SKPOLY
 70
     0
  9
$TDCREATE
 40
2453095.4929404748
  9
$TDUPDATE
 40
2456688.4035253362
  9
$TDINDWG
 40
18.349716990699999
  9
$TDUSRTIMER
 40
18.349716446799999
  9
$USRTIMER
 70
     1
  9
$ANGBASE
 50
0.0
  9
$ANGDIR
 70
     0
  9
$PDMODE
 70
    35
  9
$PDSIZE
 40
2.0
  9
$PLINEWID
 40
0.0
  9
$COORDS
 70
     1
  9
$SPLFRAME
 70
     0
  9
$SPLINETYPE
 70
     6
  9
$SPLINESEGS
 70
     8
  9
$ATTDIA
 70
     0
  9
$ATTREQ
 70
     1
  9
$HANDLING
 70
     1
  9
$HANDSEED
  5
12EC13
  9
$SURFTAB1
 70
     6
  9
$SURFTAB2
 70
     6
  9
$SURFTYPE
 70
     6
  9
$SURFU
 70
     6
  9
$SURFV
 70
     6
  9
$UCSNAME
  2

  9
$UCSORG
 10
0.0
 20
0.0
 30
0.0
  9
$UCSXDIR
 10
1.0
 20
0.0
 30
0.0
  9
$UCSYDIR
 10
0.0
 20
1.0
 30
0.0
  9
$PUCSNAME
  2

  9
$PUCSORG
 10
0.0
 20
0.0
 30
0.0
  9
$PUCSXDIR
 10
1.0
 20
0.0
 30
0.0
  9
$PUCSYDIR
 10
0.0
 20
1.0
 30
0.0
  9
$USERI1
 70
     0
  9
$USERI2
 70
     0
  9
$USERI3
 70
     0
  9
$USERI4
 70
     0
  9
$USERI5
 70
     0
  9
$USERR1
 40
0.0
  9
$USERR2
 40
0.0
  9
$USERR3
 40
0.0
  9
$USERR4
 40
0.0
  9
$USERR5
 40
0.0
  9
$WORLDVIEW
 70
     1
  9
$SHADEDGE
 70
     3
  9
$SHADEDIF
 70
    70
  9
$TILEMODE
 70
     1
  9
$MAXACTVP
 70
    64
  9
$PLIMCHECK
 70
     0
  9
$PEXTMIN
 10
29.066066288948051
 20
20.366566777229309
 30
0.0
  9
$PEXTMAX
 10
261.5945966005325
 20
183.29910099506381
 30
0.0
  9
$PLIMMIN
 10
-3.17498779296875
 20
-3.1749999523162842
  9
$PLIMMAX
 10
293.83566284179687
 20
206.8406708240509
  9
$UNITMODE
 70
     0
  9
$VISRETAIN
 70
     1
  9
$PLINEGEN
 70
     0
  9
$PSLTSCALE
 70
     1
  0
ENDSEC
  0
SECTION
  2
TABLES
  0
TABLE
  2
VPORT
 70
     1
  0
VPORT
  2
*ACTIVE
 70
     0
 10
0.0
 20
0.0
 11
1.0
 21
1.0
 12
4259.1992526885488
 22
-1109.1632616615691
 13
0.0
 23
0.0
 14
1.0
 24
1.0
 15
0.0
 25
0.0
 16
0.0
 26
0.0
 36
1.0
 17
0.0
 27
0.0
 37
0.0
 40
8600.6514918419052
 41
1.6644562334217501
 42
50.0
 43
0.0
 44
0.0
 50
0.0
 51
0.0
 71
     0
 72
   600
 73
     1
 74
     1
 75
     0
 76
     0
 77
     0
 78
     0
  0
ENDTAB
  0
TABLE
  2
LTYPE
 70
     4
  0
LTYPE
  2
CONTINUOUS
 70
     0
  3
Solid line
 72
    65
 73
     0
 40
0.0
  0
LTYPE
  2
PHANTOM2
 70
     0
  3
___ _ _ ___ _ _ ___ _ _ ___ _ _
 72
    65
 73
     6
 40
1.25
 49
0.625
 49
-0.125
 49
0.125
 49
-0.125
 49
0.125
 49
-0.125
  0
LTYPE
  2
ACAD_ISO08W100
 70
     0
  3
ISO long-dash short-dash ____ __ ____ __ ____ _
 72
    65
 73
     4
 40
36.0
 49
24.0
 49
-3.0
 49
6.0
 49
-3.0
  0
LTYPE
  2
ACAD_ISO02W100
 70
     0
  3
ISO dash __ __ __ __ __ __ __ __ __ __ __ __ __
 72
    65
 73
     2
 40
15.0
 49
12.0
 49
-3.0
  0
ENDTAB
  0
TABLE
  2
LAYER
 70
     8
  0
LAYER
  2
0
 70
     0
 62
     7
  6
CONTINUOUS
  0
LAYER
  2
OBJECT
 70
     0
 62
     4
  6
CONTINUOUS
  0
LAYER
  2
DEFPOINTS
 70
     0
 62
     7
  6
CONTINUOUS
  0
LAYER
  2
DIM
 70
     0
 62
     7
  6
CONTINUOUS
  0
LAYER
  2
HIDDEN
 70
     0
 62
     2
  6
ACAD_ISO02W100
  0
LAYER
  2
CENTER
 70
     0
 62
     2
  6
ACAD_ISO08W100
  0
LAYER
  2
DOTS
 70
     0
 62
     1
  6
CONTINUOUS
  0
LAYER
  2
SLIM
 70
     0
 62
     2
  6
CONTINUOUS
  0
ENDTAB
  0
TABLE
  2
STYLE
 70
     2
  0
STYLE
  2
STANDARD
 70
     0
 40
0.0
 41
0.75
 50
0.0
 71
     0
 42
4.0
  3
simplex.shx
  4
bigfont.shx
  0
ENDTAB
  0
TABLE
  2
VIEW
 70
     0
  0
ENDTAB
  0
TABLE
  2
UCS
 70
     0
  0
ENDTAB
  0
TABLE
  2
APPID
 70
    18
  0
APPID
  2
ACAD
 70
     0
  0
APPID
  2
ACADANNOTATIVE
 70
     0
  0
APPID
  2
ACAD_PSEXT
 70
     0
  0
APPID
  2
ACAD_EXEMPT_FROM_CAD_STANDARDS
 70
     0
  0
APPID
  2
ACAECLAYERSTANDARD
 70
     0
  0
APPID
  2
ACAUTHENVIRON
 70
     0
  0
APPID
  2
ACDBDYNAMICBLOCKTRUENAME
 70
     0
  0
APPID
  2
ACDBDYNAMICBLOCKGUID
 70
     0
  0
APPID
  2
ACDBBLOCKREPETAG
 70
     0
  0
APPID
  2
ACDBBLOCKREPBTAG
 70
     0
  0
APPID
  2
ACAD_NAV_VCDISPLAY
 70
     0
  0
APPID
  2
ACAD_DSTYLE_DIMRADIAL_EXTENSION
 70
     0
  0
APPID
  2
ACAD_DSTYLE_DIMJAG
 70
     0
  0
APPID
  2
ACAD_DSTYLE_DIMTALN
 70
     0
  0
APPID
  2
ACADANNOPO
 70
     0
  0
APPID
  2
GRADIENTCOLOR1ACI
 70
     0
  0
APPID
  2
GRADIENTCOLOR2ACI
 70
     0
  0
APPID
  2
ACAD_MLEADERVER
 70
     0
  0
ENDTAB
  0
TABLE
  2
DIMSTYLE
 70
     3
  0
DIMSTYLE
  2
STANDARD
 70
     0
  3

  4

  5

  6

  7

 40
1.0
 41
0.18
 42
0.0625
 43
0.38
 44
0.18
 45
0.0
 46
0.0
 47
0.0
 48
0.0
140
0.18
141
0.09
142
0.0
143
25.399999999999999
144
1.0
145
0.0
146
1.0
147
0.09
 71
     0
 72
     0
 73
     1
 74
     1
 75
     0
 76
     0
 77
     0
 78
     0
170
     0
171
     2
172
     0
173
     0
174
     0
175
     0
176
     0
177
     0
178
     0
  0
DIMSTYLE
  2
S10
 70
     0
  3

  4

  5

  6

  7

 40
10.0
 41
2.0
 42
1.0
 43
10.0
 44
1.0
 45
0.0
 46
0.0
 47
0.0
 48
0.0
140
3.2000000000000002
141
0.0
142
0.0
143
25.399999999999999
144
1.0
145
0.0
146
1.0
147
0.9
 71
     0
 72
     0
 73
     0
 74
     0
 75
     0
 76
     0
 77
     1
 78
     8
170
     0
171
     2
172
     1
173
     0
174
     0
175
     0
176
   256
177
   256
178
   256
  0
ENDTAB
  0
ENDSEC
  0
SECTION
  2
BLOCKS
  0
BLOCK
  8
0
  2
$MODEL_SPACE
 70
     0
 10
0.0
 20
0.0
 30
0.0
  3
$MODEL_SPACE
  1

  0
ENDBLK
  5
12EB63
  8
0
  0
BLOCK
 67
     1
  8
0
  2
$PAPER_SPACE
 70
     0
 10
0.0
 20
0.0
 30
0.0
  3
$PAPER_SPACE
  1

  0
ENDBLK
  5
12EB5F
 67
     1
  8
0
  0
BLOCK
  8
0
  2
_OPEN30
 70
     0
 10
0.0
 20
0.0
 30
0.0
  3
_OPEN30
  1

  0
LINE
  5
202
  8
0
  6
BYBLOCK
 62
     0
 10
-1.0
 20
0.26794919
 30
0.0
 11
0.0
 21
0.0
 31
0.0
  0
LINE
  5
203
  8
0
  6
BYBLOCK
 62
     0
 10
0.0
 20
0.0
 30
0.0
 11
-1.0
 21
-0.26794919
 31
0.0
  0
LINE
  5
204
  8
0
  6
BYBLOCK
 62
     0
 10
0.0
 20
0.0
 30
0.0
 11
-1.0
 21
0.0
 31
0.0
  0
ENDBLK
  5
206
  8
0
  0
BLOCK
  8
0
  2
*U3
 70
     1
 10
0.0
 20
0.0
 30
0.0
  3
*U3
  1

  0
TEXT
  5
12EAB3
  8
SLIM
 10
198.9523809523825
 20
-688.0
 30
0.0
 40
26.0
  1
75
  0
ENDBLK
  5
12EAB5
  8
0
  0
BLOCK
  8
0
  2
*U4
 70
     1
 10
0.0
 20
0.0
 30
0.0
  3
*U4
  1

  0
TEXT
  5
12EAB7
  8
SLIM
 10
186.5714285714302
 20
-987.99999999998545
 30
0.0
 40
26.0
  1
75Z
  0
ENDBLK
  5
12EAB9
  8
0
  0
BLOCK
  8
0
  2
*U5
 70
     1
 10
0.0
 20
0.0
 30
0.0
  3
*U5
  1

  0
TEXT
  5
12EABB
  8
SLIM
 10
198.95238095238261
 20
-108.0
 30
0.0
 40
26.0
  1
50
  0
ENDBLK
  5
12EABD
  8
0
  0
BLOCK
  8
0
  2
*U6
 70
     1
 10
0.0
 20
0.0
 30
0.0
  3
*U6
  1

  0
TEXT
  5
12EABF
  8
SLIM
 10
186.5714285714302
 20
-407.99999999998528
 30
0.0
 40
26.0
  1
75Z
  0
ENDBLK
  5
12EAC1
  8
0
  0
BLOCK
  8
0
  2
*U7
 70
     1
 10
0.0
 20
0.0
 30
0.0
  3
*U7
  1

  0
TEXT
  5
12EAC3
  8
SLIM
 10
648.95238095238255
 20
-108.0
 30
0.0
 40
26.0
  1
65
  0
ENDBLK
  5
12EAC5
  8
0
  0
BLOCK
  8
0
  2
*U8
 70
     1
 10
0.0
 20
0.0
 30
0.0
  3
*U8
  1

  0
TEXT
  5
12EAC7
  8
SLIM
 10
636.57142857143015
 20
-407.99999999998528
 30
0.0
 40
26.0
  1
75Z
  0
ENDBLK
  5
12EAC9
  8
0
  0
BLOCK
  8
0
  2
*U9
 70
     1
 10
0.0
 20
0.0
 30
0.0
  3
*U9
  1

  0
TEXT
  5
12EACB
  8
SLIM
 10
639.04761904762063
 20
-680.75
 30
0.0
 40
26.0
  1
100
  0
ENDBLK
  5
12EACD
  8
0
  0
BLOCK
  8
0
  2
*U10
 70
     1
 10
0.0
 20
0.0
 30
0.0
  3
*U10
  1

  0
TEXT
  5
12EACF
  8
SLIM
 10
636.57142857143015
 20
-987.99999999998545
 30
0.0
 40
26.0
  1
75Z
  0
ENDBLK
  5
12EAD1
  8
0
  0
BLOCK
  8
0
  2
*U11
 70
     1
 10
0.0
 20
0.0
 30
0.0
  3
*U11
  1

  0
TEXT
  5
12EAE7
  8
DIM
 10
2209.479620594459
 20
-3184.1428571428528
 30
0.0
 40
32.0
  1
A
 50
90.0
 41
0.75
  0
ENDBLK
  5
12EAE9
  8
0
  0
BLOCK
  8
0
  2
*U12
 70
     1
 10
0.0
 20
0.0
 30
0.0
  3
*U12
  1

  0
TEXT
  5
12EAEB
  8
DIM
 10
2207.8409284037348
 20
-3565.9999999999959
 30
0.0
 40
32.0
  1
B
 50
90.0
 41
0.75
  0
ENDBLK
  5
12EAED
  8
0
  0
BLOCK
  8
0
  2
*U13
 70
     1
 10
0.0
 20
0.0
 30
0.0
  3
*U13
  1

  0
TEXT
  5
12EAEF
  8
DIM
 10
2061.428571428572
 20
-3038.208121984444
 30
0.0
 40
32.0
  1
C
 41
0.75
  0
ENDBLK
  5
12EAF1
  8
0
  0
ENDSEC
  0
SECTION
  2
ENTITIES
  0
LINE
  5
12515F
  8
OBJECT
 10
1825.0
 20
-3579.9999999999959
 30
0.0
 11
5575.0
 21
-3579.9999999999959
 31
0.0
  0
LINE
  5
125161
  8
SLIM
 10
2616.0
 20
-2637.50001604727
 30
0.0
 11
2616.0
 21
-2967.50001604727
 31
0.0
  0
LINE
  5
125162
  8
SLIM
 10
2740.0
 20
-2637.50001604727
 30
0.0
 11
2740.0
 21
-2967.50001604727
 31
0.0
  0
LINE
  5
125163
  8
SLIM
 10
2870.0
 20
-2697.50001604727
 30
0.0
 11
2870.0
 21
-2967.50001604727
 31
0.0
  0
LINE
  5
125164
  8
SLIM
 10
3000.0
 20
-2697.50001604727
 30
0.0
 11
3000.0
 21
-2967.50001604727
 31
0.0
  0
LINE
  5
125165
  8
SLIM
 10
3130.0
 20
-2967.50001604727
 30
0.0
 11
3130.0
 21
-2697.50001604727
 31
0.0
  0
LINE
  5
125166
  8
SLIM
 10
3260.0
 20
-2967.50001604727
 30
0.0
 11
3260.0
 21
-2637.50001604727
 31
0.0
  0
LINE
  5
125167
  8
SLIM
 10
3260.0
 20
-2637.50001604727
 30
0.0
 11
2616.0
 21
-2637.50001604727
 31
0.0
  0
LINE
  5
125168
  8
SLIM
 10
3260.0
 20
-2697.50001604727
 30
0.0
 11
2740.0
 21
-2697.50001604727
 31
0.0
  0
LINE
  5
125169
  8
SLIM
 10
3260.0
 20
-2757.50001604727
 30
0.0
 11
2616.0
 21
-2757.50001604727
 31
0.0
  0
LINE
  5
12516A
  8
SLIM
 10
3260.0
 20
-2827.50001604727
 30
0.0
 11
2616.0
 21
-2827.50001604727
 31
0.0
  0
LINE
  5
12516B
  8
SLIM
 10
3260.0
 20
-2897.50001604727
 30
0.0
 11
2616.0
 21
-2897.50001604727
 31
0.0
  0
LINE
  5
12516C
  8
SLIM
 10
3260.0
 20
-2967.50001604727
 30
0.0
 11
2616.0
 21
-2967.50001604727
 31
0.0
  0
LINE
  5
125181
  8
SLIM
 10
2740.0
 20
-2757.50001604727
 30
0.0
 11
2615.9999722746579
 21
-2637.5
 31
0.0
  0
LINE
  5
1251B6
  8
OBJECT
 10
5323.0
 20
-3395.9999999999968
 30
0.0
 11
5323.0
 21
-3374.9999999999968
 31
0.0
1001
ACDBBLOCKREPETAG
1070
     1
1071
       20
1005
1251B6
  0
LINE
  5
1251B7
  8
OBJECT
 10
5323.0
 20
-3374.9999999999968
 30
0.0
 11
5477.0
 21
-3374.9999999999968
 31
0.0
1001
ACDBBLOCKREPETAG
1070
     1
1071
       21
1005
1251B7
  0
LINE
  5
1251B8
  8
HIDDEN
 10
5343.0
 20
-3444.9999999999968
 30
0.0
 11
5457.0
 21
-3444.9999999999968
 31
0.0
1001
ACDBBLOCKREPETAG
1070
     1
1071
       22
1005
1251B8
  0
LINE
  5
1251B9
  8
OBJECT
 10
5477.0
 20
-3374.9999999999968
 30
0.0
 11
5477.0
 21
-3395.9999999999968
 31
0.0
1001
ACDBBLOCKREPETAG
1070
     1
1071
       23
1005
1251B9
  0
LINE
  5
1251BA
  8
OBJECT
 10
5477.0
 20
-3395.9999999999968
 30
0.0
 11
5323.0
 21
-3395.9999999999968
 31
0.0
1001
ACDBBLOCKREPETAG
1070
     1
1071
       24
1005
1251BA
  0
LINE
  5
1251BB
  8
CENTER
 10
5400.0
 20
-3359.9999999999968
 30
0.0
 11
5400.0
 21
-3594.9999999999968
 31
0.0
1001
ACDBBLOCKREPETAG
1070
     1
1071
       25
1005
1251BB
  0
LINE
  5
1251BC
  8
OBJECT
 10
5325.0
 20
-3458.9999999999968
 30
0.0
 11
5325.0
 21
-3582.9999999999968
 31
0.0
1001
ACDBBLOCKREPETAG
1070
     1
1071
       26
1005
1251BC
  0
LINE
  5
1251BD
  8
OBJECT
 10
5328.0
 20
-3395.9999999999968
 30
0.0
 11
5328.0
 21
-3458.9999999999968
 31
0.0
1001
ACDBBLOCKREPETAG
1070
     1
1071
       27
1005
1251BD
  0
LINE
  5
1251BE
  8
OBJECT
 10
5472.0
 20
-3458.9999999999968
 30
0.0
 11
5472.0
 21
-3395.9999999999968
 31
0.0
1001
ACDBBLOCKREPETAG
1070
     1
1071
       28
1005
1251BE
  0
LINE
  5
1251BF
  8
OBJECT
 10
5475.0
 20
-3458.9999999999968
 30
0.0
 11
5456.7802782663139
 21
-3458.9999999999968
 31
0.0
1001
ACDBBLOCKREPETAG
1070
     1
1071
       30
1005
1251BF
  0
LINE
  5
1251C0
  8
OBJECT
 10
5475.0
 20
-3458.9999999999968
 30
0.0
 11
5475.0
 21
-3582.9999999999968
 31
0.0
1001
ACDBBLOCKREPETAG
1070
     1
1071
       34
1005
1251C0
  0
POINT
  5
1251C1
  8
DOTS
 10
5400.0
 20
-3579.9999999999968
 30
0.0
1001
ACDBBLOCKREPETAG
1070
     1
1071
      187
1005
1251C1
  0
LINE
  5
1251C2
  8
CENTER
 10
5310.0
 20
-3507.9999999999968
 30
0.0
 11
5490.0
 21
-3507.9999999999968
 31
0.0
1001
ACDBBLOCKREPETAG
1070
     1
1071
       23
1005
1251C2
  0
CIRCLE
  5
1251C3
  8
OBJECT
 10
5400.0
 20
-3507.9999999999968
 30
0.0
 40
53.5
1001
ACDBBLOCKREPETAG
1070
     1
1071
       24
1005
1251C3
  0
CIRCLE
  5
1251C4
  8
OBJECT
 10
5400.0
 20
-3507.9999999999968
 30
0.0
 40
67.0
1001
ACDBBLOCKREPETAG
1070
     1
1071
       25
1005
1251C4
  0
ARC
  5
1251C5
  8
OBJECT
 10
5400.0
 20
-3507.9999999999968
 30
0.0
 40
75.0
 50
286.26020470824369
 51
253.73979529175631
1001
ACDBBLOCKREPETAG
1070
     1
1071
       27
1005
1251C5
  0
LINE
  5
1251C6
  8
OBJECT
 10
5379.0
 20
-3579.9999999999968
 30
0.0
 11
5421.0
 21
-3579.9999999999968
 31
0.0
1001
ACDBBLOCKREPETAG
1070
     1
1071
       28
1005
1251C6
  0
LINE
  5
1251C7
  8
OBJECT
 10
5343.2197217336861
 20
-3458.9999999999968
 30
0.0
 11
5325.0
 21
-3458.9999999999968
 31
0.0
1001
ACDBBLOCKREPETAG
1070
     1
1071
       30
1005
1251BF
  0
TEXT
  5
12AED7
  8
SLIM
 10
-0.0000000000000011
 20
282.5
 30
0.0
 40
35.0
  1
※ 100枝（4）がある場合、品名の最後に【管底】が付きます。
 41
0.9
 11
0.0
 21
300.0
 31
0.0
 73
     2
  0
TEXT
  5
12E3D0
  8
SLIM
 10
43.928571428572042
 20
-555.0
 30
0.0
 40
60.0
  1
Z106-P110
 41
0.75
 72
     4
 11
225.0000000000006
 21
-525.0
 31
0.0
  0
TEXT
  5
12E3D1
  8
SLIM
 10
39.64285714285711
 20
-1135.0
 30
0.0
 40
60.0
  1
Z306-P110
 41
0.75
 72
     4
 11
225.0
 21
-1105.0
 31
0.0
  0
TEXT
  5
12E3D2
  8
SLIM
 10
489.64285714285711
 20
-555.0
 30
0.0
 40
60.0
  1
Z206-P110
 41
0.75
 72
     4
 11
675.0
 21
-525.0
 31
0.0
  0
TEXT
  5
12E3D3
  8
SLIM
 10
489.64285714285711
 20
-1135.0
 30
0.0
 40
60.0
  1
Z406-P110
 41
0.75
 72
     4
 11
675.0
 21
-1105.0
 31
0.0
  0
LINE
  5
12E6B8
  8
OBJECT
 10
3923.0
 20
-570.9999999999925
 30
0.0
 11
3923.0
 21
-549.9999999999925
 31
0.0
1001
ACDBBLOCKREPETAG
1070
     1
1071
       36
1005
12E6B8
  0
LINE
  5
12E6B9
  8
OBJECT
 10
3923.0
 20
-549.9999999999925
 30
0.0
 11
4077.0
 21
-549.9999999999925
 31
0.0
1001
ACDBBLOCKREPETAG
1070
     1
1071
       37
1005
12E6B9
  0
LINE
  5
12E6BA
  8
HIDDEN
 10
3943.0
 20
-619.99999999999227
 30
0.0
 11
4057.0
 21
-619.99999999999227
 31
0.0
1001
ACDBBLOCKREPETAG
1070
     1
1071
       38
1005
12E6BA
  0
LINE
  5
12E6BB
  8
OBJECT
 10
4077.0
 20
-549.9999999999925
 30
0.0
 11
4077.0
 21
-570.9999999999925
 31
0.0
1001
ACDBBLOCKREPETAG
1070
     1
1071
       39
1005
12E6BB
  0
LINE
  5
12E6BC
  8
OBJECT
 10
4077.0
 20
-570.9999999999925
 30
0.0
 11
3923.0
 21
-570.9999999999925
 31
0.0
1001
ACDBBLOCKREPETAG
1070
     1
1071
       40
1005
12E6BC
  0
LINE
  5
12E6BD
  8
CENTER
 10
4000.0
 20
-534.9999999999925
 30
0.0
 11
4000.0
 21
-769.9999999999925
 31
0.0
1001
ACDBBLOCKREPETAG
1070
     1
1071
       41
1005
12E6BD
  0
LINE
  5
12E6BE
  8
OBJECT
 10
3928.0
 20
-570.9999999999925
 30
0.0
 11
3928.0
 21
-633.9999999999925
 31
0.0
1001
ACDBBLOCKREPETAG
1070
     1
1071
       42
1005
12E6BE
  0
LINE
  5
12E6BF
  8
OBJECT
 10
4072.0
 20
-633.9999999999925
 30
0.0
 11
4072.0
 21
-570.9999999999925
 31
0.0
1001
ACDBBLOCKREPETAG
1070
     1
1071
       43
1005
12E6BF
  0
LINE
  5
12E6C0
  8
OBJECT
 10
3920.0
 20
-757.9999999999925
 30
0.0
 11
4080.0
 21
-757.9999999999925
 31
0.0
1001
ACDBBLOCKREPETAG
1070
     1
1071
       44
1005
12E6C0
  0
LINE
  5
12E6C1
  8
OBJECT
 10
4080.0
 20
-633.9999999999925
 30
0.0
 11
3920.0
 21
-633.9999999999925
 31
0.0
1001
ACDBBLOCKREPETAG
1070
     1
1071
       45
1005
12E6C1
  0
LINE
  5
12E6C2
  8
OBJECT
 10
3920.0
 20
-757.9999999999925
 30
0.0
 11
3920.0
 21
-769.9999999999925
 31
0.0
1001
ACDBBLOCKREPETAG
1070
     1
1071
       46
1005
12E6C2
  0
LINE
  5
12E6C3
  8
OBJECT
 10
3920.0
 20
-769.9999999999925
 30
0.0
 11
4080.0
 21
-769.9999999999925
 31
0.0
1001
ACDBBLOCKREPETAG
1070
     1
1071
       47
1005
12E6C3
  0
LINE
  5
12E6C4
  8
OBJECT
 10
4080.0
 20
-769.9999999999925
 30
0.0
 11
4080.0
 21
-757.9999999999925
 31
0.0
1001
ACDBBLOCKREPETAG
1070
     1
1071
       48
1005
12E6C4
  0
ARC
  5
12E6C5
  8
OBJECT
 10
4200.6872746716726
 20
-749.40809941010014
 30
0.0
 40
170.6350503965856
 50
137.44134459184301
 51
149.91949581337221
1001
ACDBBLOCKREPETAG
1070
     1
1071
       52
1005
12E6C5
  0
ARC
  5
12E6C6
  8
OBJECT
 10
4200.6872746716726
 20
-642.59190058988474
 30
0.0
 40
170.6350503965856
 50
210.08050418662771
 51
222.55865540815699
1001
ACDBBLOCKREPETAG
1070
     1
1071
       53
1005
12E6C6
  0
ARC
  5
12E6C7
  8
OBJECT
 10
3799.3127253283278
 20
-749.40809941010014
 30
0.0
 40
170.6350503965856
 50
30.080504186774089
 51
42.558655408456282
1001
ACDBBLOCKREPETAG
1070
     1
1071
       54
1005
12E6C7
  0
ARC
  5
12E6C8
  8
OBJECT
 10
3799.3127253283278
 20
-642.59190058988474
 30
0.0
 40
170.6350503965856
 50
317.44134459154373
 51
329.91949581322592
1001
ACDBBLOCKREPETAG
1070
     1
1071
       55
1005
12E6C8
  0
POINT
  5
12E6C9
  8
DOTS
 10
4000.0
 20
-754.9999999999925
 30
0.0
1001
ACDBBLOCKREPETAG
1070
     1
1071
      184
1005
12E6C9
  0
LINE
  5
12E6CA
  8
OBJECT
 10
1923.0
 20
-570.9999999999925
 30
0.0
 11
1923.0
 21
-549.9999999999925
 31
0.0
1001
ACDBBLOCKREPETAG
1070
     1
1071
       36
1005
12E6CA
  0
LINE
  5
12E6CB
  8
OBJECT
 10
1923.0
 20
-549.9999999999925
 30
0.0
 11
2077.0
 21
-549.9999999999925
 31
0.0
1001
ACDBBLOCKREPETAG
1070
     1
1071
       37
1005
12E6CB
  0
LINE
  5
12E6CC
  8
HIDDEN
 10
1943.0
 20
-619.99999999999227
 30
0.0
 11
2057.0
 21
-619.99999999999227
 31
0.0
1001
ACDBBLOCKREPETAG
1070
     1
1071
       38
1005
12E6CC
  0
LINE
  5
12E6CD
  8
OBJECT
 10
2077.0
 20
-549.9999999999925
 30
0.0
 11
2077.0
 21
-570.9999999999925
 31
0.0
1001
ACDBBLOCKREPETAG
1070
     1
1071
       39
1005
12E6CD
  0
LINE
  5
12E6CE
  8
OBJECT
 10
2077.0
 20
-570.9999999999925
 30
0.0
 11
1923.0
 21
-570.9999999999925
 31
0.0
1001
ACDBBLOCKREPETAG
1070
     1
1071
       40
1005
12E6CE
  0
LINE
  5
12E6CF
  8
CENTER
 10
2000.0
 20
-534.9999999999925
 30
0.0
 11
2000.0
 21
-769.9999999999925
 31
0.0
1001
ACDBBLOCKREPETAG
1070
     1
1071
       41
1005
12E6CF
  0
LINE
  5
12E6D0
  8
OBJECT
 10
1928.0
 20
-570.9999999999925
 30
0.0
 11
1928.0
 21
-633.9999999999925
 31
0.0
1001
ACDBBLOCKREPETAG
1070
     1
1071
       42
1005
12E6D0
  0
LINE
  5
12E6D1
  8
OBJECT
 10
2072.0
 20
-633.9999999999925
 30
0.0
 11
2072.0
 21
-570.9999999999925
 31
0.0
1001
ACDBBLOCKREPETAG
1070
     1
1071
       43
1005
12E6D1
  0
LINE
  5
12E6D2
  8
OBJECT
 10
1920.0
 20
-757.9999999999925
 30
0.0
 11
2080.0
 21
-757.9999999999925
 31
0.0
1001
ACDBBLOCKREPETAG
1070
     1
1071
       44
1005
12E6D2
  0
LINE
  5
12E6D3
  8
OBJECT
 10
2080.0
 20
-633.9999999999925
 30
0.0
 11
1920.0
 21
-633.9999999999925
 31
0.0
1001
ACDBBLOCKREPETAG
1070
     1
1071
       45
1005
12E6D3
  0
LINE
  5
12E6D4
  8
OBJECT
 10
1920.0
 20
-757.9999999999925
 30
0.0
 11
1920.0
 21
-769.9999999999925
 31
0.0
1001
ACDBBLOCKREPETAG
1070
     1
1071
       46
1005
12E6D4
  0
LINE
  5
12E6D5
  8
OBJECT
 10
1920.0
 20
-769.9999999999925
 30
0.0
 11
2080.0
 21
-769.9999999999925
 31
0.0
1001
ACDBBLOCKREPETAG
1070
     1
1071
       47
1005
12E6D5
  0
LINE
  5
12E6D6
  8
OBJECT
 10
2080.0
 20
-769.9999999999925
 30
0.0
 11
2080.0
 21
-757.9999999999925
 31
0.0
1001
ACDBBLOCKREPETAG
1070
     1
1071
       48
1005
12E6D6
  0
ARC
  5
12E6D7
  8
OBJECT
 10
2200.6872746716731
 20
-749.40809941010014
 30
0.0
 40
170.6350503965856
 50
137.44134459184301
 51
149.91949581336559
1001
ACDBBLOCKREPETAG
1070
     1
1071
       52
1005
12E6D7
  0
ARC
  5
12E6D8
  8
OBJECT
 10
2200.6872746716731
 20
-642.59190058988474
 30
0.0
 40
170.6350503965856
 50
210.0805041866343
 51
222.55865540815699
1001
ACDBBLOCKREPETAG
1070
     1
1071
       53
1005
12E6D8
  0
ARC
  5
12E6D9
  8
OBJECT
 10
1799.312725328326
 20
-749.40809941010014
 30
0.0
 40
170.6350503965856
 50
30.080504186774089
 51
42.558655408447443
1001
ACDBBLOCKREPETAG
1070
     1
1071
       54
1005
12E6D9
  0
ARC
  5
12E6DA
  8
OBJECT
 10
1799.312725328326
 20
-642.59190058988474
 30
0.0
 40
170.6350503965856
 50
317.44134459155248
 51
329.91949581322592
1001
ACDBBLOCKREPETAG
1070
     1
1071
       55
1005
12E6DA
  0
POINT
  5
12E6DB
  8
DOTS
 10
2000.0
 20
-754.9999999999925
 30
0.0
1001
ACDBBLOCKREPETAG
1070
     1
1071
      184
1005
12E6DB
  0
LINE
  5
12E6DC
  8
SLIM
 10
3914.9999999999941
 20
-765.19743878931183
 30
0.0
 11
3925.1974387893092
 21
-754.99999999999693
 31
0.0
1001
ACDBBLOCKREPETAG
1070
     1
1071
        0
1005
0
1001
ACAD
1010
0.0
1020
0.0
1030
0.0
  0
LINE
  5
12E6DD
  8
SLIM
 10
3914.999999999995
 20
-783.15795103144865
 30
0.0
 11
3943.1579510314468
 21
-754.99999999999693
 31
0.0
1001
ACAD
1010
0.0
1020
0.0
1030
0.0
1001
ACDBBLOCKREPETAG
1070
     1
1071
       14
1005
12E6DD
  0
LINE
  5
12E6DE
  8
SLIM
 10
3915.1454972543161
 20
-800.97296601926655
 30
0.0
 11
3961.1184632735849
 21
-754.99999999999693
 31
0.0
1001
ACAD
1010
0.0
1020
0.0
1030
0.0
1001
ACDBBLOCKREPETAG
1070
     1
1071
       15
1005
12E6DE
  0
LINE
  5
12E6DF
  8
SLIM
 10
3917.104627495245
 20
-816.97434802047667
 30
0.0
 11
3979.0789755157239
 21
-754.99999999999693
 31
0.0
1001
ACAD
1010
0.0
1020
0.0
1030
0.0
1001
ACDBBLOCKREPETAG
1070
     1
1071
       16
1005
12E6DF
  0
LINE
  5
12E6E0
  8
SLIM
 10
3919.0637577361722
 20
-832.97573002168645
 30
0.0
 11
3997.0394877578619
 21
-754.99999999999693
 31
0.0
1001
ACAD
1010
0.0
1020
0.0
1030
0.0
1001
ACDBBLOCKREPETAG
1070
     1
1071
       17
1005
12E6E0
  0
LINE
  5
12E6E1
  8
SLIM
 10
3920.0
 20
-849.99999999999693
 30
0.0
 11
4015.0
 21
-754.99999999999693
 31
0.0
1001
ACAD
1010
0.0
1020
0.0
1030
0.0
1001
ACDBBLOCKREPETAG
1070
     1
1071
       18
1005
12E6E1
  0
LINE
  5
12E6E2
  8
SLIM
 10
3920.0
 20
-867.96051224213534
 30
0.0
 11
4032.9605122421372
 21
-754.99999999999693
 31
0.0
1001
ACAD
1010
0.0
1020
0.0
1030
0.0
1001
ACDBBLOCKREPETAG
1070
     1
1071
       19
1005
12E6E2
  0
LINE
  5
12E6E3
  8
SLIM
 10
3920.0
 20
-885.92102448427374
 30
0.0
 11
4050.921024484277
 21
-754.99999999999693
 31
0.0
1001
ACAD
1010
0.0
1020
0.0
1030
0.0
1001
ACDBBLOCKREPETAG
1070
     1
1071
       20
1005
12E6E3
  0
LINE
  5
12E6E4
  8
SLIM
 10
3920.0
 20
-903.88153672641204
 30
0.0
 11
4068.8815367264142
 21
-754.99999999999693
 31
0.0
1001
ACAD
1010
0.0
1020
0.0
1030
0.0
1001
ACDBBLOCKREPETAG
1070
     1
1071
       21
1005
12E6E4
  0
LINE
  5
12E6E5
  8
SLIM
 10
3920.0
 20
-921.84204896855022
 30
0.0
 11
4085.0000000000068
 21
-756.84204896854294
 31
0.0
1001
ACAD
1010
0.0
1020
0.0
1030
0.0
1001
ACDBBLOCKREPETAG
1070
     1
1071
       22
1005
12E6E5
  0
LINE
  5
12E6E6
  8
SLIM
 10
3920.0
 20
-939.80256121068828
 30
0.0
 11
4085.0000000000059
 21
-774.80256121068282
 31
0.0
1001
ACAD
1010
0.0
1020
0.0
1030
0.0
1001
ACDBBLOCKREPETAG
1070
     1
1071
       23
1005
12E6E6
  0
LINE
  5
12E6E7
  8
SLIM
 10
3920.0
 20
-957.76307345282657
 30
0.0
 11
4085.0000000000041
 21
-792.76307345282271
 31
0.0
1001
ACAD
1010
0.0
1020
0.0
1030
0.0
1001
ACDBBLOCKREPETAG
1070
     1
1071
       24
1005
12E6E7
  0
LINE
  5
12E6E8
  8
SLIM
 10
3930.0
 20
-965.72358569496475
 30
0.0
 11
3930.7235856949678
 21
-964.99999999999704
 31
0.0
1001
ACAD
1010
0.0
1020
0.0
1030
0.0
1001
ACDBBLOCKREPETAG
1070
     1
1071
       25
1005
12E6E8
  0
LINE
  5
12E6E9
  8
SLIM
 10
3930.7235856949678
 20
-964.99999999999704
 30
0.0
 11
4083.4738280308079
 21
-812.2497576641565
 31
0.0
1001
ACAD
1010
0.0
1020
0.0
1030
0.0
1001
ACDBBLOCKREPETAG
1070
     1
1071
       26
1005
12E6E9
  0
LINE
  5
12E6EA
  8
SLIM
 10
3930.0
 20
-983.68409793710339
 30
0.0
 11
3948.6840979371068
 21
-964.99999999999704
 31
0.0
1001
ACAD
1010
0.0
1020
0.0
1030
0.0
1001
ACDBBLOCKREPETAG
1070
     1
1071
       27
1005
12E6EA
  0
LINE
  5
12E6EB
  8
SLIM
 10
3948.6840979371068
 20
-964.99999999999704
 30
0.0
 11
4080.9680345671368
 21
-832.71606336996604
 31
0.0
1001
ACAD
1010
0.0
1020
0.0
1030
0.0
1001
ACDBBLOCKREPETAG
1070
     1
1071
       28
1005
12E6EB
  0
LINE
  5
12E6EC
  8
SLIM
 10
3946.6446101792449
 20
-984.99999999999693
 30
0.0
 11
3966.6446101792449
 21
-964.99999999999704
 31
0.0
1001
ACAD
1010
0.0
1020
0.0
1030
0.0
1001
ACDBBLOCKREPETAG
1070
     1
1071
       29
1005
12E6EC
  0
LINE
  5
12E6ED
  8
SLIM
 10
3966.6446101792449
 20
-964.99999999999704
 30
0.0
 11
4080.0
 21
-851.64461017924202
 31
0.0
1001
ACAD
1010
0.0
1020
0.0
1030
0.0
1001
ACDBBLOCKREPETAG
1070
     1
1071
       30
1005
12E6ED
  0
LINE
  5
12E6EE
  8
SLIM
 10
3964.6051224213829
 20
-984.99999999999693
 30
0.0
 11
3984.6051224213829
 21
-964.99999999999704
 31
0.0
1001
ACAD
1010
0.0
1020
0.0
1030
0.0
1001
ACDBBLOCKREPETAG
1070
     1
1071
       31
1005
12E6EE
  0
LINE
  5
12E6EF
  8
SLIM
 10
3984.6051224213829
 20
-964.99999999999704
 30
0.0
 11
4080.0
 21
-869.60512242138032
 31
0.0
1001
ACAD
1010
0.0
1020
0.0
1030
0.0
1001
ACDBBLOCKREPETAG
1070
     1
1071
       32
1005
12E6EF
  0
LINE
  5
12E6F0
  8
SLIM
 10
3982.565634663521
 20
-984.99999999999693
 30
0.0
 11
4002.565634663521
 21
-964.99999999999704
 31
0.0
1001
ACAD
1010
0.0
1020
0.0
1030
0.0
1001
ACDBBLOCKREPETAG
1070
     1
1071
       33
1005
12E6F0
  0
LINE
  5
12E6F1
  8
SLIM
 10
4002.565634663521
 20
-964.99999999999704
 30
0.0
 11
4079.9999999999991
 21
-887.56563466351895
 31
0.0
1001
ACAD
1010
0.0
1020
0.0
1030
0.0
1001
ACDBBLOCKREPETAG
1070
     1
1071
       34
1005
12E6F1
  0
LINE
  5
12E6F2
  8
SLIM
 10
4000.5261469056582
 20
-984.99999999999693
 30
0.0
 11
4020.52614690566
 21
-964.99999999999704
 31
0.0
1001
ACAD
1010
0.0
1020
0.0
1030
0.0
1001
ACDBBLOCKREPETAG
1070
     1
1071
       35
1005
12E6F2
  0
LINE
  5
12E6F3
  8
SLIM
 10
4020.52614690566
 20
-964.99999999999704
 30
0.0
 11
4079.9999999999991
 21
-905.52614690565758
 31
0.0
1001
ACAD
1010
0.0
1020
0.0
1030
0.0
1001
ACDBBLOCKREPETAG
1070
     1
1071
       36
1005
12E6F3
  0
LINE
  5
12E6F4
  8
SLIM
 10
4018.486659147798
 20
-984.99999999999693
 30
0.0
 11
4038.486659147798
 21
-964.99999999999682
 31
0.0
1001
ACAD
1010
0.0
1020
0.0
1030
0.0
1001
ACDBBLOCKREPETAG
1070
     1
1071
       37
1005
12E6F4
  0
LINE
  5
12E6F5
  8
SLIM
 10
4038.486659147798
 20
-964.99999999999682
 30
0.0
 11
4079.9999999999991
 21
-923.48665914779599
 31
0.0
1001
ACAD
1010
0.0
1020
0.0
1030
0.0
1001
ACDBBLOCKREPETAG
1070
     1
1071
       38
1005
12E6F5
  0
LINE
  5
12E6F6
  8
SLIM
 10
4036.4471713899361
 20
-984.99999999999693
 30
0.0
 11
4056.4471713899361
 21
-964.99999999999682
 31
0.0
1001
ACAD
1010
0.0
1020
0.0
1030
0.0
1001
ACDBBLOCKREPETAG
1070
     1
1071
       39
1005
12E6F6
  0
LINE
  5
12E6F7
  8
SLIM
 10
4056.4471713899361
 20
-964.99999999999682
 30
0.0
 11
4079.9999999999991
 21
-941.44717138993474
 31
0.0
1001
ACAD
1010
0.0
1020
0.0
1030
0.0
1001
ACDBBLOCKREPETAG
1070
     1
1071
       40
1005
12E6F7
  0
LINE
  5
12E6F8
  8
SLIM
 10
4054.4076836320728
 20
-984.99999999999693
 30
0.0
 11
4070.0
 21
-969.40768363207155
 31
0.0
1001
ACAD
1010
0.0
1020
0.0
1030
0.0
1001
ACDBBLOCKREPETAG
1070
     1
1071
       41
1005
12E6F8
  0
LINE
  5
12E6F9
  8
SLIM
 10
4074.4076836320728
 20
-964.99999999999682
 30
0.0
 11
4079.9999999999991
 21
-959.40768363207314
 31
0.0
1001
ACAD
1010
0.0
1020
0.0
1030
0.0
1001
ACDBBLOCKREPETAG
1070
     1
1071
       42
1005
12E6F9
  0
LINE
  5
12E6FA
  8
OBJECT
 10
3914.9999999999941
 20
-754.99999999999693
 30
0.0
 11
3914.9999999999968
 21
-799.78460339903188
 31
0.0
1001
ACDBBLOCKREPETAG
1070
     1
1071
        1
1005
12E6FA
  0
LINE
  5
12E6FB
  8
OBJECT
 10
4085.0000000000068
 20
-754.99999999999693
 30
0.0
 11
4085.0000000000032
 21
-799.78460339903904
 31
0.0
1001
ACDBBLOCKREPETAG
1070
     1
1071
        2
1005
12E6FB
  0
LINE
  5
12E6FC
  8
OBJECT
 10
4085.0000000000068
 20
-754.99999999999693
 30
0.0
 11
3914.9999999999941
 21
-754.99999999999693
 31
0.0
1001
ACDBBLOCKREPETAG
1070
     1
1071
        3
1005
12E6FC
  0
LINE
  5
12E6FD
  8
OBJECT
 10
4079.9999999999991
 20
-964.99999999999682
 30
0.0
 11
3920.0
 21
-964.99999999999704
 31
0.0
1001
ACDBBLOCKREPETAG
1070
     1
1071
        4
1005
12E6FD
  0
LINE
  5
12E6FE
  8
OBJECT
 10
3914.9999999999968
 20
-799.78460339903245
 30
0.0
 11
3920.0
 21
-840.62257748298384
 31
0.0
1001
ACDBBLOCKREPETAG
1070
     1
1071
        6
1005
12E6FE
  0
LINE
  5
12E6FF
  8
OBJECT
 10
3920.0
 20
-840.62257748298384
 30
0.0
 11
3920.0
 21
-964.99999999999704
 31
0.0
1001
ACDBBLOCKREPETAG
1070
     1
1071
        7
1005
12E6FF
  0
LINE
  5
12E700
  8
OBJECT
 10
4085.0000000000032
 20
-799.78460339903904
 30
0.0
 11
4080.0
 21
-840.62257748298384
 31
0.0
1001
ACDBBLOCKREPETAG
1070
     1
1071
        8
1005
12E700
  0
LINE
  5
12E701
  8
OBJECT
 10
4080.0
 20
-840.62257748298384
 30
0.0
 11
4079.9999999999991
 21
-964.99999999999682
 31
0.0
1001
ACDBBLOCKREPETAG
1070
     1
1071
        9
1005
12E701
  0
LINE
  5
12E702
  8
OBJECT
 10
3930.0
 20
-964.99999999999704
 30
0.0
 11
3930.0
 21
-984.99999999999693
 31
0.0
1001
ACDBBLOCKREPETAG
1070
     1
1071
       10
1005
12E702
  0
LINE
  5
12E703
  8
OBJECT
 10
3930.0
 20
-984.99999999999693
 30
0.0
 11
4070.0
 21
-984.99999999999693
 31
0.0
1001
ACDBBLOCKREPETAG
1070
     1
1071
       11
1005
12E703
  0
LINE
  5
12E704
  8
OBJECT
 10
4070.0
 20
-984.99999999999693
 30
0.0
 11
4070.0
 21
-964.99999999999682
 31
0.0
1001
ACDBBLOCKREPETAG
1070
     1
1071
       12
1005
12E704
  0
CIRCLE
  5
12E705
  8
OBJECT
 10
220.00000000000159
 20
-790.0
 30
0.0
 40
70.0
1001
ACDBBLOCKREPETAG
1070
     1
1071
       43
1005
12E705
  0
CIRCLE
  5
12E706
  8
OBJECT
 10
220.00000000000159
 20
-790.0
 30
0.0
 40
77.0
1001
ACDBBLOCKREPETAG
1070
     1
1071
       44
1005
12E706
  0
ARC
  5
12E707
  8
OBJECT
 10
220.00000000000159
 20
-790.0
 30
0.0
 40
80.0
 50
140.80503257377961
 51
219.1949674262203
1001
ACDBBLOCKREPETAG
1070
     1
1071
       45
1005
12E707
  0
LINE
  5
12E708
  8
OBJECT
 10
158.00000000000159
 20
-744.33819977267535
 30
0.0
 11
158.00000000000159
 21
-710.0
 31
0.0
1001
ACDBBLOCKREPETAG
1070
     1
1071
       46
1005
12E708
  0
LINE
  5
12E709
  8
OBJECT
 10
282.00000000000171
 20
-728.0
 30
0.0
 11
282.00000000000171
 21
-710.0
 31
0.0
1001
ACDBBLOCKREPETAG
1070
     1
1071
       22
1005
12E709
  0
LINE
  5
12E70A
  8
OBJECT
 10
282.00000000000171
 20
-728.0
 30
0.0
 11
300.00000000000159
 21
-728.0
 31
0.0
1001
ACDBBLOCKREPETAG
1070
     1
1071
       24
1005
12E70A
  0
LINE
  5
12E70B
  8
OBJECT
 10
282.00000000000171
 20
-852.0
 30
0.0
 11
300.00000000000159
 21
-852.0
 31
0.0
1001
ACDBBLOCKREPETAG
1070
     1
1071
       25
1005
12E70B
  0
LINE
  5
12E70C
  8
OBJECT
 10
282.00000000000171
 20
-852.0
 30
0.0
 11
282.00000000000171
 21
-870.0
 31
0.0
1001
ACDBBLOCKREPETAG
1070
     1
1071
       27
1005
12E70C
  0
LINE
  5
12E70D
  8
OBJECT
 10
158.00000000000159
 20
-835.66180022732431
 30
0.0
 11
158.00000000000159
 21
-870.0
 31
0.0
1001
ACDBBLOCKREPETAG
1070
     1
1071
       28
1005
12E70D
  0
LINE
  5
12E70E
  8
OBJECT
 10
274.44722215136568
 20
-844.44722215136414
 30
0.0
 11
282.00000000000171
 21
-852.0
 31
0.0
1001
ACDBBLOCKREPETAG
1070
     1
1071
       37
1005
12E70E
  0
LINE
  5
12E70F
  8
OBJECT
 10
274.44722215136568
 20
-735.5527778486354
 30
0.0
 11
282.00000000000171
 21
-728.0
 31
0.0
1001
ACDBBLOCKREPETAG
1070
     1
1071
       38
1005
12E70F
  0
POINT
  5
12E710
  8
DOTS
 10
220.00000000000159
 20
-790.0
 30
0.0
1001
ACDBBLOCKREPETAG
1070
     1
1071
       39
1005
12E710
  0
CIRCLE
  5
12E711
  8
OBJECT
 10
220.00000000000159
 20
-790.0
 30
0.0
 40
53.5
1001
ACDBBLOCKREPETAG
1070
     1
1071
      153
1005
12E711
  0
CIRCLE
  5
12E712
  8
OBJECT
 10
220.00000000000159
 20
-210.0
 30
0.0
 40
70.0
1001
ACDBBLOCKREPETAG
1070
     1
1071
       43
1005
12E712
  0
CIRCLE
  5
12E713
  8
OBJECT
 10
220.00000000000159
 20
-210.0
 30
0.0
 40
77.0
1001
ACDBBLOCKREPETAG
1070
     1
1071
       44
1005
12E713
  0
ARC
  5
12E714
  8
OBJECT
 10
220.00000000000159
 20
-210.0
 30
0.0
 40
80.0
 50
140.80503257378101
 51
219.19496742621899
1001
ACDBBLOCKREPETAG
1070
     1
1071
       45
1005
12E714
  0
LINE
  5
12E715
  8
OBJECT
 10
158.00000000000159
 20
-164.33819977267561
 30
0.0
 11
158.00000000000159
 21
-130.0
 31
0.0
1001
ACDBBLOCKREPETAG
1070
     1
1071
       46
1005
12E715
  0
LINE
  5
12E716
  8
OBJECT
 10
282.00000000000171
 20
-148.0
 30
0.0
 11
282.00000000000171
 21
-130.0
 31
0.0
1001
ACDBBLOCKREPETAG
1070
     1
1071
       22
1005
12E716
  0
LINE
  5
12E717
  8
OBJECT
 10
282.00000000000171
 20
-148.0
 30
0.0
 11
300.00000000000159
 21
-148.0
 31
0.0
1001
ACDBBLOCKREPETAG
1070
     1
1071
       24
1005
12E717
  0
LINE
  5
12E718
  8
OBJECT
 10
282.00000000000171
 20
-272.0
 30
0.0
 11
300.00000000000159
 21
-272.0
 31
0.0
1001
ACDBBLOCKREPETAG
1070
     1
1071
       25
1005
12E718
  0
LINE
  5
12E719
  8
OBJECT
 10
282.00000000000171
 20
-272.0
 30
0.0
 11
282.00000000000171
 21
-290.0
 31
0.0
1001
ACDBBLOCKREPETAG
1070
     1
1071
       27
1005
12E719
  0
LINE
  5
12E71A
  8
OBJECT
 10
158.00000000000159
 20
-255.66180022732439
 30
0.0
 11
158.00000000000159
 21
-290.0
 31
0.0
1001
ACDBBLOCKREPETAG
1070
     1
1071
       28
1005
12E71A
  0
LINE
  5
12E71B
  8
OBJECT
 10
274.44722215136568
 20
-264.4472221513642
 30
0.0
 11
282.00000000000171
 21
-272.0
 31
0.0
1001
ACDBBLOCKREPETAG
1070
     1
1071
       37
1005
12E71B
  0
LINE
  5
12E71C
  8
OBJECT
 10
274.44722215136568
 20
-155.55277784863571
 30
0.0
 11
282.00000000000171
 21
-148.0
 31
0.0
1001
ACDBBLOCKREPETAG
1070
     1
1071
       38
1005
12E71C
  0
POINT
  5
12E71D
  8
DOTS
 10
220.00000000000159
 20
-210.0
 30
0.0
1001
ACDBBLOCKREPETAG
1070
     1
1071
       39
1005
12E71D
  0
CIRCLE
  5
12E71E
  8
OBJECT
 10
220.00000000000159
 20
-210.0
 30
0.0
 40
53.5
1001
ACDBBLOCKREPETAG
1070
     1
1071
      153
1005
12E71E
  0
CIRCLE
  5
12E71F
  8
OBJECT
 10
670.00000000000159
 20
-210.0
 30
0.0
 40
70.0
1001
ACDBBLOCKREPETAG
1070
     1
1071
       43
1005
12E71F
  0
CIRCLE
  5
12E720
  8
OBJECT
 10
670.00000000000159
 20
-210.0
 30
0.0
 40
77.0
1001
ACDBBLOCKREPETAG
1070
     1
1071
       44
1005
12E720
  0
ARC
  5
12E721
  8
OBJECT
 10
670.00000000000159
 20
-210.0
 30
0.0
 40
80.0
 50
140.80503257378001
 51
219.19496742621999
1001
ACDBBLOCKREPETAG
1070
     1
1071
       45
1005
12E721
  0
LINE
  5
12E722
  8
OBJECT
 10
608.00000000000159
 20
-164.33819977267561
 30
0.0
 11
608.00000000000159
 21
-130.0
 31
0.0
1001
ACDBBLOCKREPETAG
1070
     1
1071
       46
1005
12E722
  0
LINE
  5
12E723
  8
OBJECT
 10
732.00000000000171
 20
-148.0
 30
0.0
 11
732.00000000000171
 21
-130.0
 31
0.0
1001
ACDBBLOCKREPETAG
1070
     1
1071
       22
1005
12E723
  0
LINE
  5
12E724
  8
OBJECT
 10
732.00000000000171
 20
-148.0
 30
0.0
 11
750.00000000000159
 21
-148.0
 31
0.0
1001
ACDBBLOCKREPETAG
1070
     1
1071
       24
1005
12E724
  0
LINE
  5
12E725
  8
OBJECT
 10
732.00000000000171
 20
-272.0
 30
0.0
 11
750.00000000000159
 21
-272.0
 31
0.0
1001
ACDBBLOCKREPETAG
1070
     1
1071
       25
1005
12E725
  0
LINE
  5
12E726
  8
OBJECT
 10
732.00000000000171
 20
-272.0
 30
0.0
 11
732.00000000000171
 21
-290.0
 31
0.0
1001
ACDBBLOCKREPETAG
1070
     1
1071
       27
1005
12E726
  0
LINE
  5
12E727
  8
OBJECT
 10
608.00000000000159
 20
-255.66180022732439
 30
0.0
 11
608.00000000000159
 21
-290.0
 31
0.0
1001
ACDBBLOCKREPETAG
1070
     1
1071
       28
1005
12E727
  0
LINE
  5
12E728
  8
OBJECT
 10
724.44722215136585
 20
-264.4472221513642
 30
0.0
 11
732.00000000000171
 21
-272.0
 31
0.0
1001
ACDBBLOCKREPETAG
1070
     1
1071
       37
1005
12E728
  0
LINE
  5
12E729
  8
OBJECT
 10
724.44722215136585
 20
-155.55277784863571
 30
0.0
 11
732.00000000000171
 21
-148.0
 31
0.0
1001
ACDBBLOCKREPETAG
1070
     1
1071
       38
1005
12E729
  0
POINT
  5
12E72A
  8
DOTS
 10
670.00000000000159
 20
-210.0
 30
0.0
1001
ACDBBLOCKREPETAG
1070
     1
1071
       39
1005
12E72A
  0
CIRCLE
  5
12E72B
  8
OBJECT
 10
670.00000000000159
 20
-210.0
 30
0.0
 40
53.5
1001
ACDBBLOCKREPETAG
1070
     1
1071
      153
1005
12E72B
  0
CIRCLE
  5
12E72C
  8
OBJECT
 10
670.00000000000159
 20
-790.0
 30
0.0
 40
70.0
1001
ACDBBLOCKREPETAG
1070
     1
1071
       43
1005
12E72C
  0
CIRCLE
  5
12E72D
  8
OBJECT
 10
670.00000000000159
 20
-790.0
 30
0.0
 40
77.0
1001
ACDBBLOCKREPETAG
1070
     1
1071
       44
1005
12E72D
  0
ARC
  5
12E72E
  8
OBJECT
 10
670.00000000000159
 20
-790.0
 30
0.0
 40
80.0
 50
140.8050325737787
 51
219.1949674262213
1001
ACDBBLOCKREPETAG
1070
     1
1071
       45
1005
12E72E
  0
LINE
  5
12E72F
  8
OBJECT
 10
608.00000000000159
 20
-744.33819977267535
 30
0.0
 11
608.00000000000159
 21
-710.0
 31
0.0
1001
ACDBBLOCKREPETAG
1070
     1
1071
       46
1005
12E72F
  0
LINE
  5
12E730
  8
OBJECT
 10
732.00000000000171
 20
-728.0
 30
0.0
 11
732.00000000000171
 21
-710.0
 31
0.0
1001
ACDBBLOCKREPETAG
1070
     1
1071
       22
1005
12E730
  0
LINE
  5
12E731
  8
OBJECT
 10
732.00000000000171
 20
-728.0
 30
0.0
 11
750.00000000000159
 21
-728.0
 31
0.0
1001
ACDBBLOCKREPETAG
1070
     1
1071
       24
1005
12E731
  0
LINE
  5
12E732
  8
OBJECT
 10
732.00000000000171
 20
-852.0
 30
0.0
 11
750.00000000000159
 21
-852.0
 31
0.0
1001
ACDBBLOCKREPETAG
1070
     1
1071
       25
1005
12E732
  0
LINE
  5
12E733
  8
OBJECT
 10
732.00000000000171
 20
-852.0
 30
0.0
 11
732.00000000000171
 21
-870.0
 31
0.0
1001
ACDBBLOCKREPETAG
1070
     1
1071
       27
1005
12E733
  0
LINE
  5
12E734
  8
OBJECT
 10
608.00000000000159
 20
-835.66180022732431
 30
0.0
 11
608.00000000000159
 21
-870.0
 31
0.0
1001
ACDBBLOCKREPETAG
1070
     1
1071
       28
1005
12E734
  0
LINE
  5
12E735
  8
OBJECT
 10
724.44722215136585
 20
-844.44722215136414
 30
0.0
 11
732.00000000000171
 21
-852.0
 31
0.0
1001
ACDBBLOCKREPETAG
1070
     1
1071
       37
1005
12E735
  0
LINE
  5
12E736
  8
OBJECT
 10
724.44722215136585
 20
-735.5527778486354
 30
0.0
 11
732.00000000000171
 21
-728.0
 31
0.0
1001
ACDBBLOCKREPETAG
1070
     1
1071
       38
1005
12E736
  0
POINT
  5
12E737
  8
DOTS
 10
670.00000000000159
 20
-790.0
 30
0.0
1001
ACDBBLOCKREPETAG
1070
     1
1071
       39
1005
12E737
  0
CIRCLE
  5
12E738
  8
OBJECT
 10
670.00000000000159
 20
-790.0
 30
0.0
 40
53.5
1001
ACDBBLOCKREPETAG
1070
     1
1071
      153
1005
12E738
  0
INSERT
  5
12E739
  8
OBJECT
  2
*U3
 10
0.0
 20
0.0
 30
0.0
  0
LINE
  5
12E73A
  8
OBJECT
 10
158.00000000000159
 20
-657.0
 30
0.0
 11
158.00000000000159
 21
-650.0
 31
0.0
1001
ACDBBLOCKREPETAG
1070
     1
1071
       39
1005
12E73A
  0
LINE
  5
12E73B
  8
OBJECT
 10
158.00000000000159
 20
-650.0
 30
0.0
 11
282.00000000000171
 21
-650.0
 31
0.0
1001
ACDBBLOCKREPETAG
1070
     1
1071
       40
1005
12E73B
  0
LINE
  5
12E73C
  8
OBJECT
 10
282.00000000000171
 20
-650.0
 30
0.0
 11
282.00000000000171
 21
-657.0
 31
0.0
1001
ACDBBLOCKREPETAG
1070
     1
1071
       41
1005
12E73C
  0
LINE
  5
12E73D
  8
OBJECT
 10
282.00000000000171
 20
-657.0
 30
0.0
 11
158.00000000000159
 21
-657.0
 31
0.0
1001
ACDBBLOCKREPETAG
1070
     1
1071
       42
1005
12E73D
  0
LINE
  5
12E73E
  8
OBJECT
 10
161.00000000000159
 20
-657.0
 30
0.0
 11
161.00000000000159
 21
-693.0
 31
0.0
1001
ACDBBLOCKREPETAG
1070
     1
1071
       43
1005
12E73E
  0
LINE
  5
12E73F
  8
OBJECT
 10
161.00000000000159
 20
-693.0
 30
0.0
 11
279.00000000000159
 21
-693.0
 31
0.0
1001
ACDBBLOCKREPETAG
1070
     1
1071
       44
1005
12E73F
  0
LINE
  5
12E740
  8
OBJECT
 10
279.00000000000159
 20
-693.0
 30
0.0
 11
279.00000000000159
 21
-657.0
 31
0.0
1001
ACDBBLOCKREPETAG
1070
     1
1071
       45
1005
12E740
  0
LINE
  5
12E741
  8
OBJECT
 10
165.50000000000159
 20
-697.0
 30
0.0
 11
165.50000000000159
 21
-704.0
 31
0.0
1001
ACDBBLOCKREPETAG
1070
     1
1071
       46
1005
12E741
  0
LINE
  5
12E742
  8
OBJECT
 10
274.50000000000159
 20
-704.0
 30
0.0
 11
274.50000000000159
 21
-697.0
 31
0.0
1001
ACDBBLOCKREPETAG
1070
     1
1071
       47
1005
12E742
  0
LINE
  5
12E743
  8
OBJECT
 10
274.50000000000159
 20
-697.0
 30
0.0
 11
165.50000000000159
 21
-697.0
 31
0.0
1001
ACDBBLOCKREPETAG
1070
     1
1071
       48
1005
12E743
  0
LINE
  5
12E744
  8
OBJECT
 10
161.00000000000159
 20
-693.0
 30
0.0
 11
165.50000000000159
 21
-697.0
 31
0.0
1001
ACDBBLOCKREPETAG
1070
     1
1071
       49
1005
12E744
  0
LINE
  5
12E745
  8
OBJECT
 10
279.00000000000159
 20
-693.0
 30
0.0
 11
274.50000000000159
 21
-697.0
 31
0.0
1001
ACDBBLOCKREPETAG
1070
     1
1071
       50
1005
12E745
  0
LINE
  5
12E746
  8
OBJECT
 10
158.00000000000159
 20
-706.99999999999909
 30
0.0
 11
158.00000000000159
 21
-710.0
 31
0.0
1001
ACDBBLOCKREPETAG
1070
     1
1071
       51
1005
12E746
  0
ARC
  5
12E747
  8
OBJECT
 10
161.00000000000159
 20
-706.99999999999909
 30
0.0
 40
3.0
 50
90.0
 51
180.0
1001
ACDBBLOCKREPETAG
1070
     1
1071
       52
1005
12E747
  0
LINE
  5
12E748
  8
OBJECT
 10
282.00000000000171
 20
-710.0
 30
0.0
 11
282.00000000000171
 21
-707.00000000000091
 31
0.0
1001
ACDBBLOCKREPETAG
1070
     1
1071
       53
1005
12E748
  0
ARC
  5
12E749
  8
OBJECT
 10
279.00000000000159
 20
-707.00000000000091
 30
0.0
 40
3.0
 50
0.0
 51
90.0
1001
ACDBBLOCKREPETAG
1070
     1
1071
       54
1005
12E749
  0
LINE
  5
12E74A
  8
OBJECT
 10
279.00000000000159
 20
-704.0000000000008
 30
0.0
 11
161.00000000000159
 21
-703.99999999999909
 31
0.0
1001
ACDBBLOCKREPETAG
1070
     1
1071
       55
1005
12E74A
  0
LINE
  5
12E74B
  8
HIDDEN
 10
175.50000000000159
 20
-702.0
 30
0.0
 11
264.50000000000159
 21
-702.0
 31
0.0
1001
ACDBBLOCKREPETAG
1070
     1
1071
      426
1005
12E74B
  0
LINE
  5
12E74C
  8
OBJECT
 10
282.00000000000171
 20
-992.99999999998545
 30
0.0
 11
282.00000000000171
 21
-999.99999999998545
 31
0.0
1001
ACDBBLOCKREPETAG
1070
     1
1071
       74
1005
12E74C
  0
LINE
  5
12E74D
  8
OBJECT
 10
282.00000000000171
 20
-999.99999999998545
 30
0.0
 11
158.00000000000159
 21
-999.99999999998545
 31
0.0
1001
ACDBBLOCKREPETAG
1070
     1
1071
       75
1005
12E74D
  0
LINE
  5
12E74E
  8
OBJECT
 10
158.00000000000159
 20
-999.99999999998545
 30
0.0
 11
158.00000000000159
 21
-992.99999999998545
 31
0.0
1001
ACDBBLOCKREPETAG
1070
     1
1071
       76
1005
12E74E
  0
LINE
  5
12E74F
  8
OBJECT
 10
158.00000000000159
 20
-992.99999999998545
 30
0.0
 11
282.00000000000171
 21
-992.99999999998545
 31
0.0
1001
ACDBBLOCKREPETAG
1070
     1
1071
       77
1005
12E74F
  0
LINE
  5
12E750
  8
OBJECT
 10
174.99999999999801
 20
-939.99997496418644
 30
0.0
 11
175.00000000000159
 21
-875.99999999999886
 31
0.0
1001
ACDBBLOCKREPETAG
1070
     1
1071
       78
1005
12E750
  0
LINE
  5
12E751
  8
OBJECT
 10
265.00000000000159
 20
-939.99997496418644
 30
0.0
 11
265.00000000000159
 21
-876.0000000000008
 31
0.0
1001
ACDBBLOCKREPETAG
1070
     1
1071
       79
1005
12E751
  0
LINE
  5
12E752
  8
OBJECT
 10
279.00000000000159
 20
-992.99999999998545
 30
0.0
 11
279.00000000000159
 21
-956.99999999998545
 31
0.0
1001
ACDBBLOCKREPETAG
1070
     1
1071
       80
1005
12E752
  0
LINE
  5
12E753
  8
OBJECT
 10
279.00000000000159
 20
-956.99999999998545
 30
0.0
 11
161.00000000000159
 21
-956.99999999998545
 31
0.0
1001
ACDBBLOCKREPETAG
1070
     1
1071
       81
1005
12E753
  0
LINE
  5
12E754
  8
OBJECT
 10
161.00000000000159
 20
-956.99999999998545
 30
0.0
 11
161.00000000000159
 21
-992.99999999998545
 31
0.0
1001
ACDBBLOCKREPETAG
1070
     1
1071
       82
1005
12E754
  0
LINE
  5
12E755
  8
OBJECT
 10
274.50000000000159
 20
-952.99999999998545
 30
0.0
 11
274.50000000000159
 21
-939.99999999998545
 31
0.0
1001
ACDBBLOCKREPETAG
1070
     1
1071
       83
1005
12E755
  0
LINE
  5
12E756
  8
OBJECT
 10
165.50000000000159
 20
-939.99999999998545
 30
0.0
 11
165.50000000000159
 21
-952.99999999998545
 31
0.0
1001
ACDBBLOCKREPETAG
1070
     1
1071
       84
1005
12E756
  0
LINE
  5
12E757
  8
OBJECT
 10
165.50000000000159
 20
-952.99999999998545
 30
0.0
 11
274.50000000000159
 21
-952.99999999998545
 31
0.0
1001
ACDBBLOCKREPETAG
1070
     1
1071
       85
1005
12E757
  0
LINE
  5
12E758
  8
OBJECT
 10
279.00000000000159
 20
-956.99999999998545
 30
0.0
 11
274.50000000000159
 21
-952.99999999998545
 31
0.0
1001
ACDBBLOCKREPETAG
1070
     1
1071
       86
1005
12E758
  0
LINE
  5
12E759
  8
OBJECT
 10
161.00000000000159
 20
-956.99999999998545
 30
0.0
 11
165.50000000000159
 21
-952.99999999998545
 31
0.0
1001
ACDBBLOCKREPETAG
1070
     1
1071
       87
1005
12E759
  0
LINE
  5
12E75A
  8
OBJECT
 10
282.00000000000171
 20
-873.00000000000114
 30
0.0
 11
282.00000000000171
 21
-870.0
 31
0.0
1001
ACDBBLOCKREPETAG
1070
     1
1071
       88
1005
12E75A
  0
ARC
  5
12E75B
  8
OBJECT
 10
279.00000000000159
 20
-873.00000000000114
 30
0.0
 40
3.0
 50
270.0
 51
0.0
1001
ACDBBLOCKREPETAG
1070
     1
1071
       89
1005
12E75B
  0
LINE
  5
12E75C
  8
OBJECT
 10
158.00000000000159
 20
-870.0
 30
0.0
 11
158.00000000000159
 21
-872.99999999999909
 31
0.0
1001
ACDBBLOCKREPETAG
1070
     1
1071
       90
1005
12E75C
  0
ARC
  5
12E75D
  8
OBJECT
 10
161.00000000000159
 20
-872.99999999999909
 30
0.0
 40
3.0
 50
180.0
 51
270.0
1001
ACDBBLOCKREPETAG
1070
     1
1071
       91
1005
12E75D
  0
LINE
  5
12E75E
  8
OBJECT
 10
161.00000000000159
 20
-875.99999999999886
 30
0.0
 11
209.67720967964291
 21
-876.0000000000008
 31
0.0
1001
ACDBBLOCKREPETAG
1070
     1
1071
       92
1005
12E75E
  0
LINE
  5
12E75F
  8
OBJECT
 10
230.32279032036041
 20
-876.0
 30
0.0
 11
279.00000000000159
 21
-876.0000000000008
 31
0.0
1001
ACDBBLOCKREPETAG
1070
     1
1071
       93
1005
12E75F
  0
LINE
  5
12E760
  8
OBJECT
 10
165.50004907619021
 20
-939.99997496418644
 30
0.0
 11
274.50004907619012
 21
-939.99997496418644
 31
0.0
1001
ACDBBLOCKREPETAG
1070
     1
1071
       95
1005
12E760
  0
ARC
  5
12E761
  8
OBJECT
 10
220.00000000000159
 20
-919.80000000002269
 30
0.0
 40
45.000000000000547
 50
0.0
 51
180.0
1001
ACDBBLOCKREPETAG
1070
     1
1071
       96
1005
12E761
  0
INSERT
  5
12E762
  8
OBJECT
  2
*U4
 10
0.0
 20
0.0
 30
0.0
  0
LINE
  5
12E763
  8
HIDDEN
 10
264.50000000000159
 20
-947.99999999998545
 30
0.0
 11
175.50000000000159
 21
-947.99999999998545
 31
0.0
1001
ACDBBLOCKREPETAG
1070
     1
1071
      431
1005
12E763
  0
LINE
  5
12E764
  8
OBJECT
 10
303.00000000000171
 20
-852.0
 30
0.0
 11
300.00000000000159
 21
-852.0
 31
0.0
1001
ACDBBLOCKREPETAG
1070
     1
1071
      418
1005
12E764
  0
ARC
  5
12E765
  8
OBJECT
 10
303.00000000000171
 20
-849.0
 30
0.0
 40
3.0
 50
270.0
 51
0.0
1001
ACDBBLOCKREPETAG
1070
     1
1071
      419
1005
12E765
  0
LINE
  5
12E766
  8
OBJECT
 10
300.00000000000159
 20
-728.0
 30
0.0
 11
303.00000000000171
 21
-728.0
 31
0.0
1001
ACDBBLOCKREPETAG
1070
     1
1071
      420
1005
12E766
  0
ARC
  5
12E767
  8
OBJECT
 10
303.00000000000171
 20
-731.0
 30
0.0
 40
3.0
 50
0.0
 51
90.0
1001
ACDBBLOCKREPETAG
1070
     1
1071
      421
1005
12E767
  0
LINE
  5
12E768
  8
OBJECT
 10
306.00000000000159
 20
-731.0
 30
0.0
 11
306.00000000000159
 21
-849.0
 31
0.0
1001
ACDBBLOCKREPETAG
1070
     1
1071
      422
1005
12E768
  0
INSERT
  5
12E769
  8
OBJECT
  2
*U5
 10
0.0
 20
0.0
 30
0.0
  0
LINE
  5
12E76A
  8
OBJECT
 10
173.00000000000159
 20
-77.0
 30
0.0
 11
173.00000000000159
 21
-70.0
 31
0.0
1001
ACDBBLOCKREPETAG
1070
     1
1071
        1
1005
12E76A
  0
LINE
  5
12E76B
  8
OBJECT
 10
173.00000000000159
 20
-70.0
 30
0.0
 11
267.00000000000159
 21
-70.0
 31
0.0
1001
ACDBBLOCKREPETAG
1070
     1
1071
        2
1005
12E76B
  0
LINE
  5
12E76C
  8
OBJECT
 10
267.00000000000159
 20
-70.0
 30
0.0
 11
267.00000000000159
 21
-77.0
 31
0.0
1001
ACDBBLOCKREPETAG
1070
     1
1071
        3
1005
12E76C
  0
LINE
  5
12E76D
  8
OBJECT
 10
267.00000000000159
 20
-77.0
 30
0.0
 11
173.00000000000159
 21
-77.0
 31
0.0
1001
ACDBBLOCKREPETAG
1070
     1
1071
        4
1005
12E76D
  0
LINE
  5
12E76E
  8
OBJECT
 10
176.00000000000159
 20
-77.0
 30
0.0
 11
176.00000000000159
 21
-113.0
 31
0.0
1001
ACDBBLOCKREPETAG
1070
     1
1071
        5
1005
12E76E
  0
LINE
  5
12E76F
  8
OBJECT
 10
176.00000000000159
 20
-113.0
 30
0.0
 11
264.00000000000159
 21
-113.0
 31
0.0
1001
ACDBBLOCKREPETAG
1070
     1
1071
        6
1005
12E76F
  0
LINE
  5
12E770
  8
OBJECT
 10
264.00000000000159
 20
-113.0
 30
0.0
 11
264.00000000000159
 21
-77.0
 31
0.0
1001
ACDBBLOCKREPETAG
1070
     1
1071
        7
1005
12E770
  0
LINE
  5
12E771
  8
OBJECT
 10
180.50000000000159
 20
-117.0
 30
0.0
 11
180.50000000000159
 21
-124.0
 31
0.0
1001
ACDBBLOCKREPETAG
1070
     1
1071
        8
1005
12E771
  0
LINE
  5
12E772
  8
OBJECT
 10
259.50000000000159
 20
-124.0
 30
0.0
 11
259.50000000000159
 21
-117.0
 31
0.0
1001
ACDBBLOCKREPETAG
1070
     1
1071
        9
1005
12E772
  0
LINE
  5
12E773
  8
OBJECT
 10
259.50000000000159
 20
-117.0
 30
0.0
 11
180.50000000000159
 21
-117.0
 31
0.0
1001
ACDBBLOCKREPETAG
1070
     1
1071
       10
1005
12E773
  0
LINE
  5
12E774
  8
OBJECT
 10
176.00000000000159
 20
-113.0
 30
0.0
 11
180.50000000000159
 21
-117.0
 31
0.0
1001
ACDBBLOCKREPETAG
1070
     1
1071
       11
1005
12E774
  0
LINE
  5
12E775
  8
OBJECT
 10
264.00000000000159
 20
-113.0
 30
0.0
 11
259.50000000000159
 21
-117.0
 31
0.0
1001
ACDBBLOCKREPETAG
1070
     1
1071
       12
1005
12E775
  0
LINE
  5
12E776
  8
OBJECT
 10
158.00000000000159
 20
-126.9999999999991
 30
0.0
 11
158.00000000000159
 21
-130.0
 31
0.0
1001
ACDBBLOCKREPETAG
1070
     1
1071
       13
1005
12E776
  0
ARC
  5
12E777
  8
OBJECT
 10
161.00000000000159
 20
-126.9999999999991
 30
0.0
 40
3.0
 50
90.0
 51
180.0
1001
ACDBBLOCKREPETAG
1070
     1
1071
       14
1005
12E777
  0
LINE
  5
12E778
  8
OBJECT
 10
282.00000000000171
 20
-130.0
 30
0.0
 11
282.00000000000171
 21
-127.0000000000009
 31
0.0
1001
ACDBBLOCKREPETAG
1070
     1
1071
       15
1005
12E778
  0
ARC
  5
12E779
  8
OBJECT
 10
279.00000000000159
 20
-127.0000000000009
 30
0.0
 40
3.0
 50
0.0
 51
90.0
1001
ACDBBLOCKREPETAG
1070
     1
1071
       16
1005
12E779
  0
LINE
  5
12E77A
  8
OBJECT
 10
279.00000000000159
 20
-124.0000000000009
 30
0.0
 11
161.00000000000159
 21
-123.9999999999991
 31
0.0
1001
ACDBBLOCKREPETAG
1070
     1
1071
       17
1005
12E77A
  0
LINE
  5
12E77B
  8
HIDDEN
 10
190.00000000000159
 20
-122.0
 30
0.0
 11
250.00000000000159
 21
-122.0
 31
0.0
1001
ACDBBLOCKREPETAG
1070
     1
1071
      420
1005
12E77B
  0
LINE
  5
12E77C
  8
OBJECT
 10
282.00000000000171
 20
-412.99999999998528
 30
0.0
 11
282.00000000000171
 21
-419.99999999998528
 31
0.0
1001
ACDBBLOCKREPETAG
1070
     1
1071
       74
1005
12E77C
  0
LINE
  5
12E77D
  8
OBJECT
 10
282.00000000000171
 20
-419.99999999998528
 30
0.0
 11
158.00000000000159
 21
-419.99999999998528
 31
0.0
1001
ACDBBLOCKREPETAG
1070
     1
1071
       75
1005
12E77D
  0
LINE
  5
12E77E
  8
OBJECT
 10
158.00000000000159
 20
-419.99999999998528
 30
0.0
 11
158.00000000000159
 21
-412.99999999998528
 31
0.0
1001
ACDBBLOCKREPETAG
1070
     1
1071
       76
1005
12E77E
  0
LINE
  5
12E77F
  8
OBJECT
 10
158.00000000000159
 20
-412.99999999998528
 30
0.0
 11
282.00000000000171
 21
-412.99999999998528
 31
0.0
1001
ACDBBLOCKREPETAG
1070
     1
1071
       77
1005
12E77F
  0
LINE
  5
12E780
  8
OBJECT
 10
174.99999999999801
 20
-359.99997496418649
 30
0.0
 11
175.00000000000159
 21
-295.99999999999898
 31
0.0
1001
ACDBBLOCKREPETAG
1070
     1
1071
       78
1005
12E780
  0
LINE
  5
12E781
  8
OBJECT
 10
265.00000000000159
 20
-359.99997496418649
 30
0.0
 11
265.00000000000159
 21
-296.0000000000008
 31
0.0
1001
ACDBBLOCKREPETAG
1070
     1
1071
       79
1005
12E781
  0
LINE
  5
12E782
  8
OBJECT
 10
279.00000000000159
 20
-412.99999999998528
 30
0.0
 11
279.00000000000159
 21
-376.99999999998528
 31
0.0
1001
ACDBBLOCKREPETAG
1070
     1
1071
       80
1005
12E782
  0
LINE
  5
12E783
  8
OBJECT
 10
279.00000000000159
 20
-376.99999999998528
 30
0.0
 11
161.00000000000159
 21
-376.99999999998528
 31
0.0
1001
ACDBBLOCKREPETAG
1070
     1
1071
       81
1005
12E783
  0
LINE
  5
12E784
  8
OBJECT
 10
161.00000000000159
 20
-376.99999999998528
 30
0.0
 11
161.00000000000159
 21
-412.99999999998528
 31
0.0
1001
ACDBBLOCKREPETAG
1070
     1
1071
       82
1005
12E784
  0
LINE
  5
12E785
  8
OBJECT
 10
274.50000000000159
 20
-372.9999999999855
 30
0.0
 11
274.50000000000159
 21
-359.99999999998528
 31
0.0
1001
ACDBBLOCKREPETAG
1070
     1
1071
       83
1005
12E785
  0
LINE
  5
12E786
  8
OBJECT
 10
165.50000000000159
 20
-359.99999999998528
 30
0.0
 11
165.50000000000159
 21
-372.9999999999855
 31
0.0
1001
ACDBBLOCKREPETAG
1070
     1
1071
       84
1005
12E786
  0
LINE
  5
12E787
  8
OBJECT
 10
165.50000000000159
 20
-372.9999999999855
 30
0.0
 11
274.50000000000159
 21
-372.9999999999855
 31
0.0
1001
ACDBBLOCKREPETAG
1070
     1
1071
       85
1005
12E787
  0
LINE
  5
12E788
  8
OBJECT
 10
279.00000000000159
 20
-376.99999999998528
 30
0.0
 11
274.50000000000159
 21
-372.9999999999855
 31
0.0
1001
ACDBBLOCKREPETAG
1070
     1
1071
       86
1005
12E788
  0
LINE
  5
12E789
  8
OBJECT
 10
161.00000000000159
 20
-376.99999999998528
 30
0.0
 11
165.50000000000159
 21
-372.9999999999855
 31
0.0
1001
ACDBBLOCKREPETAG
1070
     1
1071
       87
1005
12E789
  0
LINE
  5
12E78A
  8
OBJECT
 10
282.00000000000171
 20
-293.0000000000008
 30
0.0
 11
282.00000000000171
 21
-290.0
 31
0.0
1001
ACDBBLOCKREPETAG
1070
     1
1071
       88
1005
12E78A
  0
ARC
  5
12E78B
  8
OBJECT
 10
279.00000000000159
 20
-293.0000000000008
 30
0.0
 40
3.0
 50
270.0
 51
0.0
1001
ACDBBLOCKREPETAG
1070
     1
1071
       89
1005
12E78B
  0
LINE
  5
12E78C
  8
OBJECT
 10
158.00000000000159
 20
-290.0
 30
0.0
 11
158.00000000000159
 21
-292.99999999999898
 31
0.0
1001
ACDBBLOCKREPETAG
1070
     1
1071
       90
1005
12E78C
  0
ARC
  5
12E78D
  8
OBJECT
 10
161.00000000000159
 20
-292.99999999999898
 30
0.0
 40
3.0
 50
180.0
 51
270.0
1001
ACDBBLOCKREPETAG
1070
     1
1071
       91
1005
12E78D
  0
LINE
  5
12E78E
  8
OBJECT
 10
161.00000000000159
 20
-295.99999999999898
 30
0.0
 11
209.67720967964291
 21
-296.0000000000008
 31
0.0
1001
ACDBBLOCKREPETAG
1070
     1
1071
       92
1005
12E78E
  0
LINE
  5
12E78F
  8
OBJECT
 10
230.32279032036041
 20
-296.0
 30
0.0
 11
279.00000000000159
 21
-296.0000000000008
 31
0.0
1001
ACDBBLOCKREPETAG
1070
     1
1071
       93
1005
12E78F
  0
LINE
  5
12E790
  8
OBJECT
 10
165.50004907619021
 20
-359.99997496418649
 30
0.0
 11
274.50004907619012
 21
-359.99997496418649
 31
0.0
1001
ACDBBLOCKREPETAG
1070
     1
1071
       95
1005
12E790
  0
ARC
  5
12E791
  8
OBJECT
 10
220.00000000000159
 20
-339.80000000002292
 30
0.0
 40
45.000000000000547
 50
0.0
 51
180.0
1001
ACDBBLOCKREPETAG
1070
     1
1071
       96
1005
12E791
  0
INSERT
  5
12E792
  8
OBJECT
  2
*U6
 10
0.0
 20
0.0
 30
0.0
  0
LINE
  5
12E793
  8
HIDDEN
 10
264.50000000000159
 20
-367.99999999998539
 30
0.0
 11
175.50000000000159
 21
-367.99999999998539
 31
0.0
1001
ACDBBLOCKREPETAG
1070
     1
1071
      431
1005
12E793
  0
LINE
  5
12E794
  8
OBJECT
 10
303.00000000000171
 20
-272.0
 30
0.0
 11
300.00000000000159
 21
-272.0
 31
0.0
1001
ACDBBLOCKREPETAG
1070
     1
1071
      418
1005
12E794
  0
ARC
  5
12E795
  8
OBJECT
 10
303.00000000000171
 20
-269.0
 30
0.0
 40
3.0
 50
270.0
 51
0.0
1001
ACDBBLOCKREPETAG
1070
     1
1071
      419
1005
12E795
  0
LINE
  5
12E796
  8
OBJECT
 10
300.00000000000159
 20
-148.0
 30
0.0
 11
303.00000000000171
 21
-148.0
 31
0.0
1001
ACDBBLOCKREPETAG
1070
     1
1071
      420
1005
12E796
  0
ARC
  5
12E797
  8
OBJECT
 10
303.00000000000171
 20
-151.0
 30
0.0
 40
3.0
 50
0.0
 51
90.0
1001
ACDBBLOCKREPETAG
1070
     1
1071
      421
1005
12E797
  0
LINE
  5
12E798
  8
OBJECT
 10
306.00000000000159
 20
-151.0
 30
0.0
 11
306.00000000000159
 21
-269.0
 31
0.0
1001
ACDBBLOCKREPETAG
1070
     1
1071
      422
1005
12E798
  0
INSERT
  5
12E799
  8
OBJECT
  2
*U7
 10
0.0
 20
0.0
 30
0.0
  0
LINE
  5
12E79A
  8
OBJECT
 10
615.00000000000159
 20
-77.0
 30
0.0
 11
615.00000000000159
 21
-70.0
 31
0.0
1001
ACDBBLOCKREPETAG
1070
     1
1071
       20
1005
12E79A
  0
LINE
  5
12E79B
  8
OBJECT
 10
615.00000000000159
 20
-70.0
 30
0.0
 11
725.00000000000159
 21
-70.0
 31
0.0
1001
ACDBBLOCKREPETAG
1070
     1
1071
       21
1005
12E79B
  0
LINE
  5
12E79C
  8
OBJECT
 10
725.00000000000159
 20
-70.0
 30
0.0
 11
725.00000000000159
 21
-77.0
 31
0.0
1001
ACDBBLOCKREPETAG
1070
     1
1071
       22
1005
12E79C
  0
LINE
  5
12E79D
  8
OBJECT
 10
725.00000000000159
 20
-77.0
 30
0.0
 11
615.00000000000159
 21
-77.0
 31
0.0
1001
ACDBBLOCKREPETAG
1070
     1
1071
       23
1005
12E79D
  0
LINE
  5
12E79E
  8
OBJECT
 10
618.00000000000136
 20
-77.0
 30
0.0
 11
618.00000000000136
 21
-113.0
 31
0.0
1001
ACDBBLOCKREPETAG
1070
     1
1071
       24
1005
12E79E
  0
LINE
  5
12E79F
  8
OBJECT
 10
618.00000000000136
 20
-113.0
 30
0.0
 11
722.00000000000171
 21
-113.0
 31
0.0
1001
ACDBBLOCKREPETAG
1070
     1
1071
       25
1005
12E79F
  0
LINE
  5
12E7A0
  8
OBJECT
 10
722.00000000000171
 20
-113.0
 30
0.0
 11
722.00000000000171
 21
-77.0
 31
0.0
1001
ACDBBLOCKREPETAG
1070
     1
1071
       26
1005
12E7A0
  0
LINE
  5
12E7A1
  8
OBJECT
 10
622.50000000000136
 20
-117.0
 30
0.0
 11
622.50000000000136
 21
-124.0
 31
0.0
1001
ACDBBLOCKREPETAG
1070
     1
1071
       27
1005
12E7A1
  0
LINE
  5
12E7A2
  8
OBJECT
 10
717.50000000000136
 20
-124.0
 30
0.0
 11
717.50000000000136
 21
-117.0
 31
0.0
1001
ACDBBLOCKREPETAG
1070
     1
1071
       28
1005
12E7A2
  0
LINE
  5
12E7A3
  8
OBJECT
 10
717.50000000000136
 20
-117.0
 30
0.0
 11
622.50000000000136
 21
-117.0
 31
0.0
1001
ACDBBLOCKREPETAG
1070
     1
1071
       29
1005
12E7A3
  0
LINE
  5
12E7A4
  8
OBJECT
 10
618.00000000000136
 20
-113.0
 30
0.0
 11
622.50000000000136
 21
-117.0
 31
0.0
1001
ACDBBLOCKREPETAG
1070
     1
1071
       30
1005
12E7A4
  0
LINE
  5
12E7A5
  8
OBJECT
 10
722.00000000000171
 20
-113.0
 30
0.0
 11
717.50000000000136
 21
-117.0
 31
0.0
1001
ACDBBLOCKREPETAG
1070
     1
1071
       31
1005
12E7A5
  0
LINE
  5
12E7A6
  8
OBJECT
 10
608.00000000000159
 20
-126.9999999999991
 30
0.0
 11
608.00000000000159
 21
-130.0
 31
0.0
1001
ACDBBLOCKREPETAG
1070
     1
1071
       32
1005
12E7A6
  0
ARC
  5
12E7A7
  8
OBJECT
 10
611.00000000000159
 20
-126.9999999999991
 30
0.0
 40
3.0
 50
90.0
 51
180.0
1001
ACDBBLOCKREPETAG
1070
     1
1071
       33
1005
12E7A7
  0
LINE
  5
12E7A8
  8
OBJECT
 10
732.00000000000171
 20
-130.0
 30
0.0
 11
732.00000000000171
 21
-127.0000000000009
 31
0.0
1001
ACDBBLOCKREPETAG
1070
     1
1071
       34
1005
12E7A8
  0
ARC
  5
12E7A9
  8
OBJECT
 10
729.00000000000159
 20
-127.0000000000009
 30
0.0
 40
3.0
 50
0.0
 51
90.0
1001
ACDBBLOCKREPETAG
1070
     1
1071
       35
1005
12E7A9
  0
LINE
  5
12E7AA
  8
OBJECT
 10
729.00000000000159
 20
-124.0000000000009
 30
0.0
 11
611.00000000000159
 21
-123.9999999999991
 31
0.0
1001
ACDBBLOCKREPETAG
1070
     1
1071
       36
1005
12E7AA
  0
LINE
  5
12E7AB
  8
HIDDEN
 10
632.00000000000159
 20
-122.0
 30
0.0
 11
708.00000000000159
 21
-122.0
 31
0.0
1001
ACDBBLOCKREPETAG
1070
     1
1071
      423
1005
12E7AB
  0
LINE
  5
12E7AC
  8
OBJECT
 10
732.00000000000171
 20
-412.99999999998528
 30
0.0
 11
732.00000000000171
 21
-419.99999999998528
 31
0.0
1001
ACDBBLOCKREPETAG
1070
     1
1071
       74
1005
12E7AC
  0
LINE
  5
12E7AD
  8
OBJECT
 10
732.00000000000171
 20
-419.99999999998528
 30
0.0
 11
608.00000000000159
 21
-419.99999999998528
 31
0.0
1001
ACDBBLOCKREPETAG
1070
     1
1071
       75
1005
12E7AD
  0
LINE
  5
12E7AE
  8
OBJECT
 10
608.00000000000159
 20
-419.99999999998528
 30
0.0
 11
608.00000000000159
 21
-412.99999999998528
 31
0.0
1001
ACDBBLOCKREPETAG
1070
     1
1071
       76
1005
12E7AE
  0
LINE
  5
12E7AF
  8
OBJECT
 10
608.00000000000159
 20
-412.99999999998528
 30
0.0
 11
732.00000000000171
 21
-412.99999999998528
 31
0.0
1001
ACDBBLOCKREPETAG
1070
     1
1071
       77
1005
12E7AF
  0
LINE
  5
12E7B0
  8
OBJECT
 10
624.99999999999795
 20
-359.99997496418649
 30
0.0
 11
625.00000000000148
 21
-295.99999999999898
 31
0.0
1001
ACDBBLOCKREPETAG
1070
     1
1071
       78
1005
12E7B0
  0
LINE
  5
12E7B1
  8
OBJECT
 10
715.00000000000171
 20
-359.99997496418649
 30
0.0
 11
715.00000000000171
 21
-296.0000000000008
 31
0.0
1001
ACDBBLOCKREPETAG
1070
     1
1071
       79
1005
12E7B1
  0
LINE
  5
12E7B2
  8
OBJECT
 10
729.00000000000159
 20
-412.99999999998528
 30
0.0
 11
729.00000000000159
 21
-376.99999999998528
 31
0.0
1001
ACDBBLOCKREPETAG
1070
     1
1071
       80
1005
12E7B2
  0
LINE
  5
12E7B3
  8
OBJECT
 10
729.00000000000159
 20
-376.99999999998528
 30
0.0
 11
611.00000000000159
 21
-376.99999999998528
 31
0.0
1001
ACDBBLOCKREPETAG
1070
     1
1071
       81
1005
12E7B3
  0
LINE
  5
12E7B4
  8
OBJECT
 10
611.00000000000159
 20
-376.99999999998528
 30
0.0
 11
611.00000000000159
 21
-412.99999999998528
 31
0.0
1001
ACDBBLOCKREPETAG
1070
     1
1071
       82
1005
12E7B4
  0
LINE
  5
12E7B5
  8
OBJECT
 10
724.50000000000159
 20
-372.9999999999855
 30
0.0
 11
724.50000000000159
 21
-359.99999999998528
 31
0.0
1001
ACDBBLOCKREPETAG
1070
     1
1071
       83
1005
12E7B5
  0
LINE
  5
12E7B6
  8
OBJECT
 10
615.50000000000159
 20
-359.99999999998528
 30
0.0
 11
615.50000000000159
 21
-372.9999999999855
 31
0.0
1001
ACDBBLOCKREPETAG
1070
     1
1071
       84
1005
12E7B6
  0
LINE
  5
12E7B7
  8
OBJECT
 10
615.50000000000159
 20
-372.9999999999855
 30
0.0
 11
724.50000000000159
 21
-372.9999999999855
 31
0.0
1001
ACDBBLOCKREPETAG
1070
     1
1071
       85
1005
12E7B7
  0
LINE
  5
12E7B8
  8
OBJECT
 10
729.00000000000159
 20
-376.99999999998528
 30
0.0
 11
724.50000000000159
 21
-372.9999999999855
 31
0.0
1001
ACDBBLOCKREPETAG
1070
     1
1071
       86
1005
12E7B8
  0
LINE
  5
12E7B9
  8
OBJECT
 10
611.00000000000159
 20
-376.99999999998528
 30
0.0
 11
615.50000000000159
 21
-372.9999999999855
 31
0.0
1001
ACDBBLOCKREPETAG
1070
     1
1071
       87
1005
12E7B9
  0
LINE
  5
12E7BA
  8
OBJECT
 10
732.00000000000171
 20
-293.0000000000008
 30
0.0
 11
732.00000000000171
 21
-290.0
 31
0.0
1001
ACDBBLOCKREPETAG
1070
     1
1071
       88
1005
12E7BA
  0
ARC
  5
12E7BB
  8
OBJECT
 10
729.00000000000159
 20
-293.0000000000008
 30
0.0
 40
3.0
 50
270.0
 51
0.0
1001
ACDBBLOCKREPETAG
1070
     1
1071
       89
1005
12E7BB
  0
LINE
  5
12E7BC
  8
OBJECT
 10
608.00000000000159
 20
-290.0
 30
0.0
 11
608.00000000000159
 21
-292.99999999999898
 31
0.0
1001
ACDBBLOCKREPETAG
1070
     1
1071
       90
1005
12E7BC
  0
ARC
  5
12E7BD
  8
OBJECT
 10
611.00000000000159
 20
-292.99999999999898
 30
0.0
 40
3.0
 50
180.0
 51
270.0
1001
ACDBBLOCKREPETAG
1070
     1
1071
       91
1005
12E7BD
  0
LINE
  5
12E7BE
  8
OBJECT
 10
611.00000000000159
 20
-295.99999999999898
 30
0.0
 11
659.67720967964271
 21
-296.0000000000008
 31
0.0
1001
ACDBBLOCKREPETAG
1070
     1
1071
       92
1005
12E7BE
  0
LINE
  5
12E7BF
  8
OBJECT
 10
680.32279032036035
 20
-296.0
 30
0.0
 11
729.00000000000159
 21
-296.0000000000008
 31
0.0
1001
ACDBBLOCKREPETAG
1070
     1
1071
       93
1005
12E7BF
  0
LINE
  5
12E7C0
  8
OBJECT
 10
615.50004907618995
 20
-359.99997496418649
 30
0.0
 11
724.50004907619018
 21
-359.99997496418649
 31
0.0
1001
ACDBBLOCKREPETAG
1070
     1
1071
       95
1005
12E7C0
  0
ARC
  5
12E7C1
  8
OBJECT
 10
670.00000000000159
 20
-339.80000000002292
 30
0.0
 40
45.000000000000547
 50
0.0
 51
180.0
1001
ACDBBLOCKREPETAG
1070
     1
1071
       96
1005
12E7C1
  0
INSERT
  5
12E7C2
  8
OBJECT
  2
*U8
 10
0.0
 20
0.0
 30
0.0
  0
LINE
  5
12E7C3
  8
HIDDEN
 10
714.50000000000171
 20
-367.99999999998539
 30
0.0
 11
625.50000000000136
 21
-367.99999999998539
 31
0.0
1001
ACDBBLOCKREPETAG
1070
     1
1071
      431
1005
12E7C3
  0
LINE
  5
12E7C4
  8
OBJECT
 10
753.00000000000171
 20
-272.0
 30
0.0
 11
750.00000000000159
 21
-272.0
 31
0.0
1001
ACDBBLOCKREPETAG
1070
     1
1071
      418
1005
12E7C4
  0
ARC
  5
12E7C5
  8
OBJECT
 10
753.00000000000171
 20
-269.0
 30
0.0
 40
3.0
 50
270.0
 51
0.0
1001
ACDBBLOCKREPETAG
1070
     1
1071
      419
1005
12E7C5
  0
LINE
  5
12E7C6
  8
OBJECT
 10
750.00000000000159
 20
-148.0
 30
0.0
 11
753.00000000000171
 21
-148.0
 31
0.0
1001
ACDBBLOCKREPETAG
1070
     1
1071
      420
1005
12E7C6
  0
ARC
  5
12E7C7
  8
OBJECT
 10
753.00000000000171
 20
-151.0
 30
0.0
 40
3.0
 50
0.0
 51
90.0
1001
ACDBBLOCKREPETAG
1070
     1
1071
      421
1005
12E7C7
  0
LINE
  5
12E7C8
  8
OBJECT
 10
756.00000000000171
 20
-151.0
 30
0.0
 11
756.00000000000171
 21
-269.0
 31
0.0
1001
ACDBBLOCKREPETAG
1070
     1
1071
      422
1005
12E7C8
  0
LINE
  5
12E7C9
  8
OBJECT
 10
595.00000000000159
 20
-640.0
 30
0.0
 11
595.00000000000159
 21
-647.0
 31
0.0
1001
ACDBBLOCKREPETAG
1070
     1
1071
       57
1005
12E7C9
  0
LINE
  5
12E7CA
  8
OBJECT
 10
595.00000000000159
 20
-647.0
 30
0.0
 11
745.00000000000171
 21
-647.0
 31
0.0
1001
ACDBBLOCKREPETAG
1070
     1
1071
       58
1005
12E7CA
  0
LINE
  5
12E7CB
  8
OBJECT
 10
598.00000000000159
 20
-688.49999999999977
 30
0.0
 11
742.00000000000159
 21
-688.49999999999977
 31
0.0
1001
ACDBBLOCKREPETAG
1070
     1
1071
       59
1005
12E7CB
  0
LINE
  5
12E7CC
  8
OBJECT
 10
604.50000000000148
 20
-700.0
 30
0.0
 11
735.50000000000171
 21
-700.0
 31
0.0
1001
ACDBBLOCKREPETAG
1070
     1
1071
       60
1005
12E7CC
  0
LINE
  5
12E7CD
  8
OBJECT
 10
745.00000000000171
 20
-647.0
 30
0.0
 11
745.00000000000171
 21
-640.0
 31
0.0
1001
ACDBBLOCKREPETAG
1070
     1
1071
       61
1005
12E7CD
  0
LINE
  5
12E7CE
  8
OBJECT
 10
745.00000000000171
 20
-640.0
 30
0.0
 11
595.00000000000159
 21
-640.0
 31
0.0
1001
ACDBBLOCKREPETAG
1070
     1
1071
       62
1005
12E7CE
  0
LINE
  5
12E7CF
  8
OBJECT
 10
732.00000000000171
 20
-704.0
 30
0.0
 11
732.00000000000171
 21
-710.0
 31
0.0
1001
ACDBBLOCKREPETAG
1070
     1
1071
       63
1005
12E7CF
  0
LINE
  5
12E7D0
  8
OBJECT
 10
742.00000000000159
 20
-647.0
 30
0.0
 11
742.00000000000159
 21
-688.49999999999977
 31
0.0
1001
ACDBBLOCKREPETAG
1070
     1
1071
       64
1005
12E7D0
  0
LINE
  5
12E7D1
  8
OBJECT
 10
742.00000000000159
 20
-688.49999999999977
 30
0.0
 11
735.50000000000171
 21
-700.0
 31
0.0
1001
ACDBBLOCKREPETAG
1070
     1
1071
       65
1005
12E7D1
  0
LINE
  5
12E7D2
  8
OBJECT
 10
735.50000000000171
 20
-700.0
 30
0.0
 11
732.00000000000171
 21
-704.0
 31
0.0
1001
ACDBBLOCKREPETAG
1070
     1
1071
       66
1005
12E7D2
  0
LINE
  5
12E7D3
  8
OBJECT
 10
598.00000000000159
 20
-688.49999999999977
 30
0.0
 11
604.50000000000148
 21
-700.0
 31
0.0
1001
ACDBBLOCKREPETAG
1070
     1
1071
       67
1005
12E7D3
  0
LINE
  5
12E7D4
  8
OBJECT
 10
604.50000000000148
 20
-700.0
 30
0.0
 11
608.00000000000159
 21
-704.0
 31
0.0
1001
ACDBBLOCKREPETAG
1070
     1
1071
       68
1005
12E7D4
  0
ARC
  5
12E7D5
  8
OBJECT
 10
670.00000000000159
 20
-322.09999999999849
 30
0.0
 40
386.89999999999998
 50
260.77870136257951
 51
279.22129863742049
1001
ACDBBLOCKREPETAG
1070
     1
1071
       69
1005
12E7D5
  0
LINE
  5
12E7D6
  8
OBJECT
 10
608.00000000000159
 20
-704.0
 30
0.0
 11
608.00000000000159
 21
-710.0
 31
0.0
1001
ACDBBLOCKREPETAG
1070
     1
1071
       70
1005
12E7D6
  0
LINE
  5
12E7D7
  8
OBJECT
 10
598.00000000000159
 20
-647.0
 30
0.0
 11
598.00000000000159
 21
-688.49999999999977
 31
0.0
1001
ACDBBLOCKREPETAG
1070
     1
1071
       71
1005
12E7D7
  0
INSERT
  5
12E7D8
  8
OBJECT
  2
*U9
 10
0.0
 20
0.0
 30
0.0
  0
LINE
  5
12E7D9
  8
HIDDEN
 10
727.00000000000171
 20
-692.0
 30
0.0
 11
613.00000000000136
 21
-692.0
 31
0.0
1001
ACDBBLOCKREPETAG
1070
     1
1071
      431
1005
12E7D9
  0
LINE
  5
12E7DA
  8
OBJECT
 10
732.00000000000171
 20
-992.99999999998545
 30
0.0
 11
732.00000000000171
 21
-999.99999999998545
 31
0.0
1001
ACDBBLOCKREPETAG
1070
     1
1071
       74
1005
12E7DA
  0
LINE
  5
12E7DB
  8
OBJECT
 10
732.00000000000171
 20
-999.99999999998545
 30
0.0
 11
608.00000000000159
 21
-999.99999999998545
 31
0.0
1001
ACDBBLOCKREPETAG
1070
     1
1071
       75
1005
12E7DB
  0
LINE
  5
12E7DC
  8
OBJECT
 10
608.00000000000159
 20
-999.99999999998545
 30
0.0
 11
608.00000000000159
 21
-992.99999999998545
 31
0.0
1001
ACDBBLOCKREPETAG
1070
     1
1071
       76
1005
12E7DC
  0
LINE
  5
12E7DD
  8
OBJECT
 10
608.00000000000159
 20
-992.99999999998545
 30
0.0
 11
732.00000000000171
 21
-992.99999999998545
 31
0.0
1001
ACDBBLOCKREPETAG
1070
     1
1071
       77
1005
12E7DD
  0
LINE
  5
12E7DE
  8
OBJECT
 10
624.99999999999795
 20
-939.99997496418644
 30
0.0
 11
625.00000000000148
 21
-875.99999999999886
 31
0.0
1001
ACDBBLOCKREPETAG
1070
     1
1071
       78
1005
12E7DE
  0
LINE
  5
12E7DF
  8
OBJECT
 10
715.00000000000171
 20
-939.99997496418644
 30
0.0
 11
715.00000000000171
 21
-876.0000000000008
 31
0.0
1001
ACDBBLOCKREPETAG
1070
     1
1071
       79
1005
12E7DF
  0
LINE
  5
12E7E0
  8
OBJECT
 10
729.00000000000159
 20
-992.99999999998545
 30
0.0
 11
729.00000000000159
 21
-956.99999999998545
 31
0.0
1001
ACDBBLOCKREPETAG
1070
     1
1071
       80
1005
12E7E0
  0
LINE
  5
12E7E1
  8
OBJECT
 10
729.00000000000159
 20
-956.99999999998545
 30
0.0
 11
611.00000000000159
 21
-956.99999999998545
 31
0.0
1001
ACDBBLOCKREPETAG
1070
     1
1071
       81
1005
12E7E1
  0
LINE
  5
12E7E2
  8
OBJECT
 10
611.00000000000159
 20
-956.99999999998545
 30
0.0
 11
611.00000000000159
 21
-992.99999999998545
 31
0.0
1001
ACDBBLOCKREPETAG
1070
     1
1071
       82
1005
12E7E2
  0
LINE
  5
12E7E3
  8
OBJECT
 10
724.50000000000159
 20
-952.99999999998545
 30
0.0
 11
724.50000000000159
 21
-939.99999999998545
 31
0.0
1001
ACDBBLOCKREPETAG
1070
     1
1071
       83
1005
12E7E3
  0
LINE
  5
12E7E4
  8
OBJECT
 10
615.50000000000159
 20
-939.99999999998545
 30
0.0
 11
615.50000000000159
 21
-952.99999999998545
 31
0.0
1001
ACDBBLOCKREPETAG
1070
     1
1071
       84
1005
12E7E4
  0
LINE
  5
12E7E5
  8
OBJECT
 10
615.50000000000159
 20
-952.99999999998545
 30
0.0
 11
724.50000000000159
 21
-952.99999999998545
 31
0.0
1001
ACDBBLOCKREPETAG
1070
     1
1071
       85
1005
12E7E5
  0
LINE
  5
12E7E6
  8
OBJECT
 10
729.00000000000159
 20
-956.99999999998545
 30
0.0
 11
724.50000000000159
 21
-952.99999999998545
 31
0.0
1001
ACDBBLOCKREPETAG
1070
     1
1071
       86
1005
12E7E6
  0
LINE
  5
12E7E7
  8
OBJECT
 10
611.00000000000159
 20
-956.99999999998545
 30
0.0
 11
615.50000000000159
 21
-952.99999999998545
 31
0.0
1001
ACDBBLOCKREPETAG
1070
     1
1071
       87
1005
12E7E7
  0
LINE
  5
12E7E8
  8
OBJECT
 10
732.00000000000171
 20
-873.00000000000114
 30
0.0
 11
732.00000000000171
 21
-870.0
 31
0.0
1001
ACDBBLOCKREPETAG
1070
     1
1071
       88
1005
12E7E8
  0
ARC
  5
12E7E9
  8
OBJECT
 10
729.00000000000159
 20
-873.00000000000114
 30
0.0
 40
3.0
 50
270.0
 51
0.0
1001
ACDBBLOCKREPETAG
1070
     1
1071
       89
1005
12E7E9
  0
LINE
  5
12E7EA
  8
OBJECT
 10
608.00000000000159
 20
-870.0
 30
0.0
 11
608.00000000000159
 21
-872.99999999999909
 31
0.0
1001
ACDBBLOCKREPETAG
1070
     1
1071
       90
1005
12E7EA
  0
ARC
  5
12E7EB
  8
OBJECT
 10
611.00000000000159
 20
-872.99999999999909
 30
0.0
 40
3.0
 50
180.0
 51
270.0
1001
ACDBBLOCKREPETAG
1070
     1
1071
       91
1005
12E7EB
  0
LINE
  5
12E7EC
  8
OBJECT
 10
611.00000000000159
 20
-875.99999999999886
 30
0.0
 11
659.67720967964271
 21
-876.0000000000008
 31
0.0
1001
ACDBBLOCKREPETAG
1070
     1
1071
       92
1005
12E7EC
  0
LINE
  5
12E7ED
  8
OBJECT
 10
680.32279032036035
 20
-876.0
 30
0.0
 11
729.00000000000159
 21
-876.0000000000008
 31
0.0
1001
ACDBBLOCKREPETAG
1070
     1
1071
       93
1005
12E7ED
  0
LINE
  5
12E7EE
  8
OBJECT
 10
615.50004907618995
 20
-939.99997496418644
 30
0.0
 11
724.50004907619018
 21
-939.99997496418644
 31
0.0
1001
ACDBBLOCKREPETAG
1070
     1
1071
       95
1005
12E7EE
  0
ARC
  5
12E7EF
  8
OBJECT
 10
670.00000000000159
 20
-919.80000000002269
 30
0.0
 40
45.000000000000547
 50
0.0
 51
180.0
1001
ACDBBLOCKREPETAG
1070
     1
1071
       96
1005
12E7EF
  0
INSERT
  5
12E7F0
  8
OBJECT
  2
*U10
 10
0.0
 20
0.0
 30
0.0
  0
LINE
  5
12E7F1
  8
HIDDEN
 10
714.50000000000171
 20
-947.99999999998545
 30
0.0
 11
625.50000000000136
 21
-947.99999999998545
 31
0.0
1001
ACDBBLOCKREPETAG
1070
     1
1071
      431
1005
12E7F1
  0
LINE
  5
12E7F2
  8
OBJECT
 10
753.00000000000171
 20
-852.0
 30
0.0
 11
750.00000000000159
 21
-852.0
 31
0.0
1001
ACDBBLOCKREPETAG
1070
     1
1071
      418
1005
12E7F2
  0
ARC
  5
12E7F3
  8
OBJECT
 10
753.00000000000171
 20
-849.0
 30
0.0
 40
3.0
 50
270.0
 51
0.0
1001
ACDBBLOCKREPETAG
1070
     1
1071
      419
1005
12E7F3
  0
LINE
  5
12E7F4
  8
OBJECT
 10
750.00000000000159
 20
-728.0
 30
0.0
 11
753.00000000000171
 21
-728.0
 31
0.0
1001
ACDBBLOCKREPETAG
1070
     1
1071
      420
1005
12E7F4
  0
ARC
  5
12E7F5
  8
OBJECT
 10
753.00000000000171
 20
-731.0
 30
0.0
 40
3.0
 50
0.0
 51
90.0
1001
ACDBBLOCKREPETAG
1070
     1
1071
      421
1005
12E7F5
  0
LINE
  5
12E7F6
  8
OBJECT
 10
756.00000000000171
 20
-731.0
 30
0.0
 11
756.00000000000171
 21
-849.0
 31
0.0
1001
ACDBBLOCKREPETAG
1070
     1
1071
      422
1005
12E7F6
  0
POLYLINE
  5
12E7F7
  8
HIDDEN
 66
     1
 10
0.0
 20
0.0
 30
0.0
 70
     1
  0
VERTEX
  5
12EBC3
  8
HIDDEN
 10
0.0
 20
0.0
 30
0.0
  0
VERTEX
  5
12EBC4
  8
HIDDEN
 10
450.0
 20
0.0
 30
0.0
  0
VERTEX
  5
12EBC5
  8
HIDDEN
 10
450.0
 20
-580.0
 30
0.0
  0
VERTEX
  5
12EBC6
  8
HIDDEN
 10
0.0
 20
-580.0
 30
0.0
  0
SEQEND
  5
12EBC7
  8
HIDDEN
  0
POLYLINE
  5
12E7F8
  8
HIDDEN
 66
     1
 10
0.0
 20
0.0
 30
0.0
 70
     1
  0
VERTEX
  5
12EBC8
  8
HIDDEN
 10
450.0
 20
0.0
 30
0.0
  0
VERTEX
  5
12EBC9
  8
HIDDEN
 10
900.0
 20
0.0
 30
0.0
  0
VERTEX
  5
12EBCA
  8
HIDDEN
 10
900.0
 20
-580.0
 30
0.0
  0
VERTEX
  5
12EBCB
  8
HIDDEN
 10
450.0
 20
-580.0
 30
0.0
  0
SEQEND
  5
12EBCC
  8
HIDDEN
  0
POLYLINE
  5
12E7F9
  8
HIDDEN
 66
     1
 10
0.0
 20
0.0
 30
0.0
 70
     1
  0
VERTEX
  5
12EBCD
  8
HIDDEN
 10
0.0
 20
-580.0
 30
0.0
  0
VERTEX
  5
12EBCE
  8
HIDDEN
 10
450.0
 20
-580.0
 30
0.0
  0
VERTEX
  5
12EBCF
  8
HIDDEN
 10
450.0
 20
-1160.0
 30
0.0
  0
VERTEX
  5
12EBD0
  8
HIDDEN
 10
0.0
 20
-1160.0
 30
0.0
  0
SEQEND
  5
12EBD1
  8
HIDDEN
  0
POLYLINE
  5
12E7FA
  8
HIDDEN
 66
     1
 10
0.0
 20
0.0
 30
0.0
 70
     1
  0
VERTEX
  5
12EBD2
  8
HIDDEN
 10
450.0
 20
-580.0
 30
0.0
  0
VERTEX
  5
12EBD3
  8
HIDDEN
 10
900.0
 20
-580.0
 30
0.0
  0
VERTEX
  5
12EBD4
  8
HIDDEN
 10
900.0
 20
-1160.0
 30
0.0
  0
VERTEX
  5
12EBD5
  8
HIDDEN
 10
450.0
 20
-1160.0
 30
0.0
  0
SEQEND
  5
12EBD6
  8
HIDDEN
  0
CIRCLE
  5
12E7FB
  8
OBJECT
 10
5000.0
 20
-3174.9999999999959
 30
0.0
 40
53.5
1001
ACDBBLOCKREPETAG
1070
     1
1071
      344
1005
12E7FB
  0
LINE
  5
12E7FC
  8
CENTER
 10
5080.0
 20
-3174.9999999999959
 30
0.0
 11
4905.0
 21
-3174.9999999999959
 31
0.0
1001
ACDBBLOCKREPETAG
1070
     1
1071
       14
1005
12E7FC
  0
LINE
  5
12E7FD
  8
CENTER
 10
5000.0
 20
-3269.9999999999959
 30
0.0
 11
5000.0
 21
-3079.9999999999959
 31
0.0
1001
ACDBBLOCKREPETAG
1070
     1
1071
       15
1005
12E7FD
  0
CIRCLE
  5
12E7FE
  8
OBJECT
 10
5000.0
 20
-3174.9999999999959
 30
0.0
 40
70.0
1001
ACDBBLOCKREPETAG
1070
     1
1071
       16
1005
12E7FE
  0
CIRCLE
  5
12E7FF
  8
OBJECT
 10
5000.0
 20
-3174.9999999999959
 30
0.0
 40
77.0
1001
ACDBBLOCKREPETAG
1070
     1
1071
       17
1005
12E7FF
  0
ARC
  5
12E800
  8
OBJECT
 10
5000.0
 20
-3174.9999999999959
 30
0.0
 40
80.0
 50
50.805032573882329
 51
309.19496742611773
1001
ACDBBLOCKREPETAG
1070
     1
1071
       18
1005
12E800
  0
LINE
  5
12E801
  8
OBJECT
 10
5045.6618002273253
 20
-3112.9999999999959
 30
0.0
 11
5080.0
 21
-3112.9999999999959
 31
0.0
1001
ACDBBLOCKREPETAG
1070
     1
1071
       19
1005
12E801
  0
LINE
  5
12E802
  8
OBJECT
 10
5045.6618002273253
 20
-3236.9999999999959
 30
0.0
 11
5080.0
 21
-3236.9999999999959
 31
0.0
1001
ACDBBLOCKREPETAG
1070
     1
1071
       20
1005
12E802
  0
POINT
  5
12E803
  8
DOTS
 10
5000.0
 20
-3174.9999999999959
 30
0.0
1001
ACDBBLOCKREPETAG
1070
     1
1071
       21
1005
12E803
  0
CIRCLE
  5
12E804
  8
OBJECT
 10
4000.0
 20
-3174.9999999999959
 30
0.0
 40
53.5
1001
ACDBBLOCKREPETAG
1070
     1
1071
      344
1005
12E804
  0
LINE
  5
12E805
  8
CENTER
 10
4080.0
 20
-3174.9999999999959
 30
0.0
 11
3905.0
 21
-3174.9999999999959
 31
0.0
1001
ACDBBLOCKREPETAG
1070
     1
1071
       14
1005
12E805
  0
LINE
  5
12E806
  8
CENTER
 10
4000.0
 20
-3269.9999999999959
 30
0.0
 11
4000.0
 21
-3079.9999999999959
 31
0.0
1001
ACDBBLOCKREPETAG
1070
     1
1071
       15
1005
12E806
  0
CIRCLE
  5
12E807
  8
OBJECT
 10
4000.0
 20
-3174.9999999999959
 30
0.0
 40
70.0
1001
ACDBBLOCKREPETAG
1070
     1
1071
       16
1005
12E807
  0
CIRCLE
  5
12E808
  8
OBJECT
 10
4000.0
 20
-3174.9999999999959
 30
0.0
 40
77.0
1001
ACDBBLOCKREPETAG
1070
     1
1071
       17
1005
12E808
  0
ARC
  5
12E809
  8
OBJECT
 10
4000.0
 20
-3174.9999999999959
 30
0.0
 40
80.0
 50
50.805032573862128
 51
309.19496742613791
1001
ACDBBLOCKREPETAG
1070
     1
1071
       18
1005
12E809
  0
LINE
  5
12E80A
  8
OBJECT
 10
4045.661800227324
 20
-3112.9999999999959
 30
0.0
 11
4080.0
 21
-3112.9999999999959
 31
0.0
1001
ACDBBLOCKREPETAG
1070
     1
1071
       19
1005
12E80A
  0
LINE
  5
12E80B
  8
OBJECT
 10
4045.661800227324
 20
-3236.9999999999959
 30
0.0
 11
4080.0
 21
-3236.9999999999959
 31
0.0
1001
ACDBBLOCKREPETAG
1070
     1
1071
       20
1005
12E80B
  0
POINT
  5
12E80C
  8
DOTS
 10
4000.0
 20
-3174.9999999999959
 30
0.0
1001
ACDBBLOCKREPETAG
1070
     1
1071
       21
1005
12E80C
  0
CIRCLE
  5
12E80D
  8
OBJECT
 10
3000.0
 20
-3174.9999999999959
 30
0.0
 40
53.5
1001
ACDBBLOCKREPETAG
1070
     1
1071
      344
1005
12E80D
  0
LINE
  5
12E80E
  8
CENTER
 10
3080.0
 20
-3174.9999999999959
 30
0.0
 11
2905.0
 21
-3174.9999999999959
 31
0.0
1001
ACDBBLOCKREPETAG
1070
     1
1071
       14
1005
12E80E
  0
LINE
  5
12E80F
  8
CENTER
 10
3000.0
 20
-3269.9999999999959
 30
0.0
 11
3000.0
 21
-3079.9999999999959
 31
0.0
1001
ACDBBLOCKREPETAG
1070
     1
1071
       15
1005
12E80F
  0
CIRCLE
  5
12E810
  8
OBJECT
 10
3000.0
 20
-3174.9999999999959
 30
0.0
 40
70.0
1001
ACDBBLOCKREPETAG
1070
     1
1071
       16
1005
12E810
  0
CIRCLE
  5
12E811
  8
OBJECT
 10
3000.0
 20
-3174.9999999999959
 30
0.0
 40
77.0
1001
ACDBBLOCKREPETAG
1070
     1
1071
       17
1005
12E811
  0
ARC
  5
12E812
  8
OBJECT
 10
3000.0
 20
-3174.9999999999959
 30
0.0
 40
80.0
 50
50.805032573862128
 51
309.19496742613791
1001
ACDBBLOCKREPETAG
1070
     1
1071
       18
1005
12E812
  0
LINE
  5
12E813
  8
OBJECT
 10
3045.6618002273249
 20
-3112.9999999999959
 30
0.0
 11
3080.0
 21
-3112.9999999999959
 31
0.0
1001
ACDBBLOCKREPETAG
1070
     1
1071
       19
1005
12E813
  0
LINE
  5
12E814
  8
OBJECT
 10
3045.6618002273249
 20
-3236.9999999999959
 30
0.0
 11
3080.0
 21
-3236.9999999999959
 31
0.0
1001
ACDBBLOCKREPETAG
1070
     1
1071
       20
1005
12E814
  0
POINT
  5
12E815
  8
DOTS
 10
3000.0
 20
-3174.9999999999959
 30
0.0
1001
ACDBBLOCKREPETAG
1070
     1
1071
       21
1005
12E815
  0
CIRCLE
  5
12E816
  8
OBJECT
 10
2000.0
 20
-3174.9999999999959
 30
0.0
 40
53.5
1001
ACDBBLOCKREPETAG
1070
     1
1071
      344
1005
12E816
  0
LINE
  5
12E817
  8
CENTER
 10
2080.0
 20
-3174.9999999999959
 30
0.0
 11
1905.0
 21
-3174.9999999999959
 31
0.0
1001
ACDBBLOCKREPETAG
1070
     1
1071
       14
1005
12E817
  0
LINE
  5
12E818
  8
CENTER
 10
2000.0
 20
-3269.9999999999959
 30
0.0
 11
2000.0
 21
-3079.9999999999959
 31
0.0
1001
ACDBBLOCKREPETAG
1070
     1
1071
       15
1005
12E818
  0
CIRCLE
  5
12E819
  8
OBJECT
 10
2000.0
 20
-3174.9999999999959
 30
0.0
 40
70.0
1001
ACDBBLOCKREPETAG
1070
     1
1071
       16
1005
12E819
  0
CIRCLE
  5
12E81A
  8
OBJECT
 10
2000.0
 20
-3174.9999999999959
 30
0.0
 40
77.0
1001
ACDBBLOCKREPETAG
1070
     1
1071
       17
1005
12E81A
  0
ARC
  5
12E81B
  8
OBJECT
 10
2000.0
 20
-3174.9999999999959
 30
0.0
 40
80.0
 50
50.805032573862128
 51
309.19496742613791
1001
ACDBBLOCKREPETAG
1070
     1
1071
       18
1005
12E81B
  0
LINE
  5
12E81C
  8
OBJECT
 10
2045.6618002273251
 20
-3112.9999999999959
 30
0.0
 11
2080.0
 21
-3112.9999999999959
 31
0.0
1001
ACDBBLOCKREPETAG
1070
     1
1071
       19
1005
12E81C
  0
LINE
  5
12E81D
  8
OBJECT
 10
2045.6618002273251
 20
-3236.9999999999959
 30
0.0
 11
2080.0
 21
-3236.9999999999959
 31
0.0
1001
ACDBBLOCKREPETAG
1070
     1
1071
       20
1005
12E81D
  0
POINT
  5
12E81E
  8
DOTS
 10
2000.0
 20
-3174.9999999999959
 30
0.0
1001
ACDBBLOCKREPETAG
1070
     1
1071
       21
1005
12E81E
  0
LINE
  5
12E81F
  8
SLIM
 10
3945.2566704261012
 20
-137.99999999999909
 30
0.0
 11
3955.9548403695781
 21
-127.30183005652231
 31
0.0
1001
GRADIENTCOLOR1ACI
1070
     5
1001
GRADIENTCOLOR2ACI
1070
     2
1001
ACAD
1010
0.0
1020
0.0
1030
0.0
1001
ACDBBLOCKREPETAG
1070
     1
1071
      422
1005
12E81F
  0
LINE
  5
12E820
  8
SLIM
 10
3954.2369265471712
 20
-137.99999999999909
 30
0.0
 11
3972.7507744763329
 21
-119.4861520708364
 31
0.0
1001
GRADIENTCOLOR1ACI
1070
     5
1001
GRADIENTCOLOR2ACI
1070
     2
1001
ACAD
1010
0.0
1020
0.0
1030
0.0
1001
ACDBBLOCKREPETAG
1070
     1
1071
      423
1005
12E820
  0
LINE
  5
12E821
  8
SLIM
 10
3973.521224312457
 20
-127.6959583557812
 30
0.0
 11
3984.8575146748631
 21
-116.359667993377
 31
0.0
1001
GRADIENTCOLOR1ACI
1070
     5
1001
GRADIENTCOLOR2ACI
1070
     2
1001
ACAD
1010
0.0
1020
0.0
1030
0.0
1001
ACDBBLOCKREPETAG
1070
     1
1071
      424
1005
12E821
  0
LINE
  5
12E822
  8
SLIM
 10
3985.8944171461271
 20
-124.30302164318159
 30
0.0
 11
3995.0533812002559
 21
-115.1440575890517
 31
0.0
1001
GRADIENTCOLOR1ACI
1070
     5
1001
GRADIENTCOLOR2ACI
1070
     2
1001
ACAD
1010
0.0
1020
0.0
1030
0.0
1001
ACDBBLOCKREPETAG
1070
     1
1071
      425
1005
12E822
  0
LINE
  5
12E823
  8
SLIM
 10
3996.0777327492078
 20
-123.0999621611699
 30
0.0
 11
4000.0
 21
-119.1776949103767
 31
0.0
1001
GRADIENTCOLOR1ACI
1070
     5
1001
GRADIENTCOLOR2ACI
1070
     2
1001
ACAD
1010
0.0
1020
0.0
1030
0.0
1001
ACDBBLOCKREPETAG
1070
     1
1071
      426
1005
12E823
  0
LINE
  5
12E824
  8
SLIM
 10
4000.0
 20
-119.1776949103767
 30
0.0
 11
4004.0797313529042
 21
-115.0979635574724
 31
0.0
1001
GRADIENTCOLOR1ACI
1070
     5
1001
GRADIENTCOLOR2ACI
1070
     2
1001
ACAD
1010
0.0
1020
0.0
1030
0.0
1001
ACDBBLOCKREPETAG
1070
     1
1071
      427
1005
12E824
  0
LINE
  5
12E825
  8
SLIM
 10
4004.9957202542769
 20
-123.1622307771683
 30
0.0
 11
4012.2679784105749
 21
-115.88997262087101
 31
0.0
1001
GRADIENTCOLOR1ACI
1070
     5
1001
GRADIENTCOLOR2ACI
1070
     2
1001
ACAD
1010
0.0
1020
0.0
1030
0.0
1001
ACDBBLOCKREPETAG
1070
     1
1071
      428
1005
12E825
  0
LINE
  5
12E826
  8
SLIM
 10
4013.028059366964
 20
-124.1101477855505
 30
0.0
 11
4019.799941457361
 21
-117.3382656951526
 31
0.0
1001
GRADIENTCOLOR1ACI
1070
     5
1001
GRADIENTCOLOR2ACI
1070
     2
1001
ACAD
1010
0.0
1020
0.0
1030
0.0
1001
ACDBBLOCKREPETAG
1070
     1
1071
      429
1005
12E826
  0
LINE
  5
12E827
  8
SLIM
 10
4020.3740813142458
 20
-125.7443819593383
 30
0.0
 11
4026.7872038672799
 21
-119.3312594063044
 31
0.0
1001
GRADIENTCOLOR1ACI
1070
     5
1001
GRADIENTCOLOR2ACI
1070
     2
1001
ACAD
1010
0.0
1020
0.0
1030
0.0
1001
ACDBBLOCKREPETAG
1070
     1
1071
      430
1005
12E827
  0
LINE
  5
12E828
  8
SLIM
 10
4027.1524719988752
 20
-127.946247395778
 30
0.0
 11
4033.3030030760328
 21
-121.7957163186195
 31
0.0
1001
GRADIENTCOLOR1ACI
1070
     5
1001
GRADIENTCOLOR2ACI
1070
     2
1001
ACAD
1010
0.0
1020
0.0
1030
0.0
1001
ACDBBLOCKREPETAG
1070
     1
1071
      431
1005
12E828
  0
LINE
  5
12E829
  8
SLIM
 10
4033.4390986513308
 20
-130.63987686439191
 30
0.0
 11
4039.3973119843781
 21
-124.6816635313439
 31
0.0
1001
GRADIENTCOLOR1ACI
1070
     5
1001
GRADIENTCOLOR2ACI
1070
     2
1001
ACAD
1010
0.0
1020
0.0
1030
0.0
1001
ACDBBLOCKREPETAG
1070
     1
1071
      432
1005
12E829
  0
LINE
  5
12E82A
  8
SLIM
 10
4039.284224621797
 20
-133.77500701499321
 30
0.0
 11
4045.1047705343681
 21
-127.95446110242381
 31
0.0
1001
GRADIENTCOLOR1ACI
1070
     5
1001
GRADIENTCOLOR2ACI
1070
     2
1001
ACAD
1010
0.0
1020
0.0
1030
0.0
1001
ACDBBLOCKREPETAG
1070
     1
1071
      433
1005
12E82A
  0
LINE
  5
12E82B
  8
SLIM
 10
4044.7212801698038
 20
-137.31820758805651
 30
0.0
 11
4050.4491557891961
 21
-131.59033196866449
 31
0.0
1001
GRADIENTCOLOR1ACI
1070
     5
1001
GRADIENTCOLOR2ACI
1070
     2
1001
ACAD
1010
0.0
1020
0.0
1030
0.0
1001
ACDBBLOCKREPETAG
1070
     1
1071
      434
1005
12E82B
  0
LINE
  5
12E82C
  8
SLIM
 10
4053.0197438789291
 20
-137.99999999999909
 30
0.0
 11
4055.4459941864038
 21
-135.57374969252561
 31
0.0
1001
GRADIENTCOLOR1ACI
1070
     5
1001
GRADIENTCOLOR2ACI
1070
     2
1001
ACAD
1010
0.0
1020
0.0
1030
0.0
1001
ACDBBLOCKREPETAG
1070
     1
1071
      435
1005
12E82C
  0
LINE
  5
12E82D
  8
CENTER
 10
4000.0
 20
-279.99999999999909
 30
0.0
 11
4000.0
 21
-99.999999999999091
 31
0.0
1001
ACDBBLOCKREPETAG
1070
     1
1071
      160
1005
12E82D
  0
CIRCLE
  5
12E82E
  8
OBJECT
 10
4000.0
 20
-199.99999999999909
 30
0.0
 40
70.0
1001
ACDBBLOCKREPETAG
1070
     1
1071
      161
1005
12E82E
  0
CIRCLE
  5
12E82F
  8
OBJECT
 10
4000.0
 20
-199.99999999999909
 30
0.0
 40
77.0
1001
ACDBBLOCKREPETAG
1070
     1
1071
      162
1005
12E82F
  0
LINE
  5
12E830
  8
OBJECT
 10
4045.661800227324
 20
-137.99999999999909
 30
0.0
 11
4080.0
 21
-137.99999999999909
 31
0.0
1001
ACDBBLOCKREPETAG
1070
     1
1071
      164
1005
12E830
  0
LINE
  5
12E831
  8
OBJECT
 10
4062.0
 20
-261.99999999999909
 30
0.0
 11
4080.0
 21
-261.99999999999909
 31
0.0
1001
ACDBBLOCKREPETAG
1070
     1
1071
      165
1005
12E831
  0
LINE
  5
12E832
  8
OBJECT
 10
4062.0
 20
-261.99999999999909
 30
0.0
 11
4062.0
 21
-279.99999999999909
 31
0.0
1001
ACDBBLOCKREPETAG
1070
     1
1071
      167
1005
12E832
  0
LINE
  5
12E833
  8
OBJECT
 10
3938.0
 20
-261.99999999999909
 30
0.0
 11
3938.0
 21
-279.99999999999909
 31
0.0
1001
ACDBBLOCKREPETAG
1070
     1
1071
      168
1005
12E833
  0
LINE
  5
12E834
  8
OBJECT
 10
3938.0
 20
-261.99999999999909
 30
0.0
 11
3920.0
 21
-261.99999999999909
 31
0.0
1001
ACDBBLOCKREPETAG
1070
     1
1071
      170
1005
12E834
  0
LINE
  5
12E835
  8
OBJECT
 10
3954.338199772676
 20
-137.99999999999909
 30
0.0
 11
3920.0
 21
-137.99999999999909
 31
0.0
1001
ACDBBLOCKREPETAG
1070
     1
1071
      171
1005
12E835
  0
LINE
  5
12E836
  8
OBJECT
 10
3945.5527778486362
 20
-254.44722215136329
 30
0.0
 11
3938.0
 21
-261.99999999999909
 31
0.0
1001
ACDBBLOCKREPETAG
1070
     1
1071
      180
1005
12E836
  0
LINE
  5
12E837
  8
OBJECT
 10
4054.4472221513638
 20
-254.44722215136329
 30
0.0
 11
4062.0
 21
-261.99999999999909
 31
0.0
1001
ACDBBLOCKREPETAG
1070
     1
1071
      181
1005
12E837
  0
POINT
  5
12E838
  8
DOTS
 10
4000.0
 20
-199.99999999999909
 30
0.0
 50
270.0
1001
ACDBBLOCKREPETAG
1070
     1
1071
      182
1005
12E838
  0
ARC
  5
12E839
  8
OBJECT
 10
4000.0
 20
-199.99999999999909
 30
0.0
 40
85.0
 50
46.837102859806208
 51
133.16289714019371
1001
ACDBBLOCKREPETAG
1070
     1
1071
      183
1005
12E839
  0
CIRCLE
  5
12E83A
  8
OBJECT
 10
4000.0
 20
-199.99999999999909
 30
0.0
 40
53.5
1001
ACDBBLOCKREPETAG
1070
     1
1071
      352
1005
12E83A
  0
LINE
  5
12E83B
  8
CENTER
 10
4080.0
 20
-199.99999999999909
 30
0.0
 11
3920.0
 21
-199.99999999999909
 31
0.0
1001
ACDBBLOCKREPETAG
1070
     1
1071
      158
1005
12E83B
  0
CIRCLE
  5
12E83C
  8
OBJECT
 10
2000.0
 20
-199.99999999999909
 30
0.0
 40
53.5
1001
ACDBBLOCKREPETAG
1070
     1
1071
      340
1005
12E83C
  0
LINE
  5
12E83D
  8
CENTER
 10
2080.0
 20
-199.99999999999909
 30
0.0
 11
1920.0
 21
-199.99999999999909
 31
0.0
1001
ACDBBLOCKREPETAG
1070
     1
1071
       49
1005
12E83D
  0
LINE
  5
12E83E
  8
CENTER
 10
2000.0
 20
-279.99999999999909
 30
0.0
 11
2000.0
 21
-104.9999999999991
 31
0.0
1001
ACDBBLOCKREPETAG
1070
     1
1071
       50
1005
12E83E
  0
CIRCLE
  5
12E83F
  8
OBJECT
 10
2000.0
 20
-199.99999999999909
 30
0.0
 40
70.0
1001
ACDBBLOCKREPETAG
1070
     1
1071
       51
1005
12E83F
  0
CIRCLE
  5
12E840
  8
OBJECT
 10
2000.0
 20
-199.99999999999909
 30
0.0
 40
77.0
1001
ACDBBLOCKREPETAG
1070
     1
1071
       52
1005
12E840
  0
ARC
  5
12E841
  8
OBJECT
 10
2000.0
 20
-199.99999999999909
 30
0.0
 40
80.0
 50
50.805032573864182
 51
129.1949674261358
1001
ACDBBLOCKREPETAG
1070
     1
1071
       53
1005
12E841
  0
LINE
  5
12E842
  8
OBJECT
 10
2045.6618002273251
 20
-137.99999999999909
 30
0.0
 11
2080.0
 21
-137.99999999999909
 31
0.0
1001
ACDBBLOCKREPETAG
1070
     1
1071
       54
1005
12E842
  0
LINE
  5
12E843
  8
OBJECT
 10
2062.0
 20
-261.99999999999909
 30
0.0
 11
2080.0
 21
-261.99999999999909
 31
0.0
1001
ACDBBLOCKREPETAG
1070
     1
1071
       55
1005
12E843
  0
LINE
  5
12E844
  8
OBJECT
 10
2062.0
 20
-261.99999999999909
 30
0.0
 11
2062.0
 21
-279.99999999999909
 31
0.0
1001
ACDBBLOCKREPETAG
1070
     1
1071
       57
1005
12E844
  0
LINE
  5
12E845
  8
OBJECT
 10
1938.0
 20
-261.99999999999909
 30
0.0
 11
1938.0
 21
-279.99999999999909
 31
0.0
1001
ACDBBLOCKREPETAG
1070
     1
1071
       58
1005
12E845
  0
POINT
  5
12E846
  8
DOTS
 10
2000.0
 20
-199.99999999999909
 30
0.0
 50
90.0
1001
ACDBBLOCKREPETAG
1070
     1
1071
       59
1005
12E846
  0
LINE
  5
12E847
  8
OBJECT
 10
1938.0
 20
-261.99999999999909
 30
0.0
 11
1920.0
 21
-261.99999999999909
 31
0.0
1001
ACDBBLOCKREPETAG
1070
     1
1071
       60
1005
12E847
  0
LINE
  5
12E848
  8
OBJECT
 10
1954.3381997726749
 20
-137.99999999999909
 30
0.0
 11
1920.0
 21
-137.99999999999909
 31
0.0
1001
ACDBBLOCKREPETAG
1070
     1
1071
       61
1005
12E848
  0
LINE
  5
12E849
  8
OBJECT
 10
1945.5527778486351
 20
-254.44722215136329
 30
0.0
 11
1938.0
 21
-261.99999999999909
 31
0.0
1001
ACDBBLOCKREPETAG
1070
     1
1071
       42
1005
12E849
  0
LINE
  5
12E84A
  8
OBJECT
 10
2054.4472221513638
 20
-254.44722215136329
 30
0.0
 11
2062.0
 21
-261.99999999999909
 31
0.0
1001
ACDBBLOCKREPETAG
1070
     1
1071
       43
1005
12E84A
  0
TEXT
  5
12E84B
  8
SLIM
 10
1837.75
 20
282.50000000000011
 30
0.0
 40
35.0
  1
（枝管サイズ毎に寸法が異なります。管底の位置は50～100で同じです）
 41
0.75
  0
TEXT
  5
12E84C
  8
SLIM
 10
1850.0
 20
532.5
 30
0.0
 40
75.0
  1
側面図の代表機種
 41
0.75
  0
TEXT
  5
12E84D
  8
SLIM
 10
1850.0
 20
369.99999999999989
 30
0.0
 40
100.0
  1
4SR-Z306-P110
 41
0.75
  0
LINE
  5
12E84E
  8
OBJECT
 10
3797.0000000000159
 20
-261.99999999999909
 30
0.0
 11
3790.0000000000159
 21
-261.99999999999909
 31
0.0
1001
ACDBBLOCKREPETAG
1070
     1
1071
       85
1005
12E84E
  0
LINE
  5
12E84F
  8
OBJECT
 10
3790.0000000000159
 20
-261.99999999999909
 30
0.0
 11
3790.0000000000159
 21
-137.99999999999909
 31
0.0
1001
ACDBBLOCKREPETAG
1070
     1
1071
       86
1005
12E84F
  0
LINE
  5
12E850
  8
OBJECT
 10
3790.0000000000159
 20
-137.99999999999909
 30
0.0
 11
3797.0000000000159
 21
-137.99999999999909
 31
0.0
1001
ACDBBLOCKREPETAG
1070
     1
1071
       87
1005
12E850
  0
LINE
  5
12E851
  8
OBJECT
 10
3797.0000000000159
 20
-137.99999999999909
 30
0.0
 11
3797.0000000000159
 21
-261.99999999999909
 31
0.0
1001
ACDBBLOCKREPETAG
1070
     1
1071
       88
1005
12E851
  0
LINE
  5
12E852
  8
CENTER
 10
3775.0000000000159
 20
-199.99999999999909
 30
0.0
 11
3920.0
 21
-199.99999999999909
 31
0.0
1001
ACDBBLOCKREPETAG
1070
     1
1071
       89
1005
12E852
  0
LINE
  5
12E853
  8
OBJECT
 10
3850.000025035813
 20
-154.9999999999954
 30
0.0
 11
3914.0
 21
-154.99999999999909
 31
0.0
1001
ACDBBLOCKREPETAG
1070
     1
1071
       90
1005
12E853
  0
LINE
  5
12E854
  8
OBJECT
 10
3850.000025035813
 20
-244.99999999999909
 30
0.0
 11
3914.0
 21
-244.99999999999909
 31
0.0
1001
ACDBBLOCKREPETAG
1070
     1
1071
       91
1005
12E854
  0
LINE
  5
12E855
  8
OBJECT
 10
3797.0000000000159
 20
-258.99999999999909
 30
0.0
 11
3833.0000000000159
 21
-258.99999999999909
 31
0.0
1001
ACDBBLOCKREPETAG
1070
     1
1071
       92
1005
12E855
  0
LINE
  5
12E856
  8
OBJECT
 10
3833.0000000000159
 20
-258.99999999999909
 30
0.0
 11
3833.0000000000159
 21
-140.99999999999909
 31
0.0
1001
ACDBBLOCKREPETAG
1070
     1
1071
       93
1005
12E856
  0
LINE
  5
12E857
  8
OBJECT
 10
3833.0000000000159
 20
-140.99999999999909
 30
0.0
 11
3797.0000000000159
 21
-140.99999999999909
 31
0.0
1001
ACDBBLOCKREPETAG
1070
     1
1071
       94
1005
12E857
  0
LINE
  5
12E858
  8
OBJECT
 10
3837.0000000000159
 20
-254.49999999999909
 30
0.0
 11
3850.000000000015
 21
-254.49999999999909
 31
0.0
1001
ACDBBLOCKREPETAG
1070
     1
1071
       95
1005
12E858
  0
LINE
  5
12E859
  8
OBJECT
 10
3850.000000000015
 20
-145.49999999999909
 30
0.0
 11
3837.0000000000159
 21
-145.49999999999909
 31
0.0
1001
ACDBBLOCKREPETAG
1070
     1
1071
       96
1005
12E859
  0
LINE
  5
12E85A
  8
OBJECT
 10
3837.0000000000159
 20
-145.49999999999909
 30
0.0
 11
3837.0000000000159
 21
-254.49999999999909
 31
0.0
1001
ACDBBLOCKREPETAG
1070
     1
1071
       97
1005
12E85A
  0
LINE
  5
12E85B
  8
OBJECT
 10
3833.0000000000159
 20
-258.99999999999909
 30
0.0
 11
3837.0000000000159
 21
-254.49999999999909
 31
0.0
1001
ACDBBLOCKREPETAG
1070
     1
1071
       98
1005
12E85B
  0
LINE
  5
12E85C
  8
OBJECT
 10
3833.0000000000159
 20
-140.99999999999909
 30
0.0
 11
3837.0000000000159
 21
-145.49999999999909
 31
0.0
1001
ACDBBLOCKREPETAG
1070
     1
1071
       99
1005
12E85C
  0
LINE
  5
12E85D
  8
OBJECT
 10
3917.0
 20
-261.99999999999909
 30
0.0
 11
3920.0
 21
-261.99999999999909
 31
0.0
1001
ACDBBLOCKREPETAG
1070
     1
1071
      100
1005
12E85D
  0
ARC
  5
12E85E
  8
OBJECT
 10
3917.0
 20
-258.99999999999909
 30
0.0
 40
3.0
 50
180.0
 51
270.0
1001
ACDBBLOCKREPETAG
1070
     1
1071
      101
1005
12E85E
  0
LINE
  5
12E85F
  8
OBJECT
 10
3920.0
 20
-137.99999999999909
 30
0.0
 11
3917.0
 21
-137.99999999999909
 31
0.0
1001
ACDBBLOCKREPETAG
1070
     1
1071
      102
1005
12E85F
  0
ARC
  5
12E860
  8
OBJECT
 10
3917.0
 20
-140.99999999999909
 30
0.0
 40
3.0
 50
90.0
 51
180.0
1001
ACDBBLOCKREPETAG
1070
     1
1071
      103
1005
12E860
  0
LINE
  5
12E861
  8
OBJECT
 10
3914.0
 20
-140.99999999999909
 30
0.0
 11
3914.0
 21
-189.6772096796403
 31
0.0
1001
ACDBBLOCKREPETAG
1070
     1
1071
      104
1005
12E861
  0
LINE
  5
12E862
  8
OBJECT
 10
3914.0
 20
-210.3227903203578
 30
0.0
 11
3914.0
 21
-258.99999999999909
 31
0.0
1001
ACDBBLOCKREPETAG
1070
     1
1071
      105
1005
12E862
  0
LINE
  5
12E863
  8
HIDDEN
 10
3842.0000000000159
 20
-244.49999999999909
 30
0.0
 11
3842.0000000000159
 21
-155.49999999999909
 31
0.0
1001
ACDBBLOCKREPETAG
1070
     1
1071
      106
1005
12E863
  0
LINE
  5
12E864
  8
OBJECT
 10
3850.000025035813
 20
-145.50004907618759
 30
0.0
 11
3850.000025035813
 21
-254.50004907618771
 31
0.0
1001
ACDBBLOCKREPETAG
1070
     1
1071
      108
1005
12E864
  0
ARC
  5
12E865
  8
OBJECT
 10
3870.1999999999771
 20
-199.99999999999909
 30
0.0
 40
45.000000000000547
 50
270.0
 51
90.0
1001
ACDBBLOCKREPETAG
1070
     1
1071
      109
1005
12E865
  0
LINE
  5
12E866
  8
CENTER
 10
4000.0
 20
-300.99999999999898
 30
0.0
 11
4000.0
 21
-279.99999999999909
 31
0.0
1001
ACDBBLOCKREPETAG
1070
     1
1071
        0
1005
12E866
  0
LINE
  5
12E867
  8
OBJECT
 10
4062.0
 20
-283.0
 30
0.0
 11
4062.0
 21
-279.99999999999909
 31
0.0
1001
ACDBBLOCKREPETAG
1070
     1
1071
        1
1005
12E867
  0
ARC
  5
12E868
  8
OBJECT
 10
4059.0
 20
-283.0
 30
0.0
 40
3.0
 50
270.0
 51
0.0
1001
ACDBBLOCKREPETAG
1070
     1
1071
        2
1005
12E868
  0
LINE
  5
12E869
  8
OBJECT
 10
3938.0
 20
-279.99999999999909
 30
0.0
 11
3938.0
 21
-282.99999999999818
 31
0.0
1001
ACDBBLOCKREPETAG
1070
     1
1071
        3
1005
12E869
  0
ARC
  5
12E86A
  8
OBJECT
 10
3941.0
 20
-282.99999999999818
 30
0.0
 40
3.0
 50
180.0
 51
270.0
1001
ACDBBLOCKREPETAG
1070
     1
1071
        4
1005
12E86A
  0
LINE
  5
12E86B
  8
OBJECT
 10
3941.0
 20
-285.99999999999818
 30
0.0
 11
4059.0
 21
-286.0
 31
0.0
1001
ACDBBLOCKREPETAG
1070
     1
1071
        5
1005
12E86B
  0
LINE
  5
12E86C
  8
OBJECT
 10
4133.0
 20
-137.99999999999909
 30
0.0
 11
4140.0
 21
-137.99999999999909
 31
0.0
1001
ACDBBLOCKREPETAG
1070
     1
1071
       47
1005
12E86C
  0
LINE
  5
12E86D
  8
OBJECT
 10
4140.0
 20
-137.99999999999909
 30
0.0
 11
4140.0
 21
-261.99999999999909
 31
0.0
1001
ACDBBLOCKREPETAG
1070
     1
1071
       48
1005
12E86D
  0
LINE
  5
12E86E
  8
OBJECT
 10
4140.0
 20
-261.99999999999909
 30
0.0
 11
4133.0
 21
-261.99999999999909
 31
0.0
1001
ACDBBLOCKREPETAG
1070
     1
1071
       49
1005
12E86E
  0
LINE
  5
12E86F
  8
OBJECT
 10
4133.0
 20
-261.99999999999909
 30
0.0
 11
4133.0
 21
-137.99999999999909
 31
0.0
1001
ACDBBLOCKREPETAG
1070
     1
1071
       50
1005
12E86F
  0
LINE
  5
12E870
  8
CENTER
 10
4155.0
 20
-199.99999999999909
 30
0.0
 11
4080.0
 21
-199.99999999999909
 31
0.0
1001
ACDBBLOCKREPETAG
1070
     1
1071
       51
1005
12E870
  0
LINE
  5
12E871
  8
OBJECT
 10
4133.0
 20
-140.99999999999909
 30
0.0
 11
4097.0
 21
-140.99999999999909
 31
0.0
1001
ACDBBLOCKREPETAG
1070
     1
1071
       52
1005
12E871
  0
LINE
  5
12E872
  8
OBJECT
 10
4097.0
 20
-140.99999999999909
 30
0.0
 11
4097.0
 21
-258.99999999999909
 31
0.0
1001
ACDBBLOCKREPETAG
1070
     1
1071
       53
1005
12E872
  0
LINE
  5
12E873
  8
OBJECT
 10
4097.0
 20
-258.99999999999909
 30
0.0
 11
4133.0
 21
-258.99999999999909
 31
0.0
1001
ACDBBLOCKREPETAG
1070
     1
1071
       54
1005
12E873
  0
LINE
  5
12E874
  8
OBJECT
 10
4093.0
 20
-145.49999999999909
 30
0.0
 11
4086.0
 21
-145.49999999999909
 31
0.0
1001
ACDBBLOCKREPETAG
1070
     1
1071
       55
1005
12E874
  0
LINE
  5
12E875
  8
OBJECT
 10
4086.0
 20
-254.49999999999909
 30
0.0
 11
4093.0
 21
-254.49999999999909
 31
0.0
1001
ACDBBLOCKREPETAG
1070
     1
1071
       56
1005
12E875
  0
LINE
  5
12E876
  8
OBJECT
 10
4093.0
 20
-254.49999999999909
 30
0.0
 11
4093.0
 21
-145.49999999999909
 31
0.0
1001
ACDBBLOCKREPETAG
1070
     1
1071
       57
1005
12E876
  0
LINE
  5
12E877
  8
OBJECT
 10
4097.0
 20
-140.99999999999909
 30
0.0
 11
4093.0
 21
-145.49999999999909
 31
0.0
1001
ACDBBLOCKREPETAG
1070
     1
1071
       58
1005
12E877
  0
LINE
  5
12E878
  8
OBJECT
 10
4097.0
 20
-258.99999999999909
 30
0.0
 11
4093.0
 21
-254.49999999999909
 31
0.0
1001
ACDBBLOCKREPETAG
1070
     1
1071
       59
1005
12E878
  0
LINE
  5
12E879
  8
OBJECT
 10
4083.0
 20
-137.99999999999909
 30
0.0
 11
4080.0
 21
-137.99999999999909
 31
0.0
1001
ACDBBLOCKREPETAG
1070
     1
1071
       60
1005
12E879
  0
ARC
  5
12E87A
  8
OBJECT
 10
4083.0
 20
-140.99999999999909
 30
0.0
 40
3.0
 50
0.0
 51
90.0
1001
ACDBBLOCKREPETAG
1070
     1
1071
       61
1005
12E87A
  0
LINE
  5
12E87B
  8
OBJECT
 10
4080.0
 20
-261.99999999999909
 30
0.0
 11
4083.0
 21
-261.99999999999909
 31
0.0
1001
ACDBBLOCKREPETAG
1070
     1
1071
       62
1005
12E87B
  0
ARC
  5
12E87C
  8
OBJECT
 10
4083.0
 20
-258.99999999999909
 30
0.0
 40
3.0
 50
270.0
 51
0.0
1001
ACDBBLOCKREPETAG
1070
     1
1071
       63
1005
12E87C
  0
LINE
  5
12E87D
  8
OBJECT
 10
4086.0
 20
-258.99999999999909
 30
0.0
 11
4086.0
 21
-140.99999999999909
 31
0.0
1001
ACDBBLOCKREPETAG
1070
     1
1071
       64
1005
12E87D
  0
LINE
  5
12E87E
  8
HIDDEN
 10
4088.0
 20
-155.49999999999909
 30
0.0
 11
4088.0
 21
-244.49999999999909
 31
0.0
1001
ACDBBLOCKREPETAG
1070
     1
1071
       65
1005
12E87E
  0
LINE
  5
12E87F
  8
OBJECT
 10
3797.0000000000159
 20
-583.0
 30
0.0
 11
3790.0000000000159
 21
-583.0
 31
0.0
1001
ACDBBLOCKREPETAG
1070
     1
1071
       83
1005
12E87F
  0
LINE
  5
12E880
  8
OBJECT
 10
3790.0000000000159
 20
-583.0
 30
0.0
 11
3790.0000000000159
 21
-707.0
 31
0.0
1001
ACDBBLOCKREPETAG
1070
     1
1071
       84
1005
12E880
  0
LINE
  5
12E881
  8
OBJECT
 10
3914.0000000000159
 20
-653.3502637757274
 30
0.0
 11
3914.0000000000159
 21
-755.00000000000102
 31
0.0
1001
ACDBBLOCKREPETAG
1070
     1
1071
       85
1005
12E881
  0
LINE
  5
12E882
  8
OBJECT
 10
3790.0000000000159
 20
-707.0
 30
0.0
 11
3797.0000000000159
 21
-707.0
 31
0.0
1001
ACDBBLOCKREPETAG
1070
     1
1071
       86
1005
12E882
  0
LINE
  5
12E883
  8
OBJECT
 10
3797.0000000000159
 20
-707.0
 30
0.0
 11
3797.0000000000159
 21
-583.0
 31
0.0
1001
ACDBBLOCKREPETAG
1070
     1
1071
       87
1005
12E883
  0
LINE
  5
12E884
  8
CENTER
 10
3865.0000000000159
 20
-645.0000000000008
 30
0.0
 11
3775.0000000000159
 21
-645.0
 31
0.0
1001
ACDBBLOCKREPETAG
1070
     1
1071
       88
1005
12E884
  0
LINE
  5
12E885
  8
OBJECT
 10
3920.0000000000182
 20
-758.0
 30
0.0
 11
3917.0000000000141
 21
-758.0000000000008
 31
0.0
1001
ACDBBLOCKREPETAG
1070
     1
1071
       89
1005
12E885
  0
ARC
  5
12E886
  8
OBJECT
 10
3917.0000000000141
 20
-755.00000000000102
 30
0.0
 40
3.0
 50
180.0
 51
270.0
1001
ACDBBLOCKREPETAG
1070
     1
1071
       90
1005
12E886
  0
LINE
  5
12E887
  8
OBJECT
 10
3797.0000000000159
 20
-586.0
 30
0.0
 11
3833.0000000000159
 21
-586.0000000000008
 31
0.0
1001
ACDBBLOCKREPETAG
1070
     1
1071
       91
1005
12E887
  0
LINE
  5
12E888
  8
OBJECT
 10
3833.0000000000159
 20
-586.0000000000008
 30
0.0
 11
3833.0000000000159
 21
-704.0000000000008
 31
0.0
1001
ACDBBLOCKREPETAG
1070
     1
1071
       92
1005
12E888
  0
LINE
  5
12E889
  8
OBJECT
 10
3837.0000000000159
 20
-590.5000000000008
 30
0.0
 11
3837.0000000000159
 21
-699.5000000000008
 31
0.0
1001
ACDBBLOCKREPETAG
1070
     1
1071
       93
1005
12E889
  0
LINE
  5
12E88A
  8
OBJECT
 10
3837.0000000000159
 20
-590.5000000000008
 30
0.0
 11
3850.000000000015
 21
-590.5000000000008
 31
0.0
1001
ACDBBLOCKREPETAG
1070
     1
1071
       94
1005
12E88A
  0
LINE
  5
12E88B
  8
OBJECT
 10
3833.0000000000159
 20
-704.0000000000008
 30
0.0
 11
3797.0000000000159
 21
-704.0
 31
0.0
1001
ACDBBLOCKREPETAG
1070
     1
1071
       95
1005
12E88B
  0
LINE
  5
12E88C
  8
OBJECT
 10
3833.0000000000159
 20
-586.0000000000008
 30
0.0
 11
3837.0000000000159
 21
-590.5000000000008
 31
0.0
1001
ACDBBLOCKREPETAG
1070
     1
1071
       96
1005
12E88C
  0
LINE
  5
12E88D
  8
OBJECT
 10
3850.000000000015
 20
-590.5000000000008
 30
0.0
 11
3850.000000000015
 21
-675.74491827928784
 31
0.0
1001
ACDBBLOCKREPETAG
1070
     1
1071
       97
1005
12E88D
  0
ARC
  5
12E88E
  8
OBJECT
 10
3847.2000000000148
 20
-685.0000000000008
 30
0.0
 40
85.0
 50
36.869897645906562
 51
88.112268108168848
1001
ACDBBLOCKREPETAG
1070
     1
1071
       98
1005
12E88E
  0
LINE
  5
12E88F
  8
HIDDEN
 10
3842.0000000000159
 20
-600.50000000000068
 30
0.0
 11
3842.0000000000159
 21
-689.50000000000091
 31
0.0
1001
ACDBBLOCKREPETAG
1070
     1
1071
      100
1005
12E88F
  0
LINE
  5
12E890
  8
OBJECT
 10
3914.0000000000159
 20
-751.07945073181781
 30
0.0
 11
3843.3686800789692
 21
-699.5000000000008
 31
0.0
1001
ACDBBLOCKREPETAG
1070
     1
1071
      101
1005
12E890
  0
LINE
  5
12E891
  8
OBJECT
 10
3920.0000000000182
 20
-634.0
 30
0.0
 11
3915.2000000000148
 21
-634.0
 31
0.0
1001
ACDBBLOCKREPETAG
1070
     1
1071
      102
1005
12E891
  0
LINE
  5
12E892
  8
OBJECT
 10
3914.0000000000159
 20
-653.35026377573013
 30
0.0
 11
3915.2000000000148
 21
-634.0
 31
0.0
1001
ACDBBLOCKREPETAG
1070
     1
1071
      103
1005
12E892
  0
LINE
  5
12E893
  8
OBJECT
 10
3837.0000000000159
 20
-699.5000000000008
 30
0.0
 11
3843.3686800789692
 21
-699.5000000000008
 31
0.0
1001
ACDBBLOCKREPETAG
1070
     1
1071
      104
1005
12E893
  0
LINE
  5
12E894
  8
OBJECT
 10
3833.0000000000159
 20
-704.0000000000008
 30
0.0
 11
3837.0000000000159
 21
-699.5000000000008
 31
0.0
1001
ACDBBLOCKREPETAG
1070
     1
1071
      105
1005
12E894
  0
CIRCLE
  5
12E895
  8
OBJECT
 10
4000.0
 20
-696.0
 30
0.0
 40
62.0
1001
ACDBBLOCKREPETAG
1070
     1
1071
        0
1005
12E895
  0
LINE
  5
12E896
  8
OBJECT
 10
4133.0
 20
-634.0
 30
0.0
 11
4140.0
 21
-634.0
 31
0.0
1001
ACDBBLOCKREPETAG
1070
     1
1071
       45
1005
12E896
  0
LINE
  5
12E897
  8
OBJECT
 10
4140.0
 20
-634.0
 30
0.0
 11
4140.0
 21
-755.0
 31
0.0
1001
ACDBBLOCKREPETAG
1070
     1
1071
       46
1005
12E897
  0
LINE
  5
12E898
  8
OBJECT
 10
4133.0
 20
-755.0
 30
0.0
 11
4133.0
 21
-634.0
 31
0.0
1001
ACDBBLOCKREPETAG
1070
     1
1071
       47
1005
12E898
  0
LINE
  5
12E899
  8
CENTER
 10
4155.0
 20
-696.0
 30
0.0
 11
4071.0
 21
-696.0
 31
0.0
1001
ACDBBLOCKREPETAG
1070
     1
1071
       48
1005
12E899
  0
LINE
  5
12E89A
  8
OBJECT
 10
4133.0
 20
-637.0
 30
0.0
 11
4097.0
 21
-637.0
 31
0.0
1001
ACDBBLOCKREPETAG
1070
     1
1071
       49
1005
12E89A
  0
LINE
  5
12E89B
  8
OBJECT
 10
4097.0
 20
-637.0
 30
0.0
 11
4097.0
 21
-755.0
 31
0.0
1001
ACDBBLOCKREPETAG
1070
     1
1071
       50
1005
12E89B
  0
LINE
  5
12E89C
  8
OBJECT
 10
4097.0
 20
-755.0
 30
0.0
 11
4140.0
 21
-755.0
 31
0.0
1001
ACDBBLOCKREPETAG
1070
     1
1071
       51
1005
12E89C
  0
LINE
  5
12E89D
  8
OBJECT
 10
4093.0
 20
-641.5
 30
0.0
 11
4086.0
 21
-641.5
 31
0.0
1001
ACDBBLOCKREPETAG
1070
     1
1071
       52
1005
12E89D
  0
LINE
  5
12E89E
  8
OBJECT
 10
4086.0
 20
-750.49999999999989
 30
0.0
 11
4093.0
 21
-750.49999999999989
 31
0.0
1001
ACDBBLOCKREPETAG
1070
     1
1071
       53
1005
12E89E
  0
LINE
  5
12E89F
  8
OBJECT
 10
4093.0
 20
-750.49999999999989
 30
0.0
 11
4093.0
 21
-641.5
 31
0.0
1001
ACDBBLOCKREPETAG
1070
     1
1071
       54
1005
12E89F
  0
LINE
  5
12E8A0
  8
OBJECT
 10
4097.0
 20
-637.0
 30
0.0
 11
4093.0
 21
-641.5
 31
0.0
1001
ACDBBLOCKREPETAG
1070
     1
1071
       55
1005
12E8A0
  0
LINE
  5
12E8A1
  8
OBJECT
 10
4097.0
 20
-755.0
 30
0.0
 11
4093.0
 21
-750.49999999999989
 31
0.0
1001
ACDBBLOCKREPETAG
1070
     1
1071
       56
1005
12E8A1
  0
LINE
  5
12E8A2
  8
OBJECT
 10
4083.0
 20
-634.0
 30
0.0
 11
4080.0
 21
-634.0
 31
0.0
1001
ACDBBLOCKREPETAG
1070
     1
1071
       57
1005
12E8A2
  0
ARC
  5
12E8A3
  8
OBJECT
 10
4083.0
 20
-637.0
 30
0.0
 40
3.0
 50
0.0
 51
90.0
1001
ACDBBLOCKREPETAG
1070
     1
1071
       58
1005
12E8A3
  0
LINE
  5
12E8A4
  8
OBJECT
 10
4080.0
 20
-758.0
 30
0.0
 11
4083.0
 21
-758.0
 31
0.0
1001
ACDBBLOCKREPETAG
1070
     1
1071
       59
1005
12E8A4
  0
ARC
  5
12E8A5
  8
OBJECT
 10
4083.0
 20
-755.0
 30
0.0
 40
3.0
 50
270.0
 51
0.0
1001
ACDBBLOCKREPETAG
1070
     1
1071
       60
1005
12E8A5
  0
LINE
  5
12E8A6
  8
OBJECT
 10
4086.0
 20
-755.0
 30
0.0
 11
4086.0
 21
-637.0
 31
0.0
1001
ACDBBLOCKREPETAG
1070
     1
1071
       61
1005
12E8A6
  0
LINE
  5
12E8A7
  8
HIDDEN
 10
4088.0
 20
-651.5
 30
0.0
 11
4088.0
 21
-740.5
 31
0.0
1001
ACDBBLOCKREPETAG
1070
     1
1071
       63
1005
12E8A7
  0
LINE
  5
12E8A8
  8
OBJECT
 10
1797.0000000000141
 20
-261.99999999999909
 30
0.0
 11
1790.0000000000141
 21
-261.99999999999909
 31
0.0
1001
ACDBBLOCKREPETAG
1070
     1
1071
       85
1005
12E8A8
  0
LINE
  5
12E8A9
  8
OBJECT
 10
1790.0000000000141
 20
-261.99999999999909
 30
0.0
 11
1790.0000000000141
 21
-137.99999999999909
 31
0.0
1001
ACDBBLOCKREPETAG
1070
     1
1071
       86
1005
12E8A9
  0
LINE
  5
12E8AA
  8
OBJECT
 10
1790.0000000000141
 20
-137.99999999999909
 30
0.0
 11
1797.0000000000141
 21
-137.99999999999909
 31
0.0
1001
ACDBBLOCKREPETAG
1070
     1
1071
       87
1005
12E8AA
  0
LINE
  5
12E8AB
  8
OBJECT
 10
1797.0000000000141
 20
-137.99999999999909
 30
0.0
 11
1797.0000000000141
 21
-261.99999999999909
 31
0.0
1001
ACDBBLOCKREPETAG
1070
     1
1071
       88
1005
12E8AB
  0
LINE
  5
12E8AC
  8
CENTER
 10
1775.0000000000141
 20
-199.99999999999909
 30
0.0
 11
1920.0
 21
-199.99999999999909
 31
0.0
1001
ACDBBLOCKREPETAG
1070
     1
1071
       89
1005
12E8AC
  0
LINE
  5
12E8AD
  8
OBJECT
 10
1850.000025035813
 20
-154.9999999999954
 30
0.0
 11
1914.0
 21
-154.99999999999909
 31
0.0
1001
ACDBBLOCKREPETAG
1070
     1
1071
       90
1005
12E8AD
  0
LINE
  5
12E8AE
  8
OBJECT
 10
1850.000025035813
 20
-244.99999999999909
 30
0.0
 11
1914.0
 21
-244.99999999999909
 31
0.0
1001
ACDBBLOCKREPETAG
1070
     1
1071
       91
1005
12E8AE
  0
LINE
  5
12E8AF
  8
OBJECT
 10
1797.0000000000141
 20
-258.99999999999909
 30
0.0
 11
1833.000000000015
 21
-258.99999999999909
 31
0.0
1001
ACDBBLOCKREPETAG
1070
     1
1071
       92
1005
12E8AF
  0
LINE
  5
12E8B0
  8
OBJECT
 10
1833.000000000015
 20
-258.99999999999909
 30
0.0
 11
1833.000000000015
 21
-140.99999999999909
 31
0.0
1001
ACDBBLOCKREPETAG
1070
     1
1071
       93
1005
12E8B0
  0
LINE
  5
12E8B1
  8
OBJECT
 10
1833.000000000015
 20
-140.99999999999909
 30
0.0
 11
1797.0000000000141
 21
-140.99999999999909
 31
0.0
1001
ACDBBLOCKREPETAG
1070
     1
1071
       94
1005
12E8B1
  0
LINE
  5
12E8B2
  8
OBJECT
 10
1837.000000000015
 20
-254.49999999999909
 30
0.0
 11
1850.0000000000141
 21
-254.49999999999909
 31
0.0
1001
ACDBBLOCKREPETAG
1070
     1
1071
       95
1005
12E8B2
  0
LINE
  5
12E8B3
  8
OBJECT
 10
1850.0000000000141
 20
-145.49999999999909
 30
0.0
 11
1837.000000000015
 21
-145.49999999999909
 31
0.0
1001
ACDBBLOCKREPETAG
1070
     1
1071
       96
1005
12E8B3
  0
LINE
  5
12E8B4
  8
OBJECT
 10
1837.000000000015
 20
-145.49999999999909
 30
0.0
 11
1837.000000000015
 21
-254.49999999999909
 31
0.0
1001
ACDBBLOCKREPETAG
1070
     1
1071
       97
1005
12E8B4
  0
LINE
  5
12E8B5
  8
OBJECT
 10
1833.000000000015
 20
-258.99999999999909
 30
0.0
 11
1837.000000000015
 21
-254.49999999999909
 31
0.0
1001
ACDBBLOCKREPETAG
1070
     1
1071
       98
1005
12E8B5
  0
LINE
  5
12E8B6
  8
OBJECT
 10
1833.000000000015
 20
-140.99999999999909
 30
0.0
 11
1837.000000000015
 21
-145.49999999999909
 31
0.0
1001
ACDBBLOCKREPETAG
1070
     1
1071
       99
1005
12E8B6
  0
LINE
  5
12E8B7
  8
OBJECT
 10
1917.0
 20
-261.99999999999909
 30
0.0
 11
1920.0
 21
-261.99999999999909
 31
0.0
1001
ACDBBLOCKREPETAG
1070
     1
1071
      100
1005
12E8B7
  0
ARC
  5
12E8B8
  8
OBJECT
 10
1917.0
 20
-258.99999999999909
 30
0.0
 40
3.0
 50
180.0
 51
270.0
1001
ACDBBLOCKREPETAG
1070
     1
1071
      101
1005
12E8B8
  0
LINE
  5
12E8B9
  8
OBJECT
 10
1920.0
 20
-137.99999999999909
 30
0.0
 11
1917.0
 21
-137.99999999999909
 31
0.0
1001
ACDBBLOCKREPETAG
1070
     1
1071
      102
1005
12E8B9
  0
ARC
  5
12E8BA
  8
OBJECT
 10
1917.0
 20
-140.99999999999909
 30
0.0
 40
3.0
 50
90.0
 51
180.0
1001
ACDBBLOCKREPETAG
1070
     1
1071
      103
1005
12E8BA
  0
LINE
  5
12E8BB
  8
OBJECT
 10
1914.0
 20
-140.99999999999909
 30
0.0
 11
1914.0
 21
-189.6772096796403
 31
0.0
1001
ACDBBLOCKREPETAG
1070
     1
1071
      104
1005
12E8BB
  0
LINE
  5
12E8BC
  8
OBJECT
 10
1914.0
 20
-210.3227903203578
 30
0.0
 11
1914.0
 21
-258.99999999999909
 31
0.0
1001
ACDBBLOCKREPETAG
1070
     1
1071
      105
1005
12E8BC
  0
LINE
  5
12E8BD
  8
HIDDEN
 10
1842.0000000000141
 20
-244.49999999999909
 30
0.0
 11
1842.0000000000141
 21
-155.49999999999909
 31
0.0
1001
ACDBBLOCKREPETAG
1070
     1
1071
      106
1005
12E8BD
  0
LINE
  5
12E8BE
  8
OBJECT
 10
1850.000025035813
 20
-145.50004907618759
 30
0.0
 11
1850.000025035813
 21
-254.50004907618771
 31
0.0
1001
ACDBBLOCKREPETAG
1070
     1
1071
      108
1005
12E8BE
  0
ARC
  5
12E8BF
  8
OBJECT
 10
1870.199999999975
 20
-199.99999999999909
 30
0.0
 40
45.000000000000547
 50
270.0
 51
90.0
1001
ACDBBLOCKREPETAG
1070
     1
1071
      109
1005
12E8BF
  0
LINE
  5
12E8C0
  8
CENTER
 10
2000.0
 20
-300.99999999999898
 30
0.0
 11
2000.0
 21
-279.99999999999909
 31
0.0
1001
ACDBBLOCKREPETAG
1070
     1
1071
        0
1005
12E8C0
  0
LINE
  5
12E8C1
  8
OBJECT
 10
2062.0
 20
-283.0
 30
0.0
 11
2062.0
 21
-279.99999999999909
 31
0.0
1001
ACDBBLOCKREPETAG
1070
     1
1071
        1
1005
12E8C1
  0
ARC
  5
12E8C2
  8
OBJECT
 10
2059.0
 20
-283.0
 30
0.0
 40
3.0
 50
270.0
 51
0.0
1001
ACDBBLOCKREPETAG
1070
     1
1071
        2
1005
12E8C2
  0
LINE
  5
12E8C3
  8
OBJECT
 10
1938.0
 20
-279.99999999999909
 30
0.0
 11
1938.0
 21
-282.99999999999818
 31
0.0
1001
ACDBBLOCKREPETAG
1070
     1
1071
        3
1005
12E8C3
  0
ARC
  5
12E8C4
  8
OBJECT
 10
1941.0
 20
-282.99999999999818
 30
0.0
 40
3.0
 50
180.0
 51
270.0
1001
ACDBBLOCKREPETAG
1070
     1
1071
        4
1005
12E8C4
  0
LINE
  5
12E8C5
  8
OBJECT
 10
1941.0
 20
-285.99999999999818
 30
0.0
 11
2059.0
 21
-286.0
 31
0.0
1001
ACDBBLOCKREPETAG
1070
     1
1071
        5
1005
12E8C5
  0
LINE
  5
12E8C6
  8
OBJECT
 10
2133.0
 20
-137.99999999999909
 30
0.0
 11
2140.0
 21
-137.99999999999909
 31
0.0
1001
ACDBBLOCKREPETAG
1070
     1
1071
       47
1005
12E8C6
  0
LINE
  5
12E8C7
  8
OBJECT
 10
2140.0
 20
-137.99999999999909
 30
0.0
 11
2140.0
 21
-261.99999999999909
 31
0.0
1001
ACDBBLOCKREPETAG
1070
     1
1071
       48
1005
12E8C7
  0
LINE
  5
12E8C8
  8
OBJECT
 10
2140.0
 20
-261.99999999999909
 30
0.0
 11
2133.0
 21
-261.99999999999909
 31
0.0
1001
ACDBBLOCKREPETAG
1070
     1
1071
       49
1005
12E8C8
  0
LINE
  5
12E8C9
  8
OBJECT
 10
2133.0
 20
-261.99999999999909
 30
0.0
 11
2133.0
 21
-137.99999999999909
 31
0.0
1001
ACDBBLOCKREPETAG
1070
     1
1071
       50
1005
12E8C9
  0
LINE
  5
12E8CA
  8
CENTER
 10
2155.0
 20
-199.99999999999909
 30
0.0
 11
2080.0
 21
-199.99999999999909
 31
0.0
1001
ACDBBLOCKREPETAG
1070
     1
1071
       51
1005
12E8CA
  0
LINE
  5
12E8CB
  8
OBJECT
 10
2133.0
 20
-140.99999999999909
 30
0.0
 11
2097.0
 21
-140.99999999999909
 31
0.0
1001
ACDBBLOCKREPETAG
1070
     1
1071
       52
1005
12E8CB
  0
LINE
  5
12E8CC
  8
OBJECT
 10
2097.0
 20
-140.99999999999909
 30
0.0
 11
2097.0
 21
-258.99999999999909
 31
0.0
1001
ACDBBLOCKREPETAG
1070
     1
1071
       53
1005
12E8CC
  0
LINE
  5
12E8CD
  8
OBJECT
 10
2097.0
 20
-258.99999999999909
 30
0.0
 11
2133.0
 21
-258.99999999999909
 31
0.0
1001
ACDBBLOCKREPETAG
1070
     1
1071
       54
1005
12E8CD
  0
LINE
  5
12E8CE
  8
OBJECT
 10
2093.0
 20
-145.49999999999909
 30
0.0
 11
2086.0
 21
-145.49999999999909
 31
0.0
1001
ACDBBLOCKREPETAG
1070
     1
1071
       55
1005
12E8CE
  0
LINE
  5
12E8CF
  8
OBJECT
 10
2086.0
 20
-254.49999999999909
 30
0.0
 11
2093.0
 21
-254.49999999999909
 31
0.0
1001
ACDBBLOCKREPETAG
1070
     1
1071
       56
1005
12E8CF
  0
LINE
  5
12E8D0
  8
OBJECT
 10
2093.0
 20
-254.49999999999909
 30
0.0
 11
2093.0
 21
-145.49999999999909
 31
0.0
1001
ACDBBLOCKREPETAG
1070
     1
1071
       57
1005
12E8D0
  0
LINE
  5
12E8D1
  8
OBJECT
 10
2097.0
 20
-140.99999999999909
 30
0.0
 11
2093.0
 21
-145.49999999999909
 31
0.0
1001
ACDBBLOCKREPETAG
1070
     1
1071
       58
1005
12E8D1
  0
LINE
  5
12E8D2
  8
OBJECT
 10
2097.0
 20
-258.99999999999909
 30
0.0
 11
2093.0
 21
-254.49999999999909
 31
0.0
1001
ACDBBLOCKREPETAG
1070
     1
1071
       59
1005
12E8D2
  0
LINE
  5
12E8D3
  8
OBJECT
 10
2083.0
 20
-137.99999999999909
 30
0.0
 11
2080.0
 21
-137.99999999999909
 31
0.0
1001
ACDBBLOCKREPETAG
1070
     1
1071
       60
1005
12E8D3
  0
ARC
  5
12E8D4
  8
OBJECT
 10
2083.0
 20
-140.99999999999909
 30
0.0
 40
3.0
 50
0.0
 51
90.0
1001
ACDBBLOCKREPETAG
1070
     1
1071
       61
1005
12E8D4
  0
LINE
  5
12E8D5
  8
OBJECT
 10
2080.0
 20
-261.99999999999909
 30
0.0
 11
2083.0
 21
-261.99999999999909
 31
0.0
1001
ACDBBLOCKREPETAG
1070
     1
1071
       62
1005
12E8D5
  0
ARC
  5
12E8D6
  8
OBJECT
 10
2083.0
 20
-258.99999999999909
 30
0.0
 40
3.0
 50
270.0
 51
0.0
1001
ACDBBLOCKREPETAG
1070
     1
1071
       63
1005
12E8D6
  0
LINE
  5
12E8D7
  8
OBJECT
 10
2086.0
 20
-258.99999999999909
 30
0.0
 11
2086.0
 21
-140.99999999999909
 31
0.0
1001
ACDBBLOCKREPETAG
1070
     1
1071
       64
1005
12E8D7
  0
LINE
  5
12E8D8
  8
HIDDEN
 10
2088.0
 20
-155.49999999999909
 30
0.0
 11
2088.0
 21
-244.49999999999909
 31
0.0
1001
ACDBBLOCKREPETAG
1070
     1
1071
       65
1005
12E8D8
  0
LINE
  5
12E8D9
  8
OBJECT
 10
1797.0000000000141
 20
-583.0
 30
0.0
 11
1790.0000000000141
 21
-583.0
 31
0.0
1001
ACDBBLOCKREPETAG
1070
     1
1071
       83
1005
12E8D9
  0
LINE
  5
12E8DA
  8
OBJECT
 10
1790.0000000000141
 20
-583.0
 30
0.0
 11
1790.0000000000141
 21
-707.0
 31
0.0
1001
ACDBBLOCKREPETAG
1070
     1
1071
       84
1005
12E8DA
  0
LINE
  5
12E8DB
  8
OBJECT
 10
1914.0000000000141
 20
-653.3502637757274
 30
0.0
 11
1914.0000000000141
 21
-755.00000000000102
 31
0.0
1001
ACDBBLOCKREPETAG
1070
     1
1071
       85
1005
12E8DB
  0
LINE
  5
12E8DC
  8
OBJECT
 10
1790.0000000000141
 20
-707.0
 30
0.0
 11
1797.0000000000141
 21
-707.0
 31
0.0
1001
ACDBBLOCKREPETAG
1070
     1
1071
       86
1005
12E8DC
  0
LINE
  5
12E8DD
  8
OBJECT
 10
1797.0000000000141
 20
-707.0
 30
0.0
 11
1797.0000000000141
 21
-583.0
 31
0.0
1001
ACDBBLOCKREPETAG
1070
     1
1071
       87
1005
12E8DD
  0
LINE
  5
12E8DE
  8
CENTER
 10
1865.0000000000141
 20
-645.0000000000008
 30
0.0
 11
1775.0000000000141
 21
-645.0
 31
0.0
1001
ACDBBLOCKREPETAG
1070
     1
1071
       88
1005
12E8DE
  0
LINE
  5
12E8DF
  8
OBJECT
 10
1920.000000000018
 20
-758.0
 30
0.0
 11
1917.000000000015
 21
-758.0000000000008
 31
0.0
1001
ACDBBLOCKREPETAG
1070
     1
1071
       89
1005
12E8DF
  0
ARC
  5
12E8E0
  8
OBJECT
 10
1917.000000000015
 20
-755.00000000000102
 30
0.0
 40
3.0
 50
180.0
 51
270.0
1001
ACDBBLOCKREPETAG
1070
     1
1071
       90
1005
12E8E0
  0
LINE
  5
12E8E1
  8
OBJECT
 10
1797.0000000000141
 20
-586.0
 30
0.0
 11
1833.000000000015
 21
-586.0000000000008
 31
0.0
1001
ACDBBLOCKREPETAG
1070
     1
1071
       91
1005
12E8E1
  0
LINE
  5
12E8E2
  8
OBJECT
 10
1833.000000000015
 20
-586.0000000000008
 30
0.0
 11
1833.000000000015
 21
-704.0000000000008
 31
0.0
1001
ACDBBLOCKREPETAG
1070
     1
1071
       92
1005
12E8E2
  0
LINE
  5
12E8E3
  8
OBJECT
 10
1837.000000000015
 20
-590.5000000000008
 30
0.0
 11
1837.000000000015
 21
-699.5000000000008
 31
0.0
1001
ACDBBLOCKREPETAG
1070
     1
1071
       93
1005
12E8E3
  0
LINE
  5
12E8E4
  8
OBJECT
 10
1837.000000000015
 20
-590.5000000000008
 30
0.0
 11
1850.0000000000141
 21
-590.5000000000008
 31
0.0
1001
ACDBBLOCKREPETAG
1070
     1
1071
       94
1005
12E8E4
  0
LINE
  5
12E8E5
  8
OBJECT
 10
1833.000000000015
 20
-704.0000000000008
 30
0.0
 11
1797.0000000000141
 21
-704.0
 31
0.0
1001
ACDBBLOCKREPETAG
1070
     1
1071
       95
1005
12E8E5
  0
LINE
  5
12E8E6
  8
OBJECT
 10
1833.000000000015
 20
-586.0000000000008
 30
0.0
 11
1837.000000000015
 21
-590.5000000000008
 31
0.0
1001
ACDBBLOCKREPETAG
1070
     1
1071
       96
1005
12E8E6
  0
LINE
  5
12E8E7
  8
OBJECT
 10
1850.0000000000141
 20
-590.5000000000008
 30
0.0
 11
1850.0000000000141
 21
-675.74491827928784
 31
0.0
1001
ACDBBLOCKREPETAG
1070
     1
1071
       97
1005
12E8E7
  0
ARC
  5
12E8E8
  8
OBJECT
 10
1847.2000000000151
 20
-685.0000000000008
 30
0.0
 40
85.0
 50
36.869897645898732
 51
88.112268108168848
1001
ACDBBLOCKREPETAG
1070
     1
1071
       98
1005
12E8E8
  0
LINE
  5
12E8E9
  8
HIDDEN
 10
1842.0000000000141
 20
-600.50000000000068
 30
0.0
 11
1842.0000000000141
 21
-689.50000000000091
 31
0.0
1001
ACDBBLOCKREPETAG
1070
     1
1071
      100
1005
12E8E9
  0
LINE
  5
12E8EA
  8
OBJECT
 10
1914.0000000000141
 20
-751.07945073181781
 30
0.0
 11
1843.368680078969
 21
-699.5000000000008
 31
0.0
1001
ACDBBLOCKREPETAG
1070
     1
1071
      101
1005
12E8EA
  0
LINE
  5
12E8EB
  8
OBJECT
 10
1920.000000000018
 20
-634.0
 30
0.0
 11
1915.2000000000151
 21
-634.0
 31
0.0
1001
ACDBBLOCKREPETAG
1070
     1
1071
      102
1005
12E8EB
  0
LINE
  5
12E8EC
  8
OBJECT
 10
1914.0000000000141
 20
-653.35026377573013
 30
0.0
 11
1915.2000000000151
 21
-634.0
 31
0.0
1001
ACDBBLOCKREPETAG
1070
     1
1071
      103
1005
12E8EC
  0
LINE
  5
12E8ED
  8
OBJECT
 10
1837.000000000015
 20
-699.5000000000008
 30
0.0
 11
1843.368680078969
 21
-699.5000000000008
 31
0.0
1001
ACDBBLOCKREPETAG
1070
     1
1071
      104
1005
12E8ED
  0
LINE
  5
12E8EE
  8
OBJECT
 10
1833.000000000015
 20
-704.0000000000008
 30
0.0
 11
1837.000000000015
 21
-699.5000000000008
 31
0.0
1001
ACDBBLOCKREPETAG
1070
     1
1071
      105
1005
12E8EE
  0
CIRCLE
  5
12E8EF
  8
OBJECT
 10
2000.0
 20
-696.0
 30
0.0
 40
62.0
1001
ACDBBLOCKREPETAG
1070
     1
1071
        0
1005
12E8EF
  0
LINE
  5
12E8F0
  8
OBJECT
 10
2133.0
 20
-634.0
 30
0.0
 11
2140.0
 21
-634.0
 31
0.0
1001
ACDBBLOCKREPETAG
1070
     1
1071
       45
1005
12E8F0
  0
LINE
  5
12E8F1
  8
OBJECT
 10
2140.0
 20
-634.0
 30
0.0
 11
2140.0
 21
-755.0
 31
0.0
1001
ACDBBLOCKREPETAG
1070
     1
1071
       46
1005
12E8F1
  0
LINE
  5
12E8F2
  8
OBJECT
 10
2133.0
 20
-755.0
 30
0.0
 11
2133.0
 21
-634.0
 31
0.0
1001
ACDBBLOCKREPETAG
1070
     1
1071
       47
1005
12E8F2
  0
LINE
  5
12E8F3
  8
CENTER
 10
2155.0
 20
-696.0
 30
0.0
 11
2071.0
 21
-696.0
 31
0.0
1001
ACDBBLOCKREPETAG
1070
     1
1071
       48
1005
12E8F3
  0
LINE
  5
12E8F4
  8
OBJECT
 10
2133.0
 20
-637.0
 30
0.0
 11
2097.0
 21
-637.0
 31
0.0
1001
ACDBBLOCKREPETAG
1070
     1
1071
       49
1005
12E8F4
  0
LINE
  5
12E8F5
  8
OBJECT
 10
2097.0
 20
-637.0
 30
0.0
 11
2097.0
 21
-755.0
 31
0.0
1001
ACDBBLOCKREPETAG
1070
     1
1071
       50
1005
12E8F5
  0
LINE
  5
12E8F6
  8
OBJECT
 10
2097.0
 20
-755.0
 30
0.0
 11
2140.0
 21
-755.0
 31
0.0
1001
ACDBBLOCKREPETAG
1070
     1
1071
       51
1005
12E8F6
  0
LINE
  5
12E8F7
  8
OBJECT
 10
2093.0
 20
-641.5
 30
0.0
 11
2086.0
 21
-641.5
 31
0.0
1001
ACDBBLOCKREPETAG
1070
     1
1071
       52
1005
12E8F7
  0
LINE
  5
12E8F8
  8
OBJECT
 10
2086.0
 20
-750.49999999999989
 30
0.0
 11
2093.0
 21
-750.49999999999989
 31
0.0
1001
ACDBBLOCKREPETAG
1070
     1
1071
       53
1005
12E8F8
  0
LINE
  5
12E8F9
  8
OBJECT
 10
2093.0
 20
-750.49999999999989
 30
0.0
 11
2093.0
 21
-641.5
 31
0.0
1001
ACDBBLOCKREPETAG
1070
     1
1071
       54
1005
12E8F9
  0
LINE
  5
12E8FA
  8
OBJECT
 10
2097.0
 20
-637.0
 30
0.0
 11
2093.0
 21
-641.5
 31
0.0
1001
ACDBBLOCKREPETAG
1070
     1
1071
       55
1005
12E8FA
  0
LINE
  5
12E8FB
  8
OBJECT
 10
2097.0
 20
-755.0
 30
0.0
 11
2093.0
 21
-750.49999999999989
 31
0.0
1001
ACDBBLOCKREPETAG
1070
     1
1071
       56
1005
12E8FB
  0
LINE
  5
12E8FC
  8
OBJECT
 10
2083.0
 20
-634.0
 30
0.0
 11
2080.0
 21
-634.0
 31
0.0
1001
ACDBBLOCKREPETAG
1070
     1
1071
       57
1005
12E8FC
  0
ARC
  5
12E8FD
  8
OBJECT
 10
2083.0
 20
-637.0
 30
0.0
 40
3.0
 50
0.0
 51
90.0
1001
ACDBBLOCKREPETAG
1070
     1
1071
       58
1005
12E8FD
  0
LINE
  5
12E8FE
  8
OBJECT
 10
2080.0
 20
-758.0
 30
0.0
 11
2083.0
 21
-758.0
 31
0.0
1001
ACDBBLOCKREPETAG
1070
     1
1071
       59
1005
12E8FE
  0
ARC
  5
12E8FF
  8
OBJECT
 10
2083.0
 20
-755.0
 30
0.0
 40
3.0
 50
270.0
 51
0.0
1001
ACDBBLOCKREPETAG
1070
     1
1071
       60
1005
12E8FF
  0
LINE
  5
12E900
  8
OBJECT
 10
2086.0
 20
-755.0
 30
0.0
 11
2086.0
 21
-637.0
 31
0.0
1001
ACDBBLOCKREPETAG
1070
     1
1071
       61
1005
12E900
  0
LINE
  5
12E901
  8
HIDDEN
 10
2088.0
 20
-651.5
 30
0.0
 11
2088.0
 21
-740.5
 31
0.0
1001
ACDBBLOCKREPETAG
1070
     1
1071
       63
1005
12E901
  0
TEXT
  5
12E902
  8
SLIM
 10
0.0000035665234464
 20
24.000004585317601
 30
0.0
 40
79.999999999972701
  1
枝管バリエーション
 41
0.75
1001
ACDBBLOCKREPETAG
1070
     1
1071
      119
1005
12AEEE
  0
TEXT
  5
12E903
  8
SLIM
 10
0.0
 20
369.99999999999989
 30
0.0
 40
100.0
  1
4SR-ZX06-P110-S
 41
0.75
  0
LINE
  5
12E904
  8
OBJECT
 10
4923.0
 20
-3395.9999999999968
 30
0.0
 11
4923.0
 21
-3374.9999999999968
 31
0.0
1001
ACDBBLOCKREPETAG
1070
     1
1071
        0
1005
12E904
  0
LINE
  5
12E905
  8
OBJECT
 10
4923.0
 20
-3374.9999999999968
 30
0.0
 11
5077.0
 21
-3374.9999999999968
 31
0.0
1001
ACDBBLOCKREPETAG
1070
     1
1071
        1
1005
12E905
  0
LINE
  5
12E906
  8
HIDDEN
 10
4943.0
 20
-3444.9999999999968
 30
0.0
 11
5057.0
 21
-3444.9999999999968
 31
0.0
1001
ACDBBLOCKREPETAG
1070
     1
1071
        2
1005
12E906
  0
LINE
  5
12E907
  8
OBJECT
 10
5077.0
 20
-3374.9999999999968
 30
0.0
 11
5077.0
 21
-3395.9999999999968
 31
0.0
1001
ACDBBLOCKREPETAG
1070
     1
1071
        3
1005
12E907
  0
LINE
  5
12E908
  8
OBJECT
 10
5077.0
 20
-3395.9999999999968
 30
0.0
 11
4923.0
 21
-3395.9999999999968
 31
0.0
1001
ACDBBLOCKREPETAG
1070
     1
1071
        4
1005
12E908
  0
LINE
  5
12E909
  8
CENTER
 10
5000.0
 20
-3359.9999999999968
 30
0.0
 11
5000.0
 21
-3594.9999999999968
 31
0.0
1001
ACDBBLOCKREPETAG
1070
     1
1071
        5
1005
12E909
  0
LINE
  5
12E90A
  8
OBJECT
 10
4925.0
 20
-3458.9999999999968
 30
0.0
 11
4925.0
 21
-3582.9999999999968
 31
0.0
1001
ACDBBLOCKREPETAG
1070
     1
1071
        6
1005
12E90A
  0
LINE
  5
12E90B
  8
OBJECT
 10
4928.0
 20
-3395.9999999999968
 30
0.0
 11
4928.0
 21
-3458.9999999999968
 31
0.0
1001
ACDBBLOCKREPETAG
1070
     1
1071
        7
1005
12E90B
  0
LINE
  5
12E90C
  8
OBJECT
 10
5072.0
 20
-3458.9999999999968
 30
0.0
 11
5072.0
 21
-3395.9999999999968
 31
0.0
1001
ACDBBLOCKREPETAG
1070
     1
1071
        8
1005
12E90C
  0
LINE
  5
12E90D
  8
OBJECT
 10
5074.9999999997999
 20
-3582.9999999997758
 30
0.0
 11
5080.0
 21
-3582.9999999999968
 31
0.0
1001
ACDBBLOCKREPETAG
1070
     1
1071
        9
1005
12E90D
  0
LINE
  5
12E90E
  8
OBJECT
 10
5080.0
 20
-3458.9999999999968
 30
0.0
 11
4925.0
 21
-3458.9999999999968
 31
0.0
1001
ACDBBLOCKREPETAG
1070
     1
1071
       10
1005
12E90E
  0
ARC
  5
12E90F
  8
OBJECT
 10
5200.6872746716726
 20
-3574.408099410105
 30
0.0
 40
170.6350503965856
 50
137.44134459184301
 51
149.9194958133665
1001
ACDBBLOCKREPETAG
1070
     1
1071
       15
1005
12E90F
  0
ARC
  5
12E910
  8
OBJECT
 10
5118.8455987040506
 20
-3530.8827266953631
 30
0.0
 40
78.072222021763665
 50
147.4551531037684
 51
164.66365997719291
1001
ACDBBLOCKREPETAG
1070
     1
1071
       16
1005
12E910
  0
ARC
  5
12E911
  8
OBJECT
 10
5085.7554349608727
 20
-3520.9999999999968
 30
0.0
 40
43.55353926885617
 50
165.6884523008477
 51
194.3115476991523
1001
ACDBBLOCKREPETAG
1070
     1
1071
       17
1005
12E911
  0
ARC
  5
12E912
  8
OBJECT
 10
5200.6872746716726
 20
-3467.5919005898891
 30
0.0
 40
170.6350503965856
 50
210.0805041866335
 51
222.55865540815699
1001
ACDBBLOCKREPETAG
1070
     1
1071
       18
1005
12E912
  0
ARC
  5
12E913
  8
OBJECT
 10
5118.8455987040506
 20
-3511.1172733046319
 30
0.0
 40
78.072222021763665
 50
195.33634002280701
 51
212.5448468962316
1001
ACDBBLOCKREPETAG
1070
     1
1071
       19
1005
12E913
  0
POINT
  5
12E914
  8
DOTS
 10
5000.0
 20
-3579.9999999999968
 30
0.0
1001
ACDBBLOCKREPETAG
1070
     1
1071
      186
1005
12E914
  0
LINE
  5
12E915
  8
OBJECT
 10
4323.0
 20
-3395.9999999999968
 30
0.0
 11
4323.0
 21
-3374.9999999999968
 31
0.0
1001
ACDBBLOCKREPETAG
1070
     1
1071
       20
1005
12E915
  0
LINE
  5
12E916
  8
OBJECT
 10
4323.0
 20
-3374.9999999999968
 30
0.0
 11
4477.0
 21
-3374.9999999999968
 31
0.0
1001
ACDBBLOCKREPETAG
1070
     1
1071
       21
1005
12E916
  0
LINE
  5
12E917
  8
HIDDEN
 10
4343.0
 20
-3444.9999999999968
 30
0.0
 11
4457.0
 21
-3444.9999999999968
 31
0.0
1001
ACDBBLOCKREPETAG
1070
     1
1071
       22
1005
12E917
  0
LINE
  5
12E918
  8
OBJECT
 10
4477.0
 20
-3374.9999999999968
 30
0.0
 11
4477.0
 21
-3395.9999999999968
 31
0.0
1001
ACDBBLOCKREPETAG
1070
     1
1071
       23
1005
12E918
  0
LINE
  5
12E919
  8
OBJECT
 10
4477.0
 20
-3395.9999999999968
 30
0.0
 11
4323.0
 21
-3395.9999999999968
 31
0.0
1001
ACDBBLOCKREPETAG
1070
     1
1071
       24
1005
12E919
  0
LINE
  5
12E91A
  8
CENTER
 10
4400.0
 20
-3359.9999999999968
 30
0.0
 11
4400.0
 21
-3594.9999999999968
 31
0.0
1001
ACDBBLOCKREPETAG
1070
     1
1071
       25
1005
12E91A
  0
LINE
  5
12E91B
  8
OBJECT
 10
4325.0
 20
-3458.9999999999968
 30
0.0
 11
4325.0
 21
-3582.9999999999968
 31
0.0
1001
ACDBBLOCKREPETAG
1070
     1
1071
       26
1005
12E91B
  0
LINE
  5
12E91C
  8
OBJECT
 10
4328.0
 20
-3395.9999999999968
 30
0.0
 11
4328.0
 21
-3458.9999999999968
 31
0.0
1001
ACDBBLOCKREPETAG
1070
     1
1071
       27
1005
12E91C
  0
LINE
  5
12E91D
  8
OBJECT
 10
4472.0
 20
-3458.9999999999968
 30
0.0
 11
4472.0
 21
-3395.9999999999968
 31
0.0
1001
ACDBBLOCKREPETAG
1070
     1
1071
       28
1005
12E91D
  0
LINE
  5
12E91E
  8
OBJECT
 10
4475.0
 20
-3458.9999999999968
 30
0.0
 11
4325.0
 21
-3458.9999999999968
 31
0.0
1001
ACDBBLOCKREPETAG
1070
     1
1071
       30
1005
12E91E
  0
LINE
  5
12E91F
  8
OBJECT
 10
4475.0
 20
-3458.9999999999968
 30
0.0
 11
4475.0
 21
-3582.9999999999968
 31
0.0
1001
ACDBBLOCKREPETAG
1070
     1
1071
       34
1005
12E91F
  0
POINT
  5
12E920
  8
DOTS
 10
4400.0
 20
-3579.9999999999968
 30
0.0
1001
ACDBBLOCKREPETAG
1070
     1
1071
      187
1005
12E920
  0
LINE
  5
12E921
  8
OBJECT
 10
3923.0
 20
-3395.9999999999968
 30
0.0
 11
3923.0
 21
-3374.9999999999968
 31
0.0
1001
ACDBBLOCKREPETAG
1070
     1
1071
        0
1005
12E921
  0
LINE
  5
12E922
  8
OBJECT
 10
3923.0
 20
-3374.9999999999968
 30
0.0
 11
4077.0
 21
-3374.9999999999968
 31
0.0
1001
ACDBBLOCKREPETAG
1070
     1
1071
        1
1005
12E922
  0
LINE
  5
12E923
  8
HIDDEN
 10
3943.0
 20
-3444.9999999999968
 30
0.0
 11
4057.0
 21
-3444.9999999999968
 31
0.0
1001
ACDBBLOCKREPETAG
1070
     1
1071
        2
1005
12E923
  0
LINE
  5
12E924
  8
OBJECT
 10
4077.0
 20
-3374.9999999999968
 30
0.0
 11
4077.0
 21
-3395.9999999999968
 31
0.0
1001
ACDBBLOCKREPETAG
1070
     1
1071
        3
1005
12E924
  0
LINE
  5
12E925
  8
OBJECT
 10
4077.0
 20
-3395.9999999999968
 30
0.0
 11
3923.0
 21
-3395.9999999999968
 31
0.0
1001
ACDBBLOCKREPETAG
1070
     1
1071
        4
1005
12E925
  0
LINE
  5
12E926
  8
CENTER
 10
4000.0
 20
-3359.9999999999968
 30
0.0
 11
4000.0
 21
-3594.9999999999968
 31
0.0
1001
ACDBBLOCKREPETAG
1070
     1
1071
        5
1005
12E926
  0
LINE
  5
12E927
  8
OBJECT
 10
3925.0
 20
-3458.9999999999968
 30
0.0
 11
3925.0
 21
-3582.9999999999968
 31
0.0
1001
ACDBBLOCKREPETAG
1070
     1
1071
        6
1005
12E927
  0
LINE
  5
12E928
  8
OBJECT
 10
3928.0
 20
-3395.9999999999968
 30
0.0
 11
3928.0
 21
-3458.9999999999968
 31
0.0
1001
ACDBBLOCKREPETAG
1070
     1
1071
        7
1005
12E928
  0
LINE
  5
12E929
  8
OBJECT
 10
4072.0
 20
-3458.9999999999968
 30
0.0
 11
4072.0
 21
-3395.9999999999968
 31
0.0
1001
ACDBBLOCKREPETAG
1070
     1
1071
        8
1005
12E929
  0
LINE
  5
12E92A
  8
OBJECT
 10
4074.999999999799
 20
-3582.9999999997758
 30
0.0
 11
4080.0
 21
-3582.9999999999968
 31
0.0
1001
ACDBBLOCKREPETAG
1070
     1
1071
        9
1005
12E92A
  0
LINE
  5
12E92B
  8
OBJECT
 10
4080.0
 20
-3458.9999999999968
 30
0.0
 11
3925.0
 21
-3458.9999999999968
 31
0.0
1001
ACDBBLOCKREPETAG
1070
     1
1071
       10
1005
12E92B
  0
ARC
  5
12E92C
  8
OBJECT
 10
4200.6872746716726
 20
-3574.408099410105
 30
0.0
 40
170.6350503965856
 50
137.44134459184301
 51
149.9194958133665
1001
ACDBBLOCKREPETAG
1070
     1
1071
       15
1005
12E92C
  0
ARC
  5
12E92D
  8
OBJECT
 10
4118.8455987040506
 20
-3530.8827266953631
 30
0.0
 40
78.072222021763665
 50
147.4551531037684
 51
164.663659977186
1001
ACDBBLOCKREPETAG
1070
     1
1071
       16
1005
12E92D
  0
ARC
  5
12E92E
  8
OBJECT
 10
4085.7554349608722
 20
-3520.9999999999968
 30
0.0
 40
43.55353926885617
 50
165.6884523008477
 51
194.3115476991523
1001
ACDBBLOCKREPETAG
1070
     1
1071
       17
1005
12E92E
  0
ARC
  5
12E92F
  8
OBJECT
 10
4200.6872746716726
 20
-3467.5919005898891
 30
0.0
 40
170.6350503965856
 50
210.0805041866335
 51
222.55865540815699
1001
ACDBBLOCKREPETAG
1070
     1
1071
       18
1005
12E92F
  0
ARC
  5
12E930
  8
OBJECT
 10
4118.8455987040506
 20
-3511.1172733046319
 30
0.0
 40
78.072222021763665
 50
195.33634002281391
 51
212.5448468962316
1001
ACDBBLOCKREPETAG
1070
     1
1071
       19
1005
12E930
  0
POINT
  5
12E931
  8
DOTS
 10
4000.0
 20
-3579.9999999999968
 30
0.0
1001
ACDBBLOCKREPETAG
1070
     1
1071
      186
1005
12E931
  0
LINE
  5
12E932
  8
OBJECT
 10
3323.0
 20
-3395.9999999999968
 30
0.0
 11
3323.0
 21
-3374.9999999999968
 31
0.0
1001
ACDBBLOCKREPETAG
1070
     1
1071
       20
1005
12E932
  0
LINE
  5
12E933
  8
OBJECT
 10
3323.0
 20
-3374.9999999999968
 30
0.0
 11
3477.0
 21
-3374.9999999999968
 31
0.0
1001
ACDBBLOCKREPETAG
1070
     1
1071
       21
1005
12E933
  0
LINE
  5
12E934
  8
HIDDEN
 10
3343.0
 20
-3444.9999999999968
 30
0.0
 11
3457.0
 21
-3444.9999999999968
 31
0.0
1001
ACDBBLOCKREPETAG
1070
     1
1071
       22
1005
12E934
  0
LINE
  5
12E935
  8
OBJECT
 10
3477.0
 20
-3374.9999999999968
 30
0.0
 11
3477.0
 21
-3395.9999999999968
 31
0.0
1001
ACDBBLOCKREPETAG
1070
     1
1071
       23
1005
12E935
  0
LINE
  5
12E936
  8
OBJECT
 10
3477.0
 20
-3395.9999999999968
 30
0.0
 11
3323.0
 21
-3395.9999999999968
 31
0.0
1001
ACDBBLOCKREPETAG
1070
     1
1071
       24
1005
12E936
  0
LINE
  5
12E937
  8
CENTER
 10
3400.0
 20
-3359.9999999999968
 30
0.0
 11
3400.0
 21
-3594.9999999999968
 31
0.0
1001
ACDBBLOCKREPETAG
1070
     1
1071
       25
1005
12E937
  0
LINE
  5
12E938
  8
OBJECT
 10
3325.0
 20
-3458.9999999999968
 30
0.0
 11
3325.0
 21
-3582.9999999999968
 31
0.0
1001
ACDBBLOCKREPETAG
1070
     1
1071
       26
1005
12E938
  0
LINE
  5
12E939
  8
OBJECT
 10
3328.0
 20
-3395.9999999999968
 30
0.0
 11
3328.0
 21
-3458.9999999999968
 31
0.0
1001
ACDBBLOCKREPETAG
1070
     1
1071
       27
1005
12E939
  0
LINE
  5
12E93A
  8
OBJECT
 10
3472.0
 20
-3458.9999999999968
 30
0.0
 11
3472.0
 21
-3395.9999999999968
 31
0.0
1001
ACDBBLOCKREPETAG
1070
     1
1071
       28
1005
12E93A
  0
LINE
  5
12E93B
  8
OBJECT
 10
3475.0
 20
-3458.9999999999968
 30
0.0
 11
3325.0
 21
-3458.9999999999968
 31
0.0
1001
ACDBBLOCKREPETAG
1070
     1
1071
       30
1005
12E93B
  0
LINE
  5
12E93C
  8
OBJECT
 10
3475.0
 20
-3458.9999999999968
 30
0.0
 11
3475.0
 21
-3582.9999999999968
 31
0.0
1001
ACDBBLOCKREPETAG
1070
     1
1071
       34
1005
12E93C
  0
POINT
  5
12E93D
  8
DOTS
 10
3400.0
 20
-3579.9999999999968
 30
0.0
1001
ACDBBLOCKREPETAG
1070
     1
1071
      187
1005
12E93D
  0
LINE
  5
12E93E
  8
OBJECT
 10
2923.0
 20
-3395.9999999999968
 30
0.0
 11
2923.0
 21
-3374.9999999999968
 31
0.0
1001
ACDBBLOCKREPETAG
1070
     1
1071
        0
1005
12E93E
  0
LINE
  5
12E93F
  8
OBJECT
 10
2923.0
 20
-3374.9999999999968
 30
0.0
 11
3077.0
 21
-3374.9999999999968
 31
0.0
1001
ACDBBLOCKREPETAG
1070
     1
1071
        1
1005
12E93F
  0
LINE
  5
12E940
  8
HIDDEN
 10
2943.0
 20
-3444.9999999999968
 30
0.0
 11
3057.0
 21
-3444.9999999999968
 31
0.0
1001
ACDBBLOCKREPETAG
1070
     1
1071
        2
1005
12E940
  0
LINE
  5
12E941
  8
OBJECT
 10
3077.0
 20
-3374.9999999999968
 30
0.0
 11
3077.0
 21
-3395.9999999999968
 31
0.0
1001
ACDBBLOCKREPETAG
1070
     1
1071
        3
1005
12E941
  0
LINE
  5
12E942
  8
OBJECT
 10
3077.0
 20
-3395.9999999999968
 30
0.0
 11
2923.0
 21
-3395.9999999999968
 31
0.0
1001
ACDBBLOCKREPETAG
1070
     1
1071
        4
1005
12E942
  0
LINE
  5
12E943
  8
CENTER
 10
3000.0
 20
-3359.9999999999968
 30
0.0
 11
3000.0
 21
-3594.9999999999968
 31
0.0
1001
ACDBBLOCKREPETAG
1070
     1
1071
        5
1005
12E943
  0
LINE
  5
12E944
  8
OBJECT
 10
2925.0
 20
-3458.9999999999968
 30
0.0
 11
2925.0
 21
-3582.9999999999968
 31
0.0
1001
ACDBBLOCKREPETAG
1070
     1
1071
        6
1005
12E944
  0
LINE
  5
12E945
  8
OBJECT
 10
2928.0
 20
-3395.9999999999968
 30
0.0
 11
2928.0
 21
-3458.9999999999968
 31
0.0
1001
ACDBBLOCKREPETAG
1070
     1
1071
        7
1005
12E945
  0
LINE
  5
12E946
  8
OBJECT
 10
3072.0
 20
-3458.9999999999968
 30
0.0
 11
3072.0
 21
-3395.9999999999968
 31
0.0
1001
ACDBBLOCKREPETAG
1070
     1
1071
        8
1005
12E946
  0
LINE
  5
12E947
  8
OBJECT
 10
3074.9999999997999
 20
-3582.9999999997758
 30
0.0
 11
3080.0
 21
-3582.9999999999968
 31
0.0
1001
ACDBBLOCKREPETAG
1070
     1
1071
        9
1005
12E947
  0
LINE
  5
12E948
  8
OBJECT
 10
3080.0
 20
-3458.9999999999968
 30
0.0
 11
2925.0
 21
-3458.9999999999968
 31
0.0
1001
ACDBBLOCKREPETAG
1070
     1
1071
       10
1005
12E948
  0
ARC
  5
12E949
  8
OBJECT
 10
3200.6872746716722
 20
-3574.408099410105
 30
0.0
 40
170.6350503965856
 50
137.44134459184301
 51
149.9194958133665
1001
ACDBBLOCKREPETAG
1070
     1
1071
       15
1005
12E949
  0
ARC
  5
12E94A
  8
OBJECT
 10
3118.8455987040511
 20
-3530.8827266953631
 30
0.0
 40
78.072222021763665
 50
147.4551531037684
 51
164.663659977186
1001
ACDBBLOCKREPETAG
1070
     1
1071
       16
1005
12E94A
  0
ARC
  5
12E94B
  8
OBJECT
 10
3085.7554349608731
 20
-3520.9999999999968
 30
0.0
 40
43.55353926885617
 50
165.6884523008477
 51
194.3115476991523
1001
ACDBBLOCKREPETAG
1070
     1
1071
       17
1005
12E94B
  0
ARC
  5
12E94C
  8
OBJECT
 10
3200.6872746716722
 20
-3467.5919005898891
 30
0.0
 40
170.6350503965856
 50
210.0805041866335
 51
222.55865540815699
1001
ACDBBLOCKREPETAG
1070
     1
1071
       18
1005
12E94C
  0
ARC
  5
12E94D
  8
OBJECT
 10
3118.8455987040511
 20
-3511.1172733046319
 30
0.0
 40
78.072222021763665
 50
195.33634002281391
 51
212.5448468962316
1001
ACDBBLOCKREPETAG
1070
     1
1071
       19
1005
12E94D
  0
POINT
  5
12E94E
  8
DOTS
 10
3000.0
 20
-3579.9999999999968
 30
0.0
1001
ACDBBLOCKREPETAG
1070
     1
1071
      186
1005
12E94E
  0
LINE
  5
12E94F
  8
OBJECT
 10
2323.0
 20
-3395.9999999999968
 30
0.0
 11
2323.0
 21
-3374.9999999999968
 31
0.0
1001
ACDBBLOCKREPETAG
1070
     1
1071
       20
1005
12E94F
  0
LINE
  5
12E950
  8
OBJECT
 10
2323.0
 20
-3374.9999999999968
 30
0.0
 11
2477.0
 21
-3374.9999999999968
 31
0.0
1001
ACDBBLOCKREPETAG
1070
     1
1071
       21
1005
12E950
  0
LINE
  5
12E951
  8
HIDDEN
 10
2343.0
 20
-3444.9999999999968
 30
0.0
 11
2457.0
 21
-3444.9999999999968
 31
0.0
1001
ACDBBLOCKREPETAG
1070
     1
1071
       22
1005
12E951
  0
LINE
  5
12E952
  8
OBJECT
 10
2477.0
 20
-3374.9999999999968
 30
0.0
 11
2477.0
 21
-3395.9999999999968
 31
0.0
1001
ACDBBLOCKREPETAG
1070
     1
1071
       23
1005
12E952
  0
LINE
  5
12E953
  8
OBJECT
 10
2477.0
 20
-3395.9999999999968
 30
0.0
 11
2323.0
 21
-3395.9999999999968
 31
0.0
1001
ACDBBLOCKREPETAG
1070
     1
1071
       24
1005
12E953
  0
LINE
  5
12E954
  8
CENTER
 10
2400.0
 20
-3359.9999999999968
 30
0.0
 11
2400.0
 21
-3594.9999999999968
 31
0.0
1001
ACDBBLOCKREPETAG
1070
     1
1071
       25
1005
12E954
  0
LINE
  5
12E955
  8
OBJECT
 10
2325.0
 20
-3458.9999999999968
 30
0.0
 11
2325.0
 21
-3582.9999999999968
 31
0.0
1001
ACDBBLOCKREPETAG
1070
     1
1071
       26
1005
12E955
  0
LINE
  5
12E956
  8
OBJECT
 10
2328.0
 20
-3395.9999999999968
 30
0.0
 11
2328.0
 21
-3458.9999999999968
 31
0.0
1001
ACDBBLOCKREPETAG
1070
     1
1071
       27
1005
12E956
  0
LINE
  5
12E957
  8
OBJECT
 10
2472.0
 20
-3458.9999999999968
 30
0.0
 11
2472.0
 21
-3395.9999999999968
 31
0.0
1001
ACDBBLOCKREPETAG
1070
     1
1071
       28
1005
12E957
  0
LINE
  5
12E958
  8
OBJECT
 10
2475.0
 20
-3458.9999999999968
 30
0.0
 11
2325.0
 21
-3458.9999999999968
 31
0.0
1001
ACDBBLOCKREPETAG
1070
     1
1071
       30
1005
12E958
  0
LINE
  5
12E959
  8
OBJECT
 10
2475.0
 20
-3458.9999999999968
 30
0.0
 11
2475.0
 21
-3582.9999999999968
 31
0.0
1001
ACDBBLOCKREPETAG
1070
     1
1071
       34
1005
12E959
  0
POINT
  5
12E95A
  8
DOTS
 10
2400.0
 20
-3579.9999999999968
 30
0.0
1001
ACDBBLOCKREPETAG
1070
     1
1071
      187
1005
12E95A
  0
LINE
  5
12E95B
  8
OBJECT
 10
1923.0
 20
-3395.9999999999968
 30
0.0
 11
1923.0
 21
-3374.9999999999968
 31
0.0
1001
ACDBBLOCKREPETAG
1070
     1
1071
        0
1005
12E95B
  0
LINE
  5
12E95C
  8
OBJECT
 10
1923.0
 20
-3374.9999999999968
 30
0.0
 11
2077.0
 21
-3374.9999999999968
 31
0.0
1001
ACDBBLOCKREPETAG
1070
     1
1071
        1
1005
12E95C
  0
LINE
  5
12E95D
  8
HIDDEN
 10
1943.0
 20
-3444.9999999999968
 30
0.0
 11
2057.0
 21
-3444.9999999999968
 31
0.0
1001
ACDBBLOCKREPETAG
1070
     1
1071
        2
1005
12E95D
  0
LINE
  5
12E95E
  8
OBJECT
 10
2077.0
 20
-3374.9999999999968
 30
0.0
 11
2077.0
 21
-3395.9999999999968
 31
0.0
1001
ACDBBLOCKREPETAG
1070
     1
1071
        3
1005
12E95E
  0
LINE
  5
12E95F
  8
OBJECT
 10
2077.0
 20
-3395.9999999999968
 30
0.0
 11
1923.0
 21
-3395.9999999999968
 31
0.0
1001
ACDBBLOCKREPETAG
1070
     1
1071
        4
1005
12E95F
  0
LINE
  5
12E960
  8
CENTER
 10
2000.0
 20
-3359.9999999999968
 30
0.0
 11
2000.0
 21
-3594.9999999999968
 31
0.0
1001
ACDBBLOCKREPETAG
1070
     1
1071
        5
1005
12E960
  0
LINE
  5
12E961
  8
OBJECT
 10
1925.0
 20
-3458.9999999999968
 30
0.0
 11
1925.0
 21
-3582.9999999999968
 31
0.0
1001
ACDBBLOCKREPETAG
1070
     1
1071
        6
1005
12E961
  0
LINE
  5
12E962
  8
OBJECT
 10
1928.0
 20
-3395.9999999999968
 30
0.0
 11
1928.0
 21
-3458.9999999999968
 31
0.0
1001
ACDBBLOCKREPETAG
1070
     1
1071
        7
1005
12E962
  0
LINE
  5
12E963
  8
OBJECT
 10
2072.0
 20
-3458.9999999999968
 30
0.0
 11
2072.0
 21
-3395.9999999999968
 31
0.0
1001
ACDBBLOCKREPETAG
1070
     1
1071
        8
1005
12E963
  0
LINE
  5
12E964
  8
OBJECT
 10
2074.999999999799
 20
-3582.9999999997758
 30
0.0
 11
2080.0
 21
-3582.9999999999968
 31
0.0
1001
ACDBBLOCKREPETAG
1070
     1
1071
        9
1005
12E964
  0
LINE
  5
12E965
  8
OBJECT
 10
2080.0
 20
-3458.9999999999968
 30
0.0
 11
1925.0
 21
-3458.9999999999968
 31
0.0
1001
ACDBBLOCKREPETAG
1070
     1
1071
       10
1005
12E965
  0
ARC
  5
12E966
  8
OBJECT
 10
2200.6872746716731
 20
-3574.408099410105
 30
0.0
 40
170.6350503965856
 50
137.44134459184301
 51
149.91949581335999
1001
ACDBBLOCKREPETAG
1070
     1
1071
       15
1005
12E966
  0
ARC
  5
12E967
  8
OBJECT
 10
2118.8455987040511
 20
-3530.8827266953631
 30
0.0
 40
78.072222021763665
 50
147.45515310377539
 51
164.663659977186
1001
ACDBBLOCKREPETAG
1070
     1
1071
       16
1005
12E967
  0
ARC
  5
12E968
  8
OBJECT
 10
2085.7554349608731
 20
-3520.9999999999968
 30
0.0
 40
43.55353926885617
 50
165.6884523008477
 51
194.3115476991523
1001
ACDBBLOCKREPETAG
1070
     1
1071
       17
1005
12E968
  0
ARC
  5
12E969
  8
OBJECT
 10
2200.6872746716731
 20
-3467.5919005898891
 30
0.0
 40
170.6350503965856
 50
210.08050418664001
 51
222.55865540815699
1001
ACDBBLOCKREPETAG
1070
     1
1071
       18
1005
12E969
  0
ARC
  5
12E96A
  8
OBJECT
 10
2118.8455987040511
 20
-3511.1172733046319
 30
0.0
 40
78.072222021763665
 50
195.33634002281391
 51
212.54484689622461
1001
ACDBBLOCKREPETAG
1070
     1
1071
       19
1005
12E96A
  0
POINT
  5
12E96B
  8
DOTS
 10
2000.0
 20
-3579.9999999999968
 30
0.0
1001
ACDBBLOCKREPETAG
1070
     1
1071
      186
1005
12E96B
  0
LINE
  5
12E96C
  8
DIM
 10
2150.0
 20
-3221.9999999999959
 30
0.0
 11
2228.479620594459
 21
-3221.9999999999959
 31
0.0
  0
LINE
  5
12E96D
  8
DIM
 10
2150.0
 20
-3127.9999999999959
 30
0.0
 11
2228.479620594459
 21
-3127.9999999999959
 31
0.0
  0
LINE
  5
12E96E
  8
DIM
 10
2218.479620594459
 20
-3201.9999999999959
 30
0.0
 11
2218.479620594459
 21
-3147.9999999999959
 31
0.0
  0
INSERT
  5
12E96F
  8
DIM
  2
_OPEN30
 10
2218.479620594459
 20
-3221.9999999999959
 30
0.0
 41
20.0
 42
20.0
 43
20.0
 50
270.0
  0
INSERT
  5
12E970
  8
DIM
  2
_OPEN30
 10
2218.479620594459
 20
-3127.9999999999959
 30
0.0
 41
20.0
 42
20.0
 43
20.0
 50
90.0
  0
INSERT
  5
12E971
  8
OBJECT
  2
*U11
 10
0.0
 20
0.0
 30
0.0
  0
LINE
  5
12E972
  8
DIM
 10
2150.0
 20
-3579.9999999999968
 30
0.0
 11
2226.8409284037339
 21
-3579.9999999999968
 31
0.0
  0
LINE
  5
12E973
  8
DIM
 10
2165.0
 20
-3535.9999999999968
 30
0.0
 11
2226.8409284037339
 21
-3535.9999999999968
 31
0.0
  0
LINE
  5
12E974
  8
DIM
 10
2216.840928403733
 20
-3599.9999999999968
 30
0.0
 11
2216.840928403733
 21
-3619.9999999999968
 31
0.0
  0
LINE
  5
12E975
  8
DIM
 10
2216.840928403733
 20
-3515.9999999999968
 30
0.0
 11
2216.840928403733
 21
-3495.9999999999968
 31
0.0
  0
LINE
  5
12E976
  8
DIM
 10
2216.840928403733
 20
-3579.9999999999968
 30
0.0
 11
2216.840928403733
 21
-3535.9999999999968
 31
0.0
  0
INSERT
  5
12E977
  8
DIM
  2
_OPEN30
 10
2216.840928403733
 20
-3579.9999999999968
 30
0.0
 41
20.0
 42
20.0
 43
20.0
 50
90.0
  0
INSERT
  5
12E978
  8
DIM
  2
_OPEN30
 10
2216.840928403733
 20
-3535.9999999999968
 30
0.0
 41
20.0
 42
20.0
 43
20.0
 50
270.0
  0
INSERT
  5
12E979
  8
OBJECT
  2
*U12
 10
0.0
 20
0.0
 30
0.0
  0
LINE
  5
12E97A
  8
DIM
 10
2000.0
 20
-3069.9999999999959
 30
0.0
 11
2000.0
 21
-3037.208121984444
 31
0.0
  0
LINE
  5
12E97B
  8
DIM
 10
2140.0
 20
-3117.9999999999959
 30
0.0
 11
2140.0
 21
-3037.208121984444
 31
0.0
  0
LINE
  5
12E97C
  8
DIM
 10
2020.0
 20
-3047.208121984444
 30
0.0
 11
2120.0
 21
-3047.208121984444
 31
0.0
  0
INSERT
  5
12E97D
  8
DIM
  2
_OPEN30
 10
2000.0
 20
-3047.208121984444
 30
0.0
 41
20.0
 42
20.0
 43
20.0
 50
180.0
  0
INSERT
  5
12E97E
  8
DIM
  2
_OPEN30
 10
2140.0
 20
-3047.208121984444
 30
0.0
 41
20.0
 42
20.0
 43
20.0
  0
INSERT
  5
12E97F
  8
OBJECT
  2
*U13
 10
0.0
 20
0.0
 30
0.0
  0
TEXT
  5
12E980
  8
SLIM
 10
2631.0
 20
-2952.50001604727
 30
0.0
 40
40.0
  1
C寸法
 41
0.75
  0
TEXT
  5
12E981
  8
SLIM
 10
2631.0
 20
-2882.50001604727
 30
0.0
 40
40.0
  1
B寸法
 41
0.75
  0
TEXT
  5
12E982
  8
SLIM
 10
2630.2857142857142
 20
-2812.50001604727
 30
0.0
 40
40.0
  1
A寸法
 41
0.75
  0
TEXT
  5
12E983
  8
SLIM
 10
3159.2857142857151
 20
-2952.50001604727
 30
0.0
 40
40.0
  1
150
 41
0.75
  0
TEXT
  5
12E984
  8
SLIM
 10
3029.2857142857151
 20
-2952.50001604727
 30
0.0
 40
40.0
  1
140
 41
0.75
  0
TEXT
  5
12E985
  8
SLIM
 10
2769.2857142857151
 20
-2952.50001604727
 30
0.0
 40
40.0
  1
140
 41
0.75
  0
TEXT
  5
12E986
  8
SLIM
 10
2899.2857142857151
 20
-2952.50001604727
 30
0.0
 40
40.0
  1
140
 41
0.75
  0
TEXT
  5
12E987
  8
SLIM
 10
3170.7142857142858
 20
-2882.50001604727
 30
0.0
 40
40.0
  1
72
 41
0.75
  0
TEXT
  5
12E988
  8
SLIM
 10
3041.4285714285711
 20
-2882.50001604727
 30
0.0
 40
40.0
  1
59
 41
0.75
  0
TEXT
  5
12E989
  8
SLIM
 10
2780.0
 20
-2882.50001604727
 30
0.0
 40
40.0
  1
44
 41
0.75
  0
TEXT
  5
12E98A
  8
SLIM
 10
2910.7142857142858
 20
-2882.50001604727
 30
0.0
 40
40.0
  1
52
 41
0.75
  0
TEXT
  5
12E98B
  8
SLIM
 10
2891.0
 20
-2687.50001604727
 30
0.0
 40
40.0
  1
横枝管サイズ
 41
0.75
  0
TEXT
  5
12E98C
  8
SLIM
 10
3136.2857142857151
 20
-2742.50001604727
 30
0.0
 40
30.0
  1
100（4）
 41
0.75
  0
TEXT
  5
12E98D
  8
SLIM
 10
3014.857142857144
 20
-2742.50001604727
 30
0.0
 40
30.0
  1
75（3）
 41
0.75
  0
TEXT
  5
12E98E
  8
SLIM
 10
2884.8571428571431
 20
-2742.50001604727
 30
0.0
 40
30.0
  1
65（2）
 41
0.75
  0
TEXT
  5
12E98F
  8
SLIM
 10
2757.0
 20
-2742.50001604727
 30
0.0
 40
30.0
  1
50（1）
 41
0.75
  0
TEXT
  5
12E990
  8
SLIM
 10
3159.2857142857151
 20
-2812.50001604727
 30
0.0
 40
40.0
  1
150
 41
0.75
  0
TEXT
  5
12E991
  8
SLIM
 10
3028.571428571428
 20
-2812.50001604727
 30
0.0
 40
40.0
  1
124
 41
0.75
  0
TEXT
  5
12E992
  8
SLIM
 10
2780.0
 20
-2812.50001604727
 30
0.0
 40
40.0
  1
94
 41
0.75
  0
TEXT
  5
12E993
  8
SLIM
 10
2902.1428571428569
 20
-2812.50001604727
 30
0.0
 40
40.0
  1
110
 41
0.75
  0
TEXT
  5
12E994
  8
SLIM
 10
1849.9999999999991
 20
-2712.5
 30
0.0
 40
75.0
  1
枝管サイズ毎の形状
 41
0.75
  0
LINE
  5
12E995
  8
OBJECT
 10
5150.0
 20
-3432.9999999999968
 30
0.0
 11
5143.0
 21
-3432.9999999999968
 31
0.0
1001
ACDBBLOCKREPETAG
1070
     1
1071
       64
1005
12E995
  0
LINE
  5
12E996
  8
OBJECT
 10
5143.0
 20
-3432.9999999999968
 30
0.0
 11
5143.0
 21
-3579.9999999999968
 31
0.0
1001
ACDBBLOCKREPETAG
1070
     1
1071
       65
1005
12E996
  0
LINE
  5
12E997
  8
OBJECT
 10
5101.5
 20
-3435.9999999999968
 30
0.0
 11
5101.5
 21
-3579.9999999999968
 31
0.0
1001
ACDBBLOCKREPETAG
1070
     1
1071
       66
1005
12E997
  0
LINE
  5
12E998
  8
OBJECT
 10
5090.0
 20
-3442.4999999999968
 30
0.0
 11
5090.0
 21
-3573.4999999999968
 31
0.0
1001
ACDBBLOCKREPETAG
1070
     1
1071
       67
1005
12E998
  0
LINE
  5
12E999
  8
OBJECT
 10
5086.0
 20
-3514.5000000000041
 30
0.0
 11
5086.0
 21
-3579.9999999999968
 31
0.0
1001
ACDBBLOCKREPETAG
1070
     1
1071
       68
1005
12E999
  0
LINE
  5
12E99A
  8
OBJECT
 10
5150.0
 20
-3579.9999999999968
 30
0.0
 11
5150.0
 21
-3432.9999999999968
 31
0.0
1001
ACDBBLOCKREPETAG
1070
     1
1071
       69
1005
12E99A
  0
LINE
  5
12E99B
  8
CENTER
 10
5165.0
 20
-3507.9999999999968
 30
0.0
 11
5070.4144144144157
 21
-3507.9999999999968
 31
0.0
1001
ACDBBLOCKREPETAG
1070
     1
1071
       70
1005
12E99B
  0
LINE
  5
12E99C
  8
OBJECT
 10
5083.0000000000045
 20
-3582.9999999999968
 30
0.0
 11
5080.0
 21
-3582.9999999999968
 31
0.0
1001
ACDBBLOCKREPETAG
1070
     1
1071
       71
1005
12E99C
  0
ARC
  5
12E99D
  8
OBJECT
 10
5091.8815171830656
 20
-3581.4555591801418
 30
0.0
 40
6.0
 50
60.52411099686767
 51
170.6927439126847
1001
ACDBBLOCKREPETAG
1070
     1
1071
       72
1005
12E99D
  0
ARC
  5
12E99E
  8
OBJECT
 10
5083.0
 20
-3579.9999999999968
 30
0.0
 40
3.0
 50
270.0
 51
350.69274391268482
1001
ACDBBLOCKREPETAG
1070
     1
1071
       73
1005
12E99E
  0
LINE
  5
12E99F
  8
OBJECT
 10
5081.0
 20
-3458.9999999999968
 30
0.0
 11
5080.0
 21
-3458.9999999999968
 31
0.0
1001
ACDBBLOCKREPETAG
1070
     1
1071
       74
1005
12E99F
  0
LINE
  5
12E9A0
  8
OBJECT
 10
5150.0
 20
-3579.9999999999968
 30
0.0
 11
5101.5
 21
-3579.9999999999968
 31
0.0
1001
ACDBBLOCKREPETAG
1070
     1
1071
       75
1005
12E9A0
  0
LINE
  5
12E9A1
  8
OBJECT
 10
5101.5
 20
-3435.9999999999968
 30
0.0
 11
5090.0
 21
-3442.4999999999968
 31
0.0
1001
ACDBBLOCKREPETAG
1070
     1
1071
       76
1005
12E9A1
  0
LINE
  5
12E9A2
  8
OBJECT
 10
5143.0
 20
-3435.9999999999968
 30
0.0
 11
5101.5
 21
-3435.9999999999968
 31
0.0
1001
ACDBBLOCKREPETAG
1070
     1
1071
       77
1005
12E9A2
  0
LINE
  5
12E9A3
  8
OBJECT
 10
5086.0
 20
-3514.5000000000041
 30
0.0
 11
5081.0
 21
-3458.9999999999968
 31
0.0
1001
ACDBBLOCKREPETAG
1070
     1
1071
       78
1005
12E9A3
  0
LINE
  5
12E9A4
  8
OBJECT
 10
5090.0
 20
-3442.4999999999968
 30
0.0
 11
5081.0
 21
-3458.9999999999968
 31
0.0
1001
ACDBBLOCKREPETAG
1070
     1
1071
       79
1005
12E9A4
  0
LINE
  5
12E9A5
  8
OBJECT
 10
5101.5
 20
-3579.9999999999968
 30
0.0
 11
5094.8338607230708
 21
-3576.232182147819
 31
0.0
1001
ACDBBLOCKREPETAG
1070
     1
1071
       80
1005
12E9A5
  0
LINE
  5
12E9A6
  8
HIDDEN
 10
5098.0
 20
-3564.9999999999968
 30
0.0
 11
5098.0
 21
-3450.9999999999968
 31
0.0
1001
ACDBBLOCKREPETAG
1070
     1
1071
       81
1005
12E9A6
  0
LINE
  5
12E9A7
  8
OBJECT
 10
5150.0
 20
-3099.9999999999959
 30
0.0
 11
5143.0
 21
-3099.9999999999959
 31
0.0
1001
ACDBBLOCKREPETAG
1070
     1
1071
       67
1005
12E9A7
  0
LINE
  5
12E9A8
  8
OBJECT
 10
5143.0
 20
-3099.9999999999959
 30
0.0
 11
5143.0
 21
-3249.9999999999959
 31
0.0
1001
ACDBBLOCKREPETAG
1070
     1
1071
       68
1005
12E9A8
  0
LINE
  5
12E9A9
  8
OBJECT
 10
5101.5
 20
-3102.9999999999959
 30
0.0
 11
5101.5
 21
-3246.9999999999959
 31
0.0
1001
ACDBBLOCKREPETAG
1070
     1
1071
       69
1005
12E9A9
  0
LINE
  5
12E9AA
  8
OBJECT
 10
5090.0
 20
-3109.4999999999959
 30
0.0
 11
5090.0
 21
-3240.4999999999959
 31
0.0
1001
ACDBBLOCKREPETAG
1070
     1
1071
       70
1005
12E9AA
  0
LINE
  5
12E9AB
  8
OBJECT
 10
5143.0
 20
-3249.9999999999959
 30
0.0
 11
5150.0
 21
-3249.9999999999959
 31
0.0
1001
ACDBBLOCKREPETAG
1070
     1
1071
       71
1005
12E9AB
  0
LINE
  5
12E9AC
  8
OBJECT
 10
5150.0
 20
-3249.9999999999959
 30
0.0
 11
5150.0
 21
-3099.9999999999959
 31
0.0
1001
ACDBBLOCKREPETAG
1070
     1
1071
       72
1005
12E9AC
  0
LINE
  5
12E9AD
  8
HIDDEN
 10
5098.0
 20
-3231.9999999999959
 30
0.0
 11
5098.0
 21
-3117.9999999999959
 31
0.0
1001
ACDBBLOCKREPETAG
1070
     1
1071
       73
1005
12E9AD
  0
LINE
  5
12E9AE
  8
CENTER
 10
5165.0
 20
-3174.9999999999959
 30
0.0
 11
5080.0
 21
-3174.9999999999959
 31
0.0
1001
ACDBBLOCKREPETAG
1070
     1
1071
       74
1005
12E9AE
  0
LINE
  5
12E9AF
  8
OBJECT
 10
5086.0
 20
-3236.9999999999959
 30
0.0
 11
5080.0
 21
-3236.9999999999959
 31
0.0
1001
ACDBBLOCKREPETAG
1070
     1
1071
       75
1005
12E9AF
  0
LINE
  5
12E9B0
  8
OBJECT
 10
5143.0
 20
-3246.9999999999959
 30
0.0
 11
5101.5
 21
-3246.9999999999959
 31
0.0
1001
ACDBBLOCKREPETAG
1070
     1
1071
       76
1005
12E9B0
  0
LINE
  5
12E9B1
  8
OBJECT
 10
5101.5
 20
-3246.9999999999959
 30
0.0
 11
5090.0
 21
-3240.4999999999959
 31
0.0
1001
ACDBBLOCKREPETAG
1070
     1
1071
       77
1005
12E9B1
  0
LINE
  5
12E9B2
  8
OBJECT
 10
5090.0
 20
-3240.4999999999959
 30
0.0
 11
5086.0
 21
-3236.9999999999959
 31
0.0
1001
ACDBBLOCKREPETAG
1070
     1
1071
       78
1005
12E9B2
  0
LINE
  5
12E9B3
  8
OBJECT
 10
5101.5
 20
-3102.9999999999959
 30
0.0
 11
5090.0
 21
-3109.4999999999959
 31
0.0
1001
ACDBBLOCKREPETAG
1070
     1
1071
       79
1005
12E9B3
  0
LINE
  5
12E9B4
  8
OBJECT
 10
5090.0
 20
-3109.4999999999959
 30
0.0
 11
5086.0
 21
-3112.9999999999959
 31
0.0
1001
ACDBBLOCKREPETAG
1070
     1
1071
       80
1005
12E9B4
  0
ARC
  5
12E9B5
  8
OBJECT
 10
5467.9000000000005
 20
-3174.9999999999959
 30
0.0
 40
386.89999999999998
 50
170.77870136260421
 51
189.22129863739571
1001
ACDBBLOCKREPETAG
1070
     1
1071
       81
1005
12E9B5
  0
LINE
  5
12E9B6
  8
OBJECT
 10
5086.0
 20
-3112.9999999999959
 30
0.0
 11
5080.0
 21
-3112.9999999999959
 31
0.0
1001
ACDBBLOCKREPETAG
1070
     1
1071
       82
1005
12E9B6
  0
LINE
  5
12E9B7
  8
OBJECT
 10
5143.0
 20
-3102.9999999999959
 30
0.0
 11
5101.5
 21
-3102.9999999999959
 31
0.0
1001
ACDBBLOCKREPETAG
1070
     1
1071
       83
1005
12E9B7
  0
TEXT
  5
12E9B8
  8
SLIM
 10
4884.25
 20
-3697.4999999999959
 30
0.0
 40
35.0
  1
通常枝100（4）
 41
0.75
  0
LINE
  5
12E9B9
  8
CENTER
 10
4477.0
 20
-3520.9999999999968
 30
0.0
 11
4323.0
 21
-3520.9999999999968
 31
0.0
1001
ACDBBLOCKREPETAG
1070
     1
1071
       17
1005
12E9B9
  0
CIRCLE
  5
12E9BA
  8
OBJECT
 10
4400.0
 20
-3520.9999999999968
 30
0.0
 40
41.5
1001
ACDBBLOCKREPETAG
1070
     1
1071
       19
1005
12E9BA
  0
CIRCLE
  5
12E9BB
  8
OBJECT
 10
4400.0
 20
-3520.9999999999968
 30
0.0
 40
54.0
1001
ACDBBLOCKREPETAG
1070
     1
1071
       20
1005
12E9BB
  0
ARC
  5
12E9BC
  8
OBJECT
 10
4400.0
 20
-3520.9999999999968
 30
0.0
 40
62.0
 50
287.89655112921122
 51
252.1034488707887
1001
ACDBBLOCKREPETAG
1070
     1
1071
       21
1005
12E9BC
  0
LINE
  5
12E9BD
  8
OBJECT
 10
4380.947441116743
 20
-3579.9999999999968
 30
0.0
 11
4419.052558883257
 21
-3579.9999999999968
 31
0.0
1001
ACDBBLOCKREPETAG
1070
     1
1071
       22
1005
12E9BD
  0
LINE
  5
12E9BE
  8
OBJECT
 10
4133.0
 20
-3458.9999999999968
 30
0.0
 11
4140.0
 21
-3458.9999999999968
 31
0.0
1001
ACDBBLOCKREPETAG
1070
     1
1071
       45
1005
12E9BE
  0
LINE
  5
12E9BF
  8
OBJECT
 10
4140.0
 20
-3458.9999999999968
 30
0.0
 11
4140.0
 21
-3579.9999999999968
 31
0.0
1001
ACDBBLOCKREPETAG
1070
     1
1071
       46
1005
12E9BF
  0
LINE
  5
12E9C0
  8
OBJECT
 10
4133.0
 20
-3579.9999999999968
 30
0.0
 11
4133.0
 21
-3458.9999999999968
 31
0.0
1001
ACDBBLOCKREPETAG
1070
     1
1071
       47
1005
12E9C0
  0
LINE
  5
12E9C1
  8
CENTER
 10
4155.0
 20
-3520.9999999999968
 30
0.0
 11
4071.0
 21
-3520.9999999999968
 31
0.0
1001
ACDBBLOCKREPETAG
1070
     1
1071
       48
1005
12E9C1
  0
LINE
  5
12E9C2
  8
OBJECT
 10
4133.0
 20
-3461.9999999999968
 30
0.0
 11
4097.0
 21
-3461.9999999999968
 31
0.0
1001
ACDBBLOCKREPETAG
1070
     1
1071
       49
1005
12E9C2
  0
LINE
  5
12E9C3
  8
OBJECT
 10
4097.0
 20
-3461.9999999999968
 30
0.0
 11
4097.0
 21
-3579.9999999999968
 31
0.0
1001
ACDBBLOCKREPETAG
1070
     1
1071
       50
1005
12E9C3
  0
LINE
  5
12E9C4
  8
OBJECT
 10
4097.0
 20
-3579.9999999999968
 30
0.0
 11
4140.0
 21
-3579.9999999999968
 31
0.0
1001
ACDBBLOCKREPETAG
1070
     1
1071
       51
1005
12E9C4
  0
LINE
  5
12E9C5
  8
OBJECT
 10
4093.0
 20
-3466.4999999999968
 30
0.0
 11
4086.0
 21
-3466.4999999999968
 31
0.0
1001
ACDBBLOCKREPETAG
1070
     1
1071
       52
1005
12E9C5
  0
LINE
  5
12E9C6
  8
OBJECT
 10
4086.0
 20
-3575.4999999999968
 30
0.0
 11
4093.0
 21
-3575.4999999999968
 31
0.0
1001
ACDBBLOCKREPETAG
1070
     1
1071
       53
1005
12E9C6
  0
LINE
  5
12E9C7
  8
OBJECT
 10
4093.0
 20
-3575.4999999999968
 30
0.0
 11
4093.0
 21
-3466.4999999999968
 31
0.0
1001
ACDBBLOCKREPETAG
1070
     1
1071
       54
1005
12E9C7
  0
LINE
  5
12E9C8
  8
OBJECT
 10
4097.0
 20
-3461.9999999999968
 30
0.0
 11
4093.0
 21
-3466.4999999999968
 31
0.0
1001
ACDBBLOCKREPETAG
1070
     1
1071
       55
1005
12E9C8
  0
LINE
  5
12E9C9
  8
OBJECT
 10
4097.0
 20
-3579.9999999999968
 30
0.0
 11
4093.0
 21
-3575.4999999999968
 31
0.0
1001
ACDBBLOCKREPETAG
1070
     1
1071
       56
1005
12E9C9
  0
LINE
  5
12E9CA
  8
OBJECT
 10
4083.0
 20
-3458.9999999999968
 30
0.0
 11
4080.0
 21
-3458.9999999999968
 31
0.0
1001
ACDBBLOCKREPETAG
1070
     1
1071
       57
1005
12E9CA
  0
ARC
  5
12E9CB
  8
OBJECT
 10
4083.0
 20
-3461.9999999999968
 30
0.0
 40
3.0
 50
0.0
 51
90.0
1001
ACDBBLOCKREPETAG
1070
     1
1071
       58
1005
12E9CB
  0
LINE
  5
12E9CC
  8
OBJECT
 10
4080.0
 20
-3582.9999999999968
 30
0.0
 11
4083.0
 21
-3582.9999999999968
 31
0.0
1001
ACDBBLOCKREPETAG
1070
     1
1071
       59
1005
12E9CC
  0
ARC
  5
12E9CD
  8
OBJECT
 10
4083.0
 20
-3579.9999999999968
 30
0.0
 40
3.0
 50
270.0
 51
0.0
1001
ACDBBLOCKREPETAG
1070
     1
1071
       60
1005
12E9CD
  0
LINE
  5
12E9CE
  8
OBJECT
 10
4086.0
 20
-3579.9999999999968
 30
0.0
 11
4086.0
 21
-3461.9999999999968
 31
0.0
1001
ACDBBLOCKREPETAG
1070
     1
1071
       61
1005
12E9CE
  0
LINE
  5
12E9CF
  8
HIDDEN
 10
4088.0
 20
-3476.4999999999968
 30
0.0
 11
4088.0
 21
-3565.4999999999968
 31
0.0
1001
ACDBBLOCKREPETAG
1070
     1
1071
       63
1005
12E9CF
  0
LINE
  5
12E9D0
  8
OBJECT
 10
4133.0
 20
-3112.9999999999959
 30
0.0
 11
4140.0
 21
-3112.9999999999959
 31
0.0
1001
ACDBBLOCKREPETAG
1070
     1
1071
       47
1005
12E9D0
  0
LINE
  5
12E9D1
  8
OBJECT
 10
4140.0
 20
-3112.9999999999959
 30
0.0
 11
4140.0
 21
-3236.9999999999959
 31
0.0
1001
ACDBBLOCKREPETAG
1070
     1
1071
       48
1005
12E9D1
  0
LINE
  5
12E9D2
  8
OBJECT
 10
4140.0
 20
-3236.9999999999959
 30
0.0
 11
4133.0
 21
-3236.9999999999959
 31
0.0
1001
ACDBBLOCKREPETAG
1070
     1
1071
       49
1005
12E9D2
  0
LINE
  5
12E9D3
  8
OBJECT
 10
4133.0
 20
-3236.9999999999959
 30
0.0
 11
4133.0
 21
-3112.9999999999959
 31
0.0
1001
ACDBBLOCKREPETAG
1070
     1
1071
       50
1005
12E9D3
  0
LINE
  5
12E9D4
  8
CENTER
 10
4155.0
 20
-3174.9999999999959
 30
0.0
 11
4080.0
 21
-3174.9999999999959
 31
0.0
1001
ACDBBLOCKREPETAG
1070
     1
1071
       51
1005
12E9D4
  0
LINE
  5
12E9D5
  8
OBJECT
 10
4133.0
 20
-3115.9999999999959
 30
0.0
 11
4097.0
 21
-3115.9999999999959
 31
0.0
1001
ACDBBLOCKREPETAG
1070
     1
1071
       52
1005
12E9D5
  0
LINE
  5
12E9D6
  8
OBJECT
 10
4097.0
 20
-3115.9999999999959
 30
0.0
 11
4097.0
 21
-3233.9999999999959
 31
0.0
1001
ACDBBLOCKREPETAG
1070
     1
1071
       53
1005
12E9D6
  0
LINE
  5
12E9D7
  8
OBJECT
 10
4097.0
 20
-3233.9999999999959
 30
0.0
 11
4133.0
 21
-3233.9999999999959
 31
0.0
1001
ACDBBLOCKREPETAG
1070
     1
1071
       54
1005
12E9D7
  0
LINE
  5
12E9D8
  8
OBJECT
 10
4093.0
 20
-3120.4999999999959
 30
0.0
 11
4086.0
 21
-3120.4999999999959
 31
0.0
1001
ACDBBLOCKREPETAG
1070
     1
1071
       55
1005
12E9D8
  0
LINE
  5
12E9D9
  8
OBJECT
 10
4086.0
 20
-3229.4999999999959
 30
0.0
 11
4093.0
 21
-3229.4999999999959
 31
0.0
1001
ACDBBLOCKREPETAG
1070
     1
1071
       56
1005
12E9D9
  0
LINE
  5
12E9DA
  8
OBJECT
 10
4093.0
 20
-3229.4999999999959
 30
0.0
 11
4093.0
 21
-3120.4999999999959
 31
0.0
1001
ACDBBLOCKREPETAG
1070
     1
1071
       57
1005
12E9DA
  0
LINE
  5
12E9DB
  8
OBJECT
 10
4097.0
 20
-3115.9999999999959
 30
0.0
 11
4093.0
 21
-3120.4999999999959
 31
0.0
1001
ACDBBLOCKREPETAG
1070
     1
1071
       58
1005
12E9DB
  0
LINE
  5
12E9DC
  8
OBJECT
 10
4097.0
 20
-3233.9999999999959
 30
0.0
 11
4093.0
 21
-3229.4999999999959
 31
0.0
1001
ACDBBLOCKREPETAG
1070
     1
1071
       59
1005
12E9DC
  0
LINE
  5
12E9DD
  8
OBJECT
 10
4083.0
 20
-3112.9999999999959
 30
0.0
 11
4080.0
 21
-3112.9999999999959
 31
0.0
1001
ACDBBLOCKREPETAG
1070
     1
1071
       60
1005
12E9DD
  0
ARC
  5
12E9DE
  8
OBJECT
 10
4083.0
 20
-3115.9999999999959
 30
0.0
 40
3.0
 50
0.0
 51
90.0
1001
ACDBBLOCKREPETAG
1070
     1
1071
       61
1005
12E9DE
  0
LINE
  5
12E9DF
  8
OBJECT
 10
4080.0
 20
-3236.9999999999959
 30
0.0
 11
4083.0
 21
-3236.9999999999959
 31
0.0
1001
ACDBBLOCKREPETAG
1070
     1
1071
       62
1005
12E9DF
  0
ARC
  5
12E9E0
  8
OBJECT
 10
4083.0
 20
-3233.9999999999959
 30
0.0
 40
3.0
 50
270.0
 51
0.0
1001
ACDBBLOCKREPETAG
1070
     1
1071
       63
1005
12E9E0
  0
LINE
  5
12E9E1
  8
OBJECT
 10
4086.0
 20
-3233.9999999999959
 30
0.0
 11
4086.0
 21
-3115.9999999999959
 31
0.0
1001
ACDBBLOCKREPETAG
1070
     1
1071
       64
1005
12E9E1
  0
LINE
  5
12E9E2
  8
HIDDEN
 10
4088.0
 20
-3130.4999999999959
 30
0.0
 11
4088.0
 21
-3219.4999999999959
 31
0.0
1001
ACDBBLOCKREPETAG
1070
     1
1071
       65
1005
12E9E2
  0
TEXT
  5
12E9E3
  8
SLIM
 10
3894.25
 20
-3697.4999999999959
 30
0.0
 40
35.0
  1
通常枝75（3）
 41
0.75
  0
CIRCLE
  5
12E9E4
  8
OBJECT
 10
3400.0
 20
-3527.9999999999968
 30
0.0
 40
35.5
1001
ACDBBLOCKREPETAG
1070
     1
1071
       10
1005
12E9E4
  0
CIRCLE
  5
12E9E5
  8
OBJECT
 10
3400.0
 20
-3520.9999999999968
 30
0.0
 40
62.0
1001
ACDBBLOCKREPETAG
1070
     1
1071
       11
1005
12E9E5
  0
LINE
  5
12E9E6
  8
CENTER
 10
3330.0
 20
-3527.9999999999968
 30
0.0
 11
3470.0
 21
-3527.9999999999968
 31
0.0
1001
ACDBBLOCKREPETAG
1070
     1
1071
       12
1005
12E9E6
  0
CIRCLE
  5
12E9E7
  8
OBJECT
 10
3400.0
 20
-3527.9999999999968
 30
0.0
 40
47.0
1001
ACDBBLOCKREPETAG
1070
     1
1071
       14
1005
12E9E7
  0
ARC
  5
12E9E8
  8
OBJECT
 10
3400.0
 20
-3527.9999999999968
 30
0.0
 40
55.0
 50
289.01126526011359
 51
250.98873473988641
1001
ACDBBLOCKREPETAG
1070
     1
1071
       15
1005
12E9E8
  0
LINE
  5
12E9E9
  8
OBJECT
 10
3382.0835271328328
 20
-3579.9999999999968
 30
0.0
 11
3417.9164728671681
 21
-3579.9999999999968
 31
0.0
1001
ACDBBLOCKREPETAG
1070
     1
1071
       16
1005
12E9E9
  0
LINE
  5
12E9EA
  8
OBJECT
 10
3133.0
 20
-3472.9999999999968
 30
0.0
 11
3140.0
 21
-3472.9999999999968
 31
0.0
1001
ACDBBLOCKREPETAG
1070
     1
1071
       26
1005
12E9EA
  0
LINE
  5
12E9EB
  8
OBJECT
 10
3140.0
 20
-3472.9999999999968
 30
0.0
 11
3140.0
 21
-3579.9999999999968
 31
0.0
1001
ACDBBLOCKREPETAG
1070
     1
1071
       27
1005
12E9EB
  0
LINE
  5
12E9EC
  8
OBJECT
 10
3133.0
 20
-3579.9999999999968
 30
0.0
 11
3133.0
 21
-3472.9999999999968
 31
0.0
1001
ACDBBLOCKREPETAG
1070
     1
1071
       28
1005
12E9EC
  0
LINE
  5
12E9ED
  8
CENTER
 10
3155.0
 20
-3527.9999999999968
 30
0.0
 11
3071.0
 21
-3527.9999999999968
 31
0.0
1001
ACDBBLOCKREPETAG
1070
     1
1071
       29
1005
12E9ED
  0
LINE
  5
12E9EE
  8
OBJECT
 10
3133.0
 20
-3475.9999999999968
 30
0.0
 11
3097.0
 21
-3475.9999999999968
 31
0.0
1001
ACDBBLOCKREPETAG
1070
     1
1071
       30
1005
12E9EE
  0
LINE
  5
12E9EF
  8
OBJECT
 10
3097.0
 20
-3475.9999999999968
 30
0.0
 11
3097.0
 21
-3579.9999999999968
 31
0.0
1001
ACDBBLOCKREPETAG
1070
     1
1071
       31
1005
12E9EF
  0
LINE
  5
12E9F0
  8
OBJECT
 10
3097.0
 20
-3579.9999999999968
 30
0.0
 11
3140.0
 21
-3579.9999999999968
 31
0.0
1001
ACDBBLOCKREPETAG
1070
     1
1071
       32
1005
12E9F0
  0
LINE
  5
12E9F1
  8
OBJECT
 10
3093.0
 20
-3480.4999999999968
 30
0.0
 11
3086.0
 21
-3480.4999999999968
 31
0.0
1001
ACDBBLOCKREPETAG
1070
     1
1071
       33
1005
12E9F1
  0
LINE
  5
12E9F2
  8
OBJECT
 10
3086.0
 20
-3575.4999999999968
 30
0.0
 11
3093.0
 21
-3575.4999999999968
 31
0.0
1001
ACDBBLOCKREPETAG
1070
     1
1071
       34
1005
12E9F2
  0
LINE
  5
12E9F3
  8
OBJECT
 10
3093.0
 20
-3575.4999999999968
 30
0.0
 11
3093.0
 21
-3480.4999999999968
 31
0.0
1001
ACDBBLOCKREPETAG
1070
     1
1071
       35
1005
12E9F3
  0
LINE
  5
12E9F4
  8
OBJECT
 10
3097.0
 20
-3475.9999999999968
 30
0.0
 11
3093.0
 21
-3480.4999999999968
 31
0.0
1001
ACDBBLOCKREPETAG
1070
     1
1071
       36
1005
12E9F4
  0
LINE
  5
12E9F5
  8
OBJECT
 10
3097.0
 20
-3579.9999999999968
 30
0.0
 11
3093.0
 21
-3575.4999999999968
 31
0.0
1001
ACDBBLOCKREPETAG
1070
     1
1071
       37
1005
12E9F5
  0
LINE
  5
12E9F6
  8
OBJECT
 10
3083.0
 20
-3458.9999999999968
 30
0.0
 11
3080.0
 21
-3458.9999999999968
 31
0.0
1001
ACDBBLOCKREPETAG
1070
     1
1071
       38
1005
12E9F6
  0
ARC
  5
12E9F7
  8
OBJECT
 10
3083.0
 20
-3461.9999999999968
 30
0.0
 40
3.0
 50
0.0
 51
90.0
1001
ACDBBLOCKREPETAG
1070
     1
1071
       39
1005
12E9F7
  0
LINE
  5
12E9F8
  8
OBJECT
 10
3080.0
 20
-3582.9999999999968
 30
0.0
 11
3083.0
 21
-3582.9999999999968
 31
0.0
1001
ACDBBLOCKREPETAG
1070
     1
1071
       40
1005
12E9F8
  0
ARC
  5
12E9F9
  8
OBJECT
 10
3083.0
 20
-3579.9999999999968
 30
0.0
 40
3.0
 50
270.0
 51
0.0
1001
ACDBBLOCKREPETAG
1070
     1
1071
       41
1005
12E9F9
  0
LINE
  5
12E9FA
  8
OBJECT
 10
3086.0
 20
-3579.9999999999968
 30
0.0
 11
3086.0
 21
-3461.9999999999968
 31
0.0
1001
ACDBBLOCKREPETAG
1070
     1
1071
       42
1005
12E9FA
  0
LINE
  5
12E9FB
  8
HIDDEN
 10
3088.0
 20
-3489.9999999999968
 30
0.0
 11
3088.0
 21
-3565.9999999999968
 31
0.0
1001
ACDBBLOCKREPETAG
1070
     1
1071
       43
1005
12E9FB
  0
LINE
  5
12E9FC
  8
OBJECT
 10
3133.0
 20
-3119.9999999999959
 30
0.0
 11
3140.0
 21
-3119.9999999999959
 31
0.0
1001
ACDBBLOCKREPETAG
1070
     1
1071
       27
1005
12E9FC
  0
LINE
  5
12E9FD
  8
OBJECT
 10
3140.0
 20
-3119.9999999999959
 30
0.0
 11
3140.0
 21
-3229.9999999999959
 31
0.0
1001
ACDBBLOCKREPETAG
1070
     1
1071
       28
1005
12E9FD
  0
LINE
  5
12E9FE
  8
OBJECT
 10
3140.0
 20
-3229.9999999999959
 30
0.0
 11
3133.0
 21
-3229.9999999999959
 31
0.0
1001
ACDBBLOCKREPETAG
1070
     1
1071
       29
1005
12E9FE
  0
LINE
  5
12E9FF
  8
OBJECT
 10
3133.0
 20
-3229.9999999999959
 30
0.0
 11
3133.0
 21
-3119.9999999999959
 31
0.0
1001
ACDBBLOCKREPETAG
1070
     1
1071
       30
1005
12E9FF
  0
LINE
  5
12EA00
  8
CENTER
 10
3155.0
 20
-3174.9999999999959
 30
0.0
 11
3080.0
 21
-3174.9999999999959
 31
0.0
1001
ACDBBLOCKREPETAG
1070
     1
1071
       31
1005
12EA00
  0
LINE
  5
12EA01
  8
OBJECT
 10
3133.0
 20
-3122.9999999999959
 30
0.0
 11
3097.0
 21
-3122.9999999999959
 31
0.0
1001
ACDBBLOCKREPETAG
1070
     1
1071
       32
1005
12EA01
  0
LINE
  5
12EA02
  8
OBJECT
 10
3097.0
 20
-3122.9999999999959
 30
0.0
 11
3097.0
 21
-3226.9999999999959
 31
0.0
1001
ACDBBLOCKREPETAG
1070
     1
1071
       33
1005
12EA02
  0
LINE
  5
12EA03
  8
OBJECT
 10
3097.0
 20
-3226.9999999999959
 30
0.0
 11
3133.0
 21
-3226.9999999999959
 31
0.0
1001
ACDBBLOCKREPETAG
1070
     1
1071
       34
1005
12EA03
  0
LINE
  5
12EA04
  8
OBJECT
 10
3093.0
 20
-3127.4999999999959
 30
0.0
 11
3086.0
 21
-3127.4999999999959
 31
0.0
1001
ACDBBLOCKREPETAG
1070
     1
1071
       35
1005
12EA04
  0
LINE
  5
12EA05
  8
OBJECT
 10
3086.0
 20
-3222.4999999999959
 30
0.0
 11
3093.0
 21
-3222.4999999999959
 31
0.0
1001
ACDBBLOCKREPETAG
1070
     1
1071
       36
1005
12EA05
  0
LINE
  5
12EA06
  8
OBJECT
 10
3093.0
 20
-3222.4999999999959
 30
0.0
 11
3093.0
 21
-3127.4999999999959
 31
0.0
1001
ACDBBLOCKREPETAG
1070
     1
1071
       37
1005
12EA06
  0
LINE
  5
12EA07
  8
OBJECT
 10
3097.0
 20
-3122.9999999999959
 30
0.0
 11
3093.0
 21
-3127.4999999999959
 31
0.0
1001
ACDBBLOCKREPETAG
1070
     1
1071
       38
1005
12EA07
  0
LINE
  5
12EA08
  8
OBJECT
 10
3097.0
 20
-3226.9999999999959
 30
0.0
 11
3093.0
 21
-3222.4999999999959
 31
0.0
1001
ACDBBLOCKREPETAG
1070
     1
1071
       39
1005
12EA08
  0
LINE
  5
12EA09
  8
OBJECT
 10
3083.0
 20
-3112.9999999999959
 30
0.0
 11
3080.0
 21
-3112.9999999999959
 31
0.0
1001
ACDBBLOCKREPETAG
1070
     1
1071
       40
1005
12EA09
  0
ARC
  5
12EA0A
  8
OBJECT
 10
3083.0
 20
-3115.9999999999959
 30
0.0
 40
3.0
 50
0.0
 51
90.0
1001
ACDBBLOCKREPETAG
1070
     1
1071
       41
1005
12EA0A
  0
LINE
  5
12EA0B
  8
OBJECT
 10
3080.0
 20
-3236.9999999999959
 30
0.0
 11
3083.0
 21
-3236.9999999999959
 31
0.0
1001
ACDBBLOCKREPETAG
1070
     1
1071
       42
1005
12EA0B
  0
ARC
  5
12EA0C
  8
OBJECT
 10
3083.0
 20
-3233.9999999999959
 30
0.0
 40
3.0
 50
270.0
 51
0.0
1001
ACDBBLOCKREPETAG
1070
     1
1071
       43
1005
12EA0C
  0
LINE
  5
12EA0D
  8
OBJECT
 10
3086.0
 20
-3233.9999999999959
 30
0.0
 11
3086.0
 21
-3115.9999999999959
 31
0.0
1001
ACDBBLOCKREPETAG
1070
     1
1071
       44
1005
12EA0D
  0
LINE
  5
12EA0E
  8
HIDDEN
 10
3088.0
 20
-3136.9999999999959
 30
0.0
 11
3088.0
 21
-3212.9999999999959
 31
0.0
1001
ACDBBLOCKREPETAG
1070
     1
1071
       45
1005
12EA0E
  0
TEXT
  5
12EA0F
  8
SLIM
 10
2894.25
 20
-3697.4999999999959
 30
0.0
 40
35.0
  1
通常枝65（2）
 41
0.75
  0
CIRCLE
  5
12EA10
  8
OBJECT
 10
2400.0
 20
-3520.9999999999968
 30
0.0
 40
62.0
1001
ACDBBLOCKREPETAG
1070
     1
1071
        3
1005
12EA10
  0
LINE
  5
12EA11
  8
CENTER
 10
2338.0
 20
-3535.9999999999968
 30
0.0
 11
2462.0
 21
-3535.9999999999968
 31
0.0
1001
ACDBBLOCKREPETAG
1070
     1
1071
        4
1005
12EA11
  0
CIRCLE
  5
12EA12
  8
OBJECT
 10
2400.0
 20
-3535.9999999999968
 30
0.0
 40
28.0
1001
ACDBBLOCKREPETAG
1070
     1
1071
        6
1005
12EA12
  0
CIRCLE
  5
12EA13
  8
OBJECT
 10
2400.0
 20
-3535.9999999999968
 30
0.0
 40
39.0
1001
ACDBBLOCKREPETAG
1070
     1
1071
        7
1005
12EA13
  0
ARC
  5
12EA14
  8
OBJECT
 10
2400.0
 20
-3535.9999999999968
 30
0.0
 40
47.0
 50
290.58196921144412
 51
249.41803078855591
1001
ACDBBLOCKREPETAG
1070
     1
1071
        8
1005
12EA14
  0
LINE
  5
12EA15
  8
OBJECT
 10
2383.4772883581431
 20
-3579.9999999999968
 30
0.0
 11
2416.5227116418569
 21
-3579.9999999999968
 31
0.0
1001
ACDBBLOCKREPETAG
1070
     1
1071
        9
1005
12EA15
  0
LINE
  5
12EA16
  8
OBJECT
 10
2133.0
 20
-3488.9999999999968
 30
0.0
 11
2140.0
 21
-3488.9999999999968
 31
0.0
1001
ACDBBLOCKREPETAG
1070
     1
1071
        7
1005
12EA16
  0
LINE
  5
12EA17
  8
OBJECT
 10
2140.0
 20
-3488.9999999999968
 30
0.0
 11
2140.0
 21
-3579.9999999999968
 31
0.0
1001
ACDBBLOCKREPETAG
1070
     1
1071
        8
1005
12EA17
  0
LINE
  5
12EA18
  8
OBJECT
 10
2133.0
 20
-3579.9999999999968
 30
0.0
 11
2133.0
 21
-3488.9999999999968
 31
0.0
1001
ACDBBLOCKREPETAG
1070
     1
1071
        9
1005
12EA18
  0
LINE
  5
12EA19
  8
CENTER
 10
2155.0
 20
-3535.9999999999968
 30
0.0
 11
2071.0
 21
-3535.9999999999968
 31
0.0
1001
ACDBBLOCKREPETAG
1070
     1
1071
       10
1005
12EA19
  0
LINE
  5
12EA1A
  8
OBJECT
 10
2133.0
 20
-3491.9999999999968
 30
0.0
 11
2097.0
 21
-3491.9999999999968
 31
0.0
1001
ACDBBLOCKREPETAG
1070
     1
1071
       11
1005
12EA1A
  0
LINE
  5
12EA1B
  8
OBJECT
 10
2097.0
 20
-3491.9999999999968
 30
0.0
 11
2097.0
 21
-3579.9999999999968
 31
0.0
1001
ACDBBLOCKREPETAG
1070
     1
1071
       12
1005
12EA1B
  0
LINE
  5
12EA1C
  8
OBJECT
 10
2097.0
 20
-3579.9999999999968
 30
0.0
 11
2140.0
 21
-3579.9999999999968
 31
0.0
1001
ACDBBLOCKREPETAG
1070
     1
1071
       13
1005
12EA1C
  0
LINE
  5
12EA1D
  8
OBJECT
 10
2093.0
 20
-3496.4999999999968
 30
0.0
 11
2086.0
 21
-3496.4999999999968
 31
0.0
1001
ACDBBLOCKREPETAG
1070
     1
1071
       14
1005
12EA1D
  0
LINE
  5
12EA1E
  8
OBJECT
 10
2086.0
 20
-3575.4999999999968
 30
0.0
 11
2093.0
 21
-3575.4999999999968
 31
0.0
1001
ACDBBLOCKREPETAG
1070
     1
1071
       15
1005
12EA1E
  0
LINE
  5
12EA1F
  8
OBJECT
 10
2093.0
 20
-3575.4999999999968
 30
0.0
 11
2093.0
 21
-3496.4999999999968
 31
0.0
1001
ACDBBLOCKREPETAG
1070
     1
1071
       16
1005
12EA1F
  0
LINE
  5
12EA20
  8
OBJECT
 10
2097.0
 20
-3491.9999999999968
 30
0.0
 11
2093.0
 21
-3496.4999999999968
 31
0.0
1001
ACDBBLOCKREPETAG
1070
     1
1071
       17
1005
12EA20
  0
LINE
  5
12EA21
  8
OBJECT
 10
2097.0
 20
-3579.9999999999968
 30
0.0
 11
2093.0
 21
-3575.4999999999968
 31
0.0
1001
ACDBBLOCKREPETAG
1070
     1
1071
       18
1005
12EA21
  0
LINE
  5
12EA22
  8
OBJECT
 10
2083.0
 20
-3458.9999999999968
 30
0.0
 11
2080.0
 21
-3458.9999999999968
 31
0.0
1001
ACDBBLOCKREPETAG
1070
     1
1071
       19
1005
12EA22
  0
ARC
  5
12EA23
  8
OBJECT
 10
2083.0
 20
-3461.9999999999968
 30
0.0
 40
3.0
 50
0.0
 51
90.0
1001
ACDBBLOCKREPETAG
1070
     1
1071
       20
1005
12EA23
  0
LINE
  5
12EA24
  8
OBJECT
 10
2080.0
 20
-3582.9999999999968
 30
0.0
 11
2083.0
 21
-3582.9999999999968
 31
0.0
1001
ACDBBLOCKREPETAG
1070
     1
1071
       21
1005
12EA24
  0
ARC
  5
12EA25
  8
OBJECT
 10
2083.0
 20
-3579.9999999999968
 30
0.0
 40
3.0
 50
270.0
 51
0.0
1001
ACDBBLOCKREPETAG
1070
     1
1071
       22
1005
12EA25
  0
LINE
  5
12EA26
  8
OBJECT
 10
2086.0
 20
-3579.9999999999968
 30
0.0
 11
2086.0
 21
-3461.9999999999968
 31
0.0
1001
ACDBBLOCKREPETAG
1070
     1
1071
       23
1005
12EA26
  0
LINE
  5
12EA27
  8
HIDDEN
 10
2088.0
 20
-3505.9999999999968
 30
0.0
 11
2088.0
 21
-3565.9999999999968
 31
0.0
1001
ACDBBLOCKREPETAG
1070
     1
1071
       24
1005
12EA27
  0
LINE
  5
12EA28
  8
OBJECT
 10
2133.0
 20
-3127.9999999999959
 30
0.0
 11
2140.0
 21
-3127.9999999999959
 31
0.0
1001
ACDBBLOCKREPETAG
1070
     1
1071
        7
1005
12EA28
  0
LINE
  5
12EA29
  8
OBJECT
 10
2140.0
 20
-3127.9999999999959
 30
0.0
 11
2140.0
 21
-3221.9999999999959
 31
0.0
1001
ACDBBLOCKREPETAG
1070
     1
1071
        8
1005
12EA29
  0
LINE
  5
12EA2A
  8
OBJECT
 10
2140.0
 20
-3221.9999999999959
 30
0.0
 11
2133.0
 21
-3221.9999999999959
 31
0.0
1001
ACDBBLOCKREPETAG
1070
     1
1071
        9
1005
12EA2A
  0
LINE
  5
12EA2B
  8
OBJECT
 10
2133.0
 20
-3221.9999999999959
 30
0.0
 11
2133.0
 21
-3127.9999999999959
 31
0.0
1001
ACDBBLOCKREPETAG
1070
     1
1071
       10
1005
12EA2B
  0
LINE
  5
12EA2C
  8
CENTER
 10
2155.0
 20
-3174.9999999999959
 30
0.0
 11
2080.0
 21
-3174.9999999999959
 31
0.0
1001
ACDBBLOCKREPETAG
1070
     1
1071
       11
1005
12EA2C
  0
LINE
  5
12EA2D
  8
OBJECT
 10
2133.0
 20
-3130.9999999999959
 30
0.0
 11
2097.0
 21
-3130.9999999999959
 31
0.0
1001
ACDBBLOCKREPETAG
1070
     1
1071
       12
1005
12EA2D
  0
LINE
  5
12EA2E
  8
OBJECT
 10
2097.0
 20
-3130.9999999999959
 30
0.0
 11
2097.0
 21
-3218.9999999999959
 31
0.0
1001
ACDBBLOCKREPETAG
1070
     1
1071
       13
1005
12EA2E
  0
LINE
  5
12EA2F
  8
OBJECT
 10
2097.0
 20
-3218.9999999999959
 30
0.0
 11
2133.0
 21
-3218.9999999999959
 31
0.0
1001
ACDBBLOCKREPETAG
1070
     1
1071
       14
1005
12EA2F
  0
LINE
  5
12EA30
  8
OBJECT
 10
2093.0
 20
-3135.4999999999959
 30
0.0
 11
2086.0
 21
-3135.4999999999959
 31
0.0
1001
ACDBBLOCKREPETAG
1070
     1
1071
       15
1005
12EA30
  0
LINE
  5
12EA31
  8
OBJECT
 10
2086.0
 20
-3214.4999999999959
 30
0.0
 11
2093.0
 21
-3214.4999999999959
 31
0.0
1001
ACDBBLOCKREPETAG
1070
     1
1071
       16
1005
12EA31
  0
LINE
  5
12EA32
  8
OBJECT
 10
2093.0
 20
-3214.4999999999959
 30
0.0
 11
2093.0
 21
-3135.4999999999959
 31
0.0
1001
ACDBBLOCKREPETAG
1070
     1
1071
       17
1005
12EA32
  0
LINE
  5
12EA33
  8
OBJECT
 10
2097.0
 20
-3130.9999999999959
 30
0.0
 11
2093.0
 21
-3135.4999999999959
 31
0.0
1001
ACDBBLOCKREPETAG
1070
     1
1071
       18
1005
12EA33
  0
LINE
  5
12EA34
  8
OBJECT
 10
2097.0
 20
-3218.9999999999959
 30
0.0
 11
2093.0
 21
-3214.4999999999959
 31
0.0
1001
ACDBBLOCKREPETAG
1070
     1
1071
       19
1005
12EA34
  0
LINE
  5
12EA35
  8
OBJECT
 10
2083.0
 20
-3112.9999999999959
 30
0.0
 11
2080.0
 21
-3112.9999999999959
 31
0.0
1001
ACDBBLOCKREPETAG
1070
     1
1071
       20
1005
12EA35
  0
ARC
  5
12EA36
  8
OBJECT
 10
2083.0
 20
-3115.9999999999959
 30
0.0
 40
3.0
 50
0.0
 51
90.0
1001
ACDBBLOCKREPETAG
1070
     1
1071
       21
1005
12EA36
  0
LINE
  5
12EA37
  8
OBJECT
 10
2080.0
 20
-3236.9999999999959
 30
0.0
 11
2083.0
 21
-3236.9999999999959
 31
0.0
1001
ACDBBLOCKREPETAG
1070
     1
1071
       22
1005
12EA37
  0
ARC
  5
12EA38
  8
OBJECT
 10
2083.0
 20
-3233.9999999999959
 30
0.0
 40
3.0
 50
270.0
 51
0.0
1001
ACDBBLOCKREPETAG
1070
     1
1071
       23
1005
12EA38
  0
LINE
  5
12EA39
  8
OBJECT
 10
2086.0
 20
-3233.9999999999959
 30
0.0
 11
2086.0
 21
-3115.9999999999959
 31
0.0
1001
ACDBBLOCKREPETAG
1070
     1
1071
       24
1005
12EA39
  0
LINE
  5
12EA3A
  8
HIDDEN
 10
2088.0
 20
-3144.9999999999959
 30
0.0
 11
2088.0
 21
-3204.9999999999959
 31
0.0
1001
ACDBBLOCKREPETAG
1070
     1
1071
       25
1005
12EA3A
  0
TEXT
  5
12EA3B
  8
SLIM
 10
1896.75
 20
-3697.4999999999959
 30
0.0
 40
35.0
  1
通常枝50（1）
 41
0.75
  0
LINE
  5
12EA3C
  8
OBJECT
 10
3930.0
 20
-1079.999999999997
 30
0.0
 11
4070.0
 21
-1079.999999999997
 31
0.0
1001
ACDBBLOCKREPETAG
1070
     1
1071
        0
1005
12EA3C
  0
LINE
  5
12EA3D
  8
OBJECT
 10
3930.0
 20
-1079.999999999997
 30
0.0
 11
3930.0
 21
-839.99999999999704
 31
0.0
1001
ACDBBLOCKREPETAG
1070
     1
1071
        1
1005
12EA3D
  0
LINE
  5
12EA3E
  8
OBJECT
 10
4070.0
 20
-1079.999999999997
 30
0.0
 11
4070.0
 21
-839.99999999999704
 31
0.0
1001
ACDBBLOCKREPETAG
1070
     1
1071
        2
1005
12EA3E
  0
LINE
  5
12EA3F
  8
OBJECT
 10
3930.0
 20
-839.99999999999704
 30
0.0
 11
4070.0
 21
-839.99999999999704
 31
0.0
1001
ACDBBLOCKREPETAG
1070
     1
1071
        3
1005
12EA3F
  0
LINE
  5
12EA40
  8
HIDDEN
 10
3937.5
 20
-839.99999999999704
 30
0.0
 11
3937.5
 21
-1079.999999999997
 31
0.0
1001
ACDBBLOCKREPETAG
1070
     1
1071
        4
1005
12EA40
  0
LINE
  5
12EA41
  8
HIDDEN
 10
4062.5
 20
-839.99999999999704
 30
0.0
 11
4062.5
 21
-1079.999999999997
 31
0.0
1001
ACDBBLOCKREPETAG
1070
     1
1071
        5
1005
12EA41
  0
LINE
  5
12EA42
  8
CENTER
 10
4000.0
 20
-769.99999999999875
 30
0.0
 11
4000.0
 21
-1094.999999999997
 31
0.0
1001
ACDBBLOCKREPETAG
1070
     1
1071
        6
1005
12EA42
  0
LINE
  5
12EA43
  8
OBJECT
 10
3925.0
 20
-769.99999999999875
 30
0.0
 11
3925.0
 21
-799.99999999999693
 31
0.0
1001
ACDBBLOCKREPETAG
1070
     1
1071
        7
1005
12EA43
  0
LINE
  5
12EA44
  8
OBJECT
 10
4075.0000000000032
 20
-769.99999999999875
 30
0.0
 11
4075.0
 21
-799.99999999999693
 31
0.0
1001
ACDBBLOCKREPETAG
1070
     1
1071
        8
1005
12EA44
  0
LINE
  5
12EA45
  8
OBJECT
 10
3925.0
 20
-799.99999999999693
 30
0.0
 11
4075.0
 21
-799.99999999999693
 31
0.0
1001
ACDBBLOCKREPETAG
1070
     1
1071
        9
1005
12EA45
  0
LINE
  5
12EA46
  8
OBJECT
 10
3925.0
 20
-799.99999999999693
 30
0.0
 11
3930.0
 21
-839.99999999999704
 31
0.0
1001
ACDBBLOCKREPETAG
1070
     1
1071
       10
1005
12EA46
  0
LINE
  5
12EA47
  8
OBJECT
 10
4070.0
 20
-839.99999999999704
 30
0.0
 11
4075.0
 21
-799.99999999999693
 31
0.0
1001
ACDBBLOCKREPETAG
1070
     1
1071
       11
1005
12EA47
  0
LINE
  5
12EA48
  8
OBJECT
 10
1930.0
 20
-1079.999999999998
 30
0.0
 11
2070.0
 21
-1079.999999999998
 31
0.0
1001
ACDBBLOCKREPETAG
1070
     1
1071
        0
1005
12EA48
  0
LINE
  5
12EA49
  8
OBJECT
 10
1930.0
 20
-1079.999999999998
 30
0.0
 11
1930.0
 21
-839.99999999999795
 31
0.0
1001
ACDBBLOCKREPETAG
1070
     1
1071
        1
1005
12EA49
  0
LINE
  5
12EA4A
  8
OBJECT
 10
2070.0
 20
-1079.999999999998
 30
0.0
 11
2070.0
 21
-839.99999999999795
 31
0.0
1001
ACDBBLOCKREPETAG
1070
     1
1071
        2
1005
12EA4A
  0
LINE
  5
12EA4B
  8
OBJECT
 10
1930.0
 20
-839.99999999999795
 30
0.0
 11
2070.0
 21
-839.99999999999795
 31
0.0
1001
ACDBBLOCKREPETAG
1070
     1
1071
        3
1005
12EA4B
  0
LINE
  5
12EA4C
  8
HIDDEN
 10
1937.5
 20
-839.99999999999795
 30
0.0
 11
1937.5
 21
-1079.999999999998
 31
0.0
1001
ACDBBLOCKREPETAG
1070
     1
1071
        4
1005
12EA4C
  0
LINE
  5
12EA4D
  8
HIDDEN
 10
2062.5
 20
-839.99999999999795
 30
0.0
 11
2062.5
 21
-1079.999999999998
 31
0.0
1001
ACDBBLOCKREPETAG
1070
     1
1071
        5
1005
12EA4D
  0
LINE
  5
12EA4E
  8
CENTER
 10
2000.0
 20
-769.99999999999955
 30
0.0
 11
2000.0
 21
-1094.999999999997
 31
0.0
1001
ACDBBLOCKREPETAG
1070
     1
1071
        6
1005
12EA4E
  0
LINE
  5
12EA4F
  8
OBJECT
 10
1925.0
 20
-769.99999999999955
 30
0.0
 11
1925.0
 21
-799.99999999999773
 31
0.0
1001
ACDBBLOCKREPETAG
1070
     1
1071
        7
1005
12EA4F
  0
LINE
  5
12EA50
  8
OBJECT
 10
2075.0000000000041
 20
-769.99999999999955
 30
0.0
 11
2075.0
 21
-799.99999999999773
 31
0.0
1001
ACDBBLOCKREPETAG
1070
     1
1071
        8
1005
12EA50
  0
LINE
  5
12EA51
  8
OBJECT
 10
1925.0
 20
-799.99999999999773
 30
0.0
 11
2075.0
 21
-799.99999999999773
 31
0.0
1001
ACDBBLOCKREPETAG
1070
     1
1071
        9
1005
12EA51
  0
LINE
  5
12EA52
  8
OBJECT
 10
1925.0
 20
-799.99999999999773
 30
0.0
 11
1930.0
 21
-839.99999999999795
 31
0.0
1001
ACDBBLOCKREPETAG
1070
     1
1071
       10
1005
12EA52
  0
LINE
  5
12EA53
  8
OBJECT
 10
2070.0
 20
-839.99999999999795
 30
0.0
 11
2075.0
 21
-799.99999999999773
 31
0.0
1001
ACDBBLOCKREPETAG
1070
     1
1071
       11
1005
12EA53
  0
TEXT
  5
12EA54
  8
SLIM
 10
3824.5999999999999
 20
-1408.999999999997
 30
0.0
 40
28.0
  1
※ 対応スラブ厚　180～200
 41
0.75
  0
TEXT
  5
12EA55
  8
SLIM
 10
3611.5
 20
-1502.3333333333301
 30
0.0
 40
28.0
  1
国土交通大臣認定・（財）日本消防設備安全センター性能評定取得品
 41
0.75
  0
TEXT
  5
12EA56
  8
SLIM
 10
3631.1000000000022
 20
-1548.999999999997
 30
0.0
 40
28.0
  1
注）ご採用にあたり、認定書及び評定書の内容をご確認ください。
 41
0.75
  0
TEXT
  5
12EA57
  8
SLIM
 10
3741.6250000000009
 20
-1347.499999999997
 30
0.0
 40
35.0
  1
片受けスタイル（S）＋シンドカット
 41
0.75
  0
TEXT
  5
12EA58
  8
SLIM
 10
1856.25
 20
-1347.499999999998
 30
0.0
 40
35.0
  1
片受けスタイル（S）
 41
0.75
  0
VIEWPORT
  5
F6BA7
 67
     1
  8
0
 10
145.33033752441401
 20
101.8328354358673
 30
0.0
 40
334.0025019414623
 41
222.19657968139651
 68
     1
 69
     1
1001
ACAD
1000
MVIEW
1002
{
1070
    16
1010
0.0
1020
0.0
1030
0.0
1010
0.0
1020
0.0
1030
1.0
1040
0.0
1040
222.19657968139651
1040
145.33033752441401
1040
101.8328354358673
1040
50.0
1040
0.0
1040
0.0
1070
     0
1070
     0
1070
     1
1070
     1
1070
     0
1070
     0
1070
     0
1070
     0
1040
0.0
1040
0.0
1040
0.0
1040
10.0
1040
10.0
1040
10.0
1040
10.0
1070
     0
1002
{
1002
}
1002
}
  0
VIEWPORT
  5
F6BA9
 67
     1
  8
OBJECT
 10
145.3303314447403
 20
101.8328338861465
 30
0.0
 40
232.5285303115844
 41
162.93253421783439
 68
     2
 69
     2
1001
ACAD
1000
MVIEW
1002
{
1070
    16
1010
0.0
1020
0.0
1030
0.0
1010
0.0
1020
0.0
1030
1.0
1040
0.0
1040
25942.55904403147
1040
2377.604457077377
1040
-7591.5176687056619
1040
50.0
1040
0.0
1040
0.0
1070
     0
1070
   600
1070
     1
1070
     1
1070
     0
1070
     0
1070
     0
1070
     0
1040
0.0
1040
0.0
1040
0.0
1040
1.0
1040
1.0
1040
0.0
1040
0.0
1070
     0
1002
{
1002
}
1002
}
  0
ENDSEC
  0
EOF
