  0
SECTION
  2
HEADER
  9
$ACADVER
  1
AC1009
  9
$INSBASE
 10
0.0
 20
0.0
 30
0.0
  9
$EXTMIN
 10
0.0
 20
-3717.4999999999959
 30
0.0
  9
$EXTMAX
 10
5575.0
 20
607.5
 30
0.0
  9
$LIMMIN
 10
0.0
 20
0.0
  9
$LIMMAX
 10
210.0
 20
297.0
  9
$ORTHOMODE
 70
     0
  9
$REGENMODE
 70
     1
  9
$FILLMODE
 70
     1
  9
$QTEXTMODE
 70
     0
  9
$MIRRTEXT
 70
     0
  9
$DRAGMODE
 70
     2
  9
$LTSCALE
 40
1.0
  9
$OSMODE
 70
  2557
  9
$ATTMODE
 70
     1
  9
$TEXTSIZE
 40
4.0
  9
$TRACEWID
 40
0.05
  9
$TEXTSTYLE
  7
STANDARD
  9
$CLAYER
  8
OBJECT
  9
$CELTYPE
  6
BYLAYER
  9
$CECOLOR
 62
   256
  9
$DIMSCALE
 40
10.0
  9
$DIMASZ
 40
2.0
  9
$DIMEXO
 40
1.0
  9
$DIMDLI
 40
10.0
  9
$DIMRND
 40
0.0
  9
$DIMDLE
 40
0.0
  9
$DIMEXE
 40
1.0
  9
$DIMTP
 40
0.0
  9
$DIMTM
 40
0.0
  9
$DIMTXT
 40
3.2000000000000002
  9
$DIMCEN
 40
0.0
  9
$DIMTSZ
 40
0.0
  9
$DIMTOL
 70
     0
  9
$DIMLIM
 70
     0
  9
$DIMTIH
 70
     0
  9
$DIMTOH
 70
     0
  9
$DIMSE1
 70
     0
  9
$DIMSE2
 70
     0
  9
$DIMTAD
 70
     1
  9
$DIMZIN
 70
     8
  9
$DIMBLK
  1
OPEN30
  9
$DIMASO
 70
     1
  9
$DIMSHO
 70
     1
  9
$DIMPOST
  1

  9
$DIMAPOST
  1

  9
$DIMALT
 70
     0
  9
$DIMALTD
 70
     2
  9
$DIMALTF
 40
25.399999999999999
  9
$DIMLFAC
 40
1.0
  9
$DIMTOFL
 70
     1
  9
$DIMTVP
 40
0.0
  9
$DIMTIX
 70
     0
  9
$DIMSOXD
 70
     0
  9
$DIMSAH
 70
     0
  9
$DIMBLK1
  1

  9
$DIMBLK2
  1

  9
$DIMSTYLE
  2
S10
  9
$DIMCLRD
 70
   256
  9
$DIMCLRE
 70
   256
  9
$DIMCLRT
 70
   256
  9
$DIMTFAC
 40
1.0
  9
$DIMGAP
 40
0.9
  9
$LUNITS
 70
     2
  9
$LUPREC
 70
     2
  9
$SKETCHINC
 40
0.1
  9
$FILLETRAD
 40
0.0
  9
$AUNITS
 70
     0
  9
$AUPREC
 70
     2
  9
$MENU
  1
ACAD
  9
$ELEVATION
 40
0.0
  9
$PELEVATION
 40
0.0
  9
$THICKNESS
 40
0.0
  9
$LIMCHECK
 70
     0
  9
$BLIPMODE
 70
     0
  9
$CHAMFERA
 40
2.0
  9
$CHAMFERB
 40
2.0
  9
$SKPOLY
 70
     0
  9
$TDCREATE
 40
2453095.4929404748
  9
$TDUPDATE
 40
2456532.5638597109
  9
$TDINDWG
 40
18.401203101899998
  9
$TDUSRTIMER
 40
18.401202384299999
  9
$USRTIMER
 70
     1
  9
$ANGBASE
 50
0.0
  9
$ANGDIR
 70
     0
  9
$PDMODE
 70
    35
  9
$PDSIZE
 40
2.0
  9
$PLINEWID
 40
0.0
  9
$COORDS
 70
     1
  9
$SPLFRAME
 70
     0
  9
$SPLINETYPE
 70
     6
  9
$SPLINESEGS
 70
     8
  9
$ATTDIA
 70
     1
  9
$ATTREQ
 70
     1
  9
$HANDLING
 70
     1
  9
$HANDSEED
  5
1272D0
  9
$SURFTAB1
 70
     6
  9
$SURFTAB2
 70
     6
  9
$SURFTYPE
 70
     6
  9
$SURFU
 70
     6
  9
$SURFV
 70
     6
  9
$UCSNAME
  2

  9
$UCSORG
 10
0.0
 20
0.0
 30
0.0
  9
$UCSXDIR
 10
1.0
 20
0.0
 30
0.0
  9
$UCSYDIR
 10
0.0
 20
1.0
 30
0.0
  9
$PUCSNAME
  2

  9
$PUCSORG
 10
0.0
 20
0.0
 30
0.0
  9
$PUCSXDIR
 10
1.0
 20
0.0
 30
0.0
  9
$PUCSYDIR
 10
0.0
 20
1.0
 30
0.0
  9
$USERI1
 70
     0
  9
$USERI2
 70
     0
  9
$USERI3
 70
     0
  9
$USERI4
 70
     0
  9
$USERI5
 70
     0
  9
$USERR1
 40
0.0
  9
$USERR2
 40
0.0
  9
$USERR3
 40
0.0
  9
$USERR4
 40
0.0
  9
$USERR5
 40
0.0
  9
$WORLDVIEW
 70
     1
  9
$SHADEDGE
 70
     3
  9
$SHADEDIF
 70
    70
  9
$TILEMODE
 70
     1
  9
$MAXACTVP
 70
    64
  9
$PLIMCHECK
 70
     0
  9
$PEXTMIN
 10
29.066066288948051
 20
20.366566777229309
 30
0.0
  9
$PEXTMAX
 10
261.5945966005325
 20
183.29910099506381
 30
0.0
  9
$PLIMMIN
 10
-3.17498779296875
 20
-3.1749999523162842
  9
$PLIMMAX
 10
293.83566284179687
 20
206.8406708240509
  9
$UNITMODE
 70
     0
  9
$VISRETAIN
 70
     1
  9
$PLINEGEN
 70
     0
  9
$PSLTSCALE
 70
     1
  0
ENDSEC
  0
SECTION
  2
TABLES
  0
TABLE
  2
VPORT
 70
     1
  0
VPORT
  2
*ACTIVE
 70
     0
 10
0.0
 20
0.0
 11
1.0
 21
1.0
 12
4174.9383821950169
 22
-1428.684788536905
 13
0.0
 23
0.0
 14
1.0
 24
1.0
 15
0.0
 25
0.0
 16
0.0
 26
0.0
 36
1.0
 17
0.0
 27
0.0
 37
0.0
 40
5115.430572999745
 41
1.958525345622119
 42
50.0
 43
0.0
 44
0.0
 50
0.0
 51
0.0
 71
     0
 72
   600
 73
     1
 74
     1
 75
     0
 76
     0
 77
     0
 78
     0
  0
ENDTAB
  0
TABLE
  2
LTYPE
 70
     3
  0
LTYPE
  2
CONTINUOUS
 70
     0
  3
Solid line
 72
    65
 73
     0
 40
0.0
  0
LTYPE
  2
ACAD_ISO08W100
 70
     0
  3
ISO long-dash short-dash ____ __ ____ __ ____ _
 72
    65
 73
     4
 40
36.0
 49
24.0
 49
-3.0
 49
6.0
 49
-3.0
  0
LTYPE
  2
ACAD_ISO02W100
 70
     0
  3
ISO dash __ __ __ __ __ __ __ __ __ __ __ __ __
 72
    65
 73
     2
 40
15.0
 49
12.0
 49
-3.0
  0
ENDTAB
  0
TABLE
  2
LAYER
 70
     8
  0
LAYER
  2
0
 70
     0
 62
     7
  6
CONTINUOUS
  0
LAYER
  2
OBJECT
 70
     0
 62
     4
  6
CONTINUOUS
  0
LAYER
  2
DEFPOINTS
 70
     0
 62
     7
  6
CONTINUOUS
  0
LAYER
  2
DIM
 70
     0
 62
     7
  6
CONTINUOUS
  0
LAYER
  2
HIDDEN
 70
     0
 62
     2
  6
ACAD_ISO02W100
  0
LAYER
  2
CENTER
 70
     0
 62
     2
  6
ACAD_ISO08W100
  0
LAYER
  2
DOTS
 70
     0
 62
     1
  6
CONTINUOUS
  0
LAYER
  2
SLIM
 70
     0
 62
     2
  6
CONTINUOUS
  0
ENDTAB
  0
TABLE
  2
STYLE
 70
     2
  0
STYLE
  2
STANDARD
 70
     0
 40
0.0
 41
0.75
 50
0.0
 71
     0
 42
4.0
  3
simplex.shx
  4
bigfont.shx
  0
ENDTAB
  0
TABLE
  2
VIEW
 70
     0
  0
ENDTAB
  0
TABLE
  2
UCS
 70
     0
  0
ENDTAB
  0
TABLE
  2
APPID
 70
    18
  0
APPID
  2
ACAD
 70
     0
  0
APPID
  2
ACADANNOTATIVE
 70
     0
  0
APPID
  2
ACAD_PSEXT
 70
     0
  0
APPID
  2
ACAD_EXEMPT_FROM_CAD_STANDARDS
 70
     0
  0
APPID
  2
ACAECLAYERSTANDARD
 70
     0
  0
APPID
  2
ACAUTHENVIRON
 70
     0
  0
APPID
  2
ACDBDYNAMICBLOCKTRUENAME
 70
     0
  0
APPID
  2
ACDBDYNAMICBLOCKGUID
 70
     0
  0
APPID
  2
ACDBBLOCKREPETAG
 70
     0
  0
APPID
  2
ACDBBLOCKREPBTAG
 70
     0
  0
APPID
  2
ACAD_NAV_VCDISPLAY
 70
     0
  0
APPID
  2
ACAD_DSTYLE_DIMRADIAL_EXTENSION
 70
     0
  0
APPID
  2
ACAD_DSTYLE_DIMJAG
 70
     0
  0
APPID
  2
ACAD_DSTYLE_DIMTALN
 70
     0
  0
APPID
  2
ACADANNOPO
 70
     0
  0
APPID
  2
GRADIENTCOLOR1ACI
 70
     0
  0
APPID
  2
GRADIENTCOLOR2ACI
 70
     0
  0
APPID
  2
ACAD_MLEADERVER
 70
     0
  0
ENDTAB
  0
TABLE
  2
DIMSTYLE
 70
     3
  0
DIMSTYLE
  2
STANDARD
 70
     0
  3

  4

  5

  6

  7

 40
1.0
 41
0.18
 42
0.0625
 43
0.38
 44
0.18
 45
0.0
 46
0.0
 47
0.0
 48
0.0
140
0.18
141
0.09
142
0.0
143
25.399999999999999
144
1.0
145
0.0
146
1.0
147
0.09
 71
     0
 72
     0
 73
     1
 74
     1
 75
     0
 76
     0
 77
     0
 78
     0
170
     0
171
     2
172
     0
173
     0
174
     0
175
     0
176
     0
177
     0
178
     0
  0
DIMSTYLE
  2
S10
 70
     0
  3

  4

  5

  6

  7

 40
10.0
 41
2.0
 42
1.0
 43
10.0
 44
1.0
 45
0.0
 46
0.0
 47
0.0
 48
0.0
140
3.2000000000000002
141
0.0
142
0.0
143
25.399999999999999
144
1.0
145
0.0
146
1.0
147
0.9
 71
     0
 72
     0
 73
     0
 74
     0
 75
     0
 76
     0
 77
     1
 78
     8
170
     0
171
     2
172
     1
173
     0
174
     0
175
     0
176
   256
177
   256
178
   256
  0
ENDTAB
  0
ENDSEC
  0
SECTION
  2
BLOCKS
  0
BLOCK
  8
0
  2
$MODEL_SPACE
 70
     0
 10
0.0
 20
0.0
 30
0.0
  3
$MODEL_SPACE
  1

  0
ENDBLK
  5
1271D8
  8
0
  0
BLOCK
 67
     1
  8
0
  2
$PAPER_SPACE
 70
     0
 10
0.0
 20
0.0
 30
0.0
  3
$PAPER_SPACE
  1

  0
ENDBLK
  5
1271D4
 67
     1
  8
0
  0
BLOCK
  8
0
  2
_OPEN30
 70
     0
 10
0.0
 20
0.0
 30
0.0
  3
_OPEN30
  1

  0
LINE
  5
202
  8
0
  6
BYBLOCK
 62
     0
 10
-1.0
 20
0.26794919
 30
0.0
 11
0.0
 21
0.0
 31
0.0
  0
LINE
  5
203
  8
0
  6
BYBLOCK
 62
     0
 10
0.0
 20
0.0
 30
0.0
 11
-1.0
 21
-0.26794919
 31
0.0
  0
LINE
  5
204
  8
0
  6
BYBLOCK
 62
     0
 10
0.0
 20
0.0
 30
0.0
 11
-1.0
 21
0.0
 31
0.0
  0
ENDBLK
  5
206
  8
0
  0
BLOCK
  8
0
  2
*U41
 70
     1
 10
0.0
 20
0.0
 30
0.0
  3
*U41
  1

  0
TEXT
  5
127139
  8
DIM
 10
2209.479620594459
 20
-3204.1428571428528
 30
0.0
 40
32.0
  1
A
 50
90.0
 41
0.75
  0
ENDBLK
  5
12713B
  8
0
  0
BLOCK
  8
0
  2
*U42
 70
     1
 10
0.0
 20
0.0
 30
0.0
  3
*U42
  1

  0
TEXT
  5
12713D
  8
DIM
 10
2207.8409284037348
 20
-3585.9999999999968
 30
0.0
 40
32.0
  1
B
 50
90.0
 41
0.75
  0
ENDBLK
  5
12713F
  8
0
  0
BLOCK
  8
0
  2
*U43
 70
     1
 10
0.0
 20
0.0
 30
0.0
  3
*U43
  1

  0
TEXT
  5
127141
  8
DIM
 10
2061.428571428572
 20
-3058.208121984444
 30
0.0
 40
32.0
  1
C
 41
0.75
  0
ENDBLK
  5
127143
  8
0
  0
BLOCK
  8
0
  2
*U44
 70
     1
 10
0.0
 20
0.0
 30
0.0
  3
*U44
  1

  0
TEXT
  5
127145
  8
SLIM
 10
509.0476190477408
 20
-586.75000000000955
 30
0.0
 40
26.0
  1
100
  0
ENDBLK
  5
127147
  8
0
  0
BLOCK
  8
0
  2
*U45
 70
     1
 10
0.0
 20
0.0
 30
0.0
  3
*U45
  1

  0
TEXT
  5
127149
  8
SLIM
 10
158.9523809524228
 20
-594.00000000000955
 30
0.0
 40
26.0
  1
75
  0
ENDBLK
  5
12714B
  8
0
  0
BLOCK
  8
0
  2
*U46
 70
     1
 10
0.0
 20
0.0
 30
0.0
  3
*U46
  1

  0
TEXT
  5
12714D
  8
SLIM
 10
518.95238095250295
 20
-130.00000000000321
 30
0.0
 40
26.0
  1
65
  0
ENDBLK
  5
12714F
  8
0
  0
BLOCK
  8
0
  2
*U47
 70
     1
 10
0.0
 20
0.0
 30
0.0
  3
*U47
  1

  0
TEXT
  5
127151
  8
SLIM
 10
158.9523809524228
 20
-130.00000000000321
 30
0.0
 40
26.0
  1
50
  0
ENDBLK
  5
127153
  8
0
  0
ENDSEC
  0
SECTION
  2
ENTITIES
  0
TEXT
  5
122A4E
  8
SLIM
 10
-0.0000000000000011
 20
282.5
 30
0.0
 40
35.0
  1
※ 100枝（4）がある場合、品名の最後に【管底】が付きます。
 41
0.9
 11
0.0
 21
300.0
 31
0.0
 73
     2
  0
LINE
  5
12515F
  8
OBJECT
 10
1825.0
 20
-3599.9999999999959
 30
0.0
 11
5575.0
 21
-3599.9999999999959
 31
0.0
  0
LINE
  5
125161
  8
SLIM
 10
2616.0
 20
-2657.50001604727
 30
0.0
 11
2616.0
 21
-2987.50001604727
 31
0.0
  0
LINE
  5
125162
  8
SLIM
 10
2740.0
 20
-2657.50001604727
 30
0.0
 11
2740.0
 21
-2987.50001604727
 31
0.0
  0
LINE
  5
125163
  8
SLIM
 10
2870.0
 20
-2717.50001604727
 30
0.0
 11
2870.0
 21
-2987.50001604727
 31
0.0
  0
LINE
  5
125164
  8
SLIM
 10
3000.0
 20
-2717.50001604727
 30
0.0
 11
3000.0
 21
-2987.50001604727
 31
0.0
  0
LINE
  5
125165
  8
SLIM
 10
3130.0
 20
-2987.50001604727
 30
0.0
 11
3130.0
 21
-2717.50001604727
 31
0.0
  0
LINE
  5
125166
  8
SLIM
 10
3260.0
 20
-2987.50001604727
 30
0.0
 11
3260.0
 21
-2657.50001604727
 31
0.0
  0
LINE
  5
125167
  8
SLIM
 10
3260.0
 20
-2657.50001604727
 30
0.0
 11
2616.0
 21
-2657.50001604727
 31
0.0
  0
LINE
  5
125168
  8
SLIM
 10
3260.0
 20
-2717.50001604727
 30
0.0
 11
2740.0
 21
-2717.50001604727
 31
0.0
  0
LINE
  5
125169
  8
SLIM
 10
3260.0
 20
-2777.50001604727
 30
0.0
 11
2616.0
 21
-2777.50001604727
 31
0.0
  0
LINE
  5
12516A
  8
SLIM
 10
3260.0
 20
-2847.50001604727
 30
0.0
 11
2616.0
 21
-2847.50001604727
 31
0.0
  0
LINE
  5
12516B
  8
SLIM
 10
3260.0
 20
-2917.50001604727
 30
0.0
 11
2616.0
 21
-2917.50001604727
 31
0.0
  0
LINE
  5
12516C
  8
SLIM
 10
3260.0
 20
-2987.50001604727
 30
0.0
 11
2616.0
 21
-2987.50001604727
 31
0.0
  0
LINE
  5
125181
  8
SLIM
 10
2740.0
 20
-2777.50001604727
 30
0.0
 11
2615.9999722746579
 21
-2657.5
 31
0.0
  0
LINE
  5
1251B6
  8
OBJECT
 10
5323.0
 20
-3415.9999999999968
 30
0.0
 11
5323.0
 21
-3394.9999999999968
 31
0.0
1001
ACDBBLOCKREPETAG
1070
     1
1071
       20
1005
1251B6
  0
LINE
  5
1251B7
  8
OBJECT
 10
5323.0
 20
-3394.9999999999968
 30
0.0
 11
5477.0
 21
-3394.9999999999968
 31
0.0
1001
ACDBBLOCKREPETAG
1070
     1
1071
       21
1005
1251B7
  0
LINE
  5
1251B8
  8
HIDDEN
 10
5343.0
 20
-3464.9999999999968
 30
0.0
 11
5457.0
 21
-3464.9999999999968
 31
0.0
1001
ACDBBLOCKREPETAG
1070
     1
1071
       22
1005
1251B8
  0
LINE
  5
1251B9
  8
OBJECT
 10
5477.0
 20
-3394.9999999999968
 30
0.0
 11
5477.0
 21
-3415.9999999999968
 31
0.0
1001
ACDBBLOCKREPETAG
1070
     1
1071
       23
1005
1251B9
  0
LINE
  5
1251BA
  8
OBJECT
 10
5477.0
 20
-3415.9999999999968
 30
0.0
 11
5323.0
 21
-3415.9999999999968
 31
0.0
1001
ACDBBLOCKREPETAG
1070
     1
1071
       24
1005
1251BA
  0
LINE
  5
1251BB
  8
CENTER
 10
5400.0
 20
-3379.9999999999968
 30
0.0
 11
5400.0
 21
-3614.9999999999968
 31
0.0
1001
ACDBBLOCKREPETAG
1070
     1
1071
       25
1005
1251BB
  0
LINE
  5
1251BC
  8
OBJECT
 10
5325.0
 20
-3478.9999999999968
 30
0.0
 11
5325.0
 21
-3602.9999999999968
 31
0.0
1001
ACDBBLOCKREPETAG
1070
     1
1071
       26
1005
1251BC
  0
LINE
  5
1251BD
  8
OBJECT
 10
5328.0
 20
-3415.9999999999968
 30
0.0
 11
5328.0
 21
-3478.9999999999968
 31
0.0
1001
ACDBBLOCKREPETAG
1070
     1
1071
       27
1005
1251BD
  0
LINE
  5
1251BE
  8
OBJECT
 10
5472.0
 20
-3478.9999999999968
 30
0.0
 11
5472.0
 21
-3415.9999999999968
 31
0.0
1001
ACDBBLOCKREPETAG
1070
     1
1071
       28
1005
1251BE
  0
LINE
  5
1251BF
  8
OBJECT
 10
5475.0
 20
-3478.9999999999968
 30
0.0
 11
5456.7802782663139
 21
-3478.9999999999968
 31
0.0
1001
ACDBBLOCKREPETAG
1070
     1
1071
       30
1005
1251BF
  0
LINE
  5
1251C0
  8
OBJECT
 10
5475.0
 20
-3478.9999999999968
 30
0.0
 11
5475.0
 21
-3602.9999999999968
 31
0.0
1001
ACDBBLOCKREPETAG
1070
     1
1071
       34
1005
1251C0
  0
POINT
  5
1251C1
  8
DOTS
 10
5400.0
 20
-3599.9999999999968
 30
0.0
1001
ACDBBLOCKREPETAG
1070
     1
1071
      187
1005
1251C1
  0
LINE
  5
1251C2
  8
CENTER
 10
5310.0
 20
-3527.9999999999968
 30
0.0
 11
5490.0
 21
-3527.9999999999968
 31
0.0
1001
ACDBBLOCKREPETAG
1070
     1
1071
       23
1005
1251C2
  0
CIRCLE
  5
1251C3
  8
OBJECT
 10
5400.0
 20
-3527.9999999999968
 30
0.0
 40
53.5
1001
ACDBBLOCKREPETAG
1070
     1
1071
       24
1005
1251C3
  0
CIRCLE
  5
1251C4
  8
OBJECT
 10
5400.0
 20
-3527.9999999999968
 30
0.0
 40
67.0
1001
ACDBBLOCKREPETAG
1070
     1
1071
       25
1005
1251C4
  0
ARC
  5
1251C5
  8
OBJECT
 10
5400.0
 20
-3527.9999999999968
 30
0.0
 40
75.0
 50
286.26020470824369
 51
253.73979529175631
1001
ACDBBLOCKREPETAG
1070
     1
1071
       27
1005
1251C5
  0
LINE
  5
1251C6
  8
OBJECT
 10
5379.0
 20
-3599.9999999999968
 30
0.0
 11
5421.0
 21
-3599.9999999999968
 31
0.0
1001
ACDBBLOCKREPETAG
1070
     1
1071
       28
1005
1251C6
  0
LINE
  5
1251C7
  8
OBJECT
 10
5343.2197217336861
 20
-3478.9999999999968
 30
0.0
 11
5325.0
 21
-3478.9999999999968
 31
0.0
1001
ACDBBLOCKREPETAG
1070
     1
1071
       30
1005
1251BF
  0
CIRCLE
  5
12631C
  8
OBJECT
 10
5000.0
 20
-3194.9999999999959
 30
0.0
 40
53.5
1001
ACDBBLOCKREPETAG
1070
     1
1071
      344
1005
12631C
  0
LINE
  5
12631D
  8
CENTER
 10
5080.0
 20
-3194.9999999999959
 30
0.0
 11
4905.0
 21
-3194.9999999999959
 31
0.0
1001
ACDBBLOCKREPETAG
1070
     1
1071
       14
1005
12631D
  0
LINE
  5
12631E
  8
CENTER
 10
5000.0
 20
-3289.9999999999959
 30
0.0
 11
5000.0
 21
-3099.9999999999959
 31
0.0
1001
ACDBBLOCKREPETAG
1070
     1
1071
       15
1005
12631E
  0
CIRCLE
  5
12631F
  8
OBJECT
 10
5000.0
 20
-3194.9999999999959
 30
0.0
 40
70.0
1001
ACDBBLOCKREPETAG
1070
     1
1071
       16
1005
12631F
  0
CIRCLE
  5
126320
  8
OBJECT
 10
5000.0
 20
-3194.9999999999959
 30
0.0
 40
77.0
1001
ACDBBLOCKREPETAG
1070
     1
1071
       17
1005
126320
  0
ARC
  5
126321
  8
OBJECT
 10
5000.0
 20
-3194.9999999999959
 30
0.0
 40
80.0
 50
50.805032573882329
 51
309.19496742611773
1001
ACDBBLOCKREPETAG
1070
     1
1071
       18
1005
126321
  0
LINE
  5
126322
  8
OBJECT
 10
5045.6618002273253
 20
-3132.9999999999959
 30
0.0
 11
5080.0
 21
-3132.9999999999959
 31
0.0
1001
ACDBBLOCKREPETAG
1070
     1
1071
       19
1005
126322
  0
LINE
  5
126323
  8
OBJECT
 10
5045.6618002273253
 20
-3256.9999999999959
 30
0.0
 11
5080.0
 21
-3256.9999999999959
 31
0.0
1001
ACDBBLOCKREPETAG
1070
     1
1071
       20
1005
126323
  0
POINT
  5
126324
  8
DOTS
 10
5000.0
 20
-3194.9999999999959
 30
0.0
1001
ACDBBLOCKREPETAG
1070
     1
1071
       21
1005
126324
  0
CIRCLE
  5
126325
  8
OBJECT
 10
4000.0
 20
-3194.9999999999959
 30
0.0
 40
53.5
1001
ACDBBLOCKREPETAG
1070
     1
1071
      344
1005
126325
  0
LINE
  5
126326
  8
CENTER
 10
4080.0
 20
-3194.9999999999959
 30
0.0
 11
3905.0
 21
-3194.9999999999959
 31
0.0
1001
ACDBBLOCKREPETAG
1070
     1
1071
       14
1005
126326
  0
LINE
  5
126327
  8
CENTER
 10
4000.0
 20
-3289.9999999999959
 30
0.0
 11
4000.0
 21
-3099.9999999999959
 31
0.0
1001
ACDBBLOCKREPETAG
1070
     1
1071
       15
1005
126327
  0
CIRCLE
  5
126328
  8
OBJECT
 10
4000.0
 20
-3194.9999999999959
 30
0.0
 40
70.0
1001
ACDBBLOCKREPETAG
1070
     1
1071
       16
1005
126328
  0
CIRCLE
  5
126329
  8
OBJECT
 10
4000.0
 20
-3194.9999999999959
 30
0.0
 40
77.0
1001
ACDBBLOCKREPETAG
1070
     1
1071
       17
1005
126329
  0
ARC
  5
12632A
  8
OBJECT
 10
4000.0
 20
-3194.9999999999959
 30
0.0
 40
80.0
 50
50.805032573862128
 51
309.19496742613791
1001
ACDBBLOCKREPETAG
1070
     1
1071
       18
1005
12632A
  0
LINE
  5
12632B
  8
OBJECT
 10
4045.661800227324
 20
-3132.9999999999959
 30
0.0
 11
4080.0
 21
-3132.9999999999959
 31
0.0
1001
ACDBBLOCKREPETAG
1070
     1
1071
       19
1005
12632B
  0
LINE
  5
12632C
  8
OBJECT
 10
4045.661800227324
 20
-3256.9999999999959
 30
0.0
 11
4080.0
 21
-3256.9999999999959
 31
0.0
1001
ACDBBLOCKREPETAG
1070
     1
1071
       20
1005
12632C
  0
POINT
  5
12632D
  8
DOTS
 10
4000.0
 20
-3194.9999999999959
 30
0.0
1001
ACDBBLOCKREPETAG
1070
     1
1071
       21
1005
12632D
  0
CIRCLE
  5
12632E
  8
OBJECT
 10
3000.0
 20
-3194.9999999999959
 30
0.0
 40
53.5
1001
ACDBBLOCKREPETAG
1070
     1
1071
      344
1005
12632E
  0
LINE
  5
12632F
  8
CENTER
 10
3080.0
 20
-3194.9999999999959
 30
0.0
 11
2905.0
 21
-3194.9999999999959
 31
0.0
1001
ACDBBLOCKREPETAG
1070
     1
1071
       14
1005
12632F
  0
LINE
  5
126330
  8
CENTER
 10
3000.0
 20
-3289.9999999999959
 30
0.0
 11
3000.0
 21
-3099.9999999999959
 31
0.0
1001
ACDBBLOCKREPETAG
1070
     1
1071
       15
1005
126330
  0
CIRCLE
  5
126331
  8
OBJECT
 10
3000.0
 20
-3194.9999999999959
 30
0.0
 40
70.0
1001
ACDBBLOCKREPETAG
1070
     1
1071
       16
1005
126331
  0
CIRCLE
  5
126332
  8
OBJECT
 10
3000.0
 20
-3194.9999999999959
 30
0.0
 40
77.0
1001
ACDBBLOCKREPETAG
1070
     1
1071
       17
1005
126332
  0
ARC
  5
126333
  8
OBJECT
 10
3000.0
 20
-3194.9999999999959
 30
0.0
 40
80.0
 50
50.805032573862128
 51
309.19496742613791
1001
ACDBBLOCKREPETAG
1070
     1
1071
       18
1005
126333
  0
LINE
  5
126334
  8
OBJECT
 10
3045.6618002273249
 20
-3132.9999999999959
 30
0.0
 11
3080.0
 21
-3132.9999999999959
 31
0.0
1001
ACDBBLOCKREPETAG
1070
     1
1071
       19
1005
126334
  0
LINE
  5
126335
  8
OBJECT
 10
3045.6618002273249
 20
-3256.9999999999959
 30
0.0
 11
3080.0
 21
-3256.9999999999959
 31
0.0
1001
ACDBBLOCKREPETAG
1070
     1
1071
       20
1005
126335
  0
POINT
  5
126336
  8
DOTS
 10
3000.0
 20
-3194.9999999999959
 30
0.0
1001
ACDBBLOCKREPETAG
1070
     1
1071
       21
1005
126336
  0
CIRCLE
  5
126337
  8
OBJECT
 10
2000.0
 20
-3194.9999999999959
 30
0.0
 40
53.5
1001
ACDBBLOCKREPETAG
1070
     1
1071
      344
1005
126337
  0
LINE
  5
126338
  8
CENTER
 10
2080.0
 20
-3194.9999999999959
 30
0.0
 11
1905.0
 21
-3194.9999999999959
 31
0.0
1001
ACDBBLOCKREPETAG
1070
     1
1071
       14
1005
126338
  0
LINE
  5
126339
  8
CENTER
 10
2000.0
 20
-3289.9999999999959
 30
0.0
 11
2000.0
 21
-3099.9999999999959
 31
0.0
1001
ACDBBLOCKREPETAG
1070
     1
1071
       15
1005
126339
  0
CIRCLE
  5
12633A
  8
OBJECT
 10
2000.0
 20
-3194.9999999999959
 30
0.0
 40
70.0
1001
ACDBBLOCKREPETAG
1070
     1
1071
       16
1005
12633A
  0
CIRCLE
  5
12633B
  8
OBJECT
 10
2000.0
 20
-3194.9999999999959
 30
0.0
 40
77.0
1001
ACDBBLOCKREPETAG
1070
     1
1071
       17
1005
12633B
  0
ARC
  5
12633C
  8
OBJECT
 10
2000.0
 20
-3194.9999999999959
 30
0.0
 40
80.0
 50
50.805032573862128
 51
309.19496742613791
1001
ACDBBLOCKREPETAG
1070
     1
1071
       18
1005
12633C
  0
LINE
  5
12633D
  8
OBJECT
 10
2045.6618002273251
 20
-3132.9999999999959
 30
0.0
 11
2080.0
 21
-3132.9999999999959
 31
0.0
1001
ACDBBLOCKREPETAG
1070
     1
1071
       19
1005
12633D
  0
LINE
  5
12633E
  8
OBJECT
 10
2045.6618002273251
 20
-3256.9999999999959
 30
0.0
 11
2080.0
 21
-3256.9999999999959
 31
0.0
1001
ACDBBLOCKREPETAG
1070
     1
1071
       20
1005
12633E
  0
POINT
  5
12633F
  8
DOTS
 10
2000.0
 20
-3194.9999999999959
 30
0.0
1001
ACDBBLOCKREPETAG
1070
     1
1071
       21
1005
12633F
  0
LINE
  5
126340
  8
SLIM
 10
3927.3018300565232
 20
-155.95484036957691
 30
0.0
 11
3955.9548403695781
 21
-127.30183005652231
 31
0.0
1001
GRADIENTCOLOR1ACI
1070
     5
1001
GRADIENTCOLOR2ACI
1070
     2
1001
ACAD
1010
0.0
1020
0.0
1030
0.0
1001
ACDBBLOCKREPETAG
1070
     1
1071
      436
1005
126340
  0
LINE
  5
126341
  8
SLIM
 10
3919.4861520708369
 20
-172.75077447633191
 30
0.0
 11
3938.2903089572728
 21
-153.94661758989659
 31
0.0
1001
GRADIENTCOLOR1ACI
1070
     5
1001
GRADIENTCOLOR2ACI
1070
     2
1001
ACAD
1010
0.0
1020
0.0
1030
0.0
1001
ACDBBLOCKREPETAG
1070
     1
1071
      437
1005
126341
  0
LINE
  5
126342
  8
SLIM
 10
3953.946617589897
 20
-138.29030895727169
 30
0.0
 11
3972.7507744763329
 21
-119.4861520708364
 31
0.0
1001
GRADIENTCOLOR1ACI
1070
     5
1001
GRADIENTCOLOR2ACI
1070
     2
1001
ACAD
1010
0.0
1020
0.0
1030
0.0
1001
ACDBBLOCKREPETAG
1070
     1
1071
      438
1005
126342
  0
LINE
  5
126343
  8
SLIM
 10
3916.359667993378
 20
-184.8575146748604
 30
0.0
 11
3927.6959583557841
 21
-173.5212243124561
 31
0.0
1001
GRADIENTCOLOR1ACI
1070
     5
1001
GRADIENTCOLOR2ACI
1070
     2
1001
ACAD
1010
0.0
1020
0.0
1030
0.0
1001
ACDBBLOCKREPETAG
1070
     1
1071
      439
1005
126343
  0
LINE
  5
126344
  8
SLIM
 10
3973.521224312457
 20
-127.6959583557812
 30
0.0
 11
3984.8575146748631
 21
-116.359667993377
 31
0.0
1001
GRADIENTCOLOR1ACI
1070
     5
1001
GRADIENTCOLOR2ACI
1070
     2
1001
ACAD
1010
0.0
1020
0.0
1030
0.0
1001
ACDBBLOCKREPETAG
1070
     1
1071
      440
1005
126344
  0
LINE
  5
126345
  8
SLIM
 10
3915.1440575890529
 20
-195.0533812002549
 30
0.0
 11
3924.303021643183
 21
-185.89441714612491
 31
0.0
1001
GRADIENTCOLOR1ACI
1070
     5
1001
GRADIENTCOLOR2ACI
1070
     2
1001
ACAD
1010
0.0
1020
0.0
1030
0.0
1001
ACDBBLOCKREPETAG
1070
     1
1071
      441
1005
126345
  0
LINE
  5
126346
  8
SLIM
 10
3985.8944171461271
 20
-124.30302164318159
 30
0.0
 11
3995.0533812002559
 21
-115.1440575890517
 31
0.0
1001
GRADIENTCOLOR1ACI
1070
     5
1001
GRADIENTCOLOR2ACI
1070
     2
1001
ACAD
1010
0.0
1020
0.0
1030
0.0
1001
ACDBBLOCKREPETAG
1070
     1
1071
      442
1005
126346
  0
LINE
  5
126347
  8
SLIM
 10
3915.097963557474
 20
-204.07973135290339
 30
0.0
 11
3919.1776949103769
 21
-199.99999999999909
 31
0.0
1001
GRADIENTCOLOR1ACI
1070
     5
1001
GRADIENTCOLOR2ACI
1070
     2
1001
ACAD
1010
0.0
1020
0.0
1030
0.0
1001
ACDBBLOCKREPETAG
1070
     1
1071
      443
1005
126347
  0
LINE
  5
126348
  8
SLIM
 10
4000.0
 20
-119.1776949103767
 30
0.0
 11
4004.0797313529042
 21
-115.0979635574724
 31
0.0
1001
GRADIENTCOLOR1ACI
1070
     5
1001
GRADIENTCOLOR2ACI
1070
     2
1001
ACAD
1010
0.0
1020
0.0
1030
0.0
1001
ACDBBLOCKREPETAG
1070
     1
1071
      444
1005
126348
  0
LINE
  5
126349
  8
SLIM
 10
3919.1776949103769
 20
-199.99999999999909
 30
0.0
 11
3923.0999621611709
 21
-196.07773274920581
 31
0.0
1001
GRADIENTCOLOR1ACI
1070
     5
1001
GRADIENTCOLOR2ACI
1070
     2
1001
ACAD
1010
0.0
1020
0.0
1030
0.0
1001
ACDBBLOCKREPETAG
1070
     1
1071
      445
1005
126349
  0
LINE
  5
12634A
  8
SLIM
 10
3996.0777327492078
 20
-123.0999621611699
 30
0.0
 11
4000.0
 21
-119.1776949103767
 31
0.0
1001
GRADIENTCOLOR1ACI
1070
     5
1001
GRADIENTCOLOR2ACI
1070
     2
1001
ACAD
1010
0.0
1020
0.0
1030
0.0
1001
ACDBBLOCKREPETAG
1070
     1
1071
      446
1005
12634A
  0
LINE
  5
12634B
  8
SLIM
 10
3915.8899726208729
 20
-212.26797841057399
 30
0.0
 11
3923.162230777169
 21
-204.9957202542767
 31
0.0
1001
GRADIENTCOLOR1ACI
1070
     5
1001
GRADIENTCOLOR2ACI
1070
     2
1001
ACAD
1010
0.0
1020
0.0
1030
0.0
1001
ACDBBLOCKREPETAG
1070
     1
1071
      447
1005
12634B
  0
LINE
  5
12634C
  8
SLIM
 10
4004.9957202542769
 20
-123.1622307771683
 30
0.0
 11
4012.2679784105749
 21
-115.88997262087101
 31
0.0
1001
GRADIENTCOLOR1ACI
1070
     5
1001
GRADIENTCOLOR2ACI
1070
     2
1001
ACAD
1010
0.0
1020
0.0
1030
0.0
1001
ACDBBLOCKREPETAG
1070
     1
1071
      448
1005
12634C
  0
LINE
  5
12634D
  8
SLIM
 10
3917.338265695154
 20
-219.79994145736151
 30
0.0
 11
3924.1101477855509
 21
-213.02805936696359
 31
0.0
1001
GRADIENTCOLOR1ACI
1070
     5
1001
GRADIENTCOLOR2ACI
1070
     2
1001
ACAD
1010
0.0
1020
0.0
1030
0.0
1001
ACDBBLOCKREPETAG
1070
     1
1071
      449
1005
12634D
  0
LINE
  5
12634E
  8
SLIM
 10
4013.028059366964
 20
-124.1101477855505
 30
0.0
 11
4019.799941457361
 21
-117.3382656951526
 31
0.0
1001
GRADIENTCOLOR1ACI
1070
     5
1001
GRADIENTCOLOR2ACI
1070
     2
1001
ACAD
1010
0.0
1020
0.0
1030
0.0
1001
ACDBBLOCKREPETAG
1070
     1
1071
      450
1005
12634E
  0
LINE
  5
12634F
  8
SLIM
 10
3919.331259406305
 20
-226.78720386727881
 30
0.0
 11
3925.7443819593391
 21
-220.3740813142449
 31
0.0
1001
GRADIENTCOLOR1ACI
1070
     5
1001
GRADIENTCOLOR2ACI
1070
     2
1001
ACAD
1010
0.0
1020
0.0
1030
0.0
1001
ACDBBLOCKREPETAG
1070
     1
1071
      451
1005
12634F
  0
LINE
  5
126350
  8
SLIM
 10
4020.3740813142458
 20
-125.7443819593384
 30
0.0
 11
4026.7872038672799
 21
-119.3312594063044
 31
0.0
1001
GRADIENTCOLOR1ACI
1070
     5
1001
GRADIENTCOLOR2ACI
1070
     2
1001
ACAD
1010
0.0
1020
0.0
1030
0.0
1001
ACDBBLOCKREPETAG
1070
     1
1071
      452
1005
126350
  0
LINE
  5
126351
  8
SLIM
 10
3921.795716318622
 20
-233.30300307603289
 30
0.0
 11
3927.9462473957792
 21
-227.1524719988744
 31
0.0
1001
GRADIENTCOLOR1ACI
1070
     5
1001
GRADIENTCOLOR2ACI
1070
     2
1001
ACAD
1010
0.0
1020
0.0
1030
0.0
1001
ACDBBLOCKREPETAG
1070
     1
1071
      453
1005
126351
  0
LINE
  5
126352
  8
SLIM
 10
4027.1524719988752
 20
-127.946247395778
 30
0.0
 11
4033.3030030760328
 21
-121.7957163186195
 31
0.0
1001
GRADIENTCOLOR1ACI
1070
     5
1001
GRADIENTCOLOR2ACI
1070
     2
1001
ACAD
1010
0.0
1020
0.0
1030
0.0
1001
ACDBBLOCKREPETAG
1070
     1
1071
      454
1005
126352
  0
LINE
  5
126353
  8
SLIM
 10
3924.6816635313448
 20
-239.39731198437769
 30
0.0
 11
3930.6398768643921
 21
-233.4390986513296
 31
0.0
1001
GRADIENTCOLOR1ACI
1070
     5
1001
GRADIENTCOLOR2ACI
1070
     2
1001
ACAD
1010
0.0
1020
0.0
1030
0.0
1001
ACDBBLOCKREPETAG
1070
     1
1071
      455
1005
126353
  0
LINE
  5
126354
  8
SLIM
 10
4033.4390986513308
 20
-130.63987686439199
 30
0.0
 11
4039.3973119843781
 21
-124.6816635313439
 31
0.0
1001
GRADIENTCOLOR1ACI
1070
     5
1001
GRADIENTCOLOR2ACI
1070
     2
1001
ACAD
1010
0.0
1020
0.0
1030
0.0
1001
ACDBBLOCKREPETAG
1070
     1
1071
      456
1005
126354
  0
LINE
  5
126355
  8
SLIM
 10
3927.9544611024248
 20
-245.10477053436691
 30
0.0
 11
3933.775007014995
 21
-239.28422462179759
 31
0.0
1001
GRADIENTCOLOR1ACI
1070
     5
1001
GRADIENTCOLOR2ACI
1070
     2
1001
ACAD
1010
0.0
1020
0.0
1030
0.0
1001
ACDBBLOCKREPETAG
1070
     1
1071
      457
1005
126355
  0
LINE
  5
126356
  8
SLIM
 10
4039.284224621797
 20
-133.77500701499321
 30
0.0
 11
4045.1047705343681
 21
-127.95446110242381
 31
0.0
1001
GRADIENTCOLOR1ACI
1070
     5
1001
GRADIENTCOLOR2ACI
1070
     2
1001
ACAD
1010
0.0
1020
0.0
1030
0.0
1001
ACDBBLOCKREPETAG
1070
     1
1071
      458
1005
126356
  0
LINE
  5
126357
  8
SLIM
 10
3931.5903319686659
 20
-250.4491557891954
 30
0.0
 11
3937.3182075880568
 21
-244.72128016980341
 31
0.0
1001
GRADIENTCOLOR1ACI
1070
     5
1001
GRADIENTCOLOR2ACI
1070
     2
1001
ACAD
1010
0.0
1020
0.0
1030
0.0
1001
ACDBBLOCKREPETAG
1070
     1
1071
      459
1005
126357
  0
LINE
  5
126358
  8
SLIM
 10
4044.7212801698038
 20
-137.31820758805651
 30
0.0
 11
4050.4491557891961
 21
-131.59033196866449
 31
0.0
1001
GRADIENTCOLOR1ACI
1070
     5
1001
GRADIENTCOLOR2ACI
1070
     2
1001
ACAD
1010
0.0
1020
0.0
1030
0.0
1001
ACDBBLOCKREPETAG
1070
     1
1071
      460
1005
126358
  0
LINE
  5
126359
  8
SLIM
 10
3935.5737496925258
 20
-255.4459941864034
 30
0.0
 11
3941.24811054159
 21
-249.77163333734029
 31
0.0
1001
GRADIENTCOLOR1ACI
1070
     5
1001
GRADIENTCOLOR2ACI
1070
     2
1001
ACAD
1010
0.0
1020
0.0
1030
0.0
1001
ACDBBLOCKREPETAG
1070
     1
1071
      461
1005
126359
  0
LINE
  5
12635A
  8
SLIM
 10
4053.0197438789291
 20
-137.99999999999909
 30
0.0
 11
4055.4459941864038
 21
-135.57374969252561
 31
0.0
1001
GRADIENTCOLOR1ACI
1070
     5
1001
GRADIENTCOLOR2ACI
1070
     2
1001
ACAD
1010
0.0
1020
0.0
1030
0.0
1001
ACDBBLOCKREPETAG
1070
     1
1071
      462
1005
12635A
  0
LINE
  5
12635B
  8
SLIM
 10
3939.8959235991442
 20
-260.10407640085572
 30
0.0
 11
3945.5527778486362
 21
-254.44722215136329
 31
0.0
1001
GRADIENTCOLOR1ACI
1070
     5
1001
GRADIENTCOLOR2ACI
1070
     2
1001
ACAD
1010
0.0
1020
0.0
1030
0.0
1001
ACDBBLOCKREPETAG
1070
     1
1071
      463
1005
12635B
  0
LINE
  5
12635C
  8
SLIM
 10
3944.5540058135962
 20
-264.4262503074724
 30
0.0
 11
3950.2283666626599
 21
-258.75188945840949
 31
0.0
1001
GRADIENTCOLOR1ACI
1070
     5
1001
GRADIENTCOLOR2ACI
1070
     2
1001
ACAD
1010
0.0
1020
0.0
1030
0.0
1001
ACDBBLOCKREPETAG
1070
     1
1071
      464
1005
12635C
  0
LINE
  5
12635D
  8
SLIM
 10
3949.5508442108039
 20
-268.40966803133369
 30
0.0
 11
3955.2787198301962
 21
-262.68179241194167
 31
0.0
1001
GRADIENTCOLOR1ACI
1070
     5
1001
GRADIENTCOLOR2ACI
1070
     2
1001
ACAD
1010
0.0
1020
0.0
1030
0.0
1001
ACDBBLOCKREPETAG
1070
     1
1071
      465
1005
12635D
  0
LINE
  5
12635E
  8
SLIM
 10
3954.8952294656328
 20
-272.04553889757437
 30
0.0
 11
3960.7157753782012
 21
-266.22499298500497
 31
0.0
1001
GRADIENTCOLOR1ACI
1070
     5
1001
GRADIENTCOLOR2ACI
1070
     2
1001
ACAD
1010
0.0
1020
0.0
1030
0.0
1001
ACDBBLOCKREPETAG
1070
     1
1071
      466
1005
12635E
  0
LINE
  5
12635F
  8
SLIM
 10
3960.602688015621
 20
-275.31833646865431
 30
0.0
 11
3966.560901348671
 21
-269.36012313560622
 31
0.0
1001
GRADIENTCOLOR1ACI
1070
     5
1001
GRADIENTCOLOR2ACI
1070
     2
1001
ACAD
1010
0.0
1020
0.0
1030
0.0
1001
ACDBBLOCKREPETAG
1070
     1
1071
      467
1005
12635F
  0
LINE
  5
126360
  8
SLIM
 10
3966.6969969239681
 20
-278.20428368137868
 30
0.0
 11
3972.8475280011248
 21
-272.05375260422022
 31
0.0
1001
GRADIENTCOLOR1ACI
1070
     5
1001
GRADIENTCOLOR2ACI
1070
     2
1001
ACAD
1010
0.0
1020
0.0
1030
0.0
1001
ACDBBLOCKREPETAG
1070
     1
1071
      468
1005
126360
  0
LINE
  5
126361
  8
SLIM
 10
3973.2127961327192
 20
-280.66874059369371
 30
0.0
 11
3979.6259186857542
 21
-274.25561804065973
 31
0.0
1001
GRADIENTCOLOR1ACI
1070
     5
1001
GRADIENTCOLOR2ACI
1070
     2
1001
ACAD
1010
0.0
1020
0.0
1030
0.0
1001
ACDBBLOCKREPETAG
1070
     1
1071
      469
1005
126361
  0
LINE
  5
126362
  8
SLIM
 10
3980.200058542639
 20
-282.6617343048456
 30
0.0
 11
3986.971940633035
 21
-275.88985221444773
 31
0.0
1001
GRADIENTCOLOR1ACI
1070
     5
1001
GRADIENTCOLOR2ACI
1070
     2
1001
ACAD
1010
0.0
1020
0.0
1030
0.0
1001
ACDBBLOCKREPETAG
1070
     1
1071
      470
1005
126362
  0
LINE
  5
126363
  8
SLIM
 10
3987.7320215894251
 20
-284.11002737912702
 30
0.0
 11
3995.0042797457209
 21
-276.83776922282988
 31
0.0
1001
GRADIENTCOLOR1ACI
1070
     5
1001
GRADIENTCOLOR2ACI
1070
     2
1001
ACAD
1010
0.0
1020
0.0
1030
0.0
1001
ACDBBLOCKREPETAG
1070
     1
1071
      471
1005
126363
  0
LINE
  5
126364
  8
SLIM
 10
3995.9202686470958
 20
-284.9020364425258
 30
0.0
 11
4000.0
 21
-280.82230508962152
 31
0.0
1001
GRADIENTCOLOR1ACI
1070
     5
1001
GRADIENTCOLOR2ACI
1070
     2
1001
ACAD
1010
0.0
1020
0.0
1030
0.0
1001
ACDBBLOCKREPETAG
1070
     1
1071
      472
1005
126364
  0
LINE
  5
126365
  8
SLIM
 10
4000.0
 20
-280.82230508962152
 30
0.0
 11
4003.9222672507922
 21
-276.90003783882821
 31
0.0
1001
GRADIENTCOLOR1ACI
1070
     5
1001
GRADIENTCOLOR2ACI
1070
     2
1001
ACAD
1010
0.0
1020
0.0
1030
0.0
1001
ACDBBLOCKREPETAG
1070
     1
1071
      473
1005
126365
  0
LINE
  5
126366
  8
SLIM
 10
4004.9466187997441
 20
-284.85594241094651
 30
0.0
 11
4014.1055828538729
 21
-275.6969783568166
 31
0.0
1001
GRADIENTCOLOR1ACI
1070
     5
1001
GRADIENTCOLOR2ACI
1070
     2
1001
ACAD
1010
0.0
1020
0.0
1030
0.0
1001
ACDBBLOCKREPETAG
1070
     1
1071
      474
1005
126366
  0
LINE
  5
126367
  8
SLIM
 10
4015.1424853251392
 20
-283.64033200662118
 30
0.0
 11
4026.4787756875421
 21
-272.30404164421702
 31
0.0
1001
GRADIENTCOLOR1ACI
1070
     5
1001
GRADIENTCOLOR2ACI
1070
     2
1001
ACAD
1010
0.0
1020
0.0
1030
0.0
1001
ACDBBLOCKREPETAG
1070
     1
1071
      475
1005
126367
  0
LINE
  5
126368
  8
SLIM
 10
4027.2492255236671
 20
-280.51384792916173
 30
0.0
 11
4045.7630734528302
 21
-261.99999999999909
 31
0.0
1001
GRADIENTCOLOR1ACI
1070
     5
1001
GRADIENTCOLOR2ACI
1070
     2
1001
ACAD
1010
0.0
1020
0.0
1030
0.0
1001
ACDBBLOCKREPETAG
1070
     1
1071
      476
1005
126368
  0
LINE
  5
126369
  8
SLIM
 10
4044.0451596304219
 20
-272.69816994347582
 30
0.0
 11
4054.7433295738979
 21
-261.99999999999909
 31
0.0
1001
GRADIENTCOLOR1ACI
1070
     5
1001
GRADIENTCOLOR2ACI
1070
     2
1001
ACAD
1010
0.0
1020
0.0
1030
0.0
1001
ACDBBLOCKREPETAG
1070
     1
1071
      477
1005
126369
  0
LINE
  5
12636A
  8
CENTER
 10
4080.0
 20
-199.99999999999909
 30
0.0
 11
3900.0
 21
-199.99999999999909
 31
0.0
1001
ACDBBLOCKREPETAG
1070
     1
1071
      187
1005
12636A
  0
LINE
  5
12636B
  8
CENTER
 10
4000.0
 20
-299.99999999999898
 30
0.0
 11
4000.0
 21
-99.999999999999091
 31
0.0
1001
ACDBBLOCKREPETAG
1070
     1
1071
      188
1005
12636B
  0
CIRCLE
  5
12636C
  8
OBJECT
 10
4000.0
 20
-199.99999999999909
 30
0.0
 40
70.0
1001
ACDBBLOCKREPETAG
1070
     1
1071
      189
1005
12636C
  0
CIRCLE
  5
12636D
  8
OBJECT
 10
4000.0
 20
-199.99999999999909
 30
0.0
 40
77.0
1001
ACDBBLOCKREPETAG
1070
     1
1071
      190
1005
12636D
  0
LINE
  5
12636E
  8
OBJECT
 10
4045.661800227324
 20
-137.99999999999909
 30
0.0
 11
4080.0
 21
-137.99999999999909
 31
0.0
1001
ACDBBLOCKREPETAG
1070
     1
1071
      192
1005
12636E
  0
LINE
  5
12636F
  8
OBJECT
 10
4045.661800227324
 20
-261.99999999999909
 30
0.0
 11
4080.0
 21
-261.99999999999909
 31
0.0
1001
ACDBBLOCKREPETAG
1070
     1
1071
      193
1005
12636F
  0
POINT
  5
126370
  8
DOTS
 10
4000.0
 20
-199.99999999999909
 30
0.0
1001
ACDBBLOCKREPETAG
1070
     1
1071
      194
1005
126370
  0
ARC
  5
126371
  8
OBJECT
 10
4000.0
 20
-199.99999999999909
 30
0.0
 40
85.0
 50
46.837102859834147
 51
313.16289714016602
1001
ACDBBLOCKREPETAG
1070
     1
1071
      202
1005
126371
  0
CIRCLE
  5
126372
  8
OBJECT
 10
4000.0
 20
-199.99999999999909
 30
0.0
 40
53.5
1001
ACDBBLOCKREPETAG
1070
     1
1071
      356
1005
126372
  0
CIRCLE
  5
126373
  8
OBJECT
 10
2000.0
 20
-199.99999999999909
 30
0.0
 40
53.5
1001
ACDBBLOCKREPETAG
1070
     1
1071
      344
1005
126373
  0
LINE
  5
126374
  8
CENTER
 10
2080.0
 20
-199.99999999999909
 30
0.0
 11
1905.0
 21
-199.99999999999909
 31
0.0
1001
ACDBBLOCKREPETAG
1070
     1
1071
       14
1005
126374
  0
LINE
  5
126375
  8
CENTER
 10
2000.0
 20
-294.99999999999898
 30
0.0
 11
2000.0
 21
-104.9999999999991
 31
0.0
1001
ACDBBLOCKREPETAG
1070
     1
1071
       15
1005
126375
  0
CIRCLE
  5
126376
  8
OBJECT
 10
2000.0
 20
-199.99999999999909
 30
0.0
 40
70.0
1001
ACDBBLOCKREPETAG
1070
     1
1071
       16
1005
126376
  0
CIRCLE
  5
126377
  8
OBJECT
 10
2000.0
 20
-199.99999999999909
 30
0.0
 40
77.0
1001
ACDBBLOCKREPETAG
1070
     1
1071
       17
1005
126377
  0
ARC
  5
126378
  8
OBJECT
 10
2000.0
 20
-199.99999999999909
 30
0.0
 40
80.0
 50
50.805032573864182
 51
309.1949674261358
1001
ACDBBLOCKREPETAG
1070
     1
1071
       18
1005
126378
  0
LINE
  5
126379
  8
OBJECT
 10
2045.6618002273251
 20
-137.99999999999909
 30
0.0
 11
2080.0
 21
-137.99999999999909
 31
0.0
1001
ACDBBLOCKREPETAG
1070
     1
1071
       19
1005
126379
  0
LINE
  5
12637A
  8
OBJECT
 10
2045.6618002273251
 20
-261.99999999999909
 30
0.0
 11
2080.0
 21
-261.99999999999909
 31
0.0
1001
ACDBBLOCKREPETAG
1070
     1
1071
       20
1005
12637A
  0
POINT
  5
12637B
  8
DOTS
 10
2000.0
 20
-199.99999999999909
 30
0.0
1001
ACDBBLOCKREPETAG
1070
     1
1071
       21
1005
12637B
  0
LINE
  5
12637C
  8
OBJECT
 10
4923.0
 20
-3415.9999999999968
 30
0.0
 11
4923.0
 21
-3394.9999999999968
 31
0.0
1001
ACDBBLOCKREPETAG
1070
     1
1071
        0
1005
12637C
  0
LINE
  5
12637D
  8
OBJECT
 10
4923.0
 20
-3394.9999999999968
 30
0.0
 11
5077.0
 21
-3394.9999999999968
 31
0.0
1001
ACDBBLOCKREPETAG
1070
     1
1071
        1
1005
12637D
  0
LINE
  5
12637E
  8
HIDDEN
 10
4943.0
 20
-3464.9999999999968
 30
0.0
 11
5057.0
 21
-3464.9999999999968
 31
0.0
1001
ACDBBLOCKREPETAG
1070
     1
1071
        2
1005
12637E
  0
LINE
  5
12637F
  8
OBJECT
 10
5077.0
 20
-3394.9999999999968
 30
0.0
 11
5077.0
 21
-3415.9999999999968
 31
0.0
1001
ACDBBLOCKREPETAG
1070
     1
1071
        3
1005
12637F
  0
LINE
  5
126380
  8
OBJECT
 10
5077.0
 20
-3415.9999999999968
 30
0.0
 11
4923.0
 21
-3415.9999999999968
 31
0.0
1001
ACDBBLOCKREPETAG
1070
     1
1071
        4
1005
126380
  0
LINE
  5
126381
  8
CENTER
 10
5000.0
 20
-3379.9999999999968
 30
0.0
 11
5000.0
 21
-3614.9999999999968
 31
0.0
1001
ACDBBLOCKREPETAG
1070
     1
1071
        5
1005
126381
  0
LINE
  5
126382
  8
OBJECT
 10
4925.0
 20
-3478.9999999999968
 30
0.0
 11
4925.0
 21
-3602.9999999999968
 31
0.0
1001
ACDBBLOCKREPETAG
1070
     1
1071
        6
1005
126382
  0
LINE
  5
126383
  8
OBJECT
 10
4928.0
 20
-3415.9999999999968
 30
0.0
 11
4928.0
 21
-3478.9999999999968
 31
0.0
1001
ACDBBLOCKREPETAG
1070
     1
1071
        7
1005
126383
  0
LINE
  5
126384
  8
OBJECT
 10
5072.0
 20
-3478.9999999999968
 30
0.0
 11
5072.0
 21
-3415.9999999999968
 31
0.0
1001
ACDBBLOCKREPETAG
1070
     1
1071
        8
1005
126384
  0
LINE
  5
126385
  8
OBJECT
 10
5074.9999999997999
 20
-3602.9999999997758
 30
0.0
 11
5080.0
 21
-3602.9999999999968
 31
0.0
1001
ACDBBLOCKREPETAG
1070
     1
1071
        9
1005
126385
  0
LINE
  5
126386
  8
OBJECT
 10
5080.0
 20
-3478.9999999999968
 30
0.0
 11
4925.0
 21
-3478.9999999999968
 31
0.0
1001
ACDBBLOCKREPETAG
1070
     1
1071
       10
1005
126386
  0
ARC
  5
126387
  8
OBJECT
 10
5200.6872746716726
 20
-3594.408099410105
 30
0.0
 40
170.6350503965856
 50
137.44134459184301
 51
149.9194958133665
1001
ACDBBLOCKREPETAG
1070
     1
1071
       15
1005
126387
  0
ARC
  5
126388
  8
OBJECT
 10
5118.8455987040506
 20
-3550.8827266953631
 30
0.0
 40
78.072222021763665
 50
147.4551531037684
 51
164.66365997719291
1001
ACDBBLOCKREPETAG
1070
     1
1071
       16
1005
126388
  0
ARC
  5
126389
  8
OBJECT
 10
5085.7554349608727
 20
-3540.9999999999968
 30
0.0
 40
43.55353926885617
 50
165.6884523008477
 51
194.3115476991523
1001
ACDBBLOCKREPETAG
1070
     1
1071
       17
1005
126389
  0
ARC
  5
12638A
  8
OBJECT
 10
5200.6872746716726
 20
-3487.5919005898891
 30
0.0
 40
170.6350503965856
 50
210.0805041866335
 51
222.55865540815699
1001
ACDBBLOCKREPETAG
1070
     1
1071
       18
1005
12638A
  0
ARC
  5
12638B
  8
OBJECT
 10
5118.8455987040506
 20
-3531.1172733046319
 30
0.0
 40
78.072222021763665
 50
195.33634002280701
 51
212.5448468962316
1001
ACDBBLOCKREPETAG
1070
     1
1071
       19
1005
12638B
  0
POINT
  5
12638C
  8
DOTS
 10
5000.0
 20
-3599.9999999999968
 30
0.0
1001
ACDBBLOCKREPETAG
1070
     1
1071
      186
1005
12638C
  0
LINE
  5
12638D
  8
OBJECT
 10
4323.0
 20
-3415.9999999999968
 30
0.0
 11
4323.0
 21
-3394.9999999999968
 31
0.0
1001
ACDBBLOCKREPETAG
1070
     1
1071
       20
1005
12638D
  0
LINE
  5
12638E
  8
OBJECT
 10
4323.0
 20
-3394.9999999999968
 30
0.0
 11
4477.0
 21
-3394.9999999999968
 31
0.0
1001
ACDBBLOCKREPETAG
1070
     1
1071
       21
1005
12638E
  0
LINE
  5
12638F
  8
HIDDEN
 10
4343.0
 20
-3464.9999999999968
 30
0.0
 11
4457.0
 21
-3464.9999999999968
 31
0.0
1001
ACDBBLOCKREPETAG
1070
     1
1071
       22
1005
12638F
  0
LINE
  5
126390
  8
OBJECT
 10
4477.0
 20
-3394.9999999999968
 30
0.0
 11
4477.0
 21
-3415.9999999999968
 31
0.0
1001
ACDBBLOCKREPETAG
1070
     1
1071
       23
1005
126390
  0
LINE
  5
126391
  8
OBJECT
 10
4477.0
 20
-3415.9999999999968
 30
0.0
 11
4323.0
 21
-3415.9999999999968
 31
0.0
1001
ACDBBLOCKREPETAG
1070
     1
1071
       24
1005
126391
  0
LINE
  5
126392
  8
CENTER
 10
4400.0
 20
-3379.9999999999968
 30
0.0
 11
4400.0
 21
-3614.9999999999968
 31
0.0
1001
ACDBBLOCKREPETAG
1070
     1
1071
       25
1005
126392
  0
LINE
  5
126393
  8
OBJECT
 10
4325.0
 20
-3478.9999999999968
 30
0.0
 11
4325.0
 21
-3602.9999999999968
 31
0.0
1001
ACDBBLOCKREPETAG
1070
     1
1071
       26
1005
126393
  0
LINE
  5
126394
  8
OBJECT
 10
4328.0
 20
-3415.9999999999968
 30
0.0
 11
4328.0
 21
-3478.9999999999968
 31
0.0
1001
ACDBBLOCKREPETAG
1070
     1
1071
       27
1005
126394
  0
LINE
  5
126395
  8
OBJECT
 10
4472.0
 20
-3478.9999999999968
 30
0.0
 11
4472.0
 21
-3415.9999999999968
 31
0.0
1001
ACDBBLOCKREPETAG
1070
     1
1071
       28
1005
126395
  0
LINE
  5
126396
  8
OBJECT
 10
4475.0
 20
-3478.9999999999968
 30
0.0
 11
4325.0
 21
-3478.9999999999968
 31
0.0
1001
ACDBBLOCKREPETAG
1070
     1
1071
       30
1005
126396
  0
LINE
  5
126397
  8
OBJECT
 10
4475.0
 20
-3478.9999999999968
 30
0.0
 11
4475.0
 21
-3602.9999999999968
 31
0.0
1001
ACDBBLOCKREPETAG
1070
     1
1071
       34
1005
126397
  0
POINT
  5
126398
  8
DOTS
 10
4400.0
 20
-3599.9999999999968
 30
0.0
1001
ACDBBLOCKREPETAG
1070
     1
1071
      187
1005
126398
  0
LINE
  5
126399
  8
OBJECT
 10
3923.0
 20
-3415.9999999999968
 30
0.0
 11
3923.0
 21
-3394.9999999999968
 31
0.0
1001
ACDBBLOCKREPETAG
1070
     1
1071
        0
1005
126399
  0
LINE
  5
12639A
  8
OBJECT
 10
3923.0
 20
-3394.9999999999968
 30
0.0
 11
4077.0
 21
-3394.9999999999968
 31
0.0
1001
ACDBBLOCKREPETAG
1070
     1
1071
        1
1005
12639A
  0
LINE
  5
12639B
  8
HIDDEN
 10
3943.0
 20
-3464.9999999999968
 30
0.0
 11
4057.0
 21
-3464.9999999999968
 31
0.0
1001
ACDBBLOCKREPETAG
1070
     1
1071
        2
1005
12639B
  0
LINE
  5
12639C
  8
OBJECT
 10
4077.0
 20
-3394.9999999999968
 30
0.0
 11
4077.0
 21
-3415.9999999999968
 31
0.0
1001
ACDBBLOCKREPETAG
1070
     1
1071
        3
1005
12639C
  0
LINE
  5
12639D
  8
OBJECT
 10
4077.0
 20
-3415.9999999999968
 30
0.0
 11
3923.0
 21
-3415.9999999999968
 31
0.0
1001
ACDBBLOCKREPETAG
1070
     1
1071
        4
1005
12639D
  0
LINE
  5
12639E
  8
CENTER
 10
4000.0
 20
-3379.9999999999968
 30
0.0
 11
4000.0
 21
-3614.9999999999968
 31
0.0
1001
ACDBBLOCKREPETAG
1070
     1
1071
        5
1005
12639E
  0
LINE
  5
12639F
  8
OBJECT
 10
3925.0
 20
-3478.9999999999968
 30
0.0
 11
3925.0
 21
-3602.9999999999968
 31
0.0
1001
ACDBBLOCKREPETAG
1070
     1
1071
        6
1005
12639F
  0
LINE
  5
1263A0
  8
OBJECT
 10
3928.0
 20
-3415.9999999999968
 30
0.0
 11
3928.0
 21
-3478.9999999999968
 31
0.0
1001
ACDBBLOCKREPETAG
1070
     1
1071
        7
1005
1263A0
  0
LINE
  5
1263A1
  8
OBJECT
 10
4072.0
 20
-3478.9999999999968
 30
0.0
 11
4072.0
 21
-3415.9999999999968
 31
0.0
1001
ACDBBLOCKREPETAG
1070
     1
1071
        8
1005
1263A1
  0
LINE
  5
1263A2
  8
OBJECT
 10
4074.999999999799
 20
-3602.9999999997758
 30
0.0
 11
4080.0
 21
-3602.9999999999968
 31
0.0
1001
ACDBBLOCKREPETAG
1070
     1
1071
        9
1005
1263A2
  0
LINE
  5
1263A3
  8
OBJECT
 10
4080.0
 20
-3478.9999999999968
 30
0.0
 11
3925.0
 21
-3478.9999999999968
 31
0.0
1001
ACDBBLOCKREPETAG
1070
     1
1071
       10
1005
1263A3
  0
ARC
  5
1263A4
  8
OBJECT
 10
4200.6872746716726
 20
-3594.408099410105
 30
0.0
 40
170.6350503965856
 50
137.44134459184301
 51
149.9194958133665
1001
ACDBBLOCKREPETAG
1070
     1
1071
       15
1005
1263A4
  0
ARC
  5
1263A5
  8
OBJECT
 10
4118.8455987040506
 20
-3550.8827266953631
 30
0.0
 40
78.072222021763665
 50
147.4551531037684
 51
164.663659977186
1001
ACDBBLOCKREPETAG
1070
     1
1071
       16
1005
1263A5
  0
ARC
  5
1263A6
  8
OBJECT
 10
4085.7554349608722
 20
-3540.9999999999968
 30
0.0
 40
43.55353926885617
 50
165.6884523008477
 51
194.3115476991523
1001
ACDBBLOCKREPETAG
1070
     1
1071
       17
1005
1263A6
  0
ARC
  5
1263A7
  8
OBJECT
 10
4200.6872746716726
 20
-3487.5919005898891
 30
0.0
 40
170.6350503965856
 50
210.0805041866335
 51
222.55865540815699
1001
ACDBBLOCKREPETAG
1070
     1
1071
       18
1005
1263A7
  0
ARC
  5
1263A8
  8
OBJECT
 10
4118.8455987040506
 20
-3531.1172733046319
 30
0.0
 40
78.072222021763665
 50
195.33634002281391
 51
212.5448468962316
1001
ACDBBLOCKREPETAG
1070
     1
1071
       19
1005
1263A8
  0
POINT
  5
1263A9
  8
DOTS
 10
4000.0
 20
-3599.9999999999968
 30
0.0
1001
ACDBBLOCKREPETAG
1070
     1
1071
      186
1005
1263A9
  0
LINE
  5
1263AA
  8
OBJECT
 10
3323.0
 20
-3415.9999999999968
 30
0.0
 11
3323.0
 21
-3394.9999999999968
 31
0.0
1001
ACDBBLOCKREPETAG
1070
     1
1071
       20
1005
1263AA
  0
LINE
  5
1263AB
  8
OBJECT
 10
3323.0
 20
-3394.9999999999968
 30
0.0
 11
3477.0
 21
-3394.9999999999968
 31
0.0
1001
ACDBBLOCKREPETAG
1070
     1
1071
       21
1005
1263AB
  0
LINE
  5
1263AC
  8
HIDDEN
 10
3343.0
 20
-3464.9999999999968
 30
0.0
 11
3457.0
 21
-3464.9999999999968
 31
0.0
1001
ACDBBLOCKREPETAG
1070
     1
1071
       22
1005
1263AC
  0
LINE
  5
1263AD
  8
OBJECT
 10
3477.0
 20
-3394.9999999999968
 30
0.0
 11
3477.0
 21
-3415.9999999999968
 31
0.0
1001
ACDBBLOCKREPETAG
1070
     1
1071
       23
1005
1263AD
  0
LINE
  5
1263AE
  8
OBJECT
 10
3477.0
 20
-3415.9999999999968
 30
0.0
 11
3323.0
 21
-3415.9999999999968
 31
0.0
1001
ACDBBLOCKREPETAG
1070
     1
1071
       24
1005
1263AE
  0
LINE
  5
1263AF
  8
CENTER
 10
3400.0
 20
-3379.9999999999968
 30
0.0
 11
3400.0
 21
-3614.9999999999968
 31
0.0
1001
ACDBBLOCKREPETAG
1070
     1
1071
       25
1005
1263AF
  0
LINE
  5
1263B0
  8
OBJECT
 10
3325.0
 20
-3478.9999999999968
 30
0.0
 11
3325.0
 21
-3602.9999999999968
 31
0.0
1001
ACDBBLOCKREPETAG
1070
     1
1071
       26
1005
1263B0
  0
LINE
  5
1263B1
  8
OBJECT
 10
3328.0
 20
-3415.9999999999968
 30
0.0
 11
3328.0
 21
-3478.9999999999968
 31
0.0
1001
ACDBBLOCKREPETAG
1070
     1
1071
       27
1005
1263B1
  0
LINE
  5
1263B2
  8
OBJECT
 10
3472.0
 20
-3478.9999999999968
 30
0.0
 11
3472.0
 21
-3415.9999999999968
 31
0.0
1001
ACDBBLOCKREPETAG
1070
     1
1071
       28
1005
1263B2
  0
LINE
  5
1263B3
  8
OBJECT
 10
3475.0
 20
-3478.9999999999968
 30
0.0
 11
3325.0
 21
-3478.9999999999968
 31
0.0
1001
ACDBBLOCKREPETAG
1070
     1
1071
       30
1005
1263B3
  0
LINE
  5
1263B4
  8
OBJECT
 10
3475.0
 20
-3478.9999999999968
 30
0.0
 11
3475.0
 21
-3602.9999999999968
 31
0.0
1001
ACDBBLOCKREPETAG
1070
     1
1071
       34
1005
1263B4
  0
POINT
  5
1263B5
  8
DOTS
 10
3400.0
 20
-3599.9999999999968
 30
0.0
1001
ACDBBLOCKREPETAG
1070
     1
1071
      187
1005
1263B5
  0
LINE
  5
1263B6
  8
OBJECT
 10
2923.0
 20
-3415.9999999999968
 30
0.0
 11
2923.0
 21
-3394.9999999999968
 31
0.0
1001
ACDBBLOCKREPETAG
1070
     1
1071
        0
1005
1263B6
  0
LINE
  5
1263B7
  8
OBJECT
 10
2923.0
 20
-3394.9999999999968
 30
0.0
 11
3077.0
 21
-3394.9999999999968
 31
0.0
1001
ACDBBLOCKREPETAG
1070
     1
1071
        1
1005
1263B7
  0
LINE
  5
1263B8
  8
HIDDEN
 10
2943.0
 20
-3464.9999999999968
 30
0.0
 11
3057.0
 21
-3464.9999999999968
 31
0.0
1001
ACDBBLOCKREPETAG
1070
     1
1071
        2
1005
1263B8
  0
LINE
  5
1263B9
  8
OBJECT
 10
3077.0
 20
-3394.9999999999968
 30
0.0
 11
3077.0
 21
-3415.9999999999968
 31
0.0
1001
ACDBBLOCKREPETAG
1070
     1
1071
        3
1005
1263B9
  0
LINE
  5
1263BA
  8
OBJECT
 10
3077.0
 20
-3415.9999999999968
 30
0.0
 11
2923.0
 21
-3415.9999999999968
 31
0.0
1001
ACDBBLOCKREPETAG
1070
     1
1071
        4
1005
1263BA
  0
LINE
  5
1263BB
  8
CENTER
 10
3000.0
 20
-3379.9999999999968
 30
0.0
 11
3000.0
 21
-3614.9999999999968
 31
0.0
1001
ACDBBLOCKREPETAG
1070
     1
1071
        5
1005
1263BB
  0
LINE
  5
1263BC
  8
OBJECT
 10
2925.0
 20
-3478.9999999999968
 30
0.0
 11
2925.0
 21
-3602.9999999999968
 31
0.0
1001
ACDBBLOCKREPETAG
1070
     1
1071
        6
1005
1263BC
  0
LINE
  5
1263BD
  8
OBJECT
 10
2928.0
 20
-3415.9999999999968
 30
0.0
 11
2928.0
 21
-3478.9999999999968
 31
0.0
1001
ACDBBLOCKREPETAG
1070
     1
1071
        7
1005
1263BD
  0
LINE
  5
1263BE
  8
OBJECT
 10
3072.0
 20
-3478.9999999999968
 30
0.0
 11
3072.0
 21
-3415.9999999999968
 31
0.0
1001
ACDBBLOCKREPETAG
1070
     1
1071
        8
1005
1263BE
  0
LINE
  5
1263BF
  8
OBJECT
 10
3074.9999999997999
 20
-3602.9999999997758
 30
0.0
 11
3080.0
 21
-3602.9999999999968
 31
0.0
1001
ACDBBLOCKREPETAG
1070
     1
1071
        9
1005
1263BF
  0
LINE
  5
1263C0
  8
OBJECT
 10
3080.0
 20
-3478.9999999999968
 30
0.0
 11
2925.0
 21
-3478.9999999999968
 31
0.0
1001
ACDBBLOCKREPETAG
1070
     1
1071
       10
1005
1263C0
  0
ARC
  5
1263C1
  8
OBJECT
 10
3200.6872746716722
 20
-3594.408099410105
 30
0.0
 40
170.6350503965856
 50
137.44134459184301
 51
149.9194958133665
1001
ACDBBLOCKREPETAG
1070
     1
1071
       15
1005
1263C1
  0
ARC
  5
1263C2
  8
OBJECT
 10
3118.8455987040511
 20
-3550.8827266953631
 30
0.0
 40
78.072222021763665
 50
147.4551531037684
 51
164.663659977186
1001
ACDBBLOCKREPETAG
1070
     1
1071
       16
1005
1263C2
  0
ARC
  5
1263C3
  8
OBJECT
 10
3085.7554349608731
 20
-3540.9999999999968
 30
0.0
 40
43.55353926885617
 50
165.6884523008477
 51
194.3115476991523
1001
ACDBBLOCKREPETAG
1070
     1
1071
       17
1005
1263C3
  0
ARC
  5
1263C4
  8
OBJECT
 10
3200.6872746716722
 20
-3487.5919005898891
 30
0.0
 40
170.6350503965856
 50
210.0805041866335
 51
222.55865540815699
1001
ACDBBLOCKREPETAG
1070
     1
1071
       18
1005
1263C4
  0
ARC
  5
1263C5
  8
OBJECT
 10
3118.8455987040511
 20
-3531.1172733046319
 30
0.0
 40
78.072222021763665
 50
195.33634002281391
 51
212.5448468962316
1001
ACDBBLOCKREPETAG
1070
     1
1071
       19
1005
1263C5
  0
POINT
  5
1263C6
  8
DOTS
 10
3000.0
 20
-3599.9999999999968
 30
0.0
1001
ACDBBLOCKREPETAG
1070
     1
1071
      186
1005
1263C6
  0
LINE
  5
1263C7
  8
OBJECT
 10
2323.0
 20
-3415.9999999999968
 30
0.0
 11
2323.0
 21
-3394.9999999999968
 31
0.0
1001
ACDBBLOCKREPETAG
1070
     1
1071
       20
1005
1263C7
  0
LINE
  5
1263C8
  8
OBJECT
 10
2323.0
 20
-3394.9999999999968
 30
0.0
 11
2477.0
 21
-3394.9999999999968
 31
0.0
1001
ACDBBLOCKREPETAG
1070
     1
1071
       21
1005
1263C8
  0
LINE
  5
1263C9
  8
HIDDEN
 10
2343.0
 20
-3464.9999999999968
 30
0.0
 11
2457.0
 21
-3464.9999999999968
 31
0.0
1001
ACDBBLOCKREPETAG
1070
     1
1071
       22
1005
1263C9
  0
LINE
  5
1263CA
  8
OBJECT
 10
2477.0
 20
-3394.9999999999968
 30
0.0
 11
2477.0
 21
-3415.9999999999968
 31
0.0
1001
ACDBBLOCKREPETAG
1070
     1
1071
       23
1005
1263CA
  0
LINE
  5
1263CB
  8
OBJECT
 10
2477.0
 20
-3415.9999999999968
 30
0.0
 11
2323.0
 21
-3415.9999999999968
 31
0.0
1001
ACDBBLOCKREPETAG
1070
     1
1071
       24
1005
1263CB
  0
LINE
  5
1263CC
  8
CENTER
 10
2400.0
 20
-3379.9999999999968
 30
0.0
 11
2400.0
 21
-3614.9999999999968
 31
0.0
1001
ACDBBLOCKREPETAG
1070
     1
1071
       25
1005
1263CC
  0
LINE
  5
1263CD
  8
OBJECT
 10
2325.0
 20
-3478.9999999999968
 30
0.0
 11
2325.0
 21
-3602.9999999999968
 31
0.0
1001
ACDBBLOCKREPETAG
1070
     1
1071
       26
1005
1263CD
  0
LINE
  5
1263CE
  8
OBJECT
 10
2328.0
 20
-3415.9999999999968
 30
0.0
 11
2328.0
 21
-3478.9999999999968
 31
0.0
1001
ACDBBLOCKREPETAG
1070
     1
1071
       27
1005
1263CE
  0
LINE
  5
1263CF
  8
OBJECT
 10
2472.0
 20
-3478.9999999999968
 30
0.0
 11
2472.0
 21
-3415.9999999999968
 31
0.0
1001
ACDBBLOCKREPETAG
1070
     1
1071
       28
1005
1263CF
  0
LINE
  5
1263D0
  8
OBJECT
 10
2475.0
 20
-3478.9999999999968
 30
0.0
 11
2325.0
 21
-3478.9999999999968
 31
0.0
1001
ACDBBLOCKREPETAG
1070
     1
1071
       30
1005
1263D0
  0
LINE
  5
1263D1
  8
OBJECT
 10
2475.0
 20
-3478.9999999999968
 30
0.0
 11
2475.0
 21
-3602.9999999999968
 31
0.0
1001
ACDBBLOCKREPETAG
1070
     1
1071
       34
1005
1263D1
  0
POINT
  5
1263D2
  8
DOTS
 10
2400.0
 20
-3599.9999999999968
 30
0.0
1001
ACDBBLOCKREPETAG
1070
     1
1071
      187
1005
1263D2
  0
LINE
  5
1263D3
  8
OBJECT
 10
1923.0
 20
-3415.9999999999968
 30
0.0
 11
1923.0
 21
-3394.9999999999968
 31
0.0
1001
ACDBBLOCKREPETAG
1070
     1
1071
        0
1005
1263D3
  0
LINE
  5
1263D4
  8
OBJECT
 10
1923.0
 20
-3394.9999999999968
 30
0.0
 11
2077.0
 21
-3394.9999999999968
 31
0.0
1001
ACDBBLOCKREPETAG
1070
     1
1071
        1
1005
1263D4
  0
LINE
  5
1263D5
  8
HIDDEN
 10
1943.0
 20
-3464.9999999999968
 30
0.0
 11
2057.0
 21
-3464.9999999999968
 31
0.0
1001
ACDBBLOCKREPETAG
1070
     1
1071
        2
1005
1263D5
  0
LINE
  5
1263D6
  8
OBJECT
 10
2077.0
 20
-3394.9999999999968
 30
0.0
 11
2077.0
 21
-3415.9999999999968
 31
0.0
1001
ACDBBLOCKREPETAG
1070
     1
1071
        3
1005
1263D6
  0
LINE
  5
1263D7
  8
OBJECT
 10
2077.0
 20
-3415.9999999999968
 30
0.0
 11
1923.0
 21
-3415.9999999999968
 31
0.0
1001
ACDBBLOCKREPETAG
1070
     1
1071
        4
1005
1263D7
  0
LINE
  5
1263D8
  8
CENTER
 10
2000.0
 20
-3379.9999999999968
 30
0.0
 11
2000.0
 21
-3614.9999999999968
 31
0.0
1001
ACDBBLOCKREPETAG
1070
     1
1071
        5
1005
1263D8
  0
LINE
  5
1263D9
  8
OBJECT
 10
1925.0
 20
-3478.9999999999968
 30
0.0
 11
1925.0
 21
-3602.9999999999968
 31
0.0
1001
ACDBBLOCKREPETAG
1070
     1
1071
        6
1005
1263D9
  0
LINE
  5
1263DA
  8
OBJECT
 10
1928.0
 20
-3415.9999999999968
 30
0.0
 11
1928.0
 21
-3478.9999999999968
 31
0.0
1001
ACDBBLOCKREPETAG
1070
     1
1071
        7
1005
1263DA
  0
LINE
  5
1263DB
  8
OBJECT
 10
2072.0
 20
-3478.9999999999968
 30
0.0
 11
2072.0
 21
-3415.9999999999968
 31
0.0
1001
ACDBBLOCKREPETAG
1070
     1
1071
        8
1005
1263DB
  0
LINE
  5
1263DC
  8
OBJECT
 10
2074.999999999799
 20
-3602.9999999997758
 30
0.0
 11
2080.0
 21
-3602.9999999999968
 31
0.0
1001
ACDBBLOCKREPETAG
1070
     1
1071
        9
1005
1263DC
  0
LINE
  5
1263DD
  8
OBJECT
 10
2080.0
 20
-3478.9999999999968
 30
0.0
 11
1925.0
 21
-3478.9999999999968
 31
0.0
1001
ACDBBLOCKREPETAG
1070
     1
1071
       10
1005
1263DD
  0
ARC
  5
1263DE
  8
OBJECT
 10
2200.6872746716731
 20
-3594.408099410105
 30
0.0
 40
170.6350503965856
 50
137.44134459184301
 51
149.91949581335999
1001
ACDBBLOCKREPETAG
1070
     1
1071
       15
1005
1263DE
  0
ARC
  5
1263DF
  8
OBJECT
 10
2118.8455987040511
 20
-3550.8827266953631
 30
0.0
 40
78.072222021763665
 50
147.45515310377539
 51
164.663659977186
1001
ACDBBLOCKREPETAG
1070
     1
1071
       16
1005
1263DF
  0
ARC
  5
1263E0
  8
OBJECT
 10
2085.7554349608731
 20
-3540.9999999999968
 30
0.0
 40
43.55353926885617
 50
165.6884523008477
 51
194.3115476991523
1001
ACDBBLOCKREPETAG
1070
     1
1071
       17
1005
1263E0
  0
ARC
  5
1263E1
  8
OBJECT
 10
2200.6872746716731
 20
-3487.5919005898891
 30
0.0
 40
170.6350503965856
 50
210.08050418664001
 51
222.55865540815699
1001
ACDBBLOCKREPETAG
1070
     1
1071
       18
1005
1263E1
  0
ARC
  5
1263E2
  8
OBJECT
 10
2118.8455987040511
 20
-3531.1172733046319
 30
0.0
 40
78.072222021763665
 50
195.33634002281391
 51
212.54484689622461
1001
ACDBBLOCKREPETAG
1070
     1
1071
       19
1005
1263E2
  0
POINT
  5
1263E3
  8
DOTS
 10
2000.0
 20
-3599.9999999999968
 30
0.0
1001
ACDBBLOCKREPETAG
1070
     1
1071
      186
1005
1263E3
  0
LINE
  5
1263E4
  8
DIM
 10
2150.0
 20
-3241.9999999999959
 30
0.0
 11
2228.479620594459
 21
-3241.9999999999959
 31
0.0
  0
LINE
  5
1263E5
  8
DIM
 10
2150.0
 20
-3147.9999999999959
 30
0.0
 11
2228.479620594459
 21
-3147.9999999999959
 31
0.0
  0
LINE
  5
1263E6
  8
DIM
 10
2218.479620594459
 20
-3221.9999999999959
 30
0.0
 11
2218.479620594459
 21
-3167.9999999999959
 31
0.0
  0
INSERT
  5
1263E7
  8
DIM
  2
_OPEN30
 10
2218.479620594459
 20
-3241.9999999999959
 30
0.0
 41
20.0
 42
20.0
 43
20.0
 50
270.0
  0
INSERT
  5
1263E8
  8
DIM
  2
_OPEN30
 10
2218.479620594459
 20
-3147.9999999999959
 30
0.0
 41
20.0
 42
20.0
 43
20.0
 50
90.0
  0
INSERT
  5
1263E9
  8
OBJECT
  2
*U41
 10
0.0
 20
0.0
 30
0.0
  0
LINE
  5
1263EA
  8
DIM
 10
2150.0
 20
-3599.9999999999968
 30
0.0
 11
2226.8409284037339
 21
-3599.9999999999968
 31
0.0
  0
LINE
  5
1263EB
  8
DIM
 10
2165.0
 20
-3555.9999999999968
 30
0.0
 11
2226.8409284037339
 21
-3555.9999999999968
 31
0.0
  0
LINE
  5
1263EC
  8
DIM
 10
2216.840928403733
 20
-3619.9999999999968
 30
0.0
 11
2216.840928403733
 21
-3639.9999999999968
 31
0.0
  0
LINE
  5
1263ED
  8
DIM
 10
2216.840928403733
 20
-3535.9999999999968
 30
0.0
 11
2216.840928403733
 21
-3515.9999999999968
 31
0.0
  0
LINE
  5
1263EE
  8
DIM
 10
2216.840928403733
 20
-3599.9999999999968
 30
0.0
 11
2216.840928403733
 21
-3555.9999999999968
 31
0.0
  0
INSERT
  5
1263EF
  8
DIM
  2
_OPEN30
 10
2216.840928403733
 20
-3599.9999999999968
 30
0.0
 41
20.0
 42
20.0
 43
20.0
 50
90.0
  0
INSERT
  5
1263F0
  8
DIM
  2
_OPEN30
 10
2216.840928403733
 20
-3555.9999999999968
 30
0.0
 41
20.0
 42
20.0
 43
20.0
 50
270.0
  0
INSERT
  5
1263F1
  8
OBJECT
  2
*U42
 10
0.0
 20
0.0
 30
0.0
  0
LINE
  5
1263F2
  8
DIM
 10
2000.0
 20
-3089.9999999999959
 30
0.0
 11
2000.0
 21
-3057.208121984444
 31
0.0
  0
LINE
  5
1263F3
  8
DIM
 10
2140.0
 20
-3137.9999999999959
 30
0.0
 11
2140.0
 21
-3057.208121984444
 31
0.0
  0
LINE
  5
1263F4
  8
DIM
 10
2020.0
 20
-3067.208121984444
 30
0.0
 11
2120.0
 21
-3067.208121984444
 31
0.0
  0
INSERT
  5
1263F5
  8
DIM
  2
_OPEN30
 10
2000.0
 20
-3067.208121984444
 30
0.0
 41
20.0
 42
20.0
 43
20.0
 50
180.0
  0
INSERT
  5
1263F6
  8
DIM
  2
_OPEN30
 10
2140.0
 20
-3067.208121984444
 30
0.0
 41
20.0
 42
20.0
 43
20.0
  0
INSERT
  5
1263F7
  8
OBJECT
  2
*U43
 10
0.0
 20
0.0
 30
0.0
  0
TEXT
  5
1263F8
  8
SLIM
 10
2631.0
 20
-2972.50001604727
 30
0.0
 40
40.0
  1
C寸法
 41
0.75
  0
TEXT
  5
1263F9
  8
SLIM
 10
2631.0
 20
-2902.50001604727
 30
0.0
 40
40.0
  1
B寸法
 41
0.75
  0
TEXT
  5
1263FA
  8
SLIM
 10
2630.2857142857142
 20
-2832.50001604727
 30
0.0
 40
40.0
  1
A寸法
 41
0.75
  0
TEXT
  5
1263FB
  8
SLIM
 10
3159.2857142857151
 20
-2972.50001604727
 30
0.0
 40
40.0
  1
150
 41
0.75
  0
TEXT
  5
1263FC
  8
SLIM
 10
3029.2857142857151
 20
-2972.50001604727
 30
0.0
 40
40.0
  1
140
 41
0.75
  0
TEXT
  5
1263FD
  8
SLIM
 10
2769.2857142857151
 20
-2972.50001604727
 30
0.0
 40
40.0
  1
140
 41
0.75
  0
TEXT
  5
1263FE
  8
SLIM
 10
2899.2857142857151
 20
-2972.50001604727
 30
0.0
 40
40.0
  1
140
 41
0.75
  0
TEXT
  5
1263FF
  8
SLIM
 10
3170.7142857142858
 20
-2902.50001604727
 30
0.0
 40
40.0
  1
72
 41
0.75
  0
TEXT
  5
126400
  8
SLIM
 10
3041.4285714285711
 20
-2902.50001604727
 30
0.0
 40
40.0
  1
59
 41
0.75
  0
TEXT
  5
126401
  8
SLIM
 10
2780.0
 20
-2902.50001604727
 30
0.0
 40
40.0
  1
44
 41
0.75
  0
TEXT
  5
126402
  8
SLIM
 10
2910.7142857142858
 20
-2902.50001604727
 30
0.0
 40
40.0
  1
52
 41
0.75
  0
TEXT
  5
126403
  8
SLIM
 10
2891.0
 20
-2707.50001604727
 30
0.0
 40
40.0
  1
横枝管サイズ
 41
0.75
  0
TEXT
  5
126404
  8
SLIM
 10
3136.2857142857151
 20
-2762.50001604727
 30
0.0
 40
30.0
  1
100（4）
 41
0.75
  0
TEXT
  5
126405
  8
SLIM
 10
3014.857142857144
 20
-2762.50001604727
 30
0.0
 40
30.0
  1
75（3）
 41
0.75
  0
TEXT
  5
126406
  8
SLIM
 10
2884.8571428571431
 20
-2762.50001604727
 30
0.0
 40
30.0
  1
65（2）
 41
0.75
  0
TEXT
  5
126407
  8
SLIM
 10
2757.0
 20
-2762.50001604727
 30
0.0
 40
30.0
  1
50（1）
 41
0.75
  0
TEXT
  5
126408
  8
SLIM
 10
3159.2857142857151
 20
-2832.50001604727
 30
0.0
 40
40.0
  1
150
 41
0.75
  0
TEXT
  5
126409
  8
SLIM
 10
3028.571428571428
 20
-2832.50001604727
 30
0.0
 40
40.0
  1
124
 41
0.75
  0
TEXT
  5
12640A
  8
SLIM
 10
2780.0
 20
-2832.50001604727
 30
0.0
 40
40.0
  1
94
 41
0.75
  0
TEXT
  5
12640B
  8
SLIM
 10
2902.1428571428569
 20
-2832.50001604727
 30
0.0
 40
40.0
  1
110
 41
0.75
  0
TEXT
  5
12640C
  8
SLIM
 10
1849.9999999999991
 20
-2732.5
 30
0.0
 40
75.0
  1
枝管サイズ毎の形状
 41
0.75
  0
LINE
  5
12640D
  8
OBJECT
 10
5150.0
 20
-3452.9999999999968
 30
0.0
 11
5143.0
 21
-3452.9999999999968
 31
0.0
1001
ACDBBLOCKREPETAG
1070
     1
1071
       64
1005
12640D
  0
LINE
  5
12640E
  8
OBJECT
 10
5143.0
 20
-3452.9999999999968
 30
0.0
 11
5143.0
 21
-3599.9999999999968
 31
0.0
1001
ACDBBLOCKREPETAG
1070
     1
1071
       65
1005
12640E
  0
LINE
  5
12640F
  8
OBJECT
 10
5101.5
 20
-3455.9999999999968
 30
0.0
 11
5101.5
 21
-3599.9999999999968
 31
0.0
1001
ACDBBLOCKREPETAG
1070
     1
1071
       66
1005
12640F
  0
LINE
  5
126410
  8
OBJECT
 10
5090.0
 20
-3462.4999999999968
 30
0.0
 11
5090.0
 21
-3593.4999999999968
 31
0.0
1001
ACDBBLOCKREPETAG
1070
     1
1071
       67
1005
126410
  0
LINE
  5
126411
  8
OBJECT
 10
5086.0
 20
-3534.5000000000041
 30
0.0
 11
5086.0
 21
-3599.9999999999968
 31
0.0
1001
ACDBBLOCKREPETAG
1070
     1
1071
       68
1005
126411
  0
LINE
  5
126412
  8
OBJECT
 10
5150.0
 20
-3599.9999999999968
 30
0.0
 11
5150.0
 21
-3452.9999999999968
 31
0.0
1001
ACDBBLOCKREPETAG
1070
     1
1071
       69
1005
126412
  0
LINE
  5
126413
  8
CENTER
 10
5165.0
 20
-3527.9999999999968
 30
0.0
 11
5070.4144144144157
 21
-3527.9999999999968
 31
0.0
1001
ACDBBLOCKREPETAG
1070
     1
1071
       70
1005
126413
  0
LINE
  5
126414
  8
OBJECT
 10
5083.0000000000045
 20
-3602.9999999999968
 30
0.0
 11
5080.0
 21
-3602.9999999999968
 31
0.0
1001
ACDBBLOCKREPETAG
1070
     1
1071
       71
1005
126414
  0
ARC
  5
126415
  8
OBJECT
 10
5091.8815171830656
 20
-3601.4555591801432
 30
0.0
 40
6.0
 50
60.52411099686767
 51
170.6927439126847
1001
ACDBBLOCKREPETAG
1070
     1
1071
       72
1005
126415
  0
ARC
  5
126416
  8
OBJECT
 10
5083.0
 20
-3599.9999999999968
 30
0.0
 40
3.0
 50
270.0
 51
350.69274391268482
1001
ACDBBLOCKREPETAG
1070
     1
1071
       73
1005
126416
  0
LINE
  5
126417
  8
OBJECT
 10
5081.0
 20
-3478.9999999999968
 30
0.0
 11
5080.0
 21
-3478.9999999999968
 31
0.0
1001
ACDBBLOCKREPETAG
1070
     1
1071
       74
1005
126417
  0
LINE
  5
126418
  8
OBJECT
 10
5150.0
 20
-3599.9999999999968
 30
0.0
 11
5101.5
 21
-3599.9999999999968
 31
0.0
1001
ACDBBLOCKREPETAG
1070
     1
1071
       75
1005
126418
  0
LINE
  5
126419
  8
OBJECT
 10
5101.5
 20
-3455.9999999999968
 30
0.0
 11
5090.0
 21
-3462.4999999999968
 31
0.0
1001
ACDBBLOCKREPETAG
1070
     1
1071
       76
1005
126419
  0
LINE
  5
12641A
  8
OBJECT
 10
5143.0
 20
-3455.9999999999968
 30
0.0
 11
5101.5
 21
-3455.9999999999968
 31
0.0
1001
ACDBBLOCKREPETAG
1070
     1
1071
       77
1005
12641A
  0
LINE
  5
12641B
  8
OBJECT
 10
5086.0
 20
-3534.5000000000041
 30
0.0
 11
5081.0
 21
-3478.9999999999968
 31
0.0
1001
ACDBBLOCKREPETAG
1070
     1
1071
       78
1005
12641B
  0
LINE
  5
12641C
  8
OBJECT
 10
5090.0
 20
-3462.4999999999968
 30
0.0
 11
5081.0
 21
-3478.9999999999968
 31
0.0
1001
ACDBBLOCKREPETAG
1070
     1
1071
       79
1005
12641C
  0
LINE
  5
12641D
  8
OBJECT
 10
5101.5
 20
-3599.9999999999968
 30
0.0
 11
5094.8338607230708
 21
-3596.232182147819
 31
0.0
1001
ACDBBLOCKREPETAG
1070
     1
1071
       80
1005
12641D
  0
LINE
  5
12641E
  8
HIDDEN
 10
5098.0
 20
-3584.9999999999968
 30
0.0
 11
5098.0
 21
-3470.9999999999968
 31
0.0
1001
ACDBBLOCKREPETAG
1070
     1
1071
       81
1005
12641E
  0
LINE
  5
12641F
  8
OBJECT
 10
5150.0
 20
-3119.9999999999959
 30
0.0
 11
5143.0
 21
-3119.9999999999959
 31
0.0
1001
ACDBBLOCKREPETAG
1070
     1
1071
       67
1005
12641F
  0
LINE
  5
126420
  8
OBJECT
 10
5143.0
 20
-3119.9999999999959
 30
0.0
 11
5143.0
 21
-3269.9999999999959
 31
0.0
1001
ACDBBLOCKREPETAG
1070
     1
1071
       68
1005
126420
  0
LINE
  5
126421
  8
OBJECT
 10
5101.5
 20
-3122.9999999999959
 30
0.0
 11
5101.5
 21
-3266.9999999999959
 31
0.0
1001
ACDBBLOCKREPETAG
1070
     1
1071
       69
1005
126421
  0
LINE
  5
126422
  8
OBJECT
 10
5090.0
 20
-3129.4999999999959
 30
0.0
 11
5090.0
 21
-3260.4999999999959
 31
0.0
1001
ACDBBLOCKREPETAG
1070
     1
1071
       70
1005
126422
  0
LINE
  5
126423
  8
OBJECT
 10
5143.0
 20
-3269.9999999999959
 30
0.0
 11
5150.0
 21
-3269.9999999999959
 31
0.0
1001
ACDBBLOCKREPETAG
1070
     1
1071
       71
1005
126423
  0
LINE
  5
126424
  8
OBJECT
 10
5150.0
 20
-3269.9999999999959
 30
0.0
 11
5150.0
 21
-3119.9999999999959
 31
0.0
1001
ACDBBLOCKREPETAG
1070
     1
1071
       72
1005
126424
  0
LINE
  5
126425
  8
HIDDEN
 10
5098.0
 20
-3251.9999999999959
 30
0.0
 11
5098.0
 21
-3137.9999999999959
 31
0.0
1001
ACDBBLOCKREPETAG
1070
     1
1071
       73
1005
126425
  0
LINE
  5
126426
  8
CENTER
 10
5165.0
 20
-3194.9999999999959
 30
0.0
 11
5080.0
 21
-3194.9999999999959
 31
0.0
1001
ACDBBLOCKREPETAG
1070
     1
1071
       74
1005
126426
  0
LINE
  5
126427
  8
OBJECT
 10
5086.0
 20
-3256.9999999999959
 30
0.0
 11
5080.0
 21
-3256.9999999999959
 31
0.0
1001
ACDBBLOCKREPETAG
1070
     1
1071
       75
1005
126427
  0
LINE
  5
126428
  8
OBJECT
 10
5143.0
 20
-3266.9999999999959
 30
0.0
 11
5101.5
 21
-3266.9999999999959
 31
0.0
1001
ACDBBLOCKREPETAG
1070
     1
1071
       76
1005
126428
  0
LINE
  5
126429
  8
OBJECT
 10
5101.5
 20
-3266.9999999999959
 30
0.0
 11
5090.0
 21
-3260.4999999999959
 31
0.0
1001
ACDBBLOCKREPETAG
1070
     1
1071
       77
1005
126429
  0
LINE
  5
12642A
  8
OBJECT
 10
5090.0
 20
-3260.4999999999959
 30
0.0
 11
5086.0
 21
-3256.9999999999959
 31
0.0
1001
ACDBBLOCKREPETAG
1070
     1
1071
       78
1005
12642A
  0
LINE
  5
12642B
  8
OBJECT
 10
5101.5
 20
-3122.9999999999959
 30
0.0
 11
5090.0
 21
-3129.4999999999959
 31
0.0
1001
ACDBBLOCKREPETAG
1070
     1
1071
       79
1005
12642B
  0
LINE
  5
12642C
  8
OBJECT
 10
5090.0
 20
-3129.4999999999959
 30
0.0
 11
5086.0
 21
-3132.9999999999959
 31
0.0
1001
ACDBBLOCKREPETAG
1070
     1
1071
       80
1005
12642C
  0
ARC
  5
12642D
  8
OBJECT
 10
5467.9000000000005
 20
-3194.9999999999959
 30
0.0
 40
386.89999999999998
 50
170.77870136260421
 51
189.22129863739571
1001
ACDBBLOCKREPETAG
1070
     1
1071
       81
1005
12642D
  0
LINE
  5
12642E
  8
OBJECT
 10
5086.0
 20
-3132.9999999999959
 30
0.0
 11
5080.0
 21
-3132.9999999999959
 31
0.0
1001
ACDBBLOCKREPETAG
1070
     1
1071
       82
1005
12642E
  0
LINE
  5
12642F
  8
OBJECT
 10
5143.0
 20
-3122.9999999999959
 30
0.0
 11
5101.5
 21
-3122.9999999999959
 31
0.0
1001
ACDBBLOCKREPETAG
1070
     1
1071
       83
1005
12642F
  0
TEXT
  5
126430
  8
SLIM
 10
4884.25
 20
-3717.4999999999959
 30
0.0
 40
35.0
  1
通常枝100（4）
 41
0.75
  0
LINE
  5
126431
  8
CENTER
 10
4477.0
 20
-3540.9999999999968
 30
0.0
 11
4323.0
 21
-3540.9999999999968
 31
0.0
1001
ACDBBLOCKREPETAG
1070
     1
1071
       17
1005
126431
  0
CIRCLE
  5
126432
  8
OBJECT
 10
4400.0
 20
-3540.9999999999968
 30
0.0
 40
41.5
1001
ACDBBLOCKREPETAG
1070
     1
1071
       19
1005
126432
  0
CIRCLE
  5
126433
  8
OBJECT
 10
4400.0
 20
-3540.9999999999968
 30
0.0
 40
54.0
1001
ACDBBLOCKREPETAG
1070
     1
1071
       20
1005
126433
  0
ARC
  5
126434
  8
OBJECT
 10
4400.0
 20
-3540.9999999999968
 30
0.0
 40
62.0
 50
287.89655112921122
 51
252.1034488707887
1001
ACDBBLOCKREPETAG
1070
     1
1071
       21
1005
126434
  0
LINE
  5
126435
  8
OBJECT
 10
4380.947441116743
 20
-3599.9999999999968
 30
0.0
 11
4419.052558883257
 21
-3599.9999999999968
 31
0.0
1001
ACDBBLOCKREPETAG
1070
     1
1071
       22
1005
126435
  0
LINE
  5
126436
  8
OBJECT
 10
4133.0
 20
-3478.9999999999968
 30
0.0
 11
4140.0
 21
-3478.9999999999968
 31
0.0
1001
ACDBBLOCKREPETAG
1070
     1
1071
       45
1005
126436
  0
LINE
  5
126437
  8
OBJECT
 10
4140.0
 20
-3478.9999999999968
 30
0.0
 11
4140.0
 21
-3599.9999999999968
 31
0.0
1001
ACDBBLOCKREPETAG
1070
     1
1071
       46
1005
126437
  0
LINE
  5
126438
  8
OBJECT
 10
4133.0
 20
-3599.9999999999968
 30
0.0
 11
4133.0
 21
-3478.9999999999968
 31
0.0
1001
ACDBBLOCKREPETAG
1070
     1
1071
       47
1005
126438
  0
LINE
  5
126439
  8
CENTER
 10
4155.0
 20
-3540.9999999999968
 30
0.0
 11
4071.0
 21
-3540.9999999999968
 31
0.0
1001
ACDBBLOCKREPETAG
1070
     1
1071
       48
1005
126439
  0
LINE
  5
12643A
  8
OBJECT
 10
4133.0
 20
-3481.9999999999968
 30
0.0
 11
4097.0
 21
-3481.9999999999968
 31
0.0
1001
ACDBBLOCKREPETAG
1070
     1
1071
       49
1005
12643A
  0
LINE
  5
12643B
  8
OBJECT
 10
4097.0
 20
-3481.9999999999968
 30
0.0
 11
4097.0
 21
-3599.9999999999968
 31
0.0
1001
ACDBBLOCKREPETAG
1070
     1
1071
       50
1005
12643B
  0
LINE
  5
12643C
  8
OBJECT
 10
4097.0
 20
-3599.9999999999968
 30
0.0
 11
4140.0
 21
-3599.9999999999968
 31
0.0
1001
ACDBBLOCKREPETAG
1070
     1
1071
       51
1005
12643C
  0
LINE
  5
12643D
  8
OBJECT
 10
4093.0
 20
-3486.4999999999968
 30
0.0
 11
4086.0
 21
-3486.4999999999968
 31
0.0
1001
ACDBBLOCKREPETAG
1070
     1
1071
       52
1005
12643D
  0
LINE
  5
12643E
  8
OBJECT
 10
4086.0
 20
-3595.4999999999968
 30
0.0
 11
4093.0
 21
-3595.4999999999968
 31
0.0
1001
ACDBBLOCKREPETAG
1070
     1
1071
       53
1005
12643E
  0
LINE
  5
12643F
  8
OBJECT
 10
4093.0
 20
-3595.4999999999968
 30
0.0
 11
4093.0
 21
-3486.4999999999968
 31
0.0
1001
ACDBBLOCKREPETAG
1070
     1
1071
       54
1005
12643F
  0
LINE
  5
126440
  8
OBJECT
 10
4097.0
 20
-3481.9999999999968
 30
0.0
 11
4093.0
 21
-3486.4999999999968
 31
0.0
1001
ACDBBLOCKREPETAG
1070
     1
1071
       55
1005
126440
  0
LINE
  5
126441
  8
OBJECT
 10
4097.0
 20
-3599.9999999999968
 30
0.0
 11
4093.0
 21
-3595.4999999999968
 31
0.0
1001
ACDBBLOCKREPETAG
1070
     1
1071
       56
1005
126441
  0
LINE
  5
126442
  8
OBJECT
 10
4083.0
 20
-3478.9999999999968
 30
0.0
 11
4080.0
 21
-3478.9999999999968
 31
0.0
1001
ACDBBLOCKREPETAG
1070
     1
1071
       57
1005
126442
  0
ARC
  5
126443
  8
OBJECT
 10
4083.0
 20
-3481.9999999999968
 30
0.0
 40
3.0
 50
0.0
 51
90.0
1001
ACDBBLOCKREPETAG
1070
     1
1071
       58
1005
126443
  0
LINE
  5
126444
  8
OBJECT
 10
4080.0
 20
-3602.9999999999968
 30
0.0
 11
4083.0
 21
-3602.9999999999968
 31
0.0
1001
ACDBBLOCKREPETAG
1070
     1
1071
       59
1005
126444
  0
ARC
  5
126445
  8
OBJECT
 10
4083.0
 20
-3599.9999999999968
 30
0.0
 40
3.0
 50
270.0
 51
0.0
1001
ACDBBLOCKREPETAG
1070
     1
1071
       60
1005
126445
  0
LINE
  5
126446
  8
OBJECT
 10
4086.0
 20
-3599.9999999999968
 30
0.0
 11
4086.0
 21
-3481.9999999999968
 31
0.0
1001
ACDBBLOCKREPETAG
1070
     1
1071
       61
1005
126446
  0
LINE
  5
126447
  8
HIDDEN
 10
4088.0
 20
-3496.4999999999968
 30
0.0
 11
4088.0
 21
-3585.4999999999968
 31
0.0
1001
ACDBBLOCKREPETAG
1070
     1
1071
       63
1005
126447
  0
LINE
  5
126448
  8
OBJECT
 10
4133.0
 20
-3132.9999999999959
 30
0.0
 11
4140.0
 21
-3132.9999999999959
 31
0.0
1001
ACDBBLOCKREPETAG
1070
     1
1071
       47
1005
126448
  0
LINE
  5
126449
  8
OBJECT
 10
4140.0
 20
-3132.9999999999959
 30
0.0
 11
4140.0
 21
-3256.9999999999959
 31
0.0
1001
ACDBBLOCKREPETAG
1070
     1
1071
       48
1005
126449
  0
LINE
  5
12644A
  8
OBJECT
 10
4140.0
 20
-3256.9999999999959
 30
0.0
 11
4133.0
 21
-3256.9999999999959
 31
0.0
1001
ACDBBLOCKREPETAG
1070
     1
1071
       49
1005
12644A
  0
LINE
  5
12644B
  8
OBJECT
 10
4133.0
 20
-3256.9999999999959
 30
0.0
 11
4133.0
 21
-3132.9999999999959
 31
0.0
1001
ACDBBLOCKREPETAG
1070
     1
1071
       50
1005
12644B
  0
LINE
  5
12644C
  8
CENTER
 10
4155.0
 20
-3194.9999999999959
 30
0.0
 11
4080.0
 21
-3194.9999999999959
 31
0.0
1001
ACDBBLOCKREPETAG
1070
     1
1071
       51
1005
12644C
  0
LINE
  5
12644D
  8
OBJECT
 10
4133.0
 20
-3135.9999999999959
 30
0.0
 11
4097.0
 21
-3135.9999999999959
 31
0.0
1001
ACDBBLOCKREPETAG
1070
     1
1071
       52
1005
12644D
  0
LINE
  5
12644E
  8
OBJECT
 10
4097.0
 20
-3135.9999999999959
 30
0.0
 11
4097.0
 21
-3253.9999999999959
 31
0.0
1001
ACDBBLOCKREPETAG
1070
     1
1071
       53
1005
12644E
  0
LINE
  5
12644F
  8
OBJECT
 10
4097.0
 20
-3253.9999999999959
 30
0.0
 11
4133.0
 21
-3253.9999999999959
 31
0.0
1001
ACDBBLOCKREPETAG
1070
     1
1071
       54
1005
12644F
  0
LINE
  5
126450
  8
OBJECT
 10
4093.0
 20
-3140.4999999999959
 30
0.0
 11
4086.0
 21
-3140.4999999999959
 31
0.0
1001
ACDBBLOCKREPETAG
1070
     1
1071
       55
1005
126450
  0
LINE
  5
126451
  8
OBJECT
 10
4086.0
 20
-3249.4999999999959
 30
0.0
 11
4093.0
 21
-3249.4999999999959
 31
0.0
1001
ACDBBLOCKREPETAG
1070
     1
1071
       56
1005
126451
  0
LINE
  5
126452
  8
OBJECT
 10
4093.0
 20
-3249.4999999999959
 30
0.0
 11
4093.0
 21
-3140.4999999999959
 31
0.0
1001
ACDBBLOCKREPETAG
1070
     1
1071
       57
1005
126452
  0
LINE
  5
126453
  8
OBJECT
 10
4097.0
 20
-3135.9999999999959
 30
0.0
 11
4093.0
 21
-3140.4999999999959
 31
0.0
1001
ACDBBLOCKREPETAG
1070
     1
1071
       58
1005
126453
  0
LINE
  5
126454
  8
OBJECT
 10
4097.0
 20
-3253.9999999999959
 30
0.0
 11
4093.0
 21
-3249.4999999999959
 31
0.0
1001
ACDBBLOCKREPETAG
1070
     1
1071
       59
1005
126454
  0
LINE
  5
126455
  8
OBJECT
 10
4083.0
 20
-3132.9999999999959
 30
0.0
 11
4080.0
 21
-3132.9999999999959
 31
0.0
1001
ACDBBLOCKREPETAG
1070
     1
1071
       60
1005
126455
  0
ARC
  5
126456
  8
OBJECT
 10
4083.0
 20
-3135.9999999999959
 30
0.0
 40
3.0
 50
0.0
 51
90.0
1001
ACDBBLOCKREPETAG
1070
     1
1071
       61
1005
126456
  0
LINE
  5
126457
  8
OBJECT
 10
4080.0
 20
-3256.9999999999959
 30
0.0
 11
4083.0
 21
-3256.9999999999959
 31
0.0
1001
ACDBBLOCKREPETAG
1070
     1
1071
       62
1005
126457
  0
ARC
  5
126458
  8
OBJECT
 10
4083.0
 20
-3253.9999999999959
 30
0.0
 40
3.0
 50
270.0
 51
0.0
1001
ACDBBLOCKREPETAG
1070
     1
1071
       63
1005
126458
  0
LINE
  5
126459
  8
OBJECT
 10
4086.0
 20
-3253.9999999999959
 30
0.0
 11
4086.0
 21
-3135.9999999999959
 31
0.0
1001
ACDBBLOCKREPETAG
1070
     1
1071
       64
1005
126459
  0
LINE
  5
12645A
  8
HIDDEN
 10
4088.0
 20
-3150.4999999999959
 30
0.0
 11
4088.0
 21
-3239.4999999999959
 31
0.0
1001
ACDBBLOCKREPETAG
1070
     1
1071
       65
1005
12645A
  0
TEXT
  5
12645B
  8
SLIM
 10
3894.25
 20
-3717.4999999999959
 30
0.0
 40
35.0
  1
通常枝75（3）
 41
0.75
  0
CIRCLE
  5
12645C
  8
OBJECT
 10
3400.0
 20
-3547.9999999999968
 30
0.0
 40
35.5
1001
ACDBBLOCKREPETAG
1070
     1
1071
       10
1005
12645C
  0
CIRCLE
  5
12645D
  8
OBJECT
 10
3400.0
 20
-3540.9999999999968
 30
0.0
 40
62.0
1001
ACDBBLOCKREPETAG
1070
     1
1071
       11
1005
12645D
  0
LINE
  5
12645E
  8
CENTER
 10
3330.0
 20
-3547.9999999999968
 30
0.0
 11
3470.0
 21
-3547.9999999999968
 31
0.0
1001
ACDBBLOCKREPETAG
1070
     1
1071
       12
1005
12645E
  0
CIRCLE
  5
12645F
  8
OBJECT
 10
3400.0
 20
-3547.9999999999968
 30
0.0
 40
47.0
1001
ACDBBLOCKREPETAG
1070
     1
1071
       14
1005
12645F
  0
ARC
  5
126460
  8
OBJECT
 10
3400.0
 20
-3547.9999999999968
 30
0.0
 40
55.0
 50
289.01126526011359
 51
250.98873473988641
1001
ACDBBLOCKREPETAG
1070
     1
1071
       15
1005
126460
  0
LINE
  5
126461
  8
OBJECT
 10
3382.0835271328328
 20
-3599.9999999999968
 30
0.0
 11
3417.9164728671681
 21
-3599.9999999999968
 31
0.0
1001
ACDBBLOCKREPETAG
1070
     1
1071
       16
1005
126461
  0
LINE
  5
126462
  8
OBJECT
 10
3133.0
 20
-3492.9999999999968
 30
0.0
 11
3140.0
 21
-3492.9999999999968
 31
0.0
1001
ACDBBLOCKREPETAG
1070
     1
1071
       26
1005
126462
  0
LINE
  5
126463
  8
OBJECT
 10
3140.0
 20
-3492.9999999999968
 30
0.0
 11
3140.0
 21
-3599.9999999999968
 31
0.0
1001
ACDBBLOCKREPETAG
1070
     1
1071
       27
1005
126463
  0
LINE
  5
126464
  8
OBJECT
 10
3133.0
 20
-3599.9999999999968
 30
0.0
 11
3133.0
 21
-3492.9999999999968
 31
0.0
1001
ACDBBLOCKREPETAG
1070
     1
1071
       28
1005
126464
  0
LINE
  5
126465
  8
CENTER
 10
3155.0
 20
-3547.9999999999968
 30
0.0
 11
3071.0
 21
-3547.9999999999968
 31
0.0
1001
ACDBBLOCKREPETAG
1070
     1
1071
       29
1005
126465
  0
LINE
  5
126466
  8
OBJECT
 10
3133.0
 20
-3495.9999999999968
 30
0.0
 11
3097.0
 21
-3495.9999999999968
 31
0.0
1001
ACDBBLOCKREPETAG
1070
     1
1071
       30
1005
126466
  0
LINE
  5
126467
  8
OBJECT
 10
3097.0
 20
-3495.9999999999968
 30
0.0
 11
3097.0
 21
-3599.9999999999968
 31
0.0
1001
ACDBBLOCKREPETAG
1070
     1
1071
       31
1005
126467
  0
LINE
  5
126468
  8
OBJECT
 10
3097.0
 20
-3599.9999999999968
 30
0.0
 11
3140.0
 21
-3599.9999999999968
 31
0.0
1001
ACDBBLOCKREPETAG
1070
     1
1071
       32
1005
126468
  0
LINE
  5
126469
  8
OBJECT
 10
3093.0
 20
-3500.4999999999968
 30
0.0
 11
3086.0
 21
-3500.4999999999968
 31
0.0
1001
ACDBBLOCKREPETAG
1070
     1
1071
       33
1005
126469
  0
LINE
  5
12646A
  8
OBJECT
 10
3086.0
 20
-3595.4999999999968
 30
0.0
 11
3093.0
 21
-3595.4999999999968
 31
0.0
1001
ACDBBLOCKREPETAG
1070
     1
1071
       34
1005
12646A
  0
LINE
  5
12646B
  8
OBJECT
 10
3093.0
 20
-3595.4999999999968
 30
0.0
 11
3093.0
 21
-3500.4999999999968
 31
0.0
1001
ACDBBLOCKREPETAG
1070
     1
1071
       35
1005
12646B
  0
LINE
  5
12646C
  8
OBJECT
 10
3097.0
 20
-3495.9999999999968
 30
0.0
 11
3093.0
 21
-3500.4999999999968
 31
0.0
1001
ACDBBLOCKREPETAG
1070
     1
1071
       36
1005
12646C
  0
LINE
  5
12646D
  8
OBJECT
 10
3097.0
 20
-3599.9999999999968
 30
0.0
 11
3093.0
 21
-3595.4999999999968
 31
0.0
1001
ACDBBLOCKREPETAG
1070
     1
1071
       37
1005
12646D
  0
LINE
  5
12646E
  8
OBJECT
 10
3083.0
 20
-3478.9999999999968
 30
0.0
 11
3080.0
 21
-3478.9999999999968
 31
0.0
1001
ACDBBLOCKREPETAG
1070
     1
1071
       38
1005
12646E
  0
ARC
  5
12646F
  8
OBJECT
 10
3083.0
 20
-3481.9999999999968
 30
0.0
 40
3.0
 50
0.0
 51
90.0
1001
ACDBBLOCKREPETAG
1070
     1
1071
       39
1005
12646F
  0
LINE
  5
126470
  8
OBJECT
 10
3080.0
 20
-3602.9999999999968
 30
0.0
 11
3083.0
 21
-3602.9999999999968
 31
0.0
1001
ACDBBLOCKREPETAG
1070
     1
1071
       40
1005
126470
  0
ARC
  5
126471
  8
OBJECT
 10
3083.0
 20
-3599.9999999999968
 30
0.0
 40
3.0
 50
270.0
 51
0.0
1001
ACDBBLOCKREPETAG
1070
     1
1071
       41
1005
126471
  0
LINE
  5
126472
  8
OBJECT
 10
3086.0
 20
-3599.9999999999968
 30
0.0
 11
3086.0
 21
-3481.9999999999968
 31
0.0
1001
ACDBBLOCKREPETAG
1070
     1
1071
       42
1005
126472
  0
LINE
  5
126473
  8
HIDDEN
 10
3088.0
 20
-3509.9999999999968
 30
0.0
 11
3088.0
 21
-3585.9999999999968
 31
0.0
1001
ACDBBLOCKREPETAG
1070
     1
1071
       43
1005
126473
  0
LINE
  5
126474
  8
OBJECT
 10
3133.0
 20
-3139.9999999999959
 30
0.0
 11
3140.0
 21
-3139.9999999999959
 31
0.0
1001
ACDBBLOCKREPETAG
1070
     1
1071
       27
1005
126474
  0
LINE
  5
126475
  8
OBJECT
 10
3140.0
 20
-3139.9999999999959
 30
0.0
 11
3140.0
 21
-3249.9999999999959
 31
0.0
1001
ACDBBLOCKREPETAG
1070
     1
1071
       28
1005
126475
  0
LINE
  5
126476
  8
OBJECT
 10
3140.0
 20
-3249.9999999999959
 30
0.0
 11
3133.0
 21
-3249.9999999999959
 31
0.0
1001
ACDBBLOCKREPETAG
1070
     1
1071
       29
1005
126476
  0
LINE
  5
126477
  8
OBJECT
 10
3133.0
 20
-3249.9999999999959
 30
0.0
 11
3133.0
 21
-3139.9999999999959
 31
0.0
1001
ACDBBLOCKREPETAG
1070
     1
1071
       30
1005
126477
  0
LINE
  5
126478
  8
CENTER
 10
3155.0
 20
-3194.9999999999959
 30
0.0
 11
3080.0
 21
-3194.9999999999959
 31
0.0
1001
ACDBBLOCKREPETAG
1070
     1
1071
       31
1005
126478
  0
LINE
  5
126479
  8
OBJECT
 10
3133.0
 20
-3142.9999999999959
 30
0.0
 11
3097.0
 21
-3142.9999999999959
 31
0.0
1001
ACDBBLOCKREPETAG
1070
     1
1071
       32
1005
126479
  0
LINE
  5
12647A
  8
OBJECT
 10
3097.0
 20
-3142.9999999999959
 30
0.0
 11
3097.0
 21
-3246.9999999999959
 31
0.0
1001
ACDBBLOCKREPETAG
1070
     1
1071
       33
1005
12647A
  0
LINE
  5
12647B
  8
OBJECT
 10
3097.0
 20
-3246.9999999999959
 30
0.0
 11
3133.0
 21
-3246.9999999999959
 31
0.0
1001
ACDBBLOCKREPETAG
1070
     1
1071
       34
1005
12647B
  0
LINE
  5
12647C
  8
OBJECT
 10
3093.0
 20
-3147.4999999999959
 30
0.0
 11
3086.0
 21
-3147.4999999999959
 31
0.0
1001
ACDBBLOCKREPETAG
1070
     1
1071
       35
1005
12647C
  0
LINE
  5
12647D
  8
OBJECT
 10
3086.0
 20
-3242.4999999999959
 30
0.0
 11
3093.0
 21
-3242.4999999999959
 31
0.0
1001
ACDBBLOCKREPETAG
1070
     1
1071
       36
1005
12647D
  0
LINE
  5
12647E
  8
OBJECT
 10
3093.0
 20
-3242.4999999999959
 30
0.0
 11
3093.0
 21
-3147.4999999999959
 31
0.0
1001
ACDBBLOCKREPETAG
1070
     1
1071
       37
1005
12647E
  0
LINE
  5
12647F
  8
OBJECT
 10
3097.0
 20
-3142.9999999999959
 30
0.0
 11
3093.0
 21
-3147.4999999999959
 31
0.0
1001
ACDBBLOCKREPETAG
1070
     1
1071
       38
1005
12647F
  0
LINE
  5
126480
  8
OBJECT
 10
3097.0
 20
-3246.9999999999959
 30
0.0
 11
3093.0
 21
-3242.4999999999959
 31
0.0
1001
ACDBBLOCKREPETAG
1070
     1
1071
       39
1005
126480
  0
LINE
  5
126481
  8
OBJECT
 10
3083.0
 20
-3132.9999999999959
 30
0.0
 11
3080.0
 21
-3132.9999999999959
 31
0.0
1001
ACDBBLOCKREPETAG
1070
     1
1071
       40
1005
126481
  0
ARC
  5
126482
  8
OBJECT
 10
3083.0
 20
-3135.9999999999959
 30
0.0
 40
3.0
 50
0.0
 51
90.0
1001
ACDBBLOCKREPETAG
1070
     1
1071
       41
1005
126482
  0
LINE
  5
126483
  8
OBJECT
 10
3080.0
 20
-3256.9999999999959
 30
0.0
 11
3083.0
 21
-3256.9999999999959
 31
0.0
1001
ACDBBLOCKREPETAG
1070
     1
1071
       42
1005
126483
  0
ARC
  5
126484
  8
OBJECT
 10
3083.0
 20
-3253.9999999999959
 30
0.0
 40
3.0
 50
270.0
 51
0.0
1001
ACDBBLOCKREPETAG
1070
     1
1071
       43
1005
126484
  0
LINE
  5
126485
  8
OBJECT
 10
3086.0
 20
-3253.9999999999959
 30
0.0
 11
3086.0
 21
-3135.9999999999959
 31
0.0
1001
ACDBBLOCKREPETAG
1070
     1
1071
       44
1005
126485
  0
LINE
  5
126486
  8
HIDDEN
 10
3088.0
 20
-3156.9999999999959
 30
0.0
 11
3088.0
 21
-3232.9999999999959
 31
0.0
1001
ACDBBLOCKREPETAG
1070
     1
1071
       45
1005
126486
  0
TEXT
  5
126487
  8
SLIM
 10
2894.25
 20
-3717.4999999999959
 30
0.0
 40
35.0
  1
通常枝65（2）
 41
0.75
  0
CIRCLE
  5
126488
  8
OBJECT
 10
2400.0
 20
-3540.9999999999968
 30
0.0
 40
62.0
1001
ACDBBLOCKREPETAG
1070
     1
1071
        3
1005
126488
  0
LINE
  5
126489
  8
CENTER
 10
2338.0
 20
-3555.9999999999968
 30
0.0
 11
2462.0
 21
-3555.9999999999968
 31
0.0
1001
ACDBBLOCKREPETAG
1070
     1
1071
        4
1005
126489
  0
CIRCLE
  5
12648A
  8
OBJECT
 10
2400.0
 20
-3555.9999999999968
 30
0.0
 40
28.0
1001
ACDBBLOCKREPETAG
1070
     1
1071
        6
1005
12648A
  0
CIRCLE
  5
12648B
  8
OBJECT
 10
2400.0
 20
-3555.9999999999968
 30
0.0
 40
39.0
1001
ACDBBLOCKREPETAG
1070
     1
1071
        7
1005
12648B
  0
ARC
  5
12648C
  8
OBJECT
 10
2400.0
 20
-3555.9999999999968
 30
0.0
 40
47.0
 50
290.58196921144412
 51
249.41803078855591
1001
ACDBBLOCKREPETAG
1070
     1
1071
        8
1005
12648C
  0
LINE
  5
12648D
  8
OBJECT
 10
2383.4772883581431
 20
-3599.9999999999968
 30
0.0
 11
2416.5227116418569
 21
-3599.9999999999968
 31
0.0
1001
ACDBBLOCKREPETAG
1070
     1
1071
        9
1005
12648D
  0
LINE
  5
12648E
  8
OBJECT
 10
2133.0
 20
-3508.9999999999968
 30
0.0
 11
2140.0
 21
-3508.9999999999968
 31
0.0
1001
ACDBBLOCKREPETAG
1070
     1
1071
        7
1005
12648E
  0
LINE
  5
12648F
  8
OBJECT
 10
2140.0
 20
-3508.9999999999968
 30
0.0
 11
2140.0
 21
-3599.9999999999968
 31
0.0
1001
ACDBBLOCKREPETAG
1070
     1
1071
        8
1005
12648F
  0
LINE
  5
126490
  8
OBJECT
 10
2133.0
 20
-3599.9999999999968
 30
0.0
 11
2133.0
 21
-3508.9999999999968
 31
0.0
1001
ACDBBLOCKREPETAG
1070
     1
1071
        9
1005
126490
  0
LINE
  5
126491
  8
CENTER
 10
2155.0
 20
-3555.9999999999968
 30
0.0
 11
2071.0
 21
-3555.9999999999968
 31
0.0
1001
ACDBBLOCKREPETAG
1070
     1
1071
       10
1005
126491
  0
LINE
  5
126492
  8
OBJECT
 10
2133.0
 20
-3511.9999999999968
 30
0.0
 11
2097.0
 21
-3511.9999999999968
 31
0.0
1001
ACDBBLOCKREPETAG
1070
     1
1071
       11
1005
126492
  0
LINE
  5
126493
  8
OBJECT
 10
2097.0
 20
-3511.9999999999968
 30
0.0
 11
2097.0
 21
-3599.9999999999968
 31
0.0
1001
ACDBBLOCKREPETAG
1070
     1
1071
       12
1005
126493
  0
LINE
  5
126494
  8
OBJECT
 10
2097.0
 20
-3599.9999999999968
 30
0.0
 11
2140.0
 21
-3599.9999999999968
 31
0.0
1001
ACDBBLOCKREPETAG
1070
     1
1071
       13
1005
126494
  0
LINE
  5
126495
  8
OBJECT
 10
2093.0
 20
-3516.4999999999968
 30
0.0
 11
2086.0
 21
-3516.4999999999968
 31
0.0
1001
ACDBBLOCKREPETAG
1070
     1
1071
       14
1005
126495
  0
LINE
  5
126496
  8
OBJECT
 10
2086.0
 20
-3595.4999999999968
 30
0.0
 11
2093.0
 21
-3595.4999999999968
 31
0.0
1001
ACDBBLOCKREPETAG
1070
     1
1071
       15
1005
126496
  0
LINE
  5
126497
  8
OBJECT
 10
2093.0
 20
-3595.4999999999968
 30
0.0
 11
2093.0
 21
-3516.4999999999968
 31
0.0
1001
ACDBBLOCKREPETAG
1070
     1
1071
       16
1005
126497
  0
LINE
  5
126498
  8
OBJECT
 10
2097.0
 20
-3511.9999999999968
 30
0.0
 11
2093.0
 21
-3516.4999999999968
 31
0.0
1001
ACDBBLOCKREPETAG
1070
     1
1071
       17
1005
126498
  0
LINE
  5
126499
  8
OBJECT
 10
2097.0
 20
-3599.9999999999968
 30
0.0
 11
2093.0
 21
-3595.4999999999968
 31
0.0
1001
ACDBBLOCKREPETAG
1070
     1
1071
       18
1005
126499
  0
LINE
  5
12649A
  8
OBJECT
 10
2083.0
 20
-3478.9999999999968
 30
0.0
 11
2080.0
 21
-3478.9999999999968
 31
0.0
1001
ACDBBLOCKREPETAG
1070
     1
1071
       19
1005
12649A
  0
ARC
  5
12649B
  8
OBJECT
 10
2083.0
 20
-3481.9999999999968
 30
0.0
 40
3.0
 50
0.0
 51
90.0
1001
ACDBBLOCKREPETAG
1070
     1
1071
       20
1005
12649B
  0
LINE
  5
12649C
  8
OBJECT
 10
2080.0
 20
-3602.9999999999968
 30
0.0
 11
2083.0
 21
-3602.9999999999968
 31
0.0
1001
ACDBBLOCKREPETAG
1070
     1
1071
       21
1005
12649C
  0
ARC
  5
12649D
  8
OBJECT
 10
2083.0
 20
-3599.9999999999968
 30
0.0
 40
3.0
 50
270.0
 51
0.0
1001
ACDBBLOCKREPETAG
1070
     1
1071
       22
1005
12649D
  0
LINE
  5
12649E
  8
OBJECT
 10
2086.0
 20
-3599.9999999999968
 30
0.0
 11
2086.0
 21
-3481.9999999999968
 31
0.0
1001
ACDBBLOCKREPETAG
1070
     1
1071
       23
1005
12649E
  0
LINE
  5
12649F
  8
HIDDEN
 10
2088.0
 20
-3525.9999999999968
 30
0.0
 11
2088.0
 21
-3585.9999999999968
 31
0.0
1001
ACDBBLOCKREPETAG
1070
     1
1071
       24
1005
12649F
  0
LINE
  5
1264A0
  8
OBJECT
 10
2133.0
 20
-3147.9999999999959
 30
0.0
 11
2140.0
 21
-3147.9999999999959
 31
0.0
1001
ACDBBLOCKREPETAG
1070
     1
1071
        7
1005
1264A0
  0
LINE
  5
1264A1
  8
OBJECT
 10
2140.0
 20
-3147.9999999999959
 30
0.0
 11
2140.0
 21
-3241.9999999999959
 31
0.0
1001
ACDBBLOCKREPETAG
1070
     1
1071
        8
1005
1264A1
  0
LINE
  5
1264A2
  8
OBJECT
 10
2140.0
 20
-3241.9999999999959
 30
0.0
 11
2133.0
 21
-3241.9999999999959
 31
0.0
1001
ACDBBLOCKREPETAG
1070
     1
1071
        9
1005
1264A2
  0
LINE
  5
1264A3
  8
OBJECT
 10
2133.0
 20
-3241.9999999999959
 30
0.0
 11
2133.0
 21
-3147.9999999999959
 31
0.0
1001
ACDBBLOCKREPETAG
1070
     1
1071
       10
1005
1264A3
  0
LINE
  5
1264A4
  8
CENTER
 10
2155.0
 20
-3194.9999999999959
 30
0.0
 11
2080.0
 21
-3194.9999999999959
 31
0.0
1001
ACDBBLOCKREPETAG
1070
     1
1071
       11
1005
1264A4
  0
LINE
  5
1264A5
  8
OBJECT
 10
2133.0
 20
-3150.9999999999959
 30
0.0
 11
2097.0
 21
-3150.9999999999959
 31
0.0
1001
ACDBBLOCKREPETAG
1070
     1
1071
       12
1005
1264A5
  0
LINE
  5
1264A6
  8
OBJECT
 10
2097.0
 20
-3150.9999999999959
 30
0.0
 11
2097.0
 21
-3238.9999999999959
 31
0.0
1001
ACDBBLOCKREPETAG
1070
     1
1071
       13
1005
1264A6
  0
LINE
  5
1264A7
  8
OBJECT
 10
2097.0
 20
-3238.9999999999959
 30
0.0
 11
2133.0
 21
-3238.9999999999959
 31
0.0
1001
ACDBBLOCKREPETAG
1070
     1
1071
       14
1005
1264A7
  0
LINE
  5
1264A8
  8
OBJECT
 10
2093.0
 20
-3155.4999999999959
 30
0.0
 11
2086.0
 21
-3155.4999999999959
 31
0.0
1001
ACDBBLOCKREPETAG
1070
     1
1071
       15
1005
1264A8
  0
LINE
  5
1264A9
  8
OBJECT
 10
2086.0
 20
-3234.4999999999959
 30
0.0
 11
2093.0
 21
-3234.4999999999959
 31
0.0
1001
ACDBBLOCKREPETAG
1070
     1
1071
       16
1005
1264A9
  0
LINE
  5
1264AA
  8
OBJECT
 10
2093.0
 20
-3234.4999999999959
 30
0.0
 11
2093.0
 21
-3155.4999999999959
 31
0.0
1001
ACDBBLOCKREPETAG
1070
     1
1071
       17
1005
1264AA
  0
LINE
  5
1264AB
  8
OBJECT
 10
2097.0
 20
-3150.9999999999959
 30
0.0
 11
2093.0
 21
-3155.4999999999959
 31
0.0
1001
ACDBBLOCKREPETAG
1070
     1
1071
       18
1005
1264AB
  0
LINE
  5
1264AC
  8
OBJECT
 10
2097.0
 20
-3238.9999999999959
 30
0.0
 11
2093.0
 21
-3234.4999999999959
 31
0.0
1001
ACDBBLOCKREPETAG
1070
     1
1071
       19
1005
1264AC
  0
LINE
  5
1264AD
  8
OBJECT
 10
2083.0
 20
-3132.9999999999959
 30
0.0
 11
2080.0
 21
-3132.9999999999959
 31
0.0
1001
ACDBBLOCKREPETAG
1070
     1
1071
       20
1005
1264AD
  0
ARC
  5
1264AE
  8
OBJECT
 10
2083.0
 20
-3135.9999999999959
 30
0.0
 40
3.0
 50
0.0
 51
90.0
1001
ACDBBLOCKREPETAG
1070
     1
1071
       21
1005
1264AE
  0
LINE
  5
1264AF
  8
OBJECT
 10
2080.0
 20
-3256.9999999999959
 30
0.0
 11
2083.0
 21
-3256.9999999999959
 31
0.0
1001
ACDBBLOCKREPETAG
1070
     1
1071
       22
1005
1264AF
  0
ARC
  5
1264B0
  8
OBJECT
 10
2083.0
 20
-3253.9999999999959
 30
0.0
 40
3.0
 50
270.0
 51
0.0
1001
ACDBBLOCKREPETAG
1070
     1
1071
       23
1005
1264B0
  0
LINE
  5
1264B1
  8
OBJECT
 10
2086.0
 20
-3253.9999999999959
 30
0.0
 11
2086.0
 21
-3135.9999999999959
 31
0.0
1001
ACDBBLOCKREPETAG
1070
     1
1071
       24
1005
1264B1
  0
LINE
  5
1264B2
  8
HIDDEN
 10
2088.0
 20
-3164.9999999999959
 30
0.0
 11
2088.0
 21
-3224.9999999999959
 31
0.0
1001
ACDBBLOCKREPETAG
1070
     1
1071
       25
1005
1264B2
  0
TEXT
  5
1264B3
  8
SLIM
 10
1896.75
 20
-3717.4999999999959
 30
0.0
 40
35.0
  1
通常枝50（1）
 41
0.75
  0
CIRCLE
  5
1264B4
  8
OBJECT
 10
539.99999999987813
 20
-695.99999999984175
 30
0.0
 40
70.0
1001
ACDBBLOCKREPETAG
1070
     1
1071
       50
1005
1264B4
  0
CIRCLE
  5
1264B5
  8
OBJECT
 10
539.99999999987813
 20
-695.99999999984175
 30
0.0
 40
77.0
1001
ACDBBLOCKREPETAG
1070
     1
1071
       51
1005
1264B5
  0
ARC
  5
1264B6
  8
OBJECT
 10
539.99999999987813
 20
-695.99999999984175
 30
0.0
 40
80.0
 50
140.8050325737787
 51
39.194967426221282
1001
ACDBBLOCKREPETAG
1070
     1
1071
       52
1005
1264B6
  0
LINE
  5
1264B7
  8
OBJECT
 10
477.99999999987801
 20
-650.3381997725171
 30
0.0
 11
477.99999999987801
 21
-615.99999999984175
 31
0.0
1001
ACDBBLOCKREPETAG
1070
     1
1071
       53
1005
1264B7
  0
LINE
  5
1264B8
  8
OBJECT
 10
601.99999999987801
 20
-650.3381997725171
 30
0.0
 11
601.99999999987801
 21
-615.99999999984175
 31
0.0
1001
ACDBBLOCKREPETAG
1070
     1
1071
       54
1005
1264B8
  0
POINT
  5
1264B9
  8
DOTS
 10
539.99999999987813
 20
-695.99999999984175
 30
0.0
1001
ACDBBLOCKREPETAG
1070
     1
1071
       63
1005
1264B9
  0
CIRCLE
  5
1264BA
  8
OBJECT
 10
539.99999999987813
 20
-695.99999999984175
 30
0.0
 40
53.5
1001
ACDBBLOCKREPETAG
1070
     1
1071
      157
1005
1264BA
  0
CIRCLE
  5
1264BB
  8
OBJECT
 10
180.0
 20
-695.99999999984175
 30
0.0
 40
70.0
1001
ACDBBLOCKREPETAG
1070
     1
1071
       50
1005
1264BB
  0
CIRCLE
  5
1264BC
  8
OBJECT
 10
180.0
 20
-695.99999999984175
 30
0.0
 40
77.0
1001
ACDBBLOCKREPETAG
1070
     1
1071
       51
1005
1264BC
  0
ARC
  5
1264BD
  8
OBJECT
 10
180.0
 20
-695.99999999984175
 30
0.0
 40
80.0
 50
140.80503257377961
 51
39.194967426220252
1001
ACDBBLOCKREPETAG
1070
     1
1071
       52
1005
1264BD
  0
LINE
  5
1264BE
  8
OBJECT
 10
118.0
 20
-650.3381997725171
 30
0.0
 11
118.0
 21
-615.99999999984175
 31
0.0
1001
ACDBBLOCKREPETAG
1070
     1
1071
       53
1005
1264BE
  0
LINE
  5
1264BF
  8
OBJECT
 10
242.0
 20
-650.3381997725171
 30
0.0
 11
242.0
 21
-615.99999999984175
 31
0.0
1001
ACDBBLOCKREPETAG
1070
     1
1071
       54
1005
1264BF
  0
POINT
  5
1264C0
  8
DOTS
 10
180.0
 20
-695.99999999984175
 30
0.0
1001
ACDBBLOCKREPETAG
1070
     1
1071
       63
1005
1264C0
  0
CIRCLE
  5
1264C1
  8
OBJECT
 10
180.0
 20
-695.99999999984175
 30
0.0
 40
53.5
1001
ACDBBLOCKREPETAG
1070
     1
1071
      157
1005
1264C1
  0
CIRCLE
  5
1264C2
  8
OBJECT
 10
539.99999999987813
 20
-232.0
 30
0.0
 40
70.0
1001
ACDBBLOCKREPETAG
1070
     1
1071
       50
1005
1264C2
  0
CIRCLE
  5
1264C3
  8
OBJECT
 10
539.99999999987813
 20
-232.0
 30
0.0
 40
77.0
1001
ACDBBLOCKREPETAG
1070
     1
1071
       51
1005
1264C3
  0
ARC
  5
1264C4
  8
OBJECT
 10
539.99999999987813
 20
-232.0
 30
0.0
 40
80.0
 50
140.8050325737787
 51
39.194967426221282
1001
ACDBBLOCKREPETAG
1070
     1
1071
       52
1005
1264C4
  0
LINE
  5
1264C5
  8
OBJECT
 10
477.99999999987801
 20
-186.33819977267561
 30
0.0
 11
477.99999999987801
 21
-152.0
 31
0.0
1001
ACDBBLOCKREPETAG
1070
     1
1071
       53
1005
1264C5
  0
LINE
  5
1264C6
  8
OBJECT
 10
601.99999999987801
 20
-186.33819977267561
 30
0.0
 11
601.99999999987801
 21
-152.0
 31
0.0
1001
ACDBBLOCKREPETAG
1070
     1
1071
       54
1005
1264C6
  0
POINT
  5
1264C7
  8
DOTS
 10
539.99999999987813
 20
-232.0
 30
0.0
1001
ACDBBLOCKREPETAG
1070
     1
1071
       63
1005
1264C7
  0
CIRCLE
  5
1264C8
  8
OBJECT
 10
539.99999999987813
 20
-232.0
 30
0.0
 40
53.5
1001
ACDBBLOCKREPETAG
1070
     1
1071
      157
1005
1264C8
  0
CIRCLE
  5
1264C9
  8
OBJECT
 10
180.0
 20
-232.0
 30
0.0
 40
70.0
1001
ACDBBLOCKREPETAG
1070
     1
1071
       50
1005
1264C9
  0
CIRCLE
  5
1264CA
  8
OBJECT
 10
180.0
 20
-232.0
 30
0.0
 40
77.0
1001
ACDBBLOCKREPETAG
1070
     1
1071
       51
1005
1264CA
  0
ARC
  5
1264CB
  8
OBJECT
 10
180.0
 20
-232.0
 30
0.0
 40
80.0
 50
140.80503257377961
 51
39.194967426220252
1001
ACDBBLOCKREPETAG
1070
     1
1071
       52
1005
1264CB
  0
LINE
  5
1264CC
  8
OBJECT
 10
118.0
 20
-186.33819977267561
 30
0.0
 11
118.0
 21
-152.0
 31
0.0
1001
ACDBBLOCKREPETAG
1070
     1
1071
       53
1005
1264CC
  0
LINE
  5
1264CD
  8
OBJECT
 10
242.0
 20
-186.33819977267561
 30
0.0
 11
242.0
 21
-152.0
 31
0.0
1001
ACDBBLOCKREPETAG
1070
     1
1071
       54
1005
1264CD
  0
POINT
  5
1264CE
  8
DOTS
 10
180.0
 20
-232.0
 30
0.0
1001
ACDBBLOCKREPETAG
1070
     1
1071
       63
1005
1264CE
  0
CIRCLE
  5
1264CF
  8
OBJECT
 10
180.0
 20
-232.0
 30
0.0
 40
53.5
1001
ACDBBLOCKREPETAG
1070
     1
1071
      157
1005
1264CF
  0
TEXT
  5
1264D0
  8
SLIM
 10
1837.75
 20
282.50000000000011
 30
0.0
 40
35.0
  1
（枝管サイズ毎に寸法が異なります。管底の位置は50～100で同じです）
 41
0.75
  0
TEXT
  5
1264D1
  8
SLIM
 10
1850.0
 20
532.5
 30
0.0
 40
75.0
  1
側面図の代表機種
 41
0.75
  0
TEXT
  5
1264D2
  8
SLIM
 10
1850.0
 20
369.99999999999989
 30
0.0
 40
100.0
  1
4SRT-A3
 41
0.75
  0
LINE
  5
1264D3
  8
OBJECT
 10
4133.0
 20
-137.99999999999909
 30
0.0
 11
4140.0
 21
-137.99999999999909
 31
0.0
1001
ACDBBLOCKREPETAG
1070
     1
1071
       47
1005
1264D3
  0
LINE
  5
1264D4
  8
OBJECT
 10
4140.0
 20
-137.99999999999909
 30
0.0
 11
4140.0
 21
-261.99999999999909
 31
0.0
1001
ACDBBLOCKREPETAG
1070
     1
1071
       48
1005
1264D4
  0
LINE
  5
1264D5
  8
OBJECT
 10
4140.0
 20
-261.99999999999909
 30
0.0
 11
4133.0
 21
-261.99999999999909
 31
0.0
1001
ACDBBLOCKREPETAG
1070
     1
1071
       49
1005
1264D5
  0
LINE
  5
1264D6
  8
OBJECT
 10
4133.0
 20
-261.99999999999909
 30
0.0
 11
4133.0
 21
-137.99999999999909
 31
0.0
1001
ACDBBLOCKREPETAG
1070
     1
1071
       50
1005
1264D6
  0
LINE
  5
1264D7
  8
CENTER
 10
4155.0
 20
-199.99999999999909
 30
0.0
 11
4080.0
 21
-199.99999999999909
 31
0.0
1001
ACDBBLOCKREPETAG
1070
     1
1071
       51
1005
1264D7
  0
LINE
  5
1264D8
  8
OBJECT
 10
4133.0
 20
-140.99999999999909
 30
0.0
 11
4097.0
 21
-140.99999999999909
 31
0.0
1001
ACDBBLOCKREPETAG
1070
     1
1071
       52
1005
1264D8
  0
LINE
  5
1264D9
  8
OBJECT
 10
4097.0
 20
-140.99999999999909
 30
0.0
 11
4097.0
 21
-258.99999999999909
 31
0.0
1001
ACDBBLOCKREPETAG
1070
     1
1071
       53
1005
1264D9
  0
LINE
  5
1264DA
  8
OBJECT
 10
4097.0
 20
-258.99999999999909
 30
0.0
 11
4133.0
 21
-258.99999999999909
 31
0.0
1001
ACDBBLOCKREPETAG
1070
     1
1071
       54
1005
1264DA
  0
LINE
  5
1264DB
  8
OBJECT
 10
4093.0
 20
-145.49999999999909
 30
0.0
 11
4086.0
 21
-145.49999999999909
 31
0.0
1001
ACDBBLOCKREPETAG
1070
     1
1071
       55
1005
1264DB
  0
LINE
  5
1264DC
  8
OBJECT
 10
4086.0
 20
-254.49999999999909
 30
0.0
 11
4093.0
 21
-254.49999999999909
 31
0.0
1001
ACDBBLOCKREPETAG
1070
     1
1071
       56
1005
1264DC
  0
LINE
  5
1264DD
  8
OBJECT
 10
4093.0
 20
-254.49999999999909
 30
0.0
 11
4093.0
 21
-145.49999999999909
 31
0.0
1001
ACDBBLOCKREPETAG
1070
     1
1071
       57
1005
1264DD
  0
LINE
  5
1264DE
  8
OBJECT
 10
4097.0
 20
-140.99999999999909
 30
0.0
 11
4093.0
 21
-145.49999999999909
 31
0.0
1001
ACDBBLOCKREPETAG
1070
     1
1071
       58
1005
1264DE
  0
LINE
  5
1264DF
  8
OBJECT
 10
4097.0
 20
-258.99999999999909
 30
0.0
 11
4093.0
 21
-254.49999999999909
 31
0.0
1001
ACDBBLOCKREPETAG
1070
     1
1071
       59
1005
1264DF
  0
LINE
  5
1264E0
  8
OBJECT
 10
4083.0
 20
-137.99999999999909
 30
0.0
 11
4080.0
 21
-137.99999999999909
 31
0.0
1001
ACDBBLOCKREPETAG
1070
     1
1071
       60
1005
1264E0
  0
ARC
  5
1264E1
  8
OBJECT
 10
4083.0
 20
-140.99999999999909
 30
0.0
 40
3.0
 50
0.0
 51
90.0
1001
ACDBBLOCKREPETAG
1070
     1
1071
       61
1005
1264E1
  0
LINE
  5
1264E2
  8
OBJECT
 10
4080.0
 20
-261.99999999999909
 30
0.0
 11
4083.0
 21
-261.99999999999909
 31
0.0
1001
ACDBBLOCKREPETAG
1070
     1
1071
       62
1005
1264E2
  0
ARC
  5
1264E3
  8
OBJECT
 10
4083.0
 20
-258.99999999999909
 30
0.0
 40
3.0
 50
270.0
 51
0.0
1001
ACDBBLOCKREPETAG
1070
     1
1071
       63
1005
1264E3
  0
LINE
  5
1264E4
  8
OBJECT
 10
4086.0
 20
-258.99999999999909
 30
0.0
 11
4086.0
 21
-140.99999999999909
 31
0.0
1001
ACDBBLOCKREPETAG
1070
     1
1071
       64
1005
1264E4
  0
LINE
  5
1264E5
  8
HIDDEN
 10
4088.0
 20
-155.49999999999909
 30
0.0
 11
4088.0
 21
-244.49999999999909
 31
0.0
1001
ACDBBLOCKREPETAG
1070
     1
1071
       65
1005
1264E5
  0
LINE
  5
1264E6
  8
CENTER
 10
4577.0
 20
-596.0
 30
0.0
 11
4423.0
 21
-596.0
 31
0.0
1001
ACDBBLOCKREPETAG
1070
     1
1071
       17
1005
1264E6
  0
CIRCLE
  5
1264E7
  8
OBJECT
 10
4500.0
 20
-596.0
 30
0.0
 40
41.5
1001
ACDBBLOCKREPETAG
1070
     1
1071
       19
1005
1264E7
  0
CIRCLE
  5
1264E8
  8
OBJECT
 10
4500.0
 20
-596.0
 30
0.0
 40
54.0
1001
ACDBBLOCKREPETAG
1070
     1
1071
       20
1005
1264E8
  0
ARC
  5
1264E9
  8
OBJECT
 10
4500.0
 20
-596.0
 30
0.0
 40
62.0
 50
287.89655112920718
 51
252.10344887079279
1001
ACDBBLOCKREPETAG
1070
     1
1071
       21
1005
1264E9
  0
LINE
  5
1264EA
  8
OBJECT
 10
4480.9474411167421
 20
-655.0
 30
0.0
 11
4519.052558883257
 21
-655.0
 31
0.0
1001
ACDBBLOCKREPETAG
1070
     1
1071
       22
1005
1264EA
  0
LINE
  5
1264EB
  8
OBJECT
 10
4133.0
 20
-534.0
 30
0.0
 11
4140.0
 21
-534.0
 31
0.0
1001
ACDBBLOCKREPETAG
1070
     1
1071
       45
1005
1264EB
  0
LINE
  5
1264EC
  8
OBJECT
 10
4140.0
 20
-534.0
 30
0.0
 11
4140.0
 21
-655.0
 31
0.0
1001
ACDBBLOCKREPETAG
1070
     1
1071
       46
1005
1264EC
  0
LINE
  5
1264ED
  8
OBJECT
 10
4133.0
 20
-655.0
 30
0.0
 11
4133.0
 21
-534.0
 31
0.0
1001
ACDBBLOCKREPETAG
1070
     1
1071
       47
1005
1264ED
  0
LINE
  5
1264EE
  8
CENTER
 10
4155.0
 20
-596.0
 30
0.0
 11
4071.0
 21
-596.0
 31
0.0
1001
ACDBBLOCKREPETAG
1070
     1
1071
       48
1005
1264EE
  0
LINE
  5
1264EF
  8
OBJECT
 10
4133.0
 20
-537.0
 30
0.0
 11
4097.0
 21
-537.0
 31
0.0
1001
ACDBBLOCKREPETAG
1070
     1
1071
       49
1005
1264EF
  0
LINE
  5
1264F0
  8
OBJECT
 10
4097.0
 20
-537.0
 30
0.0
 11
4097.0
 21
-655.0
 31
0.0
1001
ACDBBLOCKREPETAG
1070
     1
1071
       50
1005
1264F0
  0
LINE
  5
1264F1
  8
OBJECT
 10
4097.0
 20
-655.0
 30
0.0
 11
4140.0
 21
-655.0
 31
0.0
1001
ACDBBLOCKREPETAG
1070
     1
1071
       51
1005
1264F1
  0
LINE
  5
1264F2
  8
OBJECT
 10
4093.0
 20
-541.5
 30
0.0
 11
4086.0
 21
-541.5
 31
0.0
1001
ACDBBLOCKREPETAG
1070
     1
1071
       52
1005
1264F2
  0
LINE
  5
1264F3
  8
OBJECT
 10
4086.0
 20
-650.49999999999989
 30
0.0
 11
4093.0
 21
-650.49999999999989
 31
0.0
1001
ACDBBLOCKREPETAG
1070
     1
1071
       53
1005
1264F3
  0
LINE
  5
1264F4
  8
OBJECT
 10
4093.0
 20
-650.49999999999989
 30
0.0
 11
4093.0
 21
-541.5
 31
0.0
1001
ACDBBLOCKREPETAG
1070
     1
1071
       54
1005
1264F4
  0
LINE
  5
1264F5
  8
OBJECT
 10
4097.0
 20
-537.0
 30
0.0
 11
4093.0
 21
-541.5
 31
0.0
1001
ACDBBLOCKREPETAG
1070
     1
1071
       55
1005
1264F5
  0
LINE
  5
1264F6
  8
OBJECT
 10
4097.0
 20
-655.0
 30
0.0
 11
4093.0
 21
-650.49999999999989
 31
0.0
1001
ACDBBLOCKREPETAG
1070
     1
1071
       56
1005
1264F6
  0
LINE
  5
1264F7
  8
OBJECT
 10
4083.0
 20
-534.0
 30
0.0
 11
4080.0
 21
-534.0
 31
0.0
1001
ACDBBLOCKREPETAG
1070
     1
1071
       57
1005
1264F7
  0
ARC
  5
1264F8
  8
OBJECT
 10
4083.0
 20
-537.0
 30
0.0
 40
3.0
 50
0.0
 51
90.0
1001
ACDBBLOCKREPETAG
1070
     1
1071
       58
1005
1264F8
  0
LINE
  5
1264F9
  8
OBJECT
 10
4080.0
 20
-658.0
 30
0.0
 11
4083.0
 21
-658.0
 31
0.0
1001
ACDBBLOCKREPETAG
1070
     1
1071
       59
1005
1264F9
  0
ARC
  5
1264FA
  8
OBJECT
 10
4083.0
 20
-655.0
 30
0.0
 40
3.0
 50
270.0
 51
0.0
1001
ACDBBLOCKREPETAG
1070
     1
1071
       60
1005
1264FA
  0
LINE
  5
1264FB
  8
OBJECT
 10
4086.0
 20
-655.0
 30
0.0
 11
4086.0
 21
-537.0
 31
0.0
1001
ACDBBLOCKREPETAG
1070
     1
1071
       61
1005
1264FB
  0
LINE
  5
1264FC
  8
HIDDEN
 10
4088.0
 20
-551.49999999999977
 30
0.0
 11
4088.0
 21
-640.5
 31
0.0
1001
ACDBBLOCKREPETAG
1070
     1
1071
       63
1005
1264FC
  0
LINE
  5
1264FD
  8
CENTER
 10
2577.0
 20
-596.0
 30
0.0
 11
2423.0
 21
-596.0
 31
0.0
1001
ACDBBLOCKREPETAG
1070
     1
1071
       17
1005
1264FD
  0
CIRCLE
  5
1264FE
  8
OBJECT
 10
2500.0
 20
-596.0
 30
0.0
 40
41.5
1001
ACDBBLOCKREPETAG
1070
     1
1071
       19
1005
1264FE
  0
CIRCLE
  5
1264FF
  8
OBJECT
 10
2500.0
 20
-596.0
 30
0.0
 40
54.0
1001
ACDBBLOCKREPETAG
1070
     1
1071
       20
1005
1264FF
  0
ARC
  5
126500
  8
OBJECT
 10
2500.0
 20
-596.0
 30
0.0
 40
62.0
 50
287.89655112920718
 51
252.10344887079279
1001
ACDBBLOCKREPETAG
1070
     1
1071
       21
1005
126500
  0
LINE
  5
126501
  8
OBJECT
 10
2480.947441116743
 20
-655.0
 30
0.0
 11
2519.052558883257
 21
-655.0
 31
0.0
1001
ACDBBLOCKREPETAG
1070
     1
1071
       22
1005
126501
  0
LINE
  5
126502
  8
OBJECT
 10
2133.0
 20
-534.0
 30
0.0
 11
2140.0
 21
-534.0
 31
0.0
1001
ACDBBLOCKREPETAG
1070
     1
1071
       45
1005
126502
  0
LINE
  5
126503
  8
OBJECT
 10
2140.0
 20
-534.0
 30
0.0
 11
2140.0
 21
-655.0
 31
0.0
1001
ACDBBLOCKREPETAG
1070
     1
1071
       46
1005
126503
  0
LINE
  5
126504
  8
OBJECT
 10
2133.0
 20
-655.0
 30
0.0
 11
2133.0
 21
-534.0
 31
0.0
1001
ACDBBLOCKREPETAG
1070
     1
1071
       47
1005
126504
  0
LINE
  5
126505
  8
CENTER
 10
2155.0
 20
-596.0
 30
0.0
 11
2071.0
 21
-596.0
 31
0.0
1001
ACDBBLOCKREPETAG
1070
     1
1071
       48
1005
126505
  0
LINE
  5
126506
  8
OBJECT
 10
2133.0
 20
-537.0
 30
0.0
 11
2097.0
 21
-537.0
 31
0.0
1001
ACDBBLOCKREPETAG
1070
     1
1071
       49
1005
126506
  0
LINE
  5
126507
  8
OBJECT
 10
2097.0
 20
-537.0
 30
0.0
 11
2097.0
 21
-655.0
 31
0.0
1001
ACDBBLOCKREPETAG
1070
     1
1071
       50
1005
126507
  0
LINE
  5
126508
  8
OBJECT
 10
2097.0
 20
-655.0
 30
0.0
 11
2140.0
 21
-655.0
 31
0.0
1001
ACDBBLOCKREPETAG
1070
     1
1071
       51
1005
126508
  0
LINE
  5
126509
  8
OBJECT
 10
2093.0
 20
-541.5
 30
0.0
 11
2086.0
 21
-541.5
 31
0.0
1001
ACDBBLOCKREPETAG
1070
     1
1071
       52
1005
126509
  0
LINE
  5
12650A
  8
OBJECT
 10
2086.0
 20
-650.49999999999989
 30
0.0
 11
2093.0
 21
-650.49999999999989
 31
0.0
1001
ACDBBLOCKREPETAG
1070
     1
1071
       53
1005
12650A
  0
LINE
  5
12650B
  8
OBJECT
 10
2093.0
 20
-650.49999999999989
 30
0.0
 11
2093.0
 21
-541.5
 31
0.0
1001
ACDBBLOCKREPETAG
1070
     1
1071
       54
1005
12650B
  0
LINE
  5
12650C
  8
OBJECT
 10
2097.0
 20
-537.0
 30
0.0
 11
2093.0
 21
-541.5
 31
0.0
1001
ACDBBLOCKREPETAG
1070
     1
1071
       55
1005
12650C
  0
LINE
  5
12650D
  8
OBJECT
 10
2097.0
 20
-655.0
 30
0.0
 11
2093.0
 21
-650.49999999999989
 31
0.0
1001
ACDBBLOCKREPETAG
1070
     1
1071
       56
1005
12650D
  0
LINE
  5
12650E
  8
OBJECT
 10
2083.0
 20
-534.0
 30
0.0
 11
2080.0
 21
-534.0
 31
0.0
1001
ACDBBLOCKREPETAG
1070
     1
1071
       57
1005
12650E
  0
ARC
  5
12650F
  8
OBJECT
 10
2083.0
 20
-537.0
 30
0.0
 40
3.0
 50
0.0
 51
90.0
1001
ACDBBLOCKREPETAG
1070
     1
1071
       58
1005
12650F
  0
LINE
  5
126510
  8
OBJECT
 10
2080.0
 20
-658.0
 30
0.0
 11
2083.0
 21
-658.0
 31
0.0
1001
ACDBBLOCKREPETAG
1070
     1
1071
       59
1005
126510
  0
ARC
  5
126511
  8
OBJECT
 10
2083.0
 20
-655.0
 30
0.0
 40
3.0
 50
270.0
 51
0.0
1001
ACDBBLOCKREPETAG
1070
     1
1071
       60
1005
126511
  0
LINE
  5
126512
  8
OBJECT
 10
2086.0
 20
-655.0
 30
0.0
 11
2086.0
 21
-537.0
 31
0.0
1001
ACDBBLOCKREPETAG
1070
     1
1071
       61
1005
126512
  0
LINE
  5
126513
  8
HIDDEN
 10
2088.0
 20
-551.49999999999977
 30
0.0
 11
2088.0
 21
-640.5
 31
0.0
1001
ACDBBLOCKREPETAG
1070
     1
1071
       63
1005
126513
  0
LINE
  5
126514
  8
OBJECT
 10
2133.0
 20
-137.99999999999909
 30
0.0
 11
2140.0
 21
-137.99999999999909
 31
0.0
1001
ACDBBLOCKREPETAG
1070
     1
1071
       47
1005
126514
  0
LINE
  5
126515
  8
OBJECT
 10
2140.0
 20
-137.99999999999909
 30
0.0
 11
2140.0
 21
-261.99999999999909
 31
0.0
1001
ACDBBLOCKREPETAG
1070
     1
1071
       48
1005
126515
  0
LINE
  5
126516
  8
OBJECT
 10
2140.0
 20
-261.99999999999909
 30
0.0
 11
2133.0
 21
-261.99999999999909
 31
0.0
1001
ACDBBLOCKREPETAG
1070
     1
1071
       49
1005
126516
  0
LINE
  5
126517
  8
OBJECT
 10
2133.0
 20
-261.99999999999909
 30
0.0
 11
2133.0
 21
-137.99999999999909
 31
0.0
1001
ACDBBLOCKREPETAG
1070
     1
1071
       50
1005
126517
  0
LINE
  5
126518
  8
CENTER
 10
2155.0
 20
-199.99999999999909
 30
0.0
 11
2080.0
 21
-199.99999999999909
 31
0.0
1001
ACDBBLOCKREPETAG
1070
     1
1071
       51
1005
126518
  0
LINE
  5
126519
  8
OBJECT
 10
2133.0
 20
-140.99999999999909
 30
0.0
 11
2097.0
 21
-140.99999999999909
 31
0.0
1001
ACDBBLOCKREPETAG
1070
     1
1071
       52
1005
126519
  0
LINE
  5
12651A
  8
OBJECT
 10
2097.0
 20
-140.99999999999909
 30
0.0
 11
2097.0
 21
-258.99999999999909
 31
0.0
1001
ACDBBLOCKREPETAG
1070
     1
1071
       53
1005
12651A
  0
LINE
  5
12651B
  8
OBJECT
 10
2097.0
 20
-258.99999999999909
 30
0.0
 11
2133.0
 21
-258.99999999999909
 31
0.0
1001
ACDBBLOCKREPETAG
1070
     1
1071
       54
1005
12651B
  0
LINE
  5
12651C
  8
OBJECT
 10
2093.0
 20
-145.49999999999909
 30
0.0
 11
2086.0
 21
-145.49999999999909
 31
0.0
1001
ACDBBLOCKREPETAG
1070
     1
1071
       55
1005
12651C
  0
LINE
  5
12651D
  8
OBJECT
 10
2086.0
 20
-254.49999999999909
 30
0.0
 11
2093.0
 21
-254.49999999999909
 31
0.0
1001
ACDBBLOCKREPETAG
1070
     1
1071
       56
1005
12651D
  0
LINE
  5
12651E
  8
OBJECT
 10
2093.0
 20
-254.49999999999909
 30
0.0
 11
2093.0
 21
-145.49999999999909
 31
0.0
1001
ACDBBLOCKREPETAG
1070
     1
1071
       57
1005
12651E
  0
LINE
  5
12651F
  8
OBJECT
 10
2097.0
 20
-140.99999999999909
 30
0.0
 11
2093.0
 21
-145.49999999999909
 31
0.0
1001
ACDBBLOCKREPETAG
1070
     1
1071
       58
1005
12651F
  0
LINE
  5
126520
  8
OBJECT
 10
2097.0
 20
-258.99999999999909
 30
0.0
 11
2093.0
 21
-254.49999999999909
 31
0.0
1001
ACDBBLOCKREPETAG
1070
     1
1071
       59
1005
126520
  0
LINE
  5
126521
  8
OBJECT
 10
2083.0
 20
-137.99999999999909
 30
0.0
 11
2080.0
 21
-137.99999999999909
 31
0.0
1001
ACDBBLOCKREPETAG
1070
     1
1071
       60
1005
126521
  0
ARC
  5
126522
  8
OBJECT
 10
2083.0
 20
-140.99999999999909
 30
0.0
 40
3.0
 50
0.0
 51
90.0
1001
ACDBBLOCKREPETAG
1070
     1
1071
       61
1005
126522
  0
LINE
  5
126523
  8
OBJECT
 10
2080.0
 20
-261.99999999999909
 30
0.0
 11
2083.0
 21
-261.99999999999909
 31
0.0
1001
ACDBBLOCKREPETAG
1070
     1
1071
       62
1005
126523
  0
ARC
  5
126524
  8
OBJECT
 10
2083.0
 20
-258.99999999999909
 30
0.0
 40
3.0
 50
270.0
 51
0.0
1001
ACDBBLOCKREPETAG
1070
     1
1071
       63
1005
126524
  0
LINE
  5
126525
  8
OBJECT
 10
2086.0
 20
-258.99999999999909
 30
0.0
 11
2086.0
 21
-140.99999999999909
 31
0.0
1001
ACDBBLOCKREPETAG
1070
     1
1071
       64
1005
126525
  0
LINE
  5
126526
  8
HIDDEN
 10
2088.0
 20
-155.49999999999909
 30
0.0
 11
2088.0
 21
-244.49999999999909
 31
0.0
1001
ACDBBLOCKREPETAG
1070
     1
1071
       65
1005
126526
  0
LINE
  5
126527
  8
OBJECT
 10
465.00000000012182
 20
-546.00000000000955
 30
0.0
 11
465.00000000012182
 21
-553.00000000000966
 31
0.0
1001
ACDBBLOCKREPETAG
1070
     1
1071
       57
1005
126527
  0
LINE
  5
126528
  8
OBJECT
 10
465.00000000012182
 20
-553.00000000000966
 30
0.0
 11
615.00000000012176
 21
-553.00000000000966
 31
0.0
1001
ACDBBLOCKREPETAG
1070
     1
1071
       58
1005
126528
  0
LINE
  5
126529
  8
OBJECT
 10
468.00000000012182
 20
-594.50000000000966
 30
0.0
 11
612.00000000012164
 21
-594.50000000000966
 31
0.0
1001
ACDBBLOCKREPETAG
1070
     1
1071
       59
1005
126529
  0
LINE
  5
12652A
  8
OBJECT
 10
474.5000000001217
 20
-606.00000000000955
 30
0.0
 11
605.50000000012187
 21
-606.00000000000955
 31
0.0
1001
ACDBBLOCKREPETAG
1070
     1
1071
       60
1005
12652A
  0
LINE
  5
12652B
  8
OBJECT
 10
615.00000000012176
 20
-553.00000000000966
 30
0.0
 11
615.00000000012176
 21
-546.00000000000955
 31
0.0
1001
ACDBBLOCKREPETAG
1070
     1
1071
       61
1005
12652B
  0
LINE
  5
12652C
  8
OBJECT
 10
615.00000000012176
 20
-546.00000000000955
 30
0.0
 11
465.00000000012182
 21
-546.00000000000955
 31
0.0
1001
ACDBBLOCKREPETAG
1070
     1
1071
       62
1005
12652C
  0
LINE
  5
12652D
  8
OBJECT
 10
602.00000000012187
 20
-610.00000000000955
 30
0.0
 11
602.00000000012187
 21
-616.00000000000955
 31
0.0
1001
ACDBBLOCKREPETAG
1070
     1
1071
       63
1005
12652D
  0
LINE
  5
12652E
  8
OBJECT
 10
612.00000000012164
 20
-553.00000000000966
 30
0.0
 11
612.00000000012164
 21
-594.50000000000966
 31
0.0
1001
ACDBBLOCKREPETAG
1070
     1
1071
       64
1005
12652E
  0
LINE
  5
12652F
  8
OBJECT
 10
612.00000000012164
 20
-594.50000000000966
 30
0.0
 11
605.50000000012187
 21
-606.00000000000955
 31
0.0
1001
ACDBBLOCKREPETAG
1070
     1
1071
       65
1005
12652F
  0
LINE
  5
126530
  8
OBJECT
 10
605.50000000012187
 20
-606.00000000000955
 30
0.0
 11
602.00000000012187
 21
-610.00000000000955
 31
0.0
1001
ACDBBLOCKREPETAG
1070
     1
1071
       66
1005
126530
  0
LINE
  5
126531
  8
OBJECT
 10
468.00000000012182
 20
-594.50000000000966
 30
0.0
 11
474.5000000001217
 21
-606.00000000000955
 31
0.0
1001
ACDBBLOCKREPETAG
1070
     1
1071
       67
1005
126531
  0
LINE
  5
126532
  8
OBJECT
 10
474.5000000001217
 20
-606.00000000000955
 30
0.0
 11
478.0000000001217
 21
-610.00000000000955
 31
0.0
1001
ACDBBLOCKREPETAG
1070
     1
1071
       68
1005
126532
  0
ARC
  5
126533
  8
OBJECT
 10
540.00000000012176
 20
-228.10000000000809
 30
0.0
 40
386.89999999999998
 50
260.77870136257951
 51
279.22129863742049
1001
ACDBBLOCKREPETAG
1070
     1
1071
       69
1005
126533
  0
LINE
  5
126534
  8
OBJECT
 10
478.0000000001217
 20
-610.00000000000955
 30
0.0
 11
478.0000000001217
 21
-616.00000000000955
 31
0.0
1001
ACDBBLOCKREPETAG
1070
     1
1071
       70
1005
126534
  0
LINE
  5
126535
  8
OBJECT
 10
468.00000000012182
 20
-553.00000000000966
 30
0.0
 11
468.00000000012182
 21
-594.50000000000966
 31
0.0
1001
ACDBBLOCKREPETAG
1070
     1
1071
       71
1005
126535
  0
INSERT
  5
126536
  8
OBJECT
  2
*U44
 10
0.0
 20
0.0
 30
0.0
  0
LINE
  5
126537
  8
HIDDEN
 10
597.00000000012187
 20
-598.00000000000955
 30
0.0
 11
483.0000000001217
 21
-598.00000000000955
 31
0.0
1001
ACDBBLOCKREPETAG
1070
     1
1071
      431
1005
126537
  0
INSERT
  5
126538
  8
OBJECT
  2
*U45
 10
0.0
 20
0.0
 30
0.0
  0
LINE
  5
126539
  8
OBJECT
 10
118.00000000004179
 20
-563.00000000000955
 30
0.0
 11
118.00000000004179
 21
-556.00000000000955
 31
0.0
1001
ACDBBLOCKREPETAG
1070
     1
1071
       39
1005
126539
  0
LINE
  5
12653A
  8
OBJECT
 10
118.00000000004179
 20
-556.00000000000955
 30
0.0
 11
242.00000000004181
 21
-556.00000000000955
 31
0.0
1001
ACDBBLOCKREPETAG
1070
     1
1071
       40
1005
12653A
  0
LINE
  5
12653B
  8
OBJECT
 10
242.00000000004181
 20
-556.00000000000955
 30
0.0
 11
242.00000000004181
 21
-563.00000000000955
 31
0.0
1001
ACDBBLOCKREPETAG
1070
     1
1071
       41
1005
12653B
  0
LINE
  5
12653C
  8
OBJECT
 10
242.00000000004181
 20
-563.00000000000955
 30
0.0
 11
118.00000000004179
 21
-563.00000000000955
 31
0.0
1001
ACDBBLOCKREPETAG
1070
     1
1071
       42
1005
12653C
  0
LINE
  5
12653D
  8
OBJECT
 10
121.00000000004179
 20
-563.00000000000955
 30
0.0
 11
121.00000000004179
 21
-599.00000000000966
 31
0.0
1001
ACDBBLOCKREPETAG
1070
     1
1071
       43
1005
12653D
  0
LINE
  5
12653E
  8
OBJECT
 10
121.00000000004179
 20
-599.00000000000966
 30
0.0
 11
239.00000000004181
 21
-599.00000000000966
 31
0.0
1001
ACDBBLOCKREPETAG
1070
     1
1071
       44
1005
12653E
  0
LINE
  5
12653F
  8
OBJECT
 10
239.00000000004181
 20
-599.00000000000966
 30
0.0
 11
239.00000000004181
 21
-563.00000000000955
 31
0.0
1001
ACDBBLOCKREPETAG
1070
     1
1071
       45
1005
12653F
  0
LINE
  5
126540
  8
OBJECT
 10
125.50000000004179
 20
-603.00000000000966
 30
0.0
 11
125.50000000004179
 21
-610.00000000000955
 31
0.0
1001
ACDBBLOCKREPETAG
1070
     1
1071
       46
1005
126540
  0
LINE
  5
126541
  8
OBJECT
 10
234.50000000004181
 20
-610.00000000000955
 30
0.0
 11
234.50000000004181
 21
-603.00000000000966
 31
0.0
1001
ACDBBLOCKREPETAG
1070
     1
1071
       47
1005
126541
  0
LINE
  5
126542
  8
OBJECT
 10
234.50000000004181
 20
-603.00000000000966
 30
0.0
 11
125.50000000004179
 21
-603.00000000000966
 31
0.0
1001
ACDBBLOCKREPETAG
1070
     1
1071
       48
1005
126542
  0
LINE
  5
126543
  8
OBJECT
 10
121.00000000004179
 20
-599.00000000000966
 30
0.0
 11
125.50000000004179
 21
-603.00000000000966
 31
0.0
1001
ACDBBLOCKREPETAG
1070
     1
1071
       49
1005
126543
  0
LINE
  5
126544
  8
OBJECT
 10
239.00000000004181
 20
-599.00000000000966
 30
0.0
 11
234.50000000004181
 21
-603.00000000000966
 31
0.0
1001
ACDBBLOCKREPETAG
1070
     1
1071
       50
1005
126544
  0
LINE
  5
126545
  8
OBJECT
 10
118.00000000004179
 20
-613.00000000000864
 30
0.0
 11
118.00000000004179
 21
-616.00000000000955
 31
0.0
1001
ACDBBLOCKREPETAG
1070
     1
1071
       51
1005
126545
  0
ARC
  5
126546
  8
OBJECT
 10
121.00000000004179
 20
-613.00000000000864
 30
0.0
 40
3.0
 50
90.0
 51
180.0
1001
ACDBBLOCKREPETAG
1070
     1
1071
       52
1005
126546
  0
LINE
  5
126547
  8
OBJECT
 10
242.00000000004181
 20
-616.00000000000955
 30
0.0
 11
242.00000000004181
 21
-613.00000000001035
 31
0.0
1001
ACDBBLOCKREPETAG
1070
     1
1071
       53
1005
126547
  0
ARC
  5
126548
  8
OBJECT
 10
239.00000000004181
 20
-613.00000000001035
 30
0.0
 40
3.0
 50
0.0
 51
90.0
1001
ACDBBLOCKREPETAG
1070
     1
1071
       54
1005
126548
  0
LINE
  5
126549
  8
OBJECT
 10
239.00000000004181
 20
-610.00000000001035
 30
0.0
 11
121.00000000004179
 21
-610.00000000000864
 31
0.0
1001
ACDBBLOCKREPETAG
1070
     1
1071
       55
1005
126549
  0
LINE
  5
12654A
  8
HIDDEN
 10
135.50000000004181
 20
-608.00000000000955
 30
0.0
 11
224.50000000004181
 21
-608.00000000000955
 31
0.0
1001
ACDBBLOCKREPETAG
1070
     1
1071
      426
1005
12654A
  0
INSERT
  5
12654B
  8
OBJECT
  2
*U46
 10
0.0
 20
0.0
 30
0.0
  0
LINE
  5
12654C
  8
OBJECT
 10
485.00000000012182
 20
-99.000000000003183
 30
0.0
 11
485.00000000012182
 21
-92.000000000003183
 31
0.0
1001
ACDBBLOCKREPETAG
1070
     1
1071
       20
1005
12654C
  0
LINE
  5
12654D
  8
OBJECT
 10
485.00000000012182
 20
-92.000000000003183
 30
0.0
 11
595.00000000012164
 21
-92.000000000003183
 31
0.0
1001
ACDBBLOCKREPETAG
1070
     1
1071
       21
1005
12654D
  0
LINE
  5
12654E
  8
OBJECT
 10
595.00000000012164
 20
-92.000000000003183
 30
0.0
 11
595.00000000012164
 21
-99.000000000003183
 31
0.0
1001
ACDBBLOCKREPETAG
1070
     1
1071
       22
1005
12654E
  0
LINE
  5
12654F
  8
OBJECT
 10
595.00000000012164
 20
-99.000000000003183
 30
0.0
 11
485.00000000012182
 21
-99.000000000003183
 31
0.0
1001
ACDBBLOCKREPETAG
1070
     1
1071
       23
1005
12654F
  0
LINE
  5
126550
  8
OBJECT
 10
488.0000000001217
 20
-99.000000000003183
 30
0.0
 11
488.0000000001217
 21
-135.00000000000321
 31
0.0
1001
ACDBBLOCKREPETAG
1070
     1
1071
       24
1005
126550
  0
LINE
  5
126551
  8
OBJECT
 10
488.0000000001217
 20
-135.00000000000321
 30
0.0
 11
592.00000000012164
 21
-135.00000000000321
 31
0.0
1001
ACDBBLOCKREPETAG
1070
     1
1071
       25
1005
126551
  0
LINE
  5
126552
  8
OBJECT
 10
592.00000000012164
 20
-135.00000000000321
 30
0.0
 11
592.00000000012164
 21
-99.000000000003183
 31
0.0
1001
ACDBBLOCKREPETAG
1070
     1
1071
       26
1005
126552
  0
LINE
  5
126553
  8
OBJECT
 10
492.5000000001217
 20
-139.00000000000321
 30
0.0
 11
492.5000000001217
 21
-146.00000000000321
 31
0.0
1001
ACDBBLOCKREPETAG
1070
     1
1071
       27
1005
126553
  0
LINE
  5
126554
  8
OBJECT
 10
587.50000000012164
 20
-146.00000000000321
 30
0.0
 11
587.50000000012164
 21
-139.00000000000321
 31
0.0
1001
ACDBBLOCKREPETAG
1070
     1
1071
       28
1005
126554
  0
LINE
  5
126555
  8
OBJECT
 10
587.50000000012164
 20
-139.00000000000321
 30
0.0
 11
492.5000000001217
 21
-139.00000000000321
 31
0.0
1001
ACDBBLOCKREPETAG
1070
     1
1071
       29
1005
126555
  0
LINE
  5
126556
  8
OBJECT
 10
488.0000000001217
 20
-135.00000000000321
 30
0.0
 11
492.5000000001217
 21
-139.00000000000321
 31
0.0
1001
ACDBBLOCKREPETAG
1070
     1
1071
       30
1005
126556
  0
LINE
  5
126557
  8
OBJECT
 10
592.00000000012164
 20
-135.00000000000321
 30
0.0
 11
587.50000000012164
 21
-139.00000000000321
 31
0.0
1001
ACDBBLOCKREPETAG
1070
     1
1071
       31
1005
126557
  0
LINE
  5
126558
  8
OBJECT
 10
478.0000000001217
 20
-149.0000000000023
 30
0.0
 11
478.0000000001217
 21
-152.0000000000031
 31
0.0
1001
ACDBBLOCKREPETAG
1070
     1
1071
       32
1005
126558
  0
ARC
  5
126559
  8
OBJECT
 10
481.00000000012182
 20
-149.0000000000023
 30
0.0
 40
3.0
 50
90.0
 51
180.0
1001
ACDBBLOCKREPETAG
1070
     1
1071
       33
1005
126559
  0
LINE
  5
12655A
  8
OBJECT
 10
602.00000000012187
 20
-152.0000000000031
 30
0.0
 11
602.00000000012187
 21
-149.00000000000409
 31
0.0
1001
ACDBBLOCKREPETAG
1070
     1
1071
       34
1005
12655A
  0
ARC
  5
12655B
  8
OBJECT
 10
599.00000000012164
 20
-149.00000000000409
 30
0.0
 40
3.0
 50
0.0
 51
90.0
1001
ACDBBLOCKREPETAG
1070
     1
1071
       35
1005
12655B
  0
LINE
  5
12655C
  8
OBJECT
 10
599.00000000012164
 20
-146.00000000000409
 30
0.0
 11
481.00000000012182
 21
-146.0000000000023
 31
0.0
1001
ACDBBLOCKREPETAG
1070
     1
1071
       36
1005
12655C
  0
LINE
  5
12655D
  8
HIDDEN
 10
502.00000000012182
 20
-144.00000000000321
 30
0.0
 11
578.00000000012164
 21
-144.00000000000321
 31
0.0
1001
ACDBBLOCKREPETAG
1070
     1
1071
      423
1005
12655D
  0
INSERT
  5
12655E
  8
OBJECT
  2
*U47
 10
0.0
 20
0.0
 30
0.0
  0
LINE
  5
12655F
  8
OBJECT
 10
133.00000000004169
 20
-99.000000000003183
 30
0.0
 11
133.00000000004169
 21
-92.000000000003183
 31
0.0
1001
ACDBBLOCKREPETAG
1070
     1
1071
        1
1005
12655F
  0
LINE
  5
126560
  8
OBJECT
 10
133.00000000004169
 20
-92.000000000003183
 30
0.0
 11
227.00000000004181
 21
-92.000000000003183
 31
0.0
1001
ACDBBLOCKREPETAG
1070
     1
1071
        2
1005
126560
  0
LINE
  5
126561
  8
OBJECT
 10
227.00000000004181
 20
-92.000000000003183
 30
0.0
 11
227.00000000004181
 21
-99.000000000003183
 31
0.0
1001
ACDBBLOCKREPETAG
1070
     1
1071
        3
1005
126561
  0
LINE
  5
126562
  8
OBJECT
 10
227.00000000004181
 20
-99.000000000003183
 30
0.0
 11
133.00000000004169
 21
-99.000000000003183
 31
0.0
1001
ACDBBLOCKREPETAG
1070
     1
1071
        4
1005
126562
  0
LINE
  5
126563
  8
OBJECT
 10
136.00000000004169
 20
-99.000000000003183
 30
0.0
 11
136.00000000004169
 21
-135.00000000000321
 31
0.0
1001
ACDBBLOCKREPETAG
1070
     1
1071
        5
1005
126563
  0
LINE
  5
126564
  8
OBJECT
 10
136.00000000004169
 20
-135.00000000000321
 30
0.0
 11
224.00000000004181
 21
-135.00000000000321
 31
0.0
1001
ACDBBLOCKREPETAG
1070
     1
1071
        6
1005
126564
  0
LINE
  5
126565
  8
OBJECT
 10
224.00000000004181
 20
-135.00000000000321
 30
0.0
 11
224.00000000004181
 21
-99.000000000003183
 31
0.0
1001
ACDBBLOCKREPETAG
1070
     1
1071
        7
1005
126565
  0
LINE
  5
126566
  8
OBJECT
 10
140.50000000004181
 20
-139.00000000000321
 30
0.0
 11
140.50000000004181
 21
-146.00000000000321
 31
0.0
1001
ACDBBLOCKREPETAG
1070
     1
1071
        8
1005
126566
  0
LINE
  5
126567
  8
OBJECT
 10
219.50000000004189
 20
-146.00000000000321
 30
0.0
 11
219.50000000004189
 21
-139.00000000000321
 31
0.0
1001
ACDBBLOCKREPETAG
1070
     1
1071
        9
1005
126567
  0
LINE
  5
126568
  8
OBJECT
 10
219.50000000004189
 20
-139.00000000000321
 30
0.0
 11
140.50000000004181
 21
-139.00000000000321
 31
0.0
1001
ACDBBLOCKREPETAG
1070
     1
1071
       10
1005
126568
  0
LINE
  5
126569
  8
OBJECT
 10
136.00000000004169
 20
-135.00000000000321
 30
0.0
 11
140.50000000004181
 21
-139.00000000000321
 31
0.0
1001
ACDBBLOCKREPETAG
1070
     1
1071
       11
1005
126569
  0
LINE
  5
12656A
  8
OBJECT
 10
224.00000000004181
 20
-135.00000000000321
 30
0.0
 11
219.50000000004189
 21
-139.00000000000321
 31
0.0
1001
ACDBBLOCKREPETAG
1070
     1
1071
       12
1005
12656A
  0
LINE
  5
12656B
  8
OBJECT
 10
118.00000000004179
 20
-149.0000000000023
 30
0.0
 11
118.00000000004179
 21
-152.0000000000031
 31
0.0
1001
ACDBBLOCKREPETAG
1070
     1
1071
       13
1005
12656B
  0
ARC
  5
12656C
  8
OBJECT
 10
121.00000000004179
 20
-149.0000000000023
 30
0.0
 40
3.0
 50
90.0
 51
180.0
1001
ACDBBLOCKREPETAG
1070
     1
1071
       14
1005
12656C
  0
LINE
  5
12656D
  8
OBJECT
 10
242.00000000004181
 20
-152.0000000000031
 30
0.0
 11
242.00000000004181
 21
-149.00000000000409
 31
0.0
1001
ACDBBLOCKREPETAG
1070
     1
1071
       15
1005
12656D
  0
ARC
  5
12656E
  8
OBJECT
 10
239.00000000004181
 20
-149.00000000000409
 30
0.0
 40
3.0
 50
0.0
 51
90.0
1001
ACDBBLOCKREPETAG
1070
     1
1071
       16
1005
12656E
  0
LINE
  5
12656F
  8
OBJECT
 10
239.00000000004181
 20
-146.00000000000409
 30
0.0
 11
121.00000000004179
 21
-146.0000000000023
 31
0.0
1001
ACDBBLOCKREPETAG
1070
     1
1071
       17
1005
12656F
  0
LINE
  5
126570
  8
HIDDEN
 10
150.00000000004181
 20
-144.00000000000321
 30
0.0
 11
210.00000000004181
 21
-144.00000000000321
 31
0.0
1001
ACDBBLOCKREPETAG
1070
     1
1071
      420
1005
126570
  0
POLYLINE
  5
126571
  8
HIDDEN
 66
     1
 10
0.0
 20
0.0
 30
0.0
 70
     1
1001
ACDBBLOCKREPETAG
1070
     1
1071
      105
1005
0
  0
VERTEX
  5
12727C
  8
HIDDEN
 10
359.99999999987818
 20
0.0
 30
0.0
  0
VERTEX
  5
12727D
  8
HIDDEN
 10
719.99999999975626
 20
0.0
 30
0.0
  0
VERTEX
  5
12727E
  8
HIDDEN
 10
719.99999999975626
 20
-463.99999999984158
 30
0.0
  0
VERTEX
  5
12727F
  8
HIDDEN
 10
359.99999999987818
 20
-463.99999999984158
 30
0.0
  0
SEQEND
  5
127280
  8
HIDDEN
  0
POLYLINE
  5
126572
  8
HIDDEN
 66
     1
 10
0.0
 20
0.0
 30
0.0
 70
     1
1001
ACDBBLOCKREPETAG
1070
     1
1071
      110
1005
0
  0
VERTEX
  5
127281
  8
HIDDEN
 10
0.0
 20
0.0
 30
0.0
  0
VERTEX
  5
127282
  8
HIDDEN
 10
359.99999999987818
 20
0.0
 30
0.0
  0
VERTEX
  5
127283
  8
HIDDEN
 10
359.99999999987818
 20
-463.99999999984158
 30
0.0
  0
VERTEX
  5
127284
  8
HIDDEN
 10
0.0
 20
-463.99999999984158
 30
0.0
  0
SEQEND
  5
127285
  8
HIDDEN
  0
POLYLINE
  5
126573
  8
HIDDEN
 66
     1
 10
0.0
 20
0.0
 30
0.0
 70
     1
1001
ACDBBLOCKREPETAG
1070
     1
1071
      120
1005
0
  0
VERTEX
  5
127286
  8
HIDDEN
 10
359.99999999987818
 20
-463.99999999984158
 30
0.0
  0
VERTEX
  5
127287
  8
HIDDEN
 10
719.99999999975626
 20
-463.99999999984158
 30
0.0
  0
VERTEX
  5
127288
  8
HIDDEN
 10
719.99999999975626
 20
-927.99999999968372
 30
0.0
  0
VERTEX
  5
127289
  8
HIDDEN
 10
359.99999999987818
 20
-927.99999999968372
 30
0.0
  0
SEQEND
  5
12728A
  8
HIDDEN
  0
POLYLINE
  5
126574
  8
HIDDEN
 66
     1
 10
0.0
 20
0.0
 30
0.0
 70
     1
1001
ACDBBLOCKREPETAG
1070
     1
1071
      125
1005
0
  0
VERTEX
  5
12728B
  8
HIDDEN
 10
0.0
 20
-463.99999999984158
 30
0.0
  0
VERTEX
  5
12728C
  8
HIDDEN
 10
359.99999999987818
 20
-463.99999999984158
 30
0.0
  0
VERTEX
  5
12728D
  8
HIDDEN
 10
359.99999999987818
 20
-927.99999999968372
 30
0.0
  0
VERTEX
  5
12728E
  8
HIDDEN
 10
0.0
 20
-927.99999999968372
 30
0.0
  0
SEQEND
  5
12728F
  8
HIDDEN
  0
TEXT
  5
126575
  8
SLIM
 10
508.28571428553232
 20
-907.999999999691
 30
0.0
 40
48.0
  1
A4
 41
0.75
1001
ACDBBLOCKREPETAG
1070
     1
1071
      119
1005
0
  0
TEXT
  5
126576
  8
SLIM
 10
149.14285714279711
 20
-907.999999999691
 30
0.0
 40
48.0
  1
A3
 41
0.75
1001
ACDBBLOCKREPETAG
1070
     1
1071
      119
1005
0
  0
TEXT
  5
126577
  8
SLIM
 10
509.1428571426751
 20
-443.99999999984919
 30
0.0
 40
48.0
  1
A2
 41
0.75
1001
ACDBBLOCKREPETAG
1070
     1
1071
      119
1005
0
  0
TEXT
  5
126578
  8
SLIM
 10
156.85714285708281
 20
-443.99999999984919
 30
0.0
 40
48.0
  1
A1
 41
0.75
1001
ACDBBLOCKREPETAG
1070
     1
1071
      119
1005
0
  0
TEXT
  5
126579
  8
SLIM
 10
0.0000035665234464
 20
24.000004585317601
 30
0.0
 40
79.999999999972701
  1
枝管バリエーション
 41
0.75
1001
ACDBBLOCKREPETAG
1070
     1
1071
      119
1005
1229F1
  0
TEXT
  5
12657A
  8
SLIM
 10
0.0
 20
369.99999999999989
 30
0.0
 40
100.0
  1
4SRT-AX-S
 41
0.75
  0
LINE
  5
12657B
  8
SLIM
 10
4414.9999999999918
 20
-659.47385309434696
 30
0.0
 11
4419.4738530943396
 21
-654.99999999999966
 31
0.0
1001
ACDBBLOCKREPETAG
1070
     1
1071
        0
1005
0
1001
ACAD
1010
0.0
1020
0.0
1030
0.0
  0
LINE
  5
12657C
  8
SLIM
 10
4414.9999999999927
 20
-677.43436533648492
 30
0.0
 11
4437.4343653364776
 21
-654.99999999999966
 31
0.0
1001
ACAD
1010
0.0
1020
0.0
1030
0.0
1001
ACDBBLOCKREPETAG
1070
     1
1071
       14
1005
12657C
  0
LINE
  5
12657D
  8
SLIM
 10
4414.9999999999927
 20
-695.39487757862275
 30
0.0
 11
4455.3948775786157
 21
-654.99999999999966
 31
0.0
1001
ACAD
1010
0.0
1020
0.0
1030
0.0
1001
ACDBBLOCKREPETAG
1070
     1
1071
       15
1005
12657D
  0
LINE
  5
12657E
  8
SLIM
 10
4414.9999999999927
 20
-713.35538982076082
 30
0.0
 11
4473.3553898207538
 21
-654.99999999999966
 31
0.0
1001
ACAD
1010
0.0
1020
0.0
1030
0.0
1001
ACDBBLOCKREPETAG
1070
     1
1071
       16
1005
12657E
  0
LINE
  5
12657F
  8
SLIM
 10
4414.9999999999927
 20
-731.31590206289854
 30
0.0
 11
4491.3159020628918
 21
-654.99999999999966
 31
0.0
1001
ACAD
1010
0.0
1020
0.0
1030
0.0
1001
ACDBBLOCKREPETAG
1070
     1
1071
       17
1005
12657F
  0
LINE
  5
126580
  8
SLIM
 10
4414.9999999999927
 20
-749.27641430503661
 30
0.0
 11
4509.2764143050308
 21
-654.99999999999966
 31
0.0
1001
ACAD
1010
0.0
1020
0.0
1030
0.0
1001
ACDBBLOCKREPETAG
1070
     1
1071
       18
1005
126580
  0
LINE
  5
126581
  8
SLIM
 10
4414.9999999999955
 20
-767.23692654717433
 30
0.0
 11
4527.2369265471689
 21
-654.99999999999966
 31
0.0
1001
ACAD
1010
0.0
1020
0.0
1030
0.0
1001
ACDBBLOCKREPETAG
1070
     1
1071
       19
1005
126581
  0
LINE
  5
126582
  8
SLIM
 10
4414.9999999999955
 20
-785.1974387893124
 30
0.0
 11
4545.1974387893069
 21
-654.99999999999966
 31
0.0
1001
ACAD
1010
0.0
1020
0.0
1030
0.0
1001
ACDBBLOCKREPETAG
1070
     1
1071
       20
1005
126582
  0
LINE
  5
126583
  8
SLIM
 10
4414.9999999999973
 20
-803.15795103145024
 30
0.0
 11
4563.157951031445
 21
-654.99999999999966
 31
0.0
1001
ACAD
1010
0.0
1020
0.0
1030
0.0
1001
ACDBBLOCKREPETAG
1070
     1
1071
       21
1005
126583
  0
LINE
  5
126584
  8
SLIM
 10
4415.1454972543161
 20
-820.97296601926894
 30
0.0
 11
4581.1184632735849
 21
-654.99999999999966
 31
0.0
1001
ACAD
1010
0.0
1020
0.0
1030
0.0
1001
ACDBBLOCKREPETAG
1070
     1
1071
       22
1005
126584
  0
LINE
  5
126585
  8
SLIM
 10
4417.1046274952441
 20
-836.97434802047894
 30
0.0
 11
4585.0000000000073
 21
-669.07897551571602
 31
0.0
1001
ACAD
1010
0.0
1020
0.0
1030
0.0
1001
ACDBBLOCKREPETAG
1070
     1
1071
       23
1005
126585
  0
LINE
  5
126586
  8
SLIM
 10
4419.0637577361713
 20
-852.97573002168929
 30
0.0
 11
4585.0000000000073
 21
-687.03948775785454
 31
0.0
1001
ACAD
1010
0.0
1020
0.0
1030
0.0
1001
ACDBBLOCKREPETAG
1070
     1
1071
       24
1005
126586
  0
LINE
  5
126587
  8
SLIM
 10
4420.0
 20
-869.99999999999955
 30
0.0
 11
4585.0000000000073
 21
-704.99999999999341
 31
0.0
1001
ACAD
1010
0.0
1020
0.0
1030
0.0
1001
ACDBBLOCKREPETAG
1070
     1
1071
       25
1005
126587
  0
LINE
  5
126588
  8
SLIM
 10
4420.0
 20
-887.96051224213795
 30
0.0
 11
4585.0000000000073
 21
-722.96051224213215
 31
0.0
1001
ACAD
1010
0.0
1020
0.0
1030
0.0
1001
ACDBBLOCKREPETAG
1070
     1
1071
       26
1005
126588
  0
LINE
  5
126589
  8
SLIM
 10
4420.0
 20
-905.9210244842759
 30
0.0
 11
4585.0000000000073
 21
-740.92102448427045
 31
0.0
1001
ACAD
1010
0.0
1020
0.0
1030
0.0
1001
ACDBBLOCKREPETAG
1070
     1
1071
       27
1005
126589
  0
LINE
  5
12658A
  8
SLIM
 10
4420.0
 20
-923.88153672641431
 30
0.0
 11
4585.0000000000036
 21
-758.88153672640942
 31
0.0
1001
ACAD
1010
0.0
1020
0.0
1030
0.0
1001
ACDBBLOCKREPETAG
1070
     1
1071
       28
1005
12658A
  0
LINE
  5
12658B
  8
SLIM
 10
4420.0
 20
-941.84204896855272
 30
0.0
 11
4585.0000000000036
 21
-776.84204896854817
 31
0.0
1001
ACAD
1010
0.0
1020
0.0
1030
0.0
1001
ACDBBLOCKREPETAG
1070
     1
1071
       29
1005
12658B
  0
LINE
  5
12658C
  8
SLIM
 10
4420.0
 20
-959.80256121069101
 30
0.0
 11
4585.0000000000036
 21
-794.80256121068692
 31
0.0
1001
ACAD
1010
0.0
1020
0.0
1030
0.0
1001
ACDBBLOCKREPETAG
1070
     1
1071
       30
1005
12658C
  0
LINE
  5
12658D
  8
SLIM
 10
4420.0
 20
-977.76307345282919
 30
0.0
 11
4585.0000000000009
 21
-812.76307345282555
 31
0.0
1001
ACAD
1010
0.0
1020
0.0
1030
0.0
1001
ACDBBLOCKREPETAG
1070
     1
1071
       31
1005
12658D
  0
LINE
  5
12658E
  8
SLIM
 10
4430.0
 20
-985.7235856949676
 30
0.0
 11
4430.7235856949683
 21
-984.99999999999955
 31
0.0
1001
ACAD
1010
0.0
1020
0.0
1030
0.0
1001
ACDBBLOCKREPETAG
1070
     1
1071
       32
1005
12658E
  0
LINE
  5
12658F
  8
SLIM
 10
4430.7235856949683
 20
-984.99999999999955
 30
0.0
 11
4583.4738280308084
 21
-832.24975766415889
 31
0.0
1001
ACAD
1010
0.0
1020
0.0
1030
0.0
1001
ACDBBLOCKREPETAG
1070
     1
1071
       33
1005
12658F
  0
LINE
  5
126590
  8
SLIM
 10
4430.0
 20
-1003.684097937106
 30
0.0
 11
4448.6840979371054
 21
-984.99999999999955
 31
0.0
1001
ACAD
1010
0.0
1020
0.0
1030
0.0
1001
ACDBBLOCKREPETAG
1070
     1
1071
       34
1005
126590
  0
LINE
  5
126591
  8
SLIM
 10
4448.6840979371054
 20
-984.99999999999955
 30
0.0
 11
4580.9680345671368
 21
-852.71606336996854
 31
0.0
1001
ACAD
1010
0.0
1020
0.0
1030
0.0
1001
ACDBBLOCKREPETAG
1070
     1
1071
       35
1005
126591
  0
LINE
  5
126592
  8
SLIM
 10
4446.6446101792453
 20
-1004.999999999999
 30
0.0
 11
4466.6446101792453
 21
-984.99999999999955
 31
0.0
1001
ACAD
1010
0.0
1020
0.0
1030
0.0
1001
ACDBBLOCKREPETAG
1070
     1
1071
       36
1005
126592
  0
LINE
  5
126593
  8
SLIM
 10
4466.6446101792453
 20
-984.99999999999943
 30
0.0
 11
4580.0
 21
-871.64461017924452
 31
0.0
1001
ACAD
1010
0.0
1020
0.0
1030
0.0
1001
ACDBBLOCKREPETAG
1070
     1
1071
       37
1005
126593
  0
LINE
  5
126594
  8
SLIM
 10
4464.6051224213843
 20
-1004.999999999999
 30
0.0
 11
4484.6051224213843
 21
-984.99999999999943
 31
0.0
1001
ACAD
1010
0.0
1020
0.0
1030
0.0
1001
ACDBBLOCKREPETAG
1070
     1
1071
       38
1005
126594
  0
LINE
  5
126595
  8
SLIM
 10
4484.6051224213843
 20
-984.99999999999943
 30
0.0
 11
4580.0
 21
-889.60512242138304
 31
0.0
1001
ACAD
1010
0.0
1020
0.0
1030
0.0
1001
ACDBBLOCKREPETAG
1070
     1
1071
       39
1005
126595
  0
LINE
  5
126596
  8
SLIM
 10
4482.5656346635215
 20
-1004.999999999999
 30
0.0
 11
4502.5656346635215
 21
-984.99999999999943
 31
0.0
1001
ACAD
1010
0.0
1020
0.0
1030
0.0
1001
ACDBBLOCKREPETAG
1070
     1
1071
       40
1005
126596
  0
LINE
  5
126597
  8
SLIM
 10
4502.5656346635215
 20
-984.99999999999943
 30
0.0
 11
4579.9999999999991
 21
-907.56563466352145
 31
0.0
1001
ACAD
1010
0.0
1020
0.0
1030
0.0
1001
ACDBBLOCKREPETAG
1070
     1
1071
       41
1005
126597
  0
LINE
  5
126598
  8
SLIM
 10
4500.5261469056577
 20
-1004.999999999999
 30
0.0
 11
4520.5261469056577
 21
-984.99999999999943
 31
0.0
1001
ACAD
1010
0.0
1020
0.0
1030
0.0
1001
ACDBBLOCKREPETAG
1070
     1
1071
       42
1005
126598
  0
LINE
  5
126599
  8
SLIM
 10
4520.5261469056577
 20
-984.9999999999992
 30
0.0
 11
4579.9999999999991
 21
-925.5261469056602
 31
0.0
1001
ACAD
1010
0.0
1020
0.0
1030
0.0
1001
ACDBBLOCKREPETAG
1070
     1
1071
       43
1005
126599
  0
LINE
  5
12659A
  8
SLIM
 10
4518.4866591477967
 20
-1004.999999999999
 30
0.0
 11
4538.4866591478003
 21
-984.9999999999992
 31
0.0
1001
ACAD
1010
0.0
1020
0.0
1030
0.0
1001
ACDBBLOCKREPETAG
1070
     1
1071
       44
1005
12659A
  0
LINE
  5
12659B
  8
SLIM
 10
4538.4866591478003
 20
-984.9999999999992
 30
0.0
 11
4579.9999999999991
 21
-943.48665914779872
 31
0.0
1001
ACAD
1010
0.0
1020
0.0
1030
0.0
1001
ACDBBLOCKREPETAG
1070
     1
1071
       45
1005
12659B
  0
LINE
  5
12659C
  8
SLIM
 10
4536.4471713899347
 20
-1004.999999999999
 30
0.0
 11
4556.4471713899356
 21
-984.9999999999992
 31
0.0
1001
ACAD
1010
0.0
1020
0.0
1030
0.0
1001
ACDBBLOCKREPETAG
1070
     1
1071
       46
1005
12659C
  0
LINE
  5
12659D
  8
SLIM
 10
4556.4471713899356
 20
-984.9999999999992
 30
0.0
 11
4579.9999999999982
 21
-961.44717138993735
 31
0.0
1001
ACAD
1010
0.0
1020
0.0
1030
0.0
1001
ACDBBLOCKREPETAG
1070
     1
1071
       47
1005
12659D
  0
LINE
  5
12659E
  8
SLIM
 10
4554.4076836320728
 20
-1004.999999999999
 30
0.0
 11
4570.0
 21
-989.40768363207383
 31
0.0
1001
ACAD
1010
0.0
1020
0.0
1030
0.0
1001
ACDBBLOCKREPETAG
1070
     1
1071
       48
1005
12659E
  0
LINE
  5
12659F
  8
SLIM
 10
4574.4076836320728
 20
-984.9999999999992
 30
0.0
 11
4579.9999999999982
 21
-979.40768363207553
 31
0.0
1001
ACAD
1010
0.0
1020
0.0
1030
0.0
1001
ACDBBLOCKREPETAG
1070
     1
1071
       49
1005
12659F
  0
LINE
  5
1265A0
  8
OBJECT
 10
4414.9999999999918
 20
-654.99999999999966
 30
0.0
 11
4414.9999999999973
 21
-819.78460339903484
 31
0.0
1001
ACDBBLOCKREPETAG
1070
     1
1071
        1
1005
1265A0
  0
LINE
  5
1265A1
  8
OBJECT
 10
4585.0000000000073
 20
-654.99999999999966
 30
0.0
 11
4585.0000000000009
 21
-819.78460339904143
 31
0.0
1001
ACDBBLOCKREPETAG
1070
     1
1071
        2
1005
1265A1
  0
LINE
  5
1265A2
  8
OBJECT
 10
4585.0000000000073
 20
-654.99999999999966
 30
0.0
 11
4414.9999999999918
 21
-654.99999999999966
 31
0.0
1001
ACDBBLOCKREPETAG
1070
     1
1071
        3
1005
1265A2
  0
LINE
  5
1265A3
  8
OBJECT
 10
4579.9999999999982
 20
-984.9999999999992
 30
0.0
 11
4420.0
 21
-984.99999999999955
 31
0.0
1001
ACDBBLOCKREPETAG
1070
     1
1071
        4
1005
1265A3
  0
LINE
  5
1265A4
  8
OBJECT
 10
4414.9999999999973
 20
-819.78460339903484
 30
0.0
 11
4420.0
 21
-860.62257748298634
 31
0.0
1001
ACDBBLOCKREPETAG
1070
     1
1071
        6
1005
1265A4
  0
LINE
  5
1265A5
  8
OBJECT
 10
4420.0
 20
-860.62257748298634
 30
0.0
 11
4420.0
 21
-984.99999999999955
 31
0.0
1001
ACDBBLOCKREPETAG
1070
     1
1071
        7
1005
1265A5
  0
LINE
  5
1265A6
  8
OBJECT
 10
4585.0000000000009
 20
-819.78460339904143
 30
0.0
 11
4580.0
 21
-860.62257748298634
 31
0.0
1001
ACDBBLOCKREPETAG
1070
     1
1071
        8
1005
1265A6
  0
LINE
  5
1265A7
  8
OBJECT
 10
4580.0
 20
-860.62257748298634
 30
0.0
 11
4579.9999999999982
 21
-984.9999999999992
 31
0.0
1001
ACDBBLOCKREPETAG
1070
     1
1071
        9
1005
1265A7
  0
LINE
  5
1265A8
  8
OBJECT
 10
4430.0
 20
-984.99999999999955
 30
0.0
 11
4430.0
 21
-1004.999999999999
 31
0.0
1001
ACDBBLOCKREPETAG
1070
     1
1071
       10
1005
1265A8
  0
LINE
  5
1265A9
  8
OBJECT
 10
4430.0
 20
-1004.999999999999
 30
0.0
 11
4570.0
 21
-1004.999999999999
 31
0.0
1001
ACDBBLOCKREPETAG
1070
     1
1071
       11
1005
1265A9
  0
LINE
  5
1265AA
  8
OBJECT
 10
4570.0
 20
-1004.999999999999
 30
0.0
 11
4570.0
 21
-984.9999999999992
 31
0.0
1001
ACDBBLOCKREPETAG
1070
     1
1071
       12
1005
1265AA
  0
LINE
  5
1265AB
  8
SLIM
 10
3914.9999999999941
 20
-659.47385309434696
 30
0.0
 11
3919.47385309434
 21
-654.99999999999966
 31
0.0
1001
ACDBBLOCKREPETAG
1070
     1
1071
        0
1005
0
1001
ACAD
1010
0.0
1020
0.0
1030
0.0
  0
LINE
  5
1265AC
  8
SLIM
 10
3914.9999999999941
 20
-677.43436533648492
 30
0.0
 11
3937.434365336479
 21
-654.99999999999966
 31
0.0
1001
ACAD
1010
0.0
1020
0.0
1030
0.0
1001
ACDBBLOCKREPETAG
1070
     1
1071
       14
1005
1265AC
  0
LINE
  5
1265AD
  8
SLIM
 10
3914.9999999999941
 20
-695.39487757862275
 30
0.0
 11
3955.394877578618
 21
-654.99999999999966
 31
0.0
1001
ACAD
1010
0.0
1020
0.0
1030
0.0
1001
ACDBBLOCKREPETAG
1070
     1
1071
       15
1005
1265AD
  0
LINE
  5
1265AE
  8
SLIM
 10
3914.9999999999941
 20
-713.35538982076082
 30
0.0
 11
3973.3553898207551
 21
-654.99999999999966
 31
0.0
1001
ACAD
1010
0.0
1020
0.0
1030
0.0
1001
ACDBBLOCKREPETAG
1070
     1
1071
       16
1005
1265AE
  0
LINE
  5
1265AF
  8
SLIM
 10
3914.999999999995
 20
-731.31590206289854
 30
0.0
 11
3991.3159020628941
 21
-654.99999999999966
 31
0.0
1001
ACAD
1010
0.0
1020
0.0
1030
0.0
1001
ACDBBLOCKREPETAG
1070
     1
1071
       17
1005
1265AF
  0
LINE
  5
1265B0
  8
SLIM
 10
3914.999999999995
 20
-749.27641430503661
 30
0.0
 11
4009.2764143050308
 21
-654.99999999999966
 31
0.0
1001
ACAD
1010
0.0
1020
0.0
1030
0.0
1001
ACDBBLOCKREPETAG
1070
     1
1071
       18
1005
1265B0
  0
LINE
  5
1265B1
  8
SLIM
 10
3914.999999999995
 20
-767.23692654717433
 30
0.0
 11
4027.2369265471689
 21
-654.99999999999966
 31
0.0
1001
ACAD
1010
0.0
1020
0.0
1030
0.0
1001
ACDBBLOCKREPETAG
1070
     1
1071
       19
1005
1265B1
  0
LINE
  5
1265B2
  8
SLIM
 10
3914.999999999995
 20
-785.1974387893124
 30
0.0
 11
4045.1974387893069
 21
-654.99999999999966
 31
0.0
1001
ACAD
1010
0.0
1020
0.0
1030
0.0
1001
ACDBBLOCKREPETAG
1070
     1
1071
       20
1005
1265B2
  0
LINE
  5
1265B3
  8
SLIM
 10
3914.9999999999968
 20
-803.15795103145024
 30
0.0
 11
4063.157951031445
 21
-654.99999999999966
 31
0.0
1001
ACAD
1010
0.0
1020
0.0
1030
0.0
1001
ACDBBLOCKREPETAG
1070
     1
1071
       21
1005
1265B3
  0
LINE
  5
1265B4
  8
SLIM
 10
3915.1454972543161
 20
-820.97296601926894
 30
0.0
 11
4081.1184632735849
 21
-654.99999999999966
 31
0.0
1001
ACAD
1010
0.0
1020
0.0
1030
0.0
1001
ACDBBLOCKREPETAG
1070
     1
1071
       22
1005
1265B4
  0
LINE
  5
1265B5
  8
SLIM
 10
3917.104627495245
 20
-836.97434802047894
 30
0.0
 11
4085.0000000000068
 21
-669.07897551571602
 31
0.0
1001
ACAD
1010
0.0
1020
0.0
1030
0.0
1001
ACDBBLOCKREPETAG
1070
     1
1071
       23
1005
1265B5
  0
LINE
  5
1265B6
  8
SLIM
 10
3919.0637577361722
 20
-852.97573002168929
 30
0.0
 11
4085.0000000000068
 21
-687.03948775785454
 31
0.0
1001
ACAD
1010
0.0
1020
0.0
1030
0.0
1001
ACDBBLOCKREPETAG
1070
     1
1071
       24
1005
1265B6
  0
LINE
  5
1265B7
  8
SLIM
 10
3920.0
 20
-869.99999999999955
 30
0.0
 11
4085.0000000000068
 21
-704.99999999999341
 31
0.0
1001
ACAD
1010
0.0
1020
0.0
1030
0.0
1001
ACDBBLOCKREPETAG
1070
     1
1071
       25
1005
1265B7
  0
LINE
  5
1265B8
  8
SLIM
 10
3920.0
 20
-887.96051224213795
 30
0.0
 11
4085.0000000000059
 21
-722.96051224213215
 31
0.0
1001
ACAD
1010
0.0
1020
0.0
1030
0.0
1001
ACDBBLOCKREPETAG
1070
     1
1071
       26
1005
1265B8
  0
LINE
  5
1265B9
  8
SLIM
 10
3920.0
 20
-905.9210244842759
 30
0.0
 11
4085.0000000000059
 21
-740.92102448427045
 31
0.0
1001
ACAD
1010
0.0
1020
0.0
1030
0.0
1001
ACDBBLOCKREPETAG
1070
     1
1071
       27
1005
1265B9
  0
LINE
  5
1265BA
  8
SLIM
 10
3920.0
 20
-923.88153672641431
 30
0.0
 11
4085.000000000005
 21
-758.88153672640942
 31
0.0
1001
ACAD
1010
0.0
1020
0.0
1030
0.0
1001
ACDBBLOCKREPETAG
1070
     1
1071
       28
1005
1265BA
  0
LINE
  5
1265BB
  8
SLIM
 10
3920.0
 20
-941.84204896855272
 30
0.0
 11
4085.0000000000041
 21
-776.84204896854817
 31
0.0
1001
ACAD
1010
0.0
1020
0.0
1030
0.0
1001
ACDBBLOCKREPETAG
1070
     1
1071
       29
1005
1265BB
  0
LINE
  5
1265BC
  8
SLIM
 10
3920.0
 20
-959.80256121069101
 30
0.0
 11
4085.0000000000041
 21
-794.80256121068692
 31
0.0
1001
ACAD
1010
0.0
1020
0.0
1030
0.0
1001
ACDBBLOCKREPETAG
1070
     1
1071
       30
1005
1265BC
  0
LINE
  5
1265BD
  8
SLIM
 10
3920.0
 20
-977.76307345282919
 30
0.0
 11
4085.0000000000032
 21
-812.76307345282555
 31
0.0
1001
ACAD
1010
0.0
1020
0.0
1030
0.0
1001
ACDBBLOCKREPETAG
1070
     1
1071
       31
1005
1265BD
  0
LINE
  5
1265BE
  8
SLIM
 10
3930.0
 20
-985.7235856949676
 30
0.0
 11
3930.7235856949678
 21
-984.99999999999955
 31
0.0
1001
ACAD
1010
0.0
1020
0.0
1030
0.0
1001
ACDBBLOCKREPETAG
1070
     1
1071
       32
1005
1265BE
  0
LINE
  5
1265BF
  8
SLIM
 10
3930.7235856949678
 20
-984.99999999999955
 30
0.0
 11
4083.4738280308079
 21
-832.24975766415889
 31
0.0
1001
ACAD
1010
0.0
1020
0.0
1030
0.0
1001
ACDBBLOCKREPETAG
1070
     1
1071
       33
1005
1265BF
  0
LINE
  5
1265C0
  8
SLIM
 10
3930.0
 20
-1003.684097937106
 30
0.0
 11
3948.6840979371068
 21
-984.99999999999955
 31
0.0
1001
ACAD
1010
0.0
1020
0.0
1030
0.0
1001
ACDBBLOCKREPETAG
1070
     1
1071
       34
1005
1265C0
  0
LINE
  5
1265C1
  8
SLIM
 10
3948.6840979371068
 20
-984.99999999999955
 30
0.0
 11
4080.9680345671368
 21
-852.71606336996854
 31
0.0
1001
ACAD
1010
0.0
1020
0.0
1030
0.0
1001
ACDBBLOCKREPETAG
1070
     1
1071
       35
1005
1265C1
  0
LINE
  5
1265C2
  8
SLIM
 10
3946.6446101792449
 20
-1004.999999999999
 30
0.0
 11
3966.6446101792449
 21
-984.99999999999955
 31
0.0
1001
ACAD
1010
0.0
1020
0.0
1030
0.0
1001
ACDBBLOCKREPETAG
1070
     1
1071
       36
1005
1265C2
  0
LINE
  5
1265C3
  8
SLIM
 10
3966.6446101792449
 20
-984.99999999999943
 30
0.0
 11
4080.0
 21
-871.64461017924452
 31
0.0
1001
ACAD
1010
0.0
1020
0.0
1030
0.0
1001
ACDBBLOCKREPETAG
1070
     1
1071
       37
1005
1265C3
  0
LINE
  5
1265C4
  8
SLIM
 10
3964.6051224213829
 20
-1004.999999999999
 30
0.0
 11
3984.6051224213829
 21
-984.99999999999943
 31
0.0
1001
ACAD
1010
0.0
1020
0.0
1030
0.0
1001
ACDBBLOCKREPETAG
1070
     1
1071
       38
1005
1265C4
  0
LINE
  5
1265C5
  8
SLIM
 10
3984.6051224213829
 20
-984.99999999999943
 30
0.0
 11
4080.0
 21
-889.60512242138304
 31
0.0
1001
ACAD
1010
0.0
1020
0.0
1030
0.0
1001
ACDBBLOCKREPETAG
1070
     1
1071
       39
1005
1265C5
  0
LINE
  5
1265C6
  8
SLIM
 10
3982.565634663521
 20
-1004.999999999999
 30
0.0
 11
4002.565634663521
 21
-984.99999999999943
 31
0.0
1001
ACAD
1010
0.0
1020
0.0
1030
0.0
1001
ACDBBLOCKREPETAG
1070
     1
1071
       40
1005
1265C6
  0
LINE
  5
1265C7
  8
SLIM
 10
4002.565634663521
 20
-984.99999999999943
 30
0.0
 11
4079.9999999999991
 21
-907.56563466352145
 31
0.0
1001
ACAD
1010
0.0
1020
0.0
1030
0.0
1001
ACDBBLOCKREPETAG
1070
     1
1071
       41
1005
1265C7
  0
LINE
  5
1265C8
  8
SLIM
 10
4000.5261469056582
 20
-1004.999999999999
 30
0.0
 11
4020.52614690566
 21
-984.99999999999943
 31
0.0
1001
ACAD
1010
0.0
1020
0.0
1030
0.0
1001
ACDBBLOCKREPETAG
1070
     1
1071
       42
1005
1265C8
  0
LINE
  5
1265C9
  8
SLIM
 10
4020.52614690566
 20
-984.9999999999992
 30
0.0
 11
4079.9999999999991
 21
-925.5261469056602
 31
0.0
1001
ACAD
1010
0.0
1020
0.0
1030
0.0
1001
ACDBBLOCKREPETAG
1070
     1
1071
       43
1005
1265C9
  0
LINE
  5
1265CA
  8
SLIM
 10
4018.486659147798
 20
-1004.999999999999
 30
0.0
 11
4038.486659147798
 21
-984.9999999999992
 31
0.0
1001
ACAD
1010
0.0
1020
0.0
1030
0.0
1001
ACDBBLOCKREPETAG
1070
     1
1071
       44
1005
1265CA
  0
LINE
  5
1265CB
  8
SLIM
 10
4038.486659147798
 20
-984.9999999999992
 30
0.0
 11
4079.9999999999991
 21
-943.48665914779872
 31
0.0
1001
ACAD
1010
0.0
1020
0.0
1030
0.0
1001
ACDBBLOCKREPETAG
1070
     1
1071
       45
1005
1265CB
  0
LINE
  5
1265CC
  8
SLIM
 10
4036.4471713899361
 20
-1004.999999999999
 30
0.0
 11
4056.4471713899361
 21
-984.9999999999992
 31
0.0
1001
ACAD
1010
0.0
1020
0.0
1030
0.0
1001
ACDBBLOCKREPETAG
1070
     1
1071
       46
1005
1265CC
  0
LINE
  5
1265CD
  8
SLIM
 10
4056.4471713899361
 20
-984.9999999999992
 30
0.0
 11
4079.9999999999991
 21
-961.44717138993735
 31
0.0
1001
ACAD
1010
0.0
1020
0.0
1030
0.0
1001
ACDBBLOCKREPETAG
1070
     1
1071
       47
1005
1265CD
  0
LINE
  5
1265CE
  8
SLIM
 10
4054.4076836320728
 20
-1004.999999999999
 30
0.0
 11
4070.0
 21
-989.40768363207383
 31
0.0
1001
ACAD
1010
0.0
1020
0.0
1030
0.0
1001
ACDBBLOCKREPETAG
1070
     1
1071
       48
1005
1265CE
  0
LINE
  5
1265CF
  8
SLIM
 10
4074.4076836320728
 20
-984.9999999999992
 30
0.0
 11
4079.9999999999991
 21
-979.40768363207553
 31
0.0
1001
ACAD
1010
0.0
1020
0.0
1030
0.0
1001
ACDBBLOCKREPETAG
1070
     1
1071
       49
1005
1265CF
  0
LINE
  5
1265D0
  8
OBJECT
 10
3914.9999999999941
 20
-654.99999999999966
 30
0.0
 11
3914.9999999999968
 21
-819.78460339903484
 31
0.0
1001
ACDBBLOCKREPETAG
1070
     1
1071
        1
1005
1265D0
  0
LINE
  5
1265D1
  8
OBJECT
 10
4085.0000000000068
 20
-654.99999999999966
 30
0.0
 11
4085.0000000000032
 21
-819.78460339904143
 31
0.0
1001
ACDBBLOCKREPETAG
1070
     1
1071
        2
1005
1265D1
  0
LINE
  5
1265D2
  8
OBJECT
 10
4085.0000000000068
 20
-654.99999999999966
 30
0.0
 11
3914.9999999999941
 21
-654.99999999999966
 31
0.0
1001
ACDBBLOCKREPETAG
1070
     1
1071
        3
1005
1265D2
  0
LINE
  5
1265D3
  8
OBJECT
 10
4079.9999999999991
 20
-984.9999999999992
 30
0.0
 11
3920.0
 21
-984.99999999999955
 31
0.0
1001
ACDBBLOCKREPETAG
1070
     1
1071
        4
1005
1265D3
  0
LINE
  5
1265D4
  8
OBJECT
 10
3914.9999999999968
 20
-819.78460339903484
 30
0.0
 11
3920.0
 21
-860.62257748298634
 31
0.0
1001
ACDBBLOCKREPETAG
1070
     1
1071
        6
1005
1265D4
  0
LINE
  5
1265D5
  8
OBJECT
 10
3920.0
 20
-860.62257748298634
 30
0.0
 11
3920.0
 21
-984.99999999999955
 31
0.0
1001
ACDBBLOCKREPETAG
1070
     1
1071
        7
1005
1265D5
  0
LINE
  5
1265D6
  8
OBJECT
 10
4085.0000000000032
 20
-819.78460339904143
 30
0.0
 11
4080.0
 21
-860.62257748298634
 31
0.0
1001
ACDBBLOCKREPETAG
1070
     1
1071
        8
1005
1265D6
  0
LINE
  5
1265D7
  8
OBJECT
 10
4080.0
 20
-860.62257748298634
 30
0.0
 11
4079.9999999999991
 21
-984.9999999999992
 31
0.0
1001
ACDBBLOCKREPETAG
1070
     1
1071
        9
1005
1265D7
  0
LINE
  5
1265D8
  8
OBJECT
 10
3930.0
 20
-984.99999999999955
 30
0.0
 11
3930.0
 21
-1004.999999999999
 31
0.0
1001
ACDBBLOCKREPETAG
1070
     1
1071
       10
1005
1265D8
  0
LINE
  5
1265D9
  8
OBJECT
 10
3930.0
 20
-1004.999999999999
 30
0.0
 11
4070.0
 21
-1004.999999999999
 31
0.0
1001
ACDBBLOCKREPETAG
1070
     1
1071
       11
1005
1265D9
  0
LINE
  5
1265DA
  8
OBJECT
 10
4070.0
 20
-1004.999999999999
 30
0.0
 11
4070.0
 21
-984.9999999999992
 31
0.0
1001
ACDBBLOCKREPETAG
1070
     1
1071
       12
1005
1265DA
  0
LINE
  5
1265DB
  8
OBJECT
 10
4423.0
 20
-470.99999999999937
 30
0.0
 11
4423.0
 21
-449.99999999999937
 31
0.0
1001
ACDBBLOCKREPETAG
1070
     1
1071
       22
1005
1265DB
  0
LINE
  5
1265DC
  8
OBJECT
 10
4423.0
 20
-449.99999999999937
 30
0.0
 11
4577.0
 21
-449.99999999999937
 31
0.0
1001
ACDBBLOCKREPETAG
1070
     1
1071
       23
1005
1265DC
  0
LINE
  5
1265DD
  8
HIDDEN
 10
4443.0
 20
-519.99999999999955
 30
0.0
 11
4557.0
 21
-519.99999999999955
 31
0.0
1001
ACDBBLOCKREPETAG
1070
     1
1071
       24
1005
1265DD
  0
LINE
  5
1265DE
  8
OBJECT
 10
4577.0
 20
-449.99999999999937
 30
0.0
 11
4577.0
 21
-470.99999999999937
 31
0.0
1001
ACDBBLOCKREPETAG
1070
     1
1071
       25
1005
1265DE
  0
LINE
  5
1265DF
  8
OBJECT
 10
4577.0
 20
-470.99999999999937
 30
0.0
 11
4423.0
 21
-470.99999999999937
 31
0.0
1001
ACDBBLOCKREPETAG
1070
     1
1071
       26
1005
1265DF
  0
LINE
  5
1265E0
  8
CENTER
 10
4500.0
 20
-434.99999999999949
 30
0.0
 11
4500.0
 21
-789.99999999999955
 31
0.0
1001
ACDBBLOCKREPETAG
1070
     1
1071
       27
1005
1265E0
  0
LINE
  5
1265E1
  8
OBJECT
 10
4425.0
 20
-533.99999999999955
 30
0.0
 11
4425.0
 21
-777.99999999999955
 31
0.0
1001
ACDBBLOCKREPETAG
1070
     1
1071
       28
1005
1265E1
  0
LINE
  5
1265E2
  8
OBJECT
 10
4428.0
 20
-470.99999999999937
 30
0.0
 11
4428.0
 21
-533.99999999999955
 31
0.0
1001
ACDBBLOCKREPETAG
1070
     1
1071
       29
1005
1265E2
  0
LINE
  5
1265E3
  8
OBJECT
 10
4572.0
 20
-533.99999999999955
 30
0.0
 11
4572.0
 21
-470.99999999999937
 31
0.0
1001
ACDBBLOCKREPETAG
1070
     1
1071
       30
1005
1265E3
  0
LINE
  5
1265E4
  8
OBJECT
 10
4420.0
 20
-777.99999999999955
 30
0.0
 11
4580.0
 21
-777.99999999999955
 31
0.0
1001
ACDBBLOCKREPETAG
1070
     1
1071
       31
1005
1265E4
  0
LINE
  5
1265E5
  8
OBJECT
 10
4574.9999999997199
 20
-533.99999999999955
 30
0.0
 11
4425.0
 21
-533.99999999999955
 31
0.0
1001
ACDBBLOCKREPETAG
1070
     1
1071
       32
1005
1265E5
  0
LINE
  5
1265E6
  8
OBJECT
 10
4420.0
 20
-777.99999999999955
 30
0.0
 11
4420.0
 21
-789.99999999999955
 31
0.0
1001
ACDBBLOCKREPETAG
1070
     1
1071
       33
1005
1265E6
  0
LINE
  5
1265E7
  8
OBJECT
 10
4420.0
 20
-789.99999999999955
 30
0.0
 11
4580.0
 21
-789.99999999999955
 31
0.0
1001
ACDBBLOCKREPETAG
1070
     1
1071
       34
1005
1265E7
  0
LINE
  5
1265E8
  8
OBJECT
 10
4580.0
 20
-789.99999999999955
 30
0.0
 11
4580.0
 21
-777.99999999999955
 31
0.0
1001
ACDBBLOCKREPETAG
1070
     1
1071
       35
1005
1265E8
  0
LINE
  5
1265E9
  8
OBJECT
 10
4574.9999999997199
 20
-533.99999999999955
 30
0.0
 11
4575.0
 21
-777.99999999999955
 31
0.0
1001
ACDBBLOCKREPETAG
1070
     1
1071
       37
1005
1265E9
  0
POINT
  5
1265EA
  8
DOTS
 10
4500.0
 20
-654.99999999999966
 30
0.0
1001
ACDBBLOCKREPETAG
1070
     1
1071
      188
1005
1265EA
  0
LINE
  5
1265EB
  8
OBJECT
 10
3923.0
 20
-470.99999999999937
 30
0.0
 11
3923.0
 21
-449.99999999999937
 31
0.0
1001
ACDBBLOCKREPETAG
1070
     1
1071
        0
1005
1265EB
  0
LINE
  5
1265EC
  8
OBJECT
 10
3923.0
 20
-449.99999999999937
 30
0.0
 11
4077.0
 21
-449.99999999999937
 31
0.0
1001
ACDBBLOCKREPETAG
1070
     1
1071
        1
1005
1265EC
  0
LINE
  5
1265ED
  8
HIDDEN
 10
3943.0
 20
-519.99999999999955
 30
0.0
 11
4057.0
 21
-519.99999999999955
 31
0.0
1001
ACDBBLOCKREPETAG
1070
     1
1071
        2
1005
1265ED
  0
LINE
  5
1265EE
  8
OBJECT
 10
4077.0
 20
-449.99999999999937
 30
0.0
 11
4077.0
 21
-470.99999999999937
 31
0.0
1001
ACDBBLOCKREPETAG
1070
     1
1071
        3
1005
1265EE
  0
LINE
  5
1265EF
  8
OBJECT
 10
4077.0
 20
-470.99999999999937
 30
0.0
 11
3923.0
 21
-470.99999999999937
 31
0.0
1001
ACDBBLOCKREPETAG
1070
     1
1071
        4
1005
1265EF
  0
LINE
  5
1265F0
  8
CENTER
 10
4000.0
 20
-434.99999999999949
 30
0.0
 11
4000.0
 21
-789.99999999999955
 31
0.0
1001
ACDBBLOCKREPETAG
1070
     1
1071
        5
1005
1265F0
  0
LINE
  5
1265F1
  8
OBJECT
 10
3925.0
 20
-533.99999999999955
 30
0.0
 11
3925.0
 21
-777.99999999999955
 31
0.0
1001
ACDBBLOCKREPETAG
1070
     1
1071
        6
1005
1265F1
  0
LINE
  5
1265F2
  8
OBJECT
 10
3928.0
 20
-470.99999999999937
 30
0.0
 11
3928.0
 21
-533.99999999999955
 31
0.0
1001
ACDBBLOCKREPETAG
1070
     1
1071
        7
1005
1265F2
  0
LINE
  5
1265F3
  8
OBJECT
 10
4072.0
 20
-533.99999999999955
 30
0.0
 11
4072.0
 21
-470.99999999999937
 31
0.0
1001
ACDBBLOCKREPETAG
1070
     1
1071
        8
1005
1265F3
  0
LINE
  5
1265F4
  8
OBJECT
 10
3920.0
 20
-777.99999999999955
 30
0.0
 11
4080.0
 21
-777.99999999999955
 31
0.0
1001
ACDBBLOCKREPETAG
1070
     1
1071
        9
1005
1265F4
  0
LINE
  5
1265F5
  8
OBJECT
 10
4080.0
 20
-533.99999999999955
 30
0.0
 11
3925.0
 21
-533.99999999999955
 31
0.0
1001
ACDBBLOCKREPETAG
1070
     1
1071
       10
1005
1265F5
  0
LINE
  5
1265F6
  8
OBJECT
 10
3920.0
 20
-777.99999999999955
 30
0.0
 11
3920.0
 21
-789.99999999999955
 31
0.0
1001
ACDBBLOCKREPETAG
1070
     1
1071
       11
1005
1265F6
  0
LINE
  5
1265F7
  8
OBJECT
 10
3920.0
 20
-789.99999999999955
 30
0.0
 11
4080.0
 21
-789.99999999999955
 31
0.0
1001
ACDBBLOCKREPETAG
1070
     1
1071
       12
1005
1265F7
  0
LINE
  5
1265F8
  8
OBJECT
 10
4080.0
 20
-789.99999999999955
 30
0.0
 11
4080.0
 21
-777.99999999999955
 31
0.0
1001
ACDBBLOCKREPETAG
1070
     1
1071
       13
1005
1265F8
  0
LINE
  5
1265F9
  8
OBJECT
 10
4074.9999999998631
 20
-657.99999999985039
 30
0.0
 11
4075.0
 21
-777.99999999999955
 31
0.0
1001
ACDBBLOCKREPETAG
1070
     1
1071
       15
1005
1265F9
  0
LINE
  5
1265FA
  8
OBJECT
 10
4074.9999908029849
 20
-657.99998602702135
 30
0.0
 11
4080.0
 21
-657.99998602702135
 31
0.0
1001
ACDBBLOCKREPETAG
1070
     1
1071
       16
1005
1265FA
  0
ARC
  5
1265FB
  8
OBJECT
 10
4200.6872746716726
 20
-649.40809941010718
 30
0.0
 40
170.6350503965856
 50
137.44134459184301
 51
149.91949581337221
1001
ACDBBLOCKREPETAG
1070
     1
1071
       17
1005
1265FB
  0
ARC
  5
1265FC
  8
OBJECT
 10
4118.8455987040506
 20
-605.88272669536445
 30
0.0
 40
78.072222021763665
 50
147.4551531038623
 51
164.6636599771798
1001
ACDBBLOCKREPETAG
1070
     1
1071
       18
1005
1265FC
  0
ARC
  5
1265FD
  8
OBJECT
 10
4085.7554349608722
 20
-595.99999999999955
 30
0.0
 40
43.55353926885617
 50
165.6884523007466
 51
194.3115476992534
1001
ACDBBLOCKREPETAG
1070
     1
1071
       19
1005
1265FD
  0
ARC
  5
1265FE
  8
OBJECT
 10
4200.6872746716726
 20
-542.59190058989179
 30
0.0
 40
170.6350503965856
 50
210.08050418662771
 51
222.55865540815699
1001
ACDBBLOCKREPETAG
1070
     1
1071
       20
1005
1265FE
  0
ARC
  5
1265FF
  8
OBJECT
 10
4118.8455987040506
 20
-586.11727330463452
 30
0.0
 40
78.072222021763665
 50
195.3363400228202
 51
212.5448468961377
1001
ACDBBLOCKREPETAG
1070
     1
1071
       21
1005
1265FF
  0
POINT
  5
126600
  8
DOTS
 10
4000.0
 20
-654.99999999999966
 30
0.0
1001
ACDBBLOCKREPETAG
1070
     1
1071
      187
1005
126600
  0
LINE
  5
126601
  8
OBJECT
 10
2423.0
 20
-470.99999999999937
 30
0.0
 11
2423.0
 21
-449.99999999999937
 31
0.0
1001
ACDBBLOCKREPETAG
1070
     1
1071
       22
1005
126601
  0
LINE
  5
126602
  8
OBJECT
 10
2423.0
 20
-449.99999999999937
 30
0.0
 11
2577.0
 21
-449.99999999999937
 31
0.0
1001
ACDBBLOCKREPETAG
1070
     1
1071
       23
1005
126602
  0
LINE
  5
126603
  8
HIDDEN
 10
2443.0
 20
-519.99999999999955
 30
0.0
 11
2557.0
 21
-519.99999999999955
 31
0.0
1001
ACDBBLOCKREPETAG
1070
     1
1071
       24
1005
126603
  0
LINE
  5
126604
  8
OBJECT
 10
2577.0
 20
-449.99999999999937
 30
0.0
 11
2577.0
 21
-470.99999999999937
 31
0.0
1001
ACDBBLOCKREPETAG
1070
     1
1071
       25
1005
126604
  0
LINE
  5
126605
  8
OBJECT
 10
2577.0
 20
-470.99999999999937
 30
0.0
 11
2423.0
 21
-470.99999999999937
 31
0.0
1001
ACDBBLOCKREPETAG
1070
     1
1071
       26
1005
126605
  0
LINE
  5
126606
  8
CENTER
 10
2500.0
 20
-434.99999999999949
 30
0.0
 11
2500.0
 21
-789.99999999999955
 31
0.0
1001
ACDBBLOCKREPETAG
1070
     1
1071
       27
1005
126606
  0
LINE
  5
126607
  8
OBJECT
 10
2425.0
 20
-533.99999999999955
 30
0.0
 11
2425.0
 21
-777.99999999999955
 31
0.0
1001
ACDBBLOCKREPETAG
1070
     1
1071
       28
1005
126607
  0
LINE
  5
126608
  8
OBJECT
 10
2428.0
 20
-470.99999999999937
 30
0.0
 11
2428.0
 21
-533.99999999999955
 31
0.0
1001
ACDBBLOCKREPETAG
1070
     1
1071
       29
1005
126608
  0
LINE
  5
126609
  8
OBJECT
 10
2572.0
 20
-533.99999999999955
 30
0.0
 11
2572.0
 21
-470.99999999999937
 31
0.0
1001
ACDBBLOCKREPETAG
1070
     1
1071
       30
1005
126609
  0
LINE
  5
12660A
  8
OBJECT
 10
2420.0
 20
-777.99999999999955
 30
0.0
 11
2580.0
 21
-777.99999999999955
 31
0.0
1001
ACDBBLOCKREPETAG
1070
     1
1071
       31
1005
12660A
  0
LINE
  5
12660B
  8
OBJECT
 10
2574.9999999997199
 20
-533.99999999999955
 30
0.0
 11
2425.0
 21
-533.99999999999955
 31
0.0
1001
ACDBBLOCKREPETAG
1070
     1
1071
       32
1005
12660B
  0
LINE
  5
12660C
  8
OBJECT
 10
2420.0
 20
-777.99999999999955
 30
0.0
 11
2420.0
 21
-789.99999999999955
 31
0.0
1001
ACDBBLOCKREPETAG
1070
     1
1071
       33
1005
12660C
  0
LINE
  5
12660D
  8
OBJECT
 10
2420.0
 20
-789.99999999999955
 30
0.0
 11
2580.0
 21
-789.99999999999955
 31
0.0
1001
ACDBBLOCKREPETAG
1070
     1
1071
       34
1005
12660D
  0
LINE
  5
12660E
  8
OBJECT
 10
2580.0
 20
-789.99999999999955
 30
0.0
 11
2580.0
 21
-777.99999999999955
 31
0.0
1001
ACDBBLOCKREPETAG
1070
     1
1071
       35
1005
12660E
  0
LINE
  5
12660F
  8
OBJECT
 10
2574.9999999997199
 20
-533.99999999999955
 30
0.0
 11
2575.0
 21
-777.99999999999955
 31
0.0
1001
ACDBBLOCKREPETAG
1070
     1
1071
       37
1005
12660F
  0
POINT
  5
126610
  8
DOTS
 10
2500.0
 20
-654.99999999999966
 30
0.0
1001
ACDBBLOCKREPETAG
1070
     1
1071
      188
1005
126610
  0
LINE
  5
126611
  8
OBJECT
 10
1923.0
 20
-470.99999999999937
 30
0.0
 11
1923.0
 21
-449.99999999999937
 31
0.0
1001
ACDBBLOCKREPETAG
1070
     1
1071
        0
1005
126611
  0
LINE
  5
126612
  8
OBJECT
 10
1923.0
 20
-449.99999999999937
 30
0.0
 11
2077.0
 21
-449.99999999999937
 31
0.0
1001
ACDBBLOCKREPETAG
1070
     1
1071
        1
1005
126612
  0
LINE
  5
126613
  8
HIDDEN
 10
1943.0
 20
-519.99999999999955
 30
0.0
 11
2057.0
 21
-519.99999999999955
 31
0.0
1001
ACDBBLOCKREPETAG
1070
     1
1071
        2
1005
126613
  0
LINE
  5
126614
  8
OBJECT
 10
2077.0
 20
-449.99999999999937
 30
0.0
 11
2077.0
 21
-470.99999999999937
 31
0.0
1001
ACDBBLOCKREPETAG
1070
     1
1071
        3
1005
126614
  0
LINE
  5
126615
  8
OBJECT
 10
2077.0
 20
-470.99999999999937
 30
0.0
 11
1923.0
 21
-470.99999999999937
 31
0.0
1001
ACDBBLOCKREPETAG
1070
     1
1071
        4
1005
126615
  0
LINE
  5
126616
  8
CENTER
 10
2000.0
 20
-434.99999999999949
 30
0.0
 11
2000.0
 21
-789.99999999999955
 31
0.0
1001
ACDBBLOCKREPETAG
1070
     1
1071
        5
1005
126616
  0
LINE
  5
126617
  8
OBJECT
 10
1925.0
 20
-533.99999999999955
 30
0.0
 11
1925.0
 21
-777.99999999999955
 31
0.0
1001
ACDBBLOCKREPETAG
1070
     1
1071
        6
1005
126617
  0
LINE
  5
126618
  8
OBJECT
 10
1928.0
 20
-470.99999999999937
 30
0.0
 11
1928.0
 21
-533.99999999999955
 31
0.0
1001
ACDBBLOCKREPETAG
1070
     1
1071
        7
1005
126618
  0
LINE
  5
126619
  8
OBJECT
 10
2072.0
 20
-533.99999999999955
 30
0.0
 11
2072.0
 21
-470.99999999999937
 31
0.0
1001
ACDBBLOCKREPETAG
1070
     1
1071
        8
1005
126619
  0
LINE
  5
12661A
  8
OBJECT
 10
1920.0
 20
-777.99999999999955
 30
0.0
 11
2080.0
 21
-777.99999999999955
 31
0.0
1001
ACDBBLOCKREPETAG
1070
     1
1071
        9
1005
12661A
  0
LINE
  5
12661B
  8
OBJECT
 10
2080.0
 20
-533.99999999999955
 30
0.0
 11
1925.0
 21
-533.99999999999955
 31
0.0
1001
ACDBBLOCKREPETAG
1070
     1
1071
       10
1005
12661B
  0
LINE
  5
12661C
  8
OBJECT
 10
1920.0
 20
-777.99999999999955
 30
0.0
 11
1920.0
 21
-789.99999999999955
 31
0.0
1001
ACDBBLOCKREPETAG
1070
     1
1071
       11
1005
12661C
  0
LINE
  5
12661D
  8
OBJECT
 10
1920.0
 20
-789.99999999999955
 30
0.0
 11
2080.0
 21
-789.99999999999955
 31
0.0
1001
ACDBBLOCKREPETAG
1070
     1
1071
       12
1005
12661D
  0
LINE
  5
12661E
  8
OBJECT
 10
2080.0
 20
-789.99999999999955
 30
0.0
 11
2080.0
 21
-777.99999999999955
 31
0.0
1001
ACDBBLOCKREPETAG
1070
     1
1071
       13
1005
12661E
  0
LINE
  5
12661F
  8
OBJECT
 10
2074.9999999998622
 20
-657.99999999985039
 30
0.0
 11
2075.0
 21
-777.99999999999955
 31
0.0
1001
ACDBBLOCKREPETAG
1070
     1
1071
       15
1005
12661F
  0
LINE
  5
126620
  8
OBJECT
 10
2074.9999908029849
 20
-657.99998602702135
 30
0.0
 11
2080.0
 21
-657.99998602702135
 31
0.0
1001
ACDBBLOCKREPETAG
1070
     1
1071
       16
1005
126620
  0
ARC
  5
126621
  8
OBJECT
 10
2200.6872746716731
 20
-649.40809941010718
 30
0.0
 40
170.6350503965856
 50
137.44134459184301
 51
149.91949581336559
1001
ACDBBLOCKREPETAG
1070
     1
1071
       17
1005
126621
  0
ARC
  5
126622
  8
OBJECT
 10
2118.8455987040511
 20
-605.88272669536445
 30
0.0
 40
78.072222021763665
 50
147.4551531038623
 51
164.6636599771798
1001
ACDBBLOCKREPETAG
1070
     1
1071
       18
1005
126622
  0
ARC
  5
126623
  8
OBJECT
 10
2085.7554349608731
 20
-595.99999999999955
 30
0.0
 40
43.55353926885617
 50
165.6884523007466
 51
194.3115476992534
1001
ACDBBLOCKREPETAG
1070
     1
1071
       19
1005
126623
  0
ARC
  5
126624
  8
OBJECT
 10
2200.6872746716731
 20
-542.59190058989179
 30
0.0
 40
170.6350503965856
 50
210.0805041866343
 51
222.55865540815699
1001
ACDBBLOCKREPETAG
1070
     1
1071
       20
1005
126624
  0
ARC
  5
126625
  8
OBJECT
 10
2118.8455987040511
 20
-586.11727330463452
 30
0.0
 40
78.072222021763665
 50
195.3363400228202
 51
212.5448468961377
1001
ACDBBLOCKREPETAG
1070
     1
1071
       21
1005
126625
  0
POINT
  5
126626
  8
DOTS
 10
2000.0
 20
-654.99999999999966
 30
0.0
1001
ACDBBLOCKREPETAG
1070
     1
1071
      187
1005
126626
  0
LINE
  5
126627
  8
OBJECT
 10
4430.0
 20
-1099.999999999997
 30
0.0
 11
4570.0
 21
-1099.999999999997
 31
0.0
1001
ACDBBLOCKREPETAG
1070
     1
1071
        0
1005
126627
  0
LINE
  5
126628
  8
OBJECT
 10
4430.0
 20
-1099.999999999997
 30
0.0
 11
4430.0
 21
-859.99999999999693
 31
0.0
1001
ACDBBLOCKREPETAG
1070
     1
1071
        1
1005
126628
  0
LINE
  5
126629
  8
OBJECT
 10
4570.0
 20
-1099.999999999997
 30
0.0
 11
4570.0
 21
-859.99999999999693
 31
0.0
1001
ACDBBLOCKREPETAG
1070
     1
1071
        2
1005
126629
  0
LINE
  5
12662A
  8
OBJECT
 10
4430.0
 20
-859.99999999999693
 30
0.0
 11
4570.0
 21
-859.99999999999693
 31
0.0
1001
ACDBBLOCKREPETAG
1070
     1
1071
        3
1005
12662A
  0
LINE
  5
12662B
  8
HIDDEN
 10
4437.5
 20
-859.99999999999693
 30
0.0
 11
4437.5
 21
-1099.999999999997
 31
0.0
1001
ACDBBLOCKREPETAG
1070
     1
1071
        4
1005
12662B
  0
LINE
  5
12662C
  8
HIDDEN
 10
4562.5
 20
-859.99999999999693
 30
0.0
 11
4562.5
 21
-1099.999999999997
 31
0.0
1001
ACDBBLOCKREPETAG
1070
     1
1071
        5
1005
12662C
  0
LINE
  5
12662D
  8
CENTER
 10
4500.0
 20
-789.99999999999875
 30
0.0
 11
4500.0
 21
-1114.999999999997
 31
0.0
1001
ACDBBLOCKREPETAG
1070
     1
1071
        6
1005
12662D
  0
LINE
  5
12662E
  8
OBJECT
 10
4425.0
 20
-789.99999999999875
 30
0.0
 11
4425.0
 21
-819.99999999999693
 31
0.0
1001
ACDBBLOCKREPETAG
1070
     1
1071
        7
1005
12662E
  0
LINE
  5
12662F
  8
OBJECT
 10
4575.0000000000009
 20
-789.99999999999875
 30
0.0
 11
4575.0
 21
-819.99999999999693
 31
0.0
1001
ACDBBLOCKREPETAG
1070
     1
1071
        8
1005
12662F
  0
LINE
  5
126630
  8
OBJECT
 10
4425.0
 20
-819.99999999999693
 30
0.0
 11
4575.0
 21
-819.99999999999693
 31
0.0
1001
ACDBBLOCKREPETAG
1070
     1
1071
        9
1005
126630
  0
LINE
  5
126631
  8
OBJECT
 10
4425.0
 20
-819.99999999999693
 30
0.0
 11
4430.0
 21
-859.99999999999693
 31
0.0
1001
ACDBBLOCKREPETAG
1070
     1
1071
       10
1005
126631
  0
LINE
  5
126632
  8
OBJECT
 10
4570.0
 20
-859.99999999999693
 30
0.0
 11
4575.0
 21
-819.99999999999693
 31
0.0
1001
ACDBBLOCKREPETAG
1070
     1
1071
       11
1005
126632
  0
LINE
  5
126633
  8
OBJECT
 10
3930.0
 20
-1099.999999999997
 30
0.0
 11
4070.0
 21
-1099.999999999997
 31
0.0
1001
ACDBBLOCKREPETAG
1070
     1
1071
        0
1005
126633
  0
LINE
  5
126634
  8
OBJECT
 10
3930.0
 20
-1099.999999999997
 30
0.0
 11
3930.0
 21
-859.99999999999693
 31
0.0
1001
ACDBBLOCKREPETAG
1070
     1
1071
        1
1005
126634
  0
LINE
  5
126635
  8
OBJECT
 10
4070.0
 20
-1099.999999999997
 30
0.0
 11
4070.0
 21
-859.99999999999693
 31
0.0
1001
ACDBBLOCKREPETAG
1070
     1
1071
        2
1005
126635
  0
LINE
  5
126636
  8
OBJECT
 10
3930.0
 20
-859.99999999999693
 30
0.0
 11
4070.0
 21
-859.99999999999693
 31
0.0
1001
ACDBBLOCKREPETAG
1070
     1
1071
        3
1005
126636
  0
LINE
  5
126637
  8
HIDDEN
 10
3937.5
 20
-859.99999999999693
 30
0.0
 11
3937.5
 21
-1099.999999999997
 31
0.0
1001
ACDBBLOCKREPETAG
1070
     1
1071
        4
1005
126637
  0
LINE
  5
126638
  8
HIDDEN
 10
4062.5
 20
-859.99999999999693
 30
0.0
 11
4062.5
 21
-1099.999999999997
 31
0.0
1001
ACDBBLOCKREPETAG
1070
     1
1071
        5
1005
126638
  0
LINE
  5
126639
  8
CENTER
 10
4000.0
 20
-789.99999999999875
 30
0.0
 11
4000.0
 21
-1114.999999999997
 31
0.0
1001
ACDBBLOCKREPETAG
1070
     1
1071
        6
1005
126639
  0
LINE
  5
12663A
  8
OBJECT
 10
3925.0
 20
-789.99999999999875
 30
0.0
 11
3925.0
 21
-819.99999999999693
 31
0.0
1001
ACDBBLOCKREPETAG
1070
     1
1071
        7
1005
12663A
  0
LINE
  5
12663B
  8
OBJECT
 10
4075.0000000000032
 20
-789.99999999999875
 30
0.0
 11
4075.0
 21
-819.99999999999693
 31
0.0
1001
ACDBBLOCKREPETAG
1070
     1
1071
        8
1005
12663B
  0
LINE
  5
12663C
  8
OBJECT
 10
3925.0
 20
-819.99999999999693
 30
0.0
 11
4075.0
 21
-819.99999999999693
 31
0.0
1001
ACDBBLOCKREPETAG
1070
     1
1071
        9
1005
12663C
  0
LINE
  5
12663D
  8
OBJECT
 10
3925.0
 20
-819.99999999999693
 30
0.0
 11
3930.0
 21
-859.99999999999693
 31
0.0
1001
ACDBBLOCKREPETAG
1070
     1
1071
       10
1005
12663D
  0
LINE
  5
12663E
  8
OBJECT
 10
4070.0
 20
-859.99999999999693
 30
0.0
 11
4075.0
 21
-819.99999999999693
 31
0.0
1001
ACDBBLOCKREPETAG
1070
     1
1071
       11
1005
12663E
  0
LINE
  5
12663F
  8
OBJECT
 10
2430.0
 20
-1099.999999999997
 30
0.0
 11
2570.0
 21
-1099.999999999997
 31
0.0
1001
ACDBBLOCKREPETAG
1070
     1
1071
        0
1005
12663F
  0
LINE
  5
126640
  8
OBJECT
 10
2430.0
 20
-1099.999999999997
 30
0.0
 11
2430.0
 21
-859.99999999999784
 31
0.0
1001
ACDBBLOCKREPETAG
1070
     1
1071
        1
1005
126640
  0
LINE
  5
126641
  8
OBJECT
 10
2570.0
 20
-1099.999999999997
 30
0.0
 11
2570.0
 21
-859.99999999999784
 31
0.0
1001
ACDBBLOCKREPETAG
1070
     1
1071
        2
1005
126641
  0
LINE
  5
126642
  8
OBJECT
 10
2430.0
 20
-859.99999999999784
 30
0.0
 11
2570.0
 21
-859.99999999999784
 31
0.0
1001
ACDBBLOCKREPETAG
1070
     1
1071
        3
1005
126642
  0
LINE
  5
126643
  8
HIDDEN
 10
2437.5
 20
-859.99999999999784
 30
0.0
 11
2437.5
 21
-1099.999999999997
 31
0.0
1001
ACDBBLOCKREPETAG
1070
     1
1071
        4
1005
126643
  0
LINE
  5
126644
  8
HIDDEN
 10
2562.5
 20
-859.99999999999784
 30
0.0
 11
2562.5
 21
-1099.999999999997
 31
0.0
1001
ACDBBLOCKREPETAG
1070
     1
1071
        5
1005
126644
  0
LINE
  5
126645
  8
CENTER
 10
2500.0
 20
-789.99999999999955
 30
0.0
 11
2500.0
 21
-1114.999999999997
 31
0.0
1001
ACDBBLOCKREPETAG
1070
     1
1071
        6
1005
126645
  0
LINE
  5
126646
  8
OBJECT
 10
2425.0
 20
-789.99999999999955
 30
0.0
 11
2425.0
 21
-819.99999999999773
 31
0.0
1001
ACDBBLOCKREPETAG
1070
     1
1071
        7
1005
126646
  0
LINE
  5
126647
  8
OBJECT
 10
2575.000000000005
 20
-789.99999999999955
 30
0.0
 11
2575.0
 21
-819.99999999999773
 31
0.0
1001
ACDBBLOCKREPETAG
1070
     1
1071
        8
1005
126647
  0
LINE
  5
126648
  8
OBJECT
 10
2425.0
 20
-819.99999999999773
 30
0.0
 11
2575.0
 21
-819.99999999999773
 31
0.0
1001
ACDBBLOCKREPETAG
1070
     1
1071
        9
1005
126648
  0
LINE
  5
126649
  8
OBJECT
 10
2425.0
 20
-819.99999999999773
 30
0.0
 11
2430.0
 21
-859.99999999999784
 31
0.0
1001
ACDBBLOCKREPETAG
1070
     1
1071
       10
1005
126649
  0
LINE
  5
12664A
  8
OBJECT
 10
2570.0
 20
-859.99999999999784
 30
0.0
 11
2575.0
 21
-819.99999999999773
 31
0.0
1001
ACDBBLOCKREPETAG
1070
     1
1071
       11
1005
12664A
  0
LINE
  5
12664B
  8
OBJECT
 10
1930.0
 20
-1099.999999999997
 30
0.0
 11
2070.0
 21
-1099.999999999997
 31
0.0
1001
ACDBBLOCKREPETAG
1070
     1
1071
        0
1005
12664B
  0
LINE
  5
12664C
  8
OBJECT
 10
1930.0
 20
-1099.999999999997
 30
0.0
 11
1930.0
 21
-859.99999999999784
 31
0.0
1001
ACDBBLOCKREPETAG
1070
     1
1071
        1
1005
12664C
  0
LINE
  5
12664D
  8
OBJECT
 10
2070.0
 20
-1099.999999999997
 30
0.0
 11
2070.0
 21
-859.99999999999784
 31
0.0
1001
ACDBBLOCKREPETAG
1070
     1
1071
        2
1005
12664D
  0
LINE
  5
12664E
  8
OBJECT
 10
1930.0
 20
-859.99999999999784
 30
0.0
 11
2070.0
 21
-859.99999999999784
 31
0.0
1001
ACDBBLOCKREPETAG
1070
     1
1071
        3
1005
12664E
  0
LINE
  5
12664F
  8
HIDDEN
 10
1937.5
 20
-859.99999999999784
 30
0.0
 11
1937.5
 21
-1099.999999999997
 31
0.0
1001
ACDBBLOCKREPETAG
1070
     1
1071
        4
1005
12664F
  0
LINE
  5
126650
  8
HIDDEN
 10
2062.5
 20
-859.99999999999784
 30
0.0
 11
2062.5
 21
-1099.999999999997
 31
0.0
1001
ACDBBLOCKREPETAG
1070
     1
1071
        5
1005
126650
  0
LINE
  5
126651
  8
CENTER
 10
2000.0
 20
-789.99999999999955
 30
0.0
 11
2000.0
 21
-1114.999999999997
 31
0.0
1001
ACDBBLOCKREPETAG
1070
     1
1071
        6
1005
126651
  0
LINE
  5
126652
  8
OBJECT
 10
1925.0
 20
-789.99999999999955
 30
0.0
 11
1925.0
 21
-819.99999999999773
 31
0.0
1001
ACDBBLOCKREPETAG
1070
     1
1071
        7
1005
126652
  0
LINE
  5
126653
  8
OBJECT
 10
2075.0000000000041
 20
-789.99999999999955
 30
0.0
 11
2075.0
 21
-819.99999999999773
 31
0.0
1001
ACDBBLOCKREPETAG
1070
     1
1071
        8
1005
126653
  0
LINE
  5
126654
  8
OBJECT
 10
1925.0
 20
-819.99999999999773
 30
0.0
 11
2075.0
 21
-819.99999999999773
 31
0.0
1001
ACDBBLOCKREPETAG
1070
     1
1071
        9
1005
126654
  0
LINE
  5
126655
  8
OBJECT
 10
1925.0
 20
-819.99999999999773
 30
0.0
 11
1930.0
 21
-859.99999999999784
 31
0.0
1001
ACDBBLOCKREPETAG
1070
     1
1071
       10
1005
126655
  0
LINE
  5
126656
  8
OBJECT
 10
2070.0
 20
-859.99999999999784
 30
0.0
 11
2075.0
 21
-819.99999999999773
 31
0.0
1001
ACDBBLOCKREPETAG
1070
     1
1071
       11
1005
126656
  0
TEXT
  5
126657
  8
SLIM
 10
3824.5999999999999
 20
-1428.999999999997
 30
0.0
 40
28.0
  1
※ 対応スラブ厚　180～320
 41
0.75
  0
TEXT
  5
126658
  8
SLIM
 10
3611.5
 20
-1522.3333333333301
 30
0.0
 40
28.0
  1
国土交通大臣認定・（財）日本消防設備安全センター性能評定取得品
 41
0.75
  0
TEXT
  5
126659
  8
SLIM
 10
3631.1000000000022
 20
-1568.999999999997
 30
0.0
 40
28.0
  1
注）ご採用にあたり、認定書及び評定書の内容をご確認ください。
 41
0.75
  0
TEXT
  5
12665A
  8
SLIM
 10
3741.6250000000009
 20
-1367.499999999997
 30
0.0
 40
35.0
  1
片受けスタイル（S）＋シンドカット
 41
0.75
  0
TEXT
  5
12665B
  8
SLIM
 10
1856.25
 20
-1367.499999999998
 30
0.0
 40
35.0
  1
片受けスタイル（S）
 41
0.75
  0
VIEWPORT
  5
F6BA7
 67
     1
  8
0
 10
145.33033752441401
 20
101.8328354358673
 30
0.0
 40
334.0025019414623
 41
222.19657968139651
 68
     1
 69
     1
1001
ACAD
1000
MVIEW
1002
{
1070
    16
1010
0.0
1020
0.0
1030
0.0
1010
0.0
1020
0.0
1030
1.0
1040
0.0
1040
222.19657968139651
1040
145.33033752441401
1040
101.8328354358673
1040
50.0
1040
0.0
1040
0.0
1070
     0
1070
     0
1070
     1
1070
     1
1070
     0
1070
     0
1070
     0
1070
     0
1040
0.0
1040
0.0
1040
0.0
1040
10.0
1040
10.0
1040
10.0
1040
10.0
1070
     0
1002
{
1002
}
1002
}
  0
VIEWPORT
  5
F6BA9
 67
     1
  8
OBJECT
 10
145.3303314447403
 20
101.8328338861465
 30
0.0
 40
232.5285303115844
 41
162.93253421783439
 68
     2
 69
     2
1001
ACAD
1000
MVIEW
1002
{
1070
    16
1010
0.0
1020
0.0
1030
0.0
1010
0.0
1020
0.0
1030
1.0
1040
0.0
1040
25942.55904403147
1040
2377.604457077377
1040
-7591.5176687056619
1040
50.0
1040
0.0
1040
0.0
1070
     0
1070
   600
1070
     1
1070
     1
1070
     0
1070
     0
1070
     0
1070
     0
1040
0.0
1040
0.0
1040
0.0
1040
1.0
1040
1.0
1040
0.0
1040
0.0
1070
     0
1002
{
1002
}
1002
}
  0
ENDSEC
  0
EOF
