  0
SECTION
  2
HEADER
  9
$ACADVER
  1
AC1009
  9
$INSBASE
 10
0.0
 20
0.0
 30
0.0
  9
$EXTMIN
 10
0.0
 20
-3817.4999999999959
 30
0.0
  9
$EXTMAX
 10
5575.0
 20
607.5
 30
0.0
  9
$LIMMIN
 10
0.0
 20
0.0
  9
$LIMMAX
 10
210.0
 20
297.0
  9
$ORTHOMODE
 70
     0
  9
$REGENMODE
 70
     1
  9
$FILLMODE
 70
     1
  9
$QTEXTMODE
 70
     0
  9
$MIRRTEXT
 70
     0
  9
$DRAGMODE
 70
     2
  9
$LTSCALE
 40
1.0
  9
$OSMODE
 70
   125
  9
$ATTMODE
 70
     1
  9
$TEXTSIZE
 40
4.0
  9
$TRACEWID
 40
0.05
  9
$TEXTSTYLE
  7
STANDARD
  9
$CLAYER
  8
OBJECT
  9
$CELTYPE
  6
BYLAYER
  9
$CECOLOR
 62
   256
  9
$DIMSCALE
 40
10.0
  9
$DIMASZ
 40
2.0
  9
$DIMEXO
 40
1.0
  9
$DIMDLI
 40
10.0
  9
$DIMRND
 40
0.0
  9
$DIMDLE
 40
0.0
  9
$DIMEXE
 40
1.0
  9
$DIMTP
 40
0.0
  9
$DIMTM
 40
0.0
  9
$DIMTXT
 40
3.2000000000000002
  9
$DIMCEN
 40
0.0
  9
$DIMTSZ
 40
0.0
  9
$DIMTOL
 70
     0
  9
$DIMLIM
 70
     0
  9
$DIMTIH
 70
     0
  9
$DIMTOH
 70
     0
  9
$DIMSE1
 70
     0
  9
$DIMSE2
 70
     0
  9
$DIMTAD
 70
     1
  9
$DIMZIN
 70
     8
  9
$DIMBLK
  1
OPEN30
  9
$DIMASO
 70
     1
  9
$DIMSHO
 70
     1
  9
$DIMPOST
  1

  9
$DIMAPOST
  1

  9
$DIMALT
 70
     0
  9
$DIMALTD
 70
     2
  9
$DIMALTF
 40
25.399999999999999
  9
$DIMLFAC
 40
1.0
  9
$DIMTOFL
 70
     1
  9
$DIMTVP
 40
0.0
  9
$DIMTIX
 70
     0
  9
$DIMSOXD
 70
     0
  9
$DIMSAH
 70
     0
  9
$DIMBLK1
  1

  9
$DIMBLK2
  1

  9
$DIMSTYLE
  2
S10
  9
$DIMCLRD
 70
   256
  9
$DIMCLRE
 70
   256
  9
$DIMCLRT
 70
   256
  9
$DIMTFAC
 40
1.0
  9
$DIMGAP
 40
0.9
  9
$LUNITS
 70
     2
  9
$LUPREC
 70
     2
  9
$SKETCHINC
 40
0.1
  9
$FILLETRAD
 40
0.0
  9
$AUNITS
 70
     0
  9
$AUPREC
 70
     2
  9
$MENU
  1
ACAD
  9
$ELEVATION
 40
0.0
  9
$PELEVATION
 40
0.0
  9
$THICKNESS
 40
0.0
  9
$LIMCHECK
 70
     0
  9
$BLIPMODE
 70
     0
  9
$CHAMFERA
 40
2.0
  9
$CHAMFERB
 40
2.0
  9
$SKPOLY
 70
     0
  9
$TDCREATE
 40
2453095.4929404748
  9
$TDUPDATE
 40
2456727.8413421642
  9
$TDINDWG
 40
18.354423159700001
  9
$TDUSRTIMER
 40
18.354422349499998
  9
$USRTIMER
 70
     1
  9
$ANGBASE
 50
0.0
  9
$ANGDIR
 70
     0
  9
$PDMODE
 70
    35
  9
$PDSIZE
 40
2.0
  9
$PLINEWID
 40
0.0
  9
$COORDS
 70
     1
  9
$SPLFRAME
 70
     0
  9
$SPLINETYPE
 70
     6
  9
$SPLINESEGS
 70
     8
  9
$ATTDIA
 70
     1
  9
$ATTREQ
 70
     1
  9
$HANDLING
 70
     1
  9
$HANDSEED
  5
131543
  9
$SURFTAB1
 70
     6
  9
$SURFTAB2
 70
     6
  9
$SURFTYPE
 70
     6
  9
$SURFU
 70
     6
  9
$SURFV
 70
     6
  9
$UCSNAME
  2

  9
$UCSORG
 10
0.0
 20
0.0
 30
0.0
  9
$UCSXDIR
 10
1.0
 20
0.0
 30
0.0
  9
$UCSYDIR
 10
0.0
 20
1.0
 30
0.0
  9
$PUCSNAME
  2

  9
$PUCSORG
 10
0.0
 20
0.0
 30
0.0
  9
$PUCSXDIR
 10
1.0
 20
0.0
 30
0.0
  9
$PUCSYDIR
 10
0.0
 20
1.0
 30
0.0
  9
$USERI1
 70
     0
  9
$USERI2
 70
     0
  9
$USERI3
 70
     0
  9
$USERI4
 70
     0
  9
$USERI5
 70
     0
  9
$USERR1
 40
0.0
  9
$USERR2
 40
0.0
  9
$USERR3
 40
0.0
  9
$USERR4
 40
0.0
  9
$USERR5
 40
0.0
  9
$WORLDVIEW
 70
     1
  9
$SHADEDGE
 70
     3
  9
$SHADEDIF
 70
    70
  9
$TILEMODE
 70
     1
  9
$MAXACTVP
 70
    64
  9
$PLIMCHECK
 70
     0
  9
$PEXTMIN
 10
29.066066288948051
 20
20.366566777229309
 30
0.0
  9
$PEXTMAX
 10
261.5945966005325
 20
183.29910099506381
 30
0.0
  9
$PLIMMIN
 10
-3.17498779296875
 20
-3.1749999523162842
  9
$PLIMMAX
 10
293.83566284179687
 20
206.8406708240509
  9
$UNITMODE
 70
     0
  9
$VISRETAIN
 70
     1
  9
$PLINEGEN
 70
     0
  9
$PSLTSCALE
 70
     1
  0
ENDSEC
  0
SECTION
  2
TABLES
  0
TABLE
  2
VPORT
 70
     1
  0
VPORT
  2
*ACTIVE
 70
     0
 10
0.0
 20
0.0
 11
1.0
 21
1.0
 12
3637.9448159638891
 22
-2723.5385690199601
 13
0.0
 23
0.0
 14
1.0
 24
1.0
 15
0.0
 25
0.0
 16
0.0
 26
0.0
 36
1.0
 17
0.0
 27
0.0
 37
0.0
 40
11823.1352822306
 41
1.628705148205928
 42
50.0
 43
0.0
 44
0.0
 50
0.0
 51
0.0
 71
     0
 72
   600
 73
     1
 74
     1
 75
     0
 76
     0
 77
     0
 78
     0
  0
ENDTAB
  0
TABLE
  2
LTYPE
 70
     4
  0
LTYPE
  2
CONTINUOUS
 70
     0
  3
Solid line
 72
    65
 73
     0
 40
0.0
  0
LTYPE
  2
ACAD_ISO08W100
 70
     0
  3
ISO long-dash short-dash ____ __ ____ __ ____ _
 72
    65
 73
     4
 40
36.0
 49
24.0
 49
-3.0
 49
6.0
 49
-3.0
  0
LTYPE
  2
ACAD_ISO02W100
 70
     0
  3
ISO dash __ __ __ __ __ __ __ __ __ __ __ __ __
 72
    65
 73
     2
 40
15.0
 49
12.0
 49
-3.0
  0
ENDTAB
  0
TABLE
  2
LAYER
 70
     8
  0
LAYER
  2
0
 70
     0
 62
     7
  6
CONTINUOUS
  0
LAYER
  2
OBJECT
 70
     0
 62
     4
  6
CONTINUOUS
  0
LAYER
  2
DEFPOINTS
 70
     0
 62
     7
  6
CONTINUOUS
  0
LAYER
  2
DIM
 70
     0
 62
     7
  6
CONTINUOUS
  0
LAYER
  2
HIDDEN
 70
     0
 62
     2
  6
ACAD_ISO02W100
  0
LAYER
  2
CENTER
 70
     0
 62
     2
  6
ACAD_ISO08W100
  0
LAYER
  2
DOTS
 70
     0
 62
     1
  6
CONTINUOUS
  0
LAYER
  2
SLIM
 70
     0
 62
     2
  6
CONTINUOUS
  0
ENDTAB
  0
TABLE
  2
STYLE
 70
     2
  0
STYLE
  2
STANDARD
 70
     0
 40
0.0
 41
0.75
 50
0.0
 71
     0
 42
4.0
  3
simplex.shx
  4
bigfont.shx
  0
ENDTAB
  0
TABLE
  2
VIEW
 70
     0
  0
ENDTAB
  0
TABLE
  2
UCS
 70
     0
  0
ENDTAB
  0
TABLE
  2
APPID
 70
    18
  0
APPID
  2
ACAD
 70
     0
  0
APPID
  2
ACADANNOTATIVE
 70
     0
  0
APPID
  2
ACAD_PSEXT
 70
     0
  0
APPID
  2
ACAD_EXEMPT_FROM_CAD_STANDARDS
 70
     0
  0
APPID
  2
ACAECLAYERSTANDARD
 70
     0
  0
APPID
  2
ACAUTHENVIRON
 70
     0
  0
APPID
  2
ACDBDYNAMICBLOCKTRUENAME
 70
     0
  0
APPID
  2
ACDBDYNAMICBLOCKGUID
 70
     0
  0
APPID
  2
ACDBBLOCKREPETAG
 70
     0
  0
APPID
  2
ACDBBLOCKREPBTAG
 70
     0
  0
APPID
  2
ACAD_NAV_VCDISPLAY
 70
     0
  0
APPID
  2
ACAD_DSTYLE_DIMRADIAL_EXTENSION
 70
     0
  0
APPID
  2
ACAD_DSTYLE_DIMJAG
 70
     0
  0
APPID
  2
ACAD_DSTYLE_DIMTALN
 70
     0
  0
APPID
  2
ACADANNOPO
 70
     0
  0
APPID
  2
GRADIENTCOLOR1ACI
 70
     0
  0
APPID
  2
GRADIENTCOLOR2ACI
 70
     0
  0
APPID
  2
ACAD_MLEADERVER
 70
     0
  0
ENDTAB
  0
TABLE
  2
DIMSTYLE
 70
     3
  0
DIMSTYLE
  2
STANDARD
 70
     0
  3

  4

  5

  6

  7

 40
1.0
 41
0.18
 42
0.0625
 43
0.38
 44
0.18
 45
0.0
 46
0.0
 47
0.0
 48
0.0
140
0.18
141
0.09
142
0.0
143
25.399999999999999
144
1.0
145
0.0
146
1.0
147
0.09
 71
     0
 72
     0
 73
     1
 74
     1
 75
     0
 76
     0
 77
     0
 78
     0
170
     0
171
     2
172
     0
173
     0
174
     0
175
     0
176
     0
177
     0
178
     0
  0
DIMSTYLE
  2
S10
 70
     0
  3

  4

  5

  6

  7

 40
10.0
 41
2.0
 42
1.0
 43
10.0
 44
1.0
 45
0.0
 46
0.0
 47
0.0
 48
0.0
140
3.2000000000000002
141
0.0
142
0.0
143
25.399999999999999
144
1.0
145
0.0
146
1.0
147
0.9
 71
     0
 72
     0
 73
     0
 74
     0
 75
     0
 76
     0
 77
     1
 78
     8
170
     0
171
     2
172
     1
173
     0
174
     0
175
     0
176
   256
177
   256
178
   256
  0
ENDTAB
  0
ENDSEC
  0
SECTION
  2
BLOCKS
  0
BLOCK
  8
0
  2
$MODEL_SPACE
 70
     0
 10
0.0
 20
0.0
 30
0.0
  3
$MODEL_SPACE
  1

  0
ENDBLK
  5
131488
  8
0
  0
BLOCK
 67
     1
  8
0
  2
$PAPER_SPACE
 70
     0
 10
0.0
 20
0.0
 30
0.0
  3
$PAPER_SPACE
  1

  0
ENDBLK
  5
131484
 67
     1
  8
0
  0
BLOCK
  8
0
  2
_OPEN30
 70
     0
 10
0.0
 20
0.0
 30
0.0
  3
_OPEN30
  1

  0
LINE
  5
202
  8
0
  6
BYBLOCK
 62
     0
 10
-1.0
 20
0.26794919
 30
0.0
 11
0.0
 21
0.0
 31
0.0
  0
LINE
  5
203
  8
0
  6
BYBLOCK
 62
     0
 10
0.0
 20
0.0
 30
0.0
 11
-1.0
 21
-0.26794919
 31
0.0
  0
LINE
  5
204
  8
0
  6
BYBLOCK
 62
     0
 10
0.0
 20
0.0
 30
0.0
 11
-1.0
 21
0.0
 31
0.0
  0
ENDBLK
  5
206
  8
0
  0
BLOCK
  8
0
  2
*U3
 70
     1
 10
0.0
 20
0.0
 30
0.0
  3
*U3
  1

  0
TEXT
  5
13112C
  8
SLIM
 10
465.04761904761767
 20
-764.25000000000352
 30
0.0
 40
26.0
  1
100
  0
ENDBLK
  5
13112E
  8
0
  0
BLOCK
  8
0
  2
*U4
 70
     1
 10
0.0
 20
0.0
 30
0.0
  3
*U4
  1

  0
TEXT
  5
131130
  8
SLIM
 10
636.09523809523671
 20
-642.00000000000364
 30
0.0
 40
26.0
  1
CO
  0
ENDBLK
  5
131132
  8
0
  0
BLOCK
  8
0
  2
*U5
 70
     1
 10
0.0
 20
0.0
 30
0.0
  3
*U5
  1

  0
TEXT
  5
131134
  8
SLIM
 10
114.9523809523797
 20
-757.00000000000352
 30
0.0
 40
26.0
  1
75
  0
ENDBLK
  5
131136
  8
0
  0
BLOCK
  8
0
  2
*U6
 70
     1
 10
0.0
 20
0.0
 30
0.0
  3
*U6
  1

  0
TEXT
  5
131138
  8
SLIM
 10
276.09523809523682
 20
-642.00000000000364
 30
0.0
 40
26.0
  1
CO
  0
ENDBLK
  5
13113A
  8
0
  0
BLOCK
  8
0
  2
*U7
 70
     1
 10
0.0
 20
0.0
 30
0.0
  3
*U7
  1

  0
TEXT
  5
13113C
  8
SLIM
 10
474.95238095237971
 20
-293.00000000000369
 30
0.0
 40
26.0
  1
65
  0
ENDBLK
  5
13113E
  8
0
  0
BLOCK
  8
0
  2
*U8
 70
     1
 10
0.0
 20
0.0
 30
0.0
  3
*U8
  1

  0
TEXT
  5
131140
  8
SLIM
 10
636.09523809523671
 20
-178.0000000000035
 30
0.0
 40
26.0
  1
CO
  0
ENDBLK
  5
131142
  8
0
  0
BLOCK
  8
0
  2
*U9
 70
     1
 10
0.0
 20
0.0
 30
0.0
  3
*U9
  1

  0
TEXT
  5
131144
  8
SLIM
 10
114.9523809523797
 20
-293.00000000000369
 30
0.0
 40
26.0
  1
50
  0
ENDBLK
  5
131146
  8
0
  0
BLOCK
  8
0
  2
*U10
 70
     1
 10
0.0
 20
0.0
 30
0.0
  3
*U10
  1

  0
TEXT
  5
131148
  8
SLIM
 10
276.09523809523682
 20
-178.0000000000035
 30
0.0
 40
26.0
  1
CO
  0
ENDBLK
  5
13114A
  8
0
  0
BLOCK
  8
0
  2
*U11
 70
     1
 10
0.0
 20
0.0
 30
0.0
  3
*U11
  1

  0
TEXT
  5
131160
  8
DIM
 10
2209.479620594459
 20
-3304.1428571428528
 30
0.0
 40
32.0
  1
A
 50
90.0
 41
0.75
  0
ENDBLK
  5
131162
  8
0
  0
BLOCK
  8
0
  2
*U12
 70
     1
 10
0.0
 20
0.0
 30
0.0
  3
*U12
  1

  0
TEXT
  5
131164
  8
DIM
 10
2207.8409284037348
 20
-3685.9999999999959
 30
0.0
 40
32.0
  1
B
 50
90.0
 41
0.75
  0
ENDBLK
  5
131166
  8
0
  0
BLOCK
  8
0
  2
*U13
 70
     1
 10
0.0
 20
0.0
 30
0.0
  3
*U13
  1

  0
TEXT
  5
131168
  8
DIM
 10
2061.428571428572
 20
-3158.208121984444
 30
0.0
 40
32.0
  1
C
 41
0.75
  0
ENDBLK
  5
13116A
  8
0
  0
ENDSEC
  0
SECTION
  2
ENTITIES
  0
LINE
  5
12515F
  8
OBJECT
 10
1825.0
 20
-3699.9999999999959
 30
0.0
 11
5575.0
 21
-3699.9999999999959
 31
0.0
  0
LINE
  5
125161
  8
SLIM
 10
2616.0
 20
-2757.50001604727
 30
0.0
 11
2616.0
 21
-3087.50001604727
 31
0.0
  0
LINE
  5
125162
  8
SLIM
 10
2740.0
 20
-2757.50001604727
 30
0.0
 11
2740.0
 21
-3087.50001604727
 31
0.0
  0
LINE
  5
125163
  8
SLIM
 10
2870.0
 20
-2817.50001604727
 30
0.0
 11
2870.0
 21
-3087.50001604727
 31
0.0
  0
LINE
  5
125164
  8
SLIM
 10
3000.0
 20
-2817.50001604727
 30
0.0
 11
3000.0
 21
-3087.50001604727
 31
0.0
  0
LINE
  5
125165
  8
SLIM
 10
3130.0
 20
-3087.50001604727
 30
0.0
 11
3130.0
 21
-2817.50001604727
 31
0.0
  0
LINE
  5
125166
  8
SLIM
 10
3260.0
 20
-3087.50001604727
 30
0.0
 11
3260.0
 21
-2757.50001604727
 31
0.0
  0
LINE
  5
125167
  8
SLIM
 10
3260.0
 20
-2757.50001604727
 30
0.0
 11
2616.0
 21
-2757.50001604727
 31
0.0
  0
LINE
  5
125168
  8
SLIM
 10
3260.0
 20
-2817.50001604727
 30
0.0
 11
2740.0
 21
-2817.50001604727
 31
0.0
  0
LINE
  5
125169
  8
SLIM
 10
3260.0
 20
-2877.50001604727
 30
0.0
 11
2616.0
 21
-2877.50001604727
 31
0.0
  0
LINE
  5
12516A
  8
SLIM
 10
3260.0
 20
-2947.50001604727
 30
0.0
 11
2616.0
 21
-2947.50001604727
 31
0.0
  0
LINE
  5
12516B
  8
SLIM
 10
3260.0
 20
-3017.50001604727
 30
0.0
 11
2616.0
 21
-3017.50001604727
 31
0.0
  0
LINE
  5
12516C
  8
SLIM
 10
3260.0
 20
-3087.50001604727
 30
0.0
 11
2616.0
 21
-3087.50001604727
 31
0.0
  0
LINE
  5
125181
  8
SLIM
 10
2740.0
 20
-2877.50001604727
 30
0.0
 11
2615.9999722746579
 21
-2757.5
 31
0.0
  0
LINE
  5
1251B6
  8
OBJECT
 10
5323.0
 20
-3515.9999999999968
 30
0.0
 11
5323.0
 21
-3494.9999999999968
 31
0.0
1001
ACDBBLOCKREPETAG
1070
     1
1071
       20
1005
1251B6
  0
LINE
  5
1251B7
  8
OBJECT
 10
5323.0
 20
-3494.9999999999968
 30
0.0
 11
5477.0
 21
-3494.9999999999968
 31
0.0
1001
ACDBBLOCKREPETAG
1070
     1
1071
       21
1005
1251B7
  0
LINE
  5
1251B8
  8
HIDDEN
 10
5343.0
 20
-3564.9999999999968
 30
0.0
 11
5457.0
 21
-3564.9999999999968
 31
0.0
1001
ACDBBLOCKREPETAG
1070
     1
1071
       22
1005
1251B8
  0
LINE
  5
1251B9
  8
OBJECT
 10
5477.0
 20
-3494.9999999999968
 30
0.0
 11
5477.0
 21
-3515.9999999999968
 31
0.0
1001
ACDBBLOCKREPETAG
1070
     1
1071
       23
1005
1251B9
  0
LINE
  5
1251BA
  8
OBJECT
 10
5477.0
 20
-3515.9999999999968
 30
0.0
 11
5323.0
 21
-3515.9999999999968
 31
0.0
1001
ACDBBLOCKREPETAG
1070
     1
1071
       24
1005
1251BA
  0
LINE
  5
1251BB
  8
CENTER
 10
5400.0
 20
-3479.9999999999968
 30
0.0
 11
5400.0
 21
-3714.9999999999968
 31
0.0
1001
ACDBBLOCKREPETAG
1070
     1
1071
       25
1005
1251BB
  0
LINE
  5
1251BC
  8
OBJECT
 10
5325.0
 20
-3578.9999999999968
 30
0.0
 11
5325.0
 21
-3702.9999999999968
 31
0.0
1001
ACDBBLOCKREPETAG
1070
     1
1071
       26
1005
1251BC
  0
LINE
  5
1251BD
  8
OBJECT
 10
5328.0
 20
-3515.9999999999968
 30
0.0
 11
5328.0
 21
-3578.9999999999968
 31
0.0
1001
ACDBBLOCKREPETAG
1070
     1
1071
       27
1005
1251BD
  0
LINE
  5
1251BE
  8
OBJECT
 10
5472.0
 20
-3578.9999999999968
 30
0.0
 11
5472.0
 21
-3515.9999999999968
 31
0.0
1001
ACDBBLOCKREPETAG
1070
     1
1071
       28
1005
1251BE
  0
LINE
  5
1251BF
  8
OBJECT
 10
5475.0
 20
-3578.9999999999968
 30
0.0
 11
5456.7802782663139
 21
-3578.9999999999968
 31
0.0
1001
ACDBBLOCKREPETAG
1070
     1
1071
       30
1005
1251BF
  0
LINE
  5
1251C0
  8
OBJECT
 10
5475.0
 20
-3578.9999999999968
 30
0.0
 11
5475.0
 21
-3702.9999999999968
 31
0.0
1001
ACDBBLOCKREPETAG
1070
     1
1071
       34
1005
1251C0
  0
POINT
  5
1251C1
  8
DOTS
 10
5400.0
 20
-3699.9999999999968
 30
0.0
1001
ACDBBLOCKREPETAG
1070
     1
1071
      187
1005
1251C1
  0
LINE
  5
1251C2
  8
CENTER
 10
5310.0
 20
-3627.9999999999968
 30
0.0
 11
5490.0
 21
-3627.9999999999968
 31
0.0
1001
ACDBBLOCKREPETAG
1070
     1
1071
       23
1005
1251C2
  0
CIRCLE
  5
1251C3
  8
OBJECT
 10
5400.0
 20
-3627.9999999999968
 30
0.0
 40
53.5
1001
ACDBBLOCKREPETAG
1070
     1
1071
       24
1005
1251C3
  0
CIRCLE
  5
1251C4
  8
OBJECT
 10
5400.0
 20
-3627.9999999999968
 30
0.0
 40
67.0
1001
ACDBBLOCKREPETAG
1070
     1
1071
       25
1005
1251C4
  0
ARC
  5
1251C5
  8
OBJECT
 10
5400.0
 20
-3627.9999999999968
 30
0.0
 40
75.0
 50
286.26020470824369
 51
253.73979529175631
1001
ACDBBLOCKREPETAG
1070
     1
1071
       27
1005
1251C5
  0
LINE
  5
1251C6
  8
OBJECT
 10
5379.0
 20
-3699.9999999999968
 30
0.0
 11
5421.0
 21
-3699.9999999999968
 31
0.0
1001
ACDBBLOCKREPETAG
1070
     1
1071
       28
1005
1251C6
  0
LINE
  5
1251C7
  8
OBJECT
 10
5343.2197217336861
 20
-3578.9999999999968
 30
0.0
 11
5325.0
 21
-3578.9999999999968
 31
0.0
1001
ACDBBLOCKREPETAG
1070
     1
1071
       30
1005
1251BF
  0
TEXT
  5
12CC49
  8
SLIM
 10
-0.0000000000000011
 20
282.5
 30
0.0
 40
35.0
  1
※ 100枝（4）がある場合、品名の最後に【管底】が付きます。
 41
0.9
 11
0.0
 21
300.0
 31
0.0
 73
     2
  0
TEXT
  5
12FFD2
  8
SLIM
 10
62.571428571431007
 20
-444.00000000000358
 30
0.0
 40
48.0
  1
CO-A0P1
 41
0.75
 72
     4
 11
180.00000000000239
 21
-420.00000000000358
 31
0.0
  0
TEXT
  5
12FFD3
  8
SLIM
 10
414.85714285714522
 20
-444.00000000000358
 30
0.0
 40
48.0
  1
CO-A0P2
 41
0.75
 72
     4
 11
540.00000000000239
 21
-420.00000000000358
 31
0.0
  0
TEXT
  5
12FFD4
  8
SLIM
 10
54.857142857145291
 20
-908.00000000000375
 30
0.0
 40
48.0
  1
CO-A0P3
 41
0.75
 72
     4
 11
180.00000000000239
 21
-884.00000000000375
 31
0.0
  0
TEXT
  5
12FFD5
  8
SLIM
 10
414.00000000000227
 20
-908.00000000000375
 30
0.0
 40
48.0
  1
CO-A0P4
 41
0.75
 72
     4
 11
540.00000000000239
 21
-884.00000000000375
 31
0.0
  0
LINE
  5
130952
  8
SLIM
 10
3945.2566704261012
 20
-137.99999999999909
 30
0.0
 11
3955.9548403695781
 21
-127.30183005652231
 31
0.0
1001
GRADIENTCOLOR1ACI
1070
     5
1001
GRADIENTCOLOR2ACI
1070
     2
1001
ACAD
1010
0.0
1020
0.0
1030
0.0
1001
ACDBBLOCKREPETAG
1070
     1
1071
      422
1005
130952
  0
LINE
  5
130953
  8
SLIM
 10
3954.2369265471712
 20
-137.99999999999909
 30
0.0
 11
3972.7507744763329
 21
-119.4861520708364
 31
0.0
1001
GRADIENTCOLOR1ACI
1070
     5
1001
GRADIENTCOLOR2ACI
1070
     2
1001
ACAD
1010
0.0
1020
0.0
1030
0.0
1001
ACDBBLOCKREPETAG
1070
     1
1071
      423
1005
130953
  0
LINE
  5
130954
  8
SLIM
 10
3973.521224312457
 20
-127.6959583557812
 30
0.0
 11
3984.8575146748631
 21
-116.359667993377
 31
0.0
1001
GRADIENTCOLOR1ACI
1070
     5
1001
GRADIENTCOLOR2ACI
1070
     2
1001
ACAD
1010
0.0
1020
0.0
1030
0.0
1001
ACDBBLOCKREPETAG
1070
     1
1071
      424
1005
130954
  0
LINE
  5
130955
  8
SLIM
 10
3985.8944171461271
 20
-124.30302164318159
 30
0.0
 11
3995.0533812002559
 21
-115.1440575890517
 31
0.0
1001
GRADIENTCOLOR1ACI
1070
     5
1001
GRADIENTCOLOR2ACI
1070
     2
1001
ACAD
1010
0.0
1020
0.0
1030
0.0
1001
ACDBBLOCKREPETAG
1070
     1
1071
      425
1005
130955
  0
LINE
  5
130956
  8
SLIM
 10
3996.0777327492078
 20
-123.0999621611699
 30
0.0
 11
4000.0
 21
-119.1776949103767
 31
0.0
1001
GRADIENTCOLOR1ACI
1070
     5
1001
GRADIENTCOLOR2ACI
1070
     2
1001
ACAD
1010
0.0
1020
0.0
1030
0.0
1001
ACDBBLOCKREPETAG
1070
     1
1071
      426
1005
130956
  0
LINE
  5
130957
  8
SLIM
 10
4000.0
 20
-119.1776949103767
 30
0.0
 11
4004.0797313529042
 21
-115.0979635574724
 31
0.0
1001
GRADIENTCOLOR1ACI
1070
     5
1001
GRADIENTCOLOR2ACI
1070
     2
1001
ACAD
1010
0.0
1020
0.0
1030
0.0
1001
ACDBBLOCKREPETAG
1070
     1
1071
      427
1005
130957
  0
LINE
  5
130958
  8
SLIM
 10
4004.9957202542769
 20
-123.1622307771683
 30
0.0
 11
4012.2679784105749
 21
-115.88997262087101
 31
0.0
1001
GRADIENTCOLOR1ACI
1070
     5
1001
GRADIENTCOLOR2ACI
1070
     2
1001
ACAD
1010
0.0
1020
0.0
1030
0.0
1001
ACDBBLOCKREPETAG
1070
     1
1071
      428
1005
130958
  0
LINE
  5
130959
  8
SLIM
 10
4013.028059366964
 20
-124.1101477855505
 30
0.0
 11
4019.7999414573601
 21
-117.3382656951526
 31
0.0
1001
GRADIENTCOLOR1ACI
1070
     5
1001
GRADIENTCOLOR2ACI
1070
     2
1001
ACAD
1010
0.0
1020
0.0
1030
0.0
1001
ACDBBLOCKREPETAG
1070
     1
1071
      429
1005
130959
  0
LINE
  5
13095A
  8
SLIM
 10
4020.3740813142458
 20
-125.7443819593383
 30
0.0
 11
4026.7872038672799
 21
-119.3312594063044
 31
0.0
1001
GRADIENTCOLOR1ACI
1070
     5
1001
GRADIENTCOLOR2ACI
1070
     2
1001
ACAD
1010
0.0
1020
0.0
1030
0.0
1001
ACDBBLOCKREPETAG
1070
     1
1071
      430
1005
13095A
  0
LINE
  5
13095B
  8
SLIM
 10
4027.1524719988752
 20
-127.946247395778
 30
0.0
 11
4033.3030030760319
 21
-121.7957163186195
 31
0.0
1001
GRADIENTCOLOR1ACI
1070
     5
1001
GRADIENTCOLOR2ACI
1070
     2
1001
ACAD
1010
0.0
1020
0.0
1030
0.0
1001
ACDBBLOCKREPETAG
1070
     1
1071
      431
1005
13095B
  0
LINE
  5
13095C
  8
SLIM
 10
4033.4390986513308
 20
-130.63987686439191
 30
0.0
 11
4039.3973119843781
 21
-124.6816635313439
 31
0.0
1001
GRADIENTCOLOR1ACI
1070
     5
1001
GRADIENTCOLOR2ACI
1070
     2
1001
ACAD
1010
0.0
1020
0.0
1030
0.0
1001
ACDBBLOCKREPETAG
1070
     1
1071
      432
1005
13095C
  0
LINE
  5
13095D
  8
SLIM
 10
4039.284224621797
 20
-133.77500701499321
 30
0.0
 11
4045.1047705343681
 21
-127.95446110242381
 31
0.0
1001
GRADIENTCOLOR1ACI
1070
     5
1001
GRADIENTCOLOR2ACI
1070
     2
1001
ACAD
1010
0.0
1020
0.0
1030
0.0
1001
ACDBBLOCKREPETAG
1070
     1
1071
      433
1005
13095D
  0
LINE
  5
13095E
  8
SLIM
 10
4044.7212801698038
 20
-137.31820758805651
 30
0.0
 11
4050.4491557891961
 21
-131.59033196866449
 31
0.0
1001
GRADIENTCOLOR1ACI
1070
     5
1001
GRADIENTCOLOR2ACI
1070
     2
1001
ACAD
1010
0.0
1020
0.0
1030
0.0
1001
ACDBBLOCKREPETAG
1070
     1
1071
      434
1005
13095E
  0
LINE
  5
13095F
  8
SLIM
 10
4053.0197438789291
 20
-137.99999999999909
 30
0.0
 11
4055.4459941864038
 21
-135.57374969252561
 31
0.0
1001
GRADIENTCOLOR1ACI
1070
     5
1001
GRADIENTCOLOR2ACI
1070
     2
1001
ACAD
1010
0.0
1020
0.0
1030
0.0
1001
ACDBBLOCKREPETAG
1070
     1
1071
      435
1005
13095F
  0
LINE
  5
130960
  8
CENTER
 10
4000.0
 20
-279.99999999999909
 30
0.0
 11
4000.0
 21
-99.999999999999091
 31
0.0
1001
ACDBBLOCKREPETAG
1070
     1
1071
      160
1005
130960
  0
CIRCLE
  5
130961
  8
OBJECT
 10
4000.0
 20
-199.99999999999909
 30
0.0
 40
70.0
1001
ACDBBLOCKREPETAG
1070
     1
1071
      161
1005
130961
  0
CIRCLE
  5
130962
  8
OBJECT
 10
4000.0
 20
-199.99999999999909
 30
0.0
 40
77.0
1001
ACDBBLOCKREPETAG
1070
     1
1071
      162
1005
130962
  0
LINE
  5
130963
  8
OBJECT
 10
4045.661800227324
 20
-137.99999999999909
 30
0.0
 11
4080.0
 21
-137.99999999999909
 31
0.0
1001
ACDBBLOCKREPETAG
1070
     1
1071
      164
1005
130963
  0
LINE
  5
130964
  8
OBJECT
 10
4062.0
 20
-261.99999999999909
 30
0.0
 11
4080.0
 21
-261.99999999999909
 31
0.0
1001
ACDBBLOCKREPETAG
1070
     1
1071
      165
1005
130964
  0
LINE
  5
130965
  8
OBJECT
 10
4062.0
 20
-261.99999999999909
 30
0.0
 11
4062.0
 21
-279.99999999999909
 31
0.0
1001
ACDBBLOCKREPETAG
1070
     1
1071
      167
1005
130965
  0
LINE
  5
130966
  8
OBJECT
 10
3938.0
 20
-261.99999999999909
 30
0.0
 11
3938.0
 21
-279.99999999999909
 31
0.0
1001
ACDBBLOCKREPETAG
1070
     1
1071
      168
1005
130966
  0
LINE
  5
130967
  8
OBJECT
 10
3938.0
 20
-261.99999999999909
 30
0.0
 11
3920.0
 21
-261.99999999999909
 31
0.0
1001
ACDBBLOCKREPETAG
1070
     1
1071
      170
1005
130967
  0
LINE
  5
130968
  8
OBJECT
 10
3954.338199772676
 20
-137.99999999999909
 30
0.0
 11
3920.0
 21
-137.99999999999909
 31
0.0
1001
ACDBBLOCKREPETAG
1070
     1
1071
      171
1005
130968
  0
LINE
  5
130969
  8
OBJECT
 10
3945.5527778486362
 20
-254.44722215136329
 30
0.0
 11
3938.0
 21
-261.99999999999909
 31
0.0
1001
ACDBBLOCKREPETAG
1070
     1
1071
      180
1005
130969
  0
LINE
  5
13096A
  8
OBJECT
 10
4054.4472221513638
 20
-254.44722215136329
 30
0.0
 11
4062.0
 21
-261.99999999999909
 31
0.0
1001
ACDBBLOCKREPETAG
1070
     1
1071
      181
1005
13096A
  0
POINT
  5
13096B
  8
DOTS
 10
4000.0
 20
-199.99999999999909
 30
0.0
 50
270.0
1001
ACDBBLOCKREPETAG
1070
     1
1071
      182
1005
13096B
  0
ARC
  5
13096C
  8
OBJECT
 10
4000.0
 20
-199.99999999999909
 30
0.0
 40
85.0
 50
46.837102859806208
 51
133.16289714019371
1001
ACDBBLOCKREPETAG
1070
     1
1071
      183
1005
13096C
  0
CIRCLE
  5
13096D
  8
OBJECT
 10
4000.0
 20
-199.99999999999909
 30
0.0
 40
53.5
1001
ACDBBLOCKREPETAG
1070
     1
1071
      352
1005
13096D
  0
LINE
  5
13096E
  8
CENTER
 10
4080.0
 20
-199.99999999999909
 30
0.0
 11
3920.0
 21
-199.99999999999909
 31
0.0
1001
ACDBBLOCKREPETAG
1070
     1
1071
      158
1005
13096E
  0
LINE
  5
13096F
  8
OBJECT
 10
3867.0
 20
-261.99999999999909
 30
0.0
 11
3860.0
 21
-261.99999999999909
 31
0.0
1001
ACDBBLOCKREPETAG
1070
     1
1071
       47
1005
13096F
  0
LINE
  5
130970
  8
OBJECT
 10
3860.0
 20
-261.99999999999909
 30
0.0
 11
3860.0
 21
-137.99999999999909
 31
0.0
1001
ACDBBLOCKREPETAG
1070
     1
1071
       48
1005
130970
  0
LINE
  5
130971
  8
OBJECT
 10
3860.0
 20
-137.99999999999909
 30
0.0
 11
3867.0
 21
-137.99999999999909
 31
0.0
1001
ACDBBLOCKREPETAG
1070
     1
1071
       49
1005
130971
  0
LINE
  5
130972
  8
OBJECT
 10
3867.0
 20
-137.99999999999909
 30
0.0
 11
3867.0
 21
-261.99999999999909
 31
0.0
1001
ACDBBLOCKREPETAG
1070
     1
1071
       50
1005
130972
  0
LINE
  5
130973
  8
CENTER
 10
3845.0
 20
-199.99999999999909
 30
0.0
 11
3920.0
 21
-199.99999999999909
 31
0.0
1001
ACDBBLOCKREPETAG
1070
     1
1071
       51
1005
130973
  0
LINE
  5
130974
  8
OBJECT
 10
3867.0
 20
-258.99999999999909
 30
0.0
 11
3903.0
 21
-258.99999999999909
 31
0.0
1001
ACDBBLOCKREPETAG
1070
     1
1071
       52
1005
130974
  0
LINE
  5
130975
  8
OBJECT
 10
3903.0
 20
-258.99999999999909
 30
0.0
 11
3903.0
 21
-140.99999999999909
 31
0.0
1001
ACDBBLOCKREPETAG
1070
     1
1071
       53
1005
130975
  0
LINE
  5
130976
  8
OBJECT
 10
3903.0
 20
-140.99999999999909
 30
0.0
 11
3867.0
 21
-140.99999999999909
 31
0.0
1001
ACDBBLOCKREPETAG
1070
     1
1071
       54
1005
130976
  0
LINE
  5
130977
  8
OBJECT
 10
3907.0
 20
-254.49999999999909
 30
0.0
 11
3914.0
 21
-254.49999999999909
 31
0.0
1001
ACDBBLOCKREPETAG
1070
     1
1071
       55
1005
130977
  0
LINE
  5
130978
  8
OBJECT
 10
3914.0
 20
-145.49999999999909
 30
0.0
 11
3907.0
 21
-145.49999999999909
 31
0.0
1001
ACDBBLOCKREPETAG
1070
     1
1071
       56
1005
130978
  0
LINE
  5
130979
  8
OBJECT
 10
3907.0
 20
-145.49999999999909
 30
0.0
 11
3907.0
 21
-254.49999999999909
 31
0.0
1001
ACDBBLOCKREPETAG
1070
     1
1071
       57
1005
130979
  0
LINE
  5
13097A
  8
OBJECT
 10
3903.0
 20
-258.99999999999909
 30
0.0
 11
3907.0
 21
-254.49999999999909
 31
0.0
1001
ACDBBLOCKREPETAG
1070
     1
1071
       58
1005
13097A
  0
LINE
  5
13097B
  8
OBJECT
 10
3903.0
 20
-140.99999999999909
 30
0.0
 11
3907.0
 21
-145.49999999999909
 31
0.0
1001
ACDBBLOCKREPETAG
1070
     1
1071
       59
1005
13097B
  0
LINE
  5
13097C
  8
OBJECT
 10
3917.0
 20
-261.99999999999909
 30
0.0
 11
3920.0
 21
-261.99999999999909
 31
0.0
1001
ACDBBLOCKREPETAG
1070
     1
1071
       60
1005
13097C
  0
ARC
  5
13097D
  8
OBJECT
 10
3917.0
 20
-258.99999999999909
 30
0.0
 40
3.0
 50
180.0
 51
270.0
1001
ACDBBLOCKREPETAG
1070
     1
1071
       61
1005
13097D
  0
LINE
  5
13097E
  8
OBJECT
 10
3920.0
 20
-137.99999999999909
 30
0.0
 11
3917.0
 21
-137.99999999999909
 31
0.0
1001
ACDBBLOCKREPETAG
1070
     1
1071
       62
1005
13097E
  0
ARC
  5
13097F
  8
OBJECT
 10
3917.0
 20
-140.99999999999909
 30
0.0
 40
3.0
 50
90.0
 51
180.0
1001
ACDBBLOCKREPETAG
1070
     1
1071
       63
1005
13097F
  0
LINE
  5
130980
  8
OBJECT
 10
3914.0
 20
-140.99999999999909
 30
0.0
 11
3914.0
 21
-258.99999999999909
 31
0.0
1001
ACDBBLOCKREPETAG
1070
     1
1071
       64
1005
130980
  0
LINE
  5
130981
  8
HIDDEN
 10
3912.0
 20
-244.49999999999909
 30
0.0
 11
3912.0
 21
-155.49999999999909
 31
0.0
1001
ACDBBLOCKREPETAG
1070
     1
1071
       65
1005
130981
  0
LINE
  5
130982
  8
CENTER
 10
4000.0
 20
-279.99999999999909
 30
0.0
 11
4000.0
 21
-334.99999999999892
 31
0.0
1001
ACDBBLOCKREPETAG
1070
     1
1071
      352
1005
130982
  0
LINE
  5
130983
  8
OBJECT
 10
4059.0
 20
-285.99999999999892
 30
0.0
 11
3941.0
 21
-285.99999999999892
 31
0.0
1001
ACDBBLOCKREPETAG
1070
     1
1071
      353
1005
130983
  0
LINE
  5
130984
  8
OBJECT
 10
3955.5
 20
-309.99999999999892
 30
0.0
 11
4044.5
 21
-309.99999999999892
 31
0.0
1001
ACDBBLOCKREPETAG
1070
     1
1071
      354
1005
130984
  0
LINE
  5
130985
  8
OBJECT
 10
3955.5
 20
-309.99999999999892
 30
0.0
 11
3955.5
 21
-285.99999999999892
 31
0.0
1001
ACDBBLOCKREPETAG
1070
     1
1071
      355
1005
130985
  0
LINE
  5
130986
  8
OBJECT
 10
3938.0
 20
-279.99999999999909
 30
0.0
 11
3938.0
 21
-282.99999999999892
 31
0.0
1001
ACDBBLOCKREPETAG
1070
     1
1071
      356
1005
130986
  0
ARC
  5
130987
  8
OBJECT
 10
3941.0
 20
-282.99999999999892
 30
0.0
 40
3.0
 50
180.0
 51
270.0
1001
ACDBBLOCKREPETAG
1070
     1
1071
      357
1005
130987
  0
LINE
  5
130988
  8
OBJECT
 10
4017.8220659999988
 20
-309.99999999999892
 30
0.0
 11
4022.1031819999989
 21
-313.83118899999948
 31
0.0
1001
ACDBBLOCKREPETAG
1070
     1
1071
      358
1005
130988
  0
ARC
  5
130989
  8
OBJECT
 10
4017.0
 20
-319.99999999999892
 30
0.0
 40
8.0
 50
251.8416470000376
 51
50.402247000150382
1001
ACDBBLOCKREPETAG
1070
     1
1071
      359
1005
130989
  0
ARC
  5
13098A
  8
OBJECT
 10
4016.0650669999982
 20
-322.8505969999996
 30
0.0
 40
5.0
 50
198.48486899996581
 51
251.8416470000376
1001
ACDBBLOCKREPETAG
1070
     1
1071
      360
1005
13098A
  0
LINE
  5
13098B
  8
OBJECT
 10
4005.0
 20
-319.99999999999892
 30
0.0
 11
4005.0
 21
-312.99999999999909
 31
0.0
1001
ACDBBLOCKREPETAG
1070
     1
1071
      361
1005
13098B
  0
LINE
  5
13098C
  8
OBJECT
 10
3995.0
 20
-319.99999999999892
 30
0.0
 11
3995.0
 21
-312.99999999999909
 31
0.0
1001
ACDBBLOCKREPETAG
1070
     1
1071
      362
1005
13098C
  0
LINE
  5
13098D
  8
OBJECT
 10
4005.0
 20
-319.99999999999892
 30
0.0
 11
3995.0
 21
-319.99999999999892
 31
0.0
1001
ACDBBLOCKREPETAG
1070
     1
1071
      363
1005
13098D
  0
LINE
  5
13098E
  8
OBJECT
 10
4007.5
 20
-312.99999999999909
 30
0.0
 11
3992.5000000000009
 21
-312.99999999999909
 31
0.0
1001
ACDBBLOCKREPETAG
1070
     1
1071
      364
1005
13098E
  0
LINE
  5
13098F
  8
OBJECT
 10
3991.7500000000009
 20
-309.99999999999892
 30
0.0
 11
3992.5000000000009
 21
-312.99999999999909
 31
0.0
1001
ACDBBLOCKREPETAG
1070
     1
1071
      365
1005
13098F
  0
LINE
  5
130990
  8
OBJECT
 10
3982.177932999999
 20
-309.99999999999892
 30
0.0
 11
3977.8968180000011
 21
-313.83118899999948
 31
0.0
1001
ACDBBLOCKREPETAG
1070
     1
1071
      366
1005
130990
  0
LINE
  5
130991
  8
OBJECT
 10
4008.25
 20
-309.99999999999892
 30
0.0
 11
4007.5
 21
-312.99999999999909
 31
0.0
1001
ACDBBLOCKREPETAG
1070
     1
1071
      367
1005
130991
  0
ARC
  5
130992
  8
OBJECT
 10
3983.0
 20
-319.99999999999892
 30
0.0
 40
8.0
 50
129.59775299984949
 51
288.1583529999624
1001
ACDBBLOCKREPETAG
1070
     1
1071
      368
1005
130992
  0
ARC
  5
130993
  8
OBJECT
 10
3983.934933
 20
-322.8505969999996
 30
0.0
 40
5.0
 50
288.1583529999624
 51
341.51513100003109
1001
ACDBBLOCKREPETAG
1070
     1
1071
      369
1005
130993
  0
LINE
  5
130994
  8
OBJECT
 10
3988.67697
 20
-324.43586799999957
 30
0.0
 11
3992.5000000000009
 21
-312.99999999999909
 31
0.0
1001
ACDBBLOCKREPETAG
1070
     1
1071
      370
1005
130994
  0
LINE
  5
130995
  8
OBJECT
 10
4011.3230299999982
 20
-324.43586799999957
 30
0.0
 11
4007.5
 21
-312.99999999999909
 31
0.0
1001
ACDBBLOCKREPETAG
1070
     1
1071
      371
1005
130995
  0
ARC
  5
130996
  8
OBJECT
 10
4059.0
 20
-282.99999999999892
 30
0.0
 40
3.0
 50
270.0
 51
0.0
1001
ACDBBLOCKREPETAG
1070
     1
1071
      372
1005
130996
  0
LINE
  5
130997
  8
OBJECT
 10
4062.0
 20
-279.99999999999909
 30
0.0
 11
4062.0
 21
-282.99999999999892
 31
0.0
1001
ACDBBLOCKREPETAG
1070
     1
1071
      373
1005
130997
  0
LINE
  5
130998
  8
OBJECT
 10
4044.5
 20
-309.99999999999892
 30
0.0
 11
4044.5
 21
-285.99999999999892
 31
0.0
1001
ACDBBLOCKREPETAG
1070
     1
1071
      374
1005
130998
  0
LINE
  5
130999
  8
CENTER
 10
4101.0
 20
-199.99999999999909
 30
0.0
 11
4080.0
 21
-199.99999999999909
 31
0.0
1001
ACDBBLOCKREPETAG
1070
     1
1071
        0
1005
130999
  0
LINE
  5
13099A
  8
OBJECT
 10
4083.0
 20
-137.99999999999909
 30
0.0
 11
4080.0
 21
-137.99999999999909
 31
0.0
1001
ACDBBLOCKREPETAG
1070
     1
1071
        1
1005
13099A
  0
ARC
  5
13099B
  8
OBJECT
 10
4083.0
 20
-140.99999999999909
 30
0.0
 40
3.0
 50
0.0
 51
90.0
1001
ACDBBLOCKREPETAG
1070
     1
1071
        2
1005
13099B
  0
LINE
  5
13099C
  8
OBJECT
 10
4080.0
 20
-261.99999999999909
 30
0.0
 11
4083.0
 21
-261.99999999999909
 31
0.0
1001
ACDBBLOCKREPETAG
1070
     1
1071
        3
1005
13099C
  0
ARC
  5
13099D
  8
OBJECT
 10
4083.0
 20
-258.99999999999909
 30
0.0
 40
3.0
 50
270.0
 51
0.0
1001
ACDBBLOCKREPETAG
1070
     1
1071
        4
1005
13099D
  0
LINE
  5
13099E
  8
OBJECT
 10
4086.0
 20
-258.99999999999909
 30
0.0
 11
4086.0
 21
-140.99999999999909
 31
0.0
1001
ACDBBLOCKREPETAG
1070
     1
1071
        5
1005
13099E
  0
LINE
  5
13099F
  8
OBJECT
 10
3867.0
 20
-634.0
 30
0.0
 11
3860.0
 21
-634.0
 31
0.0
1001
ACDBBLOCKREPETAG
1070
     1
1071
       45
1005
13099F
  0
LINE
  5
1309A0
  8
OBJECT
 10
3860.0
 20
-634.0
 30
0.0
 11
3860.0
 21
-755.0
 31
0.0
1001
ACDBBLOCKREPETAG
1070
     1
1071
       46
1005
1309A0
  0
LINE
  5
1309A1
  8
OBJECT
 10
3867.0
 20
-755.0
 30
0.0
 11
3867.0
 21
-634.0
 31
0.0
1001
ACDBBLOCKREPETAG
1070
     1
1071
       47
1005
1309A1
  0
LINE
  5
1309A2
  8
CENTER
 10
3845.0
 20
-696.0
 30
0.0
 11
3929.0
 21
-696.0
 31
0.0
1001
ACDBBLOCKREPETAG
1070
     1
1071
       48
1005
1309A2
  0
LINE
  5
1309A3
  8
OBJECT
 10
3867.0
 20
-637.0
 30
0.0
 11
3903.0
 21
-637.0
 31
0.0
1001
ACDBBLOCKREPETAG
1070
     1
1071
       49
1005
1309A3
  0
LINE
  5
1309A4
  8
OBJECT
 10
3903.0
 20
-637.0
 30
0.0
 11
3903.0
 21
-755.0
 31
0.0
1001
ACDBBLOCKREPETAG
1070
     1
1071
       50
1005
1309A4
  0
LINE
  5
1309A5
  8
OBJECT
 10
3903.0
 20
-755.0
 30
0.0
 11
3860.0
 21
-755.0
 31
0.0
1001
ACDBBLOCKREPETAG
1070
     1
1071
       51
1005
1309A5
  0
LINE
  5
1309A6
  8
OBJECT
 10
3907.0
 20
-641.5
 30
0.0
 11
3914.0
 21
-641.5
 31
0.0
1001
ACDBBLOCKREPETAG
1070
     1
1071
       52
1005
1309A6
  0
LINE
  5
1309A7
  8
OBJECT
 10
3914.0
 20
-750.49999999999989
 30
0.0
 11
3907.0
 21
-750.49999999999989
 31
0.0
1001
ACDBBLOCKREPETAG
1070
     1
1071
       53
1005
1309A7
  0
LINE
  5
1309A8
  8
OBJECT
 10
3907.0
 20
-750.49999999999989
 30
0.0
 11
3907.0
 21
-641.5
 31
0.0
1001
ACDBBLOCKREPETAG
1070
     1
1071
       54
1005
1309A8
  0
LINE
  5
1309A9
  8
OBJECT
 10
3903.0
 20
-637.0
 30
0.0
 11
3907.0
 21
-641.5
 31
0.0
1001
ACDBBLOCKREPETAG
1070
     1
1071
       55
1005
1309A9
  0
LINE
  5
1309AA
  8
OBJECT
 10
3903.0
 20
-755.0
 30
0.0
 11
3907.0
 21
-750.49999999999989
 31
0.0
1001
ACDBBLOCKREPETAG
1070
     1
1071
       56
1005
1309AA
  0
LINE
  5
1309AB
  8
OBJECT
 10
3917.0
 20
-634.0
 30
0.0
 11
3920.0
 21
-634.0
 31
0.0
1001
ACDBBLOCKREPETAG
1070
     1
1071
       57
1005
1309AB
  0
ARC
  5
1309AC
  8
OBJECT
 10
3917.0
 20
-637.0
 30
0.0
 40
3.0
 50
90.0
 51
180.0
1001
ACDBBLOCKREPETAG
1070
     1
1071
       58
1005
1309AC
  0
LINE
  5
1309AD
  8
OBJECT
 10
3920.0
 20
-758.0
 30
0.0
 11
3917.0
 21
-758.0
 31
0.0
1001
ACDBBLOCKREPETAG
1070
     1
1071
       59
1005
1309AD
  0
ARC
  5
1309AE
  8
OBJECT
 10
3917.0
 20
-755.0
 30
0.0
 40
3.0
 50
180.0
 51
270.0
1001
ACDBBLOCKREPETAG
1070
     1
1071
       60
1005
1309AE
  0
LINE
  5
1309AF
  8
OBJECT
 10
3914.0
 20
-755.0
 30
0.0
 11
3914.0
 21
-637.0
 31
0.0
1001
ACDBBLOCKREPETAG
1070
     1
1071
       61
1005
1309AF
  0
LINE
  5
1309B0
  8
HIDDEN
 10
3912.0
 20
-651.5
 30
0.0
 11
3912.0
 21
-740.5
 31
0.0
1001
ACDBBLOCKREPETAG
1070
     1
1071
       63
1005
1309B0
  0
CIRCLE
  5
1309B1
  8
OBJECT
 10
4000.0
 20
-696.0
 30
0.0
 40
62.0
1001
ACDBBLOCKREPETAG
1070
     1
1071
      227
1005
1309B1
  0
CIRCLE
  5
1309B2
  8
OBJECT
 10
4000.0
 20
-696.0
 30
0.0
 40
36.333333000000003
1001
ACDBBLOCKREPETAG
1070
     1
1071
      228
1005
1309B2
  0
CIRCLE
  5
1309B3
  8
OBJECT
 10
4000.0
 20
-696.0
 30
0.0
 40
44.5
1001
ACDBBLOCKREPETAG
1070
     1
1071
      229
1005
1309B3
  0
ARC
  5
1309B4
  8
OBJECT
 10
4000.0
 20
-696.0
 30
0.0
 40
10.0
 50
194.6278610000418
 51
345.37213899995828
1001
ACDBBLOCKREPETAG
1070
     1
1071
      230
1005
1309B4
  0
ARC
  5
1309B5
  8
OBJECT
 10
4000.0
 20
-696.0
 30
0.0
 40
7.5
 50
200.41516800005761
 51
339.58483199994242
1001
ACDBBLOCKREPETAG
1070
     1
1071
      231
1005
1309B5
  0
ARC
  5
1309B6
  8
OBJECT
 10
3977.0
 20
-696.0
 30
0.0
 40
2.0
 50
91.963657999954648
 51
268.03634200004529
1001
ACDBBLOCKREPETAG
1070
     1
1071
      232
1005
1309B6
  0
ARC
  5
1309B7
  8
OBJECT
 10
4000.0
 20
-696.0
 30
0.0
 40
10.0
 50
14.627861000041801
 51
165.3721389999582
1001
ACDBBLOCKREPETAG
1070
     1
1071
      233
1005
1309B7
  0
CIRCLE
  5
1309B8
  8
OBJECT
 10
4000.0
 20
-696.0
 30
0.0
 40
4.5
1001
ACDBBLOCKREPETAG
1070
     1
1071
      234
1005
1309B8
  0
ARC
  5
1309B9
  8
OBJECT
 10
4000.0
 20
-696.0
 30
0.0
 40
7.5
 50
20.415168000057569
 51
159.58483199994239
1001
ACDBBLOCKREPETAG
1070
     1
1071
      235
1005
1309B9
  0
ARC
  5
1309BA
  8
OBJECT
 10
4000.0
 20
-696.0
 30
0.0
 40
24.333333
 50
183.77906500000159
 51
356.22093499999818
1001
ACDBBLOCKREPETAG
1070
     1
1071
      236
1005
1309BA
  0
ARC
  5
1309BB
  8
OBJECT
 10
4000.0
 20
-696.0
 30
0.0
 40
24.333333
 50
3.7790650000018511
 51
176.22093499999809
1001
ACDBBLOCKREPETAG
1070
     1
1071
      237
1005
1309BB
  0
ARC
  5
1309BC
  8
OBJECT
 10
4023.0
 20
-696.0
 30
0.0
 40
2.0
 50
271.96365799995459
 51
88.036342000045366
1001
ACDBBLOCKREPETAG
1070
     1
1071
      238
1005
1309BC
  0
LINE
  5
1309BD
  8
OBJECT
 10
4007.0289220000009
 20
-698.61615099999835
 30
0.0
 11
4023.0685309999981
 21
-697.99882499999865
 31
0.0
1001
ACDBBLOCKREPETAG
1070
     1
1071
      239
1005
1309BD
  0
LINE
  5
1309BE
  8
OBJECT
 10
4007.0289220000009
 20
-693.38384899999983
 30
0.0
 11
4023.0685309999981
 21
-694.00117399999908
 31
0.0
1001
ACDBBLOCKREPETAG
1070
     1
1071
      240
1005
1309BE
  0
LINE
  5
1309BF
  8
OBJECT
 10
3992.9710769999988
 20
-698.61615099999835
 30
0.0
 11
3976.9314690000001
 21
-697.99882499999865
 31
0.0
1001
ACDBBLOCKREPETAG
1070
     1
1071
      241
1005
1309BF
  0
LINE
  5
1309C0
  8
OBJECT
 10
3992.9710769999988
 20
-693.38384899999983
 30
0.0
 11
3976.9314690000001
 21
-694.00117399999908
 31
0.0
1001
ACDBBLOCKREPETAG
1070
     1
1071
      242
1005
1309C0
  0
LINE
  5
1309C1
  8
CENTER
 10
3923.0
 20
-695.9999992574941
 30
0.0
 11
4077.0
 21
-696.00000688055752
 31
0.0
1001
ACDBBLOCKREPETAG
1070
     1
1071
      243
1005
1309C1
  0
LINE
  5
1309C2
  8
OBJECT
 10
4083.0
 20
-634.0
 30
0.0
 11
4080.0
 21
-634.0
 31
0.0
1001
ACDBBLOCKREPETAG
1070
     1
1071
        1
1005
1309C2
  0
ARC
  5
1309C3
  8
OBJECT
 10
4083.0
 20
-637.0
 30
0.0
 40
3.0
 50
0.0
 51
90.0
1001
ACDBBLOCKREPETAG
1070
     1
1071
        2
1005
1309C3
  0
LINE
  5
1309C4
  8
OBJECT
 10
4080.0
 20
-758.0
 30
0.0
 11
4083.0
 21
-758.0
 31
0.0
1001
ACDBBLOCKREPETAG
1070
     1
1071
        3
1005
1309C4
  0
ARC
  5
1309C5
  8
OBJECT
 10
4083.0
 20
-755.0
 30
0.0
 40
3.0
 50
270.0
 51
0.0
1001
ACDBBLOCKREPETAG
1070
     1
1071
        4
1005
1309C5
  0
LINE
  5
1309C6
  8
OBJECT
 10
4086.0
 20
-755.0
 30
0.0
 11
4086.0
 21
-637.0
 31
0.0
1001
ACDBBLOCKREPETAG
1070
     1
1071
        5
1005
1309C6
  0
LINE
  5
1309C7
  8
OBJECT
 10
3923.0
 20
-570.99999999999955
 30
0.0
 11
3923.0
 21
-549.99999999999955
 31
0.0
1001
ACDBBLOCKREPETAG
1070
     1
1071
       38
1005
1309C7
  0
LINE
  5
1309C8
  8
OBJECT
 10
3923.0
 20
-549.99999999999955
 30
0.0
 11
4077.0
 21
-549.99999999999955
 31
0.0
1001
ACDBBLOCKREPETAG
1070
     1
1071
       39
1005
1309C8
  0
LINE
  5
1309C9
  8
HIDDEN
 10
3943.0
 20
-619.99999999999955
 30
0.0
 11
4057.0
 21
-619.99999999999955
 31
0.0
1001
ACDBBLOCKREPETAG
1070
     1
1071
       40
1005
1309C9
  0
LINE
  5
1309CA
  8
OBJECT
 10
4077.0
 20
-549.99999999999955
 30
0.0
 11
4077.0
 21
-570.99999999999955
 31
0.0
1001
ACDBBLOCKREPETAG
1070
     1
1071
       41
1005
1309CA
  0
LINE
  5
1309CB
  8
OBJECT
 10
4077.0
 20
-570.99999999999955
 30
0.0
 11
3923.0
 21
-570.99999999999955
 31
0.0
1001
ACDBBLOCKREPETAG
1070
     1
1071
       42
1005
1309CB
  0
LINE
  5
1309CC
  8
CENTER
 10
4000.0
 20
-534.99999999999955
 30
0.0
 11
4000.0
 21
-889.99999999999955
 31
0.0
1001
ACDBBLOCKREPETAG
1070
     1
1071
       43
1005
1309CC
  0
LINE
  5
1309CD
  8
OBJECT
 10
3928.0
 20
-570.99999999999955
 30
0.0
 11
3928.0
 21
-633.99999999999955
 31
0.0
1001
ACDBBLOCKREPETAG
1070
     1
1071
       44
1005
1309CD
  0
LINE
  5
1309CE
  8
OBJECT
 10
4072.0
 20
-633.99999999999955
 30
0.0
 11
4072.0
 21
-570.99999999999955
 31
0.0
1001
ACDBBLOCKREPETAG
1070
     1
1071
       45
1005
1309CE
  0
LINE
  5
1309CF
  8
OBJECT
 10
3920.0
 20
-877.99999999999955
 30
0.0
 11
4080.0
 21
-877.99999999999955
 31
0.0
1001
ACDBBLOCKREPETAG
1070
     1
1071
       46
1005
1309CF
  0
LINE
  5
1309D0
  8
OBJECT
 10
4080.0
 20
-633.99999999999955
 30
0.0
 11
3920.0
 21
-633.99999999999955
 31
0.0
1001
ACDBBLOCKREPETAG
1070
     1
1071
       47
1005
1309D0
  0
LINE
  5
1309D1
  8
OBJECT
 10
3920.0
 20
-877.99999999999955
 30
0.0
 11
3920.0
 21
-889.99999999999955
 31
0.0
1001
ACDBBLOCKREPETAG
1070
     1
1071
       48
1005
1309D1
  0
LINE
  5
1309D2
  8
OBJECT
 10
3920.0
 20
-889.99999999999955
 30
0.0
 11
4080.0
 21
-889.99999999999955
 31
0.0
1001
ACDBBLOCKREPETAG
1070
     1
1071
       49
1005
1309D2
  0
LINE
  5
1309D3
  8
OBJECT
 10
4080.0
 20
-889.99999999999955
 30
0.0
 11
4080.0
 21
-877.99999999999955
 31
0.0
1001
ACDBBLOCKREPETAG
1070
     1
1071
       50
1005
1309D3
  0
LINE
  5
1309D4
  8
OBJECT
 10
4074.9999999998631
 20
-757.99999999985005
 30
0.0
 11
4075.0
 21
-877.99999999999955
 31
0.0
1001
ACDBBLOCKREPETAG
1070
     1
1071
       54
1005
1309D4
  0
LINE
  5
1309D5
  8
OBJECT
 10
4074.9999908029849
 20
-757.99998602702112
 30
0.0
 11
4080.0
 21
-757.99998602702112
 31
0.0
1001
ACDBBLOCKREPETAG
1070
     1
1071
       55
1005
1309D5
  0
LINE
  5
1309D6
  8
OBJECT
 10
3925.0000000001392
 20
-757.99999999985005
 30
0.0
 11
3925.0
 21
-877.99999999999955
 31
0.0
1001
ACDBBLOCKREPETAG
1070
     1
1071
       56
1005
1309D6
  0
LINE
  5
1309D7
  8
OBJECT
 10
3925.0000091970151
 20
-757.99998602702112
 30
0.0
 11
3920.0
 21
-757.99998602702112
 31
0.0
1001
ACDBBLOCKREPETAG
1070
     1
1071
       57
1005
1309D7
  0
ARC
  5
1309D8
  8
OBJECT
 10
4200.6872746716726
 20
-749.40809941010718
 30
0.0
 40
170.6350503965856
 50
137.44134459184301
 51
149.91949581337221
1001
ACDBBLOCKREPETAG
1070
     1
1071
       58
1005
1309D8
  0
ARC
  5
1309D9
  8
OBJECT
 10
4200.6872746716726
 20
-642.59190058989179
 30
0.0
 40
170.6350503965856
 50
210.08050418662771
 51
222.55865540815699
1001
ACDBBLOCKREPETAG
1070
     1
1071
       59
1005
1309D9
  0
ARC
  5
1309DA
  8
OBJECT
 10
3799.3127253283278
 20
-749.40809941010718
 30
0.0
 40
170.6350503965856
 50
30.080504186774089
 51
42.558655408382627
1001
ACDBBLOCKREPETAG
1070
     1
1071
       60
1005
1309DA
  0
ARC
  5
1309DB
  8
OBJECT
 10
3799.3127253283278
 20
-642.59190058989179
 30
0.0
 40
170.6350503965856
 50
317.44134459161722
 51
329.91949581322592
1001
ACDBBLOCKREPETAG
1070
     1
1071
       61
1005
1309DB
  0
POINT
  5
1309DC
  8
DOTS
 10
4000.0
 20
-754.99999999999955
 30
0.0
1001
ACDBBLOCKREPETAG
1070
     1
1071
      185
1005
1309DC
  0
LINE
  5
1309DD
  8
OBJECT
 10
557.99999999999875
 20
-546.00000000000364
 30
0.0
 11
557.99999999999875
 21
-549.00000000000364
 31
0.0
1001
ACDBBLOCKREPETAG
1070
     1
1071
      414
1005
1309DD
  0
ARC
  5
1309DE
  8
OBJECT
 10
554.99999999999875
 20
-546.00000000000364
 30
0.0
 40
3.0
 50
0.0
 51
90.0
1001
ACDBBLOCKREPETAG
1070
     1
1071
      415
1005
1309DE
  0
LINE
  5
1309DF
  8
OBJECT
 10
433.99999999999852
 20
-549.00000000000364
 30
0.0
 11
433.99999999999852
 21
-546.00000000000364
 31
0.0
1001
ACDBBLOCKREPETAG
1070
     1
1071
      416
1005
1309DF
  0
ARC
  5
1309E0
  8
OBJECT
 10
436.99999999999852
 20
-546.00000000000364
 30
0.0
 40
3.0
 50
90.0
 51
180.0
1001
ACDBBLOCKREPETAG
1070
     1
1071
      417
1005
1309E0
  0
LINE
  5
1309E1
  8
OBJECT
 10
436.99999999999852
 20
-543.00000000000364
 30
0.0
 11
554.99999999999875
 21
-543.00000000000364
 31
0.0
1001
ACDBBLOCKREPETAG
1070
     1
1071
      418
1005
1309E1
  0
LINE
  5
1309E2
  8
OBJECT
 10
570.99999999999875
 20
-779.00000000000352
 30
0.0
 11
570.99999999999875
 21
-772.00000000000352
 31
0.0
1001
ACDBBLOCKREPETAG
1070
     1
1071
       57
1005
1309E2
  0
LINE
  5
1309E3
  8
OBJECT
 10
570.99999999999875
 20
-772.00000000000352
 30
0.0
 11
420.99999999999841
 21
-772.00000000000352
 31
0.0
1001
ACDBBLOCKREPETAG
1070
     1
1071
       58
1005
1309E3
  0
LINE
  5
1309E4
  8
OBJECT
 10
567.99999999999875
 20
-730.50000000000352
 30
0.0
 11
423.99999999999852
 21
-730.50000000000352
 31
0.0
1001
ACDBBLOCKREPETAG
1070
     1
1071
       59
1005
1309E4
  0
LINE
  5
1309E5
  8
OBJECT
 10
561.49999999999875
 20
-719.00000000000364
 30
0.0
 11
430.49999999999852
 21
-719.00000000000364
 31
0.0
1001
ACDBBLOCKREPETAG
1070
     1
1071
       60
1005
1309E5
  0
LINE
  5
1309E6
  8
OBJECT
 10
420.99999999999841
 20
-772.00000000000352
 30
0.0
 11
420.99999999999841
 21
-779.00000000000352
 31
0.0
1001
ACDBBLOCKREPETAG
1070
     1
1071
       61
1005
1309E6
  0
LINE
  5
1309E7
  8
OBJECT
 10
420.99999999999841
 20
-779.00000000000352
 30
0.0
 11
570.99999999999875
 21
-779.00000000000352
 31
0.0
1001
ACDBBLOCKREPETAG
1070
     1
1071
       62
1005
1309E7
  0
LINE
  5
1309E8
  8
OBJECT
 10
433.99999999999852
 20
-715.00000000000364
 30
0.0
 11
433.99999999999852
 21
-709.00000000000364
 31
0.0
1001
ACDBBLOCKREPETAG
1070
     1
1071
       63
1005
1309E8
  0
LINE
  5
1309E9
  8
OBJECT
 10
423.99999999999852
 20
-772.00000000000352
 30
0.0
 11
423.99999999999852
 21
-730.50000000000352
 31
0.0
1001
ACDBBLOCKREPETAG
1070
     1
1071
       64
1005
1309E9
  0
LINE
  5
1309EA
  8
OBJECT
 10
423.99999999999852
 20
-730.50000000000352
 30
0.0
 11
430.49999999999852
 21
-719.00000000000364
 31
0.0
1001
ACDBBLOCKREPETAG
1070
     1
1071
       65
1005
1309EA
  0
LINE
  5
1309EB
  8
OBJECT
 10
430.49999999999852
 20
-719.00000000000364
 30
0.0
 11
433.99999999999852
 21
-715.00000000000364
 31
0.0
1001
ACDBBLOCKREPETAG
1070
     1
1071
       66
1005
1309EB
  0
LINE
  5
1309EC
  8
OBJECT
 10
567.99999999999875
 20
-730.50000000000352
 30
0.0
 11
561.49999999999875
 21
-719.00000000000364
 31
0.0
1001
ACDBBLOCKREPETAG
1070
     1
1071
       67
1005
1309EC
  0
LINE
  5
1309ED
  8
OBJECT
 10
561.49999999999875
 20
-719.00000000000364
 30
0.0
 11
557.99999999999875
 21
-715.00000000000364
 31
0.0
1001
ACDBBLOCKREPETAG
1070
     1
1071
       68
1005
1309ED
  0
ARC
  5
1309EE
  8
OBJECT
 10
495.99999999999852
 20
-1096.9000000000051
 30
0.0
 40
386.89999999999998
 50
80.778701362367499
 51
99.221298637632543
1001
ACDBBLOCKREPETAG
1070
     1
1071
       69
1005
1309EE
  0
LINE
  5
1309EF
  8
OBJECT
 10
557.99999999999875
 20
-715.00000000000364
 30
0.0
 11
557.99999999999875
 21
-709.00000000000364
 31
0.0
1001
ACDBBLOCKREPETAG
1070
     1
1071
       70
1005
1309EF
  0
LINE
  5
1309F0
  8
OBJECT
 10
567.99999999999875
 20
-772.00000000000352
 30
0.0
 11
567.99999999999875
 21
-730.50000000000352
 31
0.0
1001
ACDBBLOCKREPETAG
1070
     1
1071
       71
1005
1309F0
  0
INSERT
  5
1309F1
  8
OBJECT
  2
*U3
 10
0.0
 20
0.0
 30
0.0
  0
LINE
  5
1309F2
  8
HIDDEN
 10
438.99999999999852
 20
-727.00000000000352
 30
0.0
 11
552.99999999999875
 21
-727.00000000000352
 31
0.0
1001
ACDBBLOCKREPETAG
1070
     1
1071
      437
1005
1309F2
  0
LINE
  5
1309F3
  8
OBJECT
 10
581.99999999999875
 20
-570.00000000000273
 30
0.0
 11
581.99999999999875
 21
-688.00000000000273
 31
0.0
1001
ACDBBLOCKREPETAG
1070
     1
1071
      323
1005
1309F3
  0
LINE
  5
1309F4
  8
OBJECT
 10
605.99999999999875
 20
-673.50000000000364
 30
0.0
 11
605.99999999999875
 21
-584.50000000000364
 31
0.0
1001
ACDBBLOCKREPETAG
1070
     1
1071
      324
1005
1309F4
  0
LINE
  5
1309F5
  8
OBJECT
 10
605.99999999999875
 20
-673.50000000000364
 30
0.0
 11
581.99999999999875
 21
-673.50000000000364
 31
0.0
1001
ACDBBLOCKREPETAG
1070
     1
1071
      325
1005
1309F5
  0
LINE
  5
1309F6
  8
OBJECT
 10
575.99999999999875
 20
-691.00000000000273
 30
0.0
 11
578.99999999999875
 21
-691.00000000000273
 31
0.0
1001
ACDBBLOCKREPETAG
1070
     1
1071
      326
1005
1309F6
  0
ARC
  5
1309F7
  8
OBJECT
 10
578.99999999999875
 20
-688.00000000000273
 30
0.0
 40
3.0
 50
270.0
 51
0.0
1001
ACDBBLOCKREPETAG
1070
     1
1071
      327
1005
1309F7
  0
LINE
  5
1309F8
  8
OBJECT
 10
605.99999999999875
 20
-611.17793400000392
 30
0.0
 11
609.83118899999909
 21
-606.89681800000369
 31
0.0
1001
ACDBBLOCKREPETAG
1070
     1
1071
      328
1005
1309F8
  0
ARC
  5
1309F9
  8
OBJECT
 10
615.99999999999875
 20
-612.00000000000273
 30
0.0
 40
8.0
 50
341.8416470000376
 51
140.40224699998851
1001
ACDBBLOCKREPETAG
1070
     1
1071
      329
1005
1309F9
  0
ARC
  5
1309FA
  8
OBJECT
 10
618.8505969999992
 20
-612.9349330000033
 30
0.0
 40
5.0
 50
288.48486900001723
 51
341.8416470000376
1001
ACDBBLOCKREPETAG
1070
     1
1071
      330
1005
1309FA
  0
LINE
  5
1309FB
  8
OBJECT
 10
615.99999999999875
 20
-624.00000000000364
 30
0.0
 11
608.99999999999875
 21
-624.00000000000364
 31
0.0
1001
ACDBBLOCKREPETAG
1070
     1
1071
      331
1005
1309FB
  0
LINE
  5
1309FC
  8
OBJECT
 10
615.99999999999875
 20
-634.00000000000364
 30
0.0
 11
608.99999999999875
 21
-634.00000000000364
 31
0.0
1001
ACDBBLOCKREPETAG
1070
     1
1071
      332
1005
1309FC
  0
LINE
  5
1309FD
  8
OBJECT
 10
615.99999999999875
 20
-624.00000000000364
 30
0.0
 11
615.99999999999875
 21
-634.00000000000364
 31
0.0
1001
ACDBBLOCKREPETAG
1070
     1
1071
      333
1005
1309FD
  0
LINE
  5
1309FE
  8
OBJECT
 10
608.99999999999875
 20
-621.50000000000364
 30
0.0
 11
608.99999999999875
 21
-636.50000000000364
 31
0.0
1001
ACDBBLOCKREPETAG
1070
     1
1071
      334
1005
1309FE
  0
LINE
  5
1309FF
  8
OBJECT
 10
605.99999999999875
 20
-637.25000000000364
 30
0.0
 11
608.99999999999875
 21
-636.50000000000364
 31
0.0
1001
ACDBBLOCKREPETAG
1070
     1
1071
      335
1005
1309FF
  0
LINE
  5
130A00
  8
OBJECT
 10
605.99999999999875
 20
-646.8220670000037
 30
0.0
 11
609.83118899999909
 21
-651.10318200000415
 31
0.0
1001
ACDBBLOCKREPETAG
1070
     1
1071
      336
1005
130A00
  0
LINE
  5
130A01
  8
OBJECT
 10
605.99999999999875
 20
-620.75000000000364
 30
0.0
 11
608.99999999999875
 21
-621.50000000000364
 31
0.0
1001
ACDBBLOCKREPETAG
1070
     1
1071
      337
1005
130A01
  0
ARC
  5
130A02
  8
OBJECT
 10
615.99999999999875
 20
-646.00000000000273
 30
0.0
 40
8.0
 50
219.59775300001141
 51
18.158352999962421
1001
ACDBBLOCKREPETAG
1070
     1
1071
      338
1005
130A02
  0
ARC
  5
130A03
  8
OBJECT
 10
618.8505969999992
 20
-645.06506700000375
 30
0.0
 40
5.0
 50
18.158352999962421
 51
71.515130999982702
1001
ACDBBLOCKREPETAG
1070
     1
1071
      339
1005
130A03
  0
LINE
  5
130A04
  8
OBJECT
 10
620.43586799999923
 20
-640.32303000000411
 30
0.0
 11
608.99999999999875
 21
-636.50000000000364
 31
0.0
1001
ACDBBLOCKREPETAG
1070
     1
1071
      340
1005
130A04
  0
LINE
  5
130A05
  8
OBJECT
 10
620.43586799999923
 20
-617.67697000000305
 30
0.0
 11
608.99999999999875
 21
-621.50000000000364
 31
0.0
1001
ACDBBLOCKREPETAG
1070
     1
1071
      341
1005
130A05
  0
ARC
  5
130A06
  8
OBJECT
 10
578.99999999999875
 20
-570.00000000000273
 30
0.0
 40
3.0
 50
0.0
 51
90.0
1001
ACDBBLOCKREPETAG
1070
     1
1071
      342
1005
130A06
  0
LINE
  5
130A07
  8
OBJECT
 10
575.99999999999875
 20
-567.00000000000273
 30
0.0
 11
578.99999999999875
 21
-567.00000000000273
 31
0.0
1001
ACDBBLOCKREPETAG
1070
     1
1071
      343
1005
130A07
  0
LINE
  5
130A08
  8
OBJECT
 10
605.99999999999875
 20
-584.50000000000364
 30
0.0
 11
581.99999999999875
 21
-584.50000000000364
 31
0.0
1001
ACDBBLOCKREPETAG
1070
     1
1071
      344
1005
130A08
  0
INSERT
  5
130A09
  8
OBJECT
  2
*U4
 10
0.0
 20
0.0
 30
0.0
  0
LINE
  5
130A0A
  8
OBJECT
 10
197.99999999999869
 20
-546.00000000000364
 30
0.0
 11
197.99999999999869
 21
-549.00000000000364
 31
0.0
1001
ACDBBLOCKREPETAG
1070
     1
1071
      414
1005
130A0A
  0
ARC
  5
130A0B
  8
OBJECT
 10
194.99999999999869
 20
-546.00000000000364
 30
0.0
 40
3.0
 50
0.0
 51
90.0
1001
ACDBBLOCKREPETAG
1070
     1
1071
      415
1005
130A0B
  0
LINE
  5
130A0C
  8
OBJECT
 10
73.999999999998749
 20
-549.00000000000364
 30
0.0
 11
73.999999999998749
 21
-546.00000000000364
 31
0.0
1001
ACDBBLOCKREPETAG
1070
     1
1071
      416
1005
130A0C
  0
ARC
  5
130A0D
  8
OBJECT
 10
76.999999999998778
 20
-546.00000000000364
 30
0.0
 40
3.0
 50
90.0
 51
180.0
1001
ACDBBLOCKREPETAG
1070
     1
1071
      417
1005
130A0D
  0
LINE
  5
130A0E
  8
OBJECT
 10
76.999999999998778
 20
-543.00000000000364
 30
0.0
 11
194.99999999999869
 21
-543.00000000000364
 31
0.0
1001
ACDBBLOCKREPETAG
1070
     1
1071
      418
1005
130A0E
  0
LINE
  5
130A0F
  8
OBJECT
 10
197.99999999999869
 20
-762.00000000000352
 30
0.0
 11
197.99999999999869
 21
-769.00000000000352
 31
0.0
1001
ACDBBLOCKREPETAG
1070
     1
1071
       38
1005
130A0F
  0
LINE
  5
130A10
  8
OBJECT
 10
197.99999999999869
 20
-769.00000000000352
 30
0.0
 11
73.999999999998749
 21
-769.00000000000352
 31
0.0
1001
ACDBBLOCKREPETAG
1070
     1
1071
       39
1005
130A10
  0
LINE
  5
130A11
  8
OBJECT
 10
73.999999999998749
 20
-769.00000000000352
 30
0.0
 11
73.999999999998749
 21
-762.00000000000352
 31
0.0
1001
ACDBBLOCKREPETAG
1070
     1
1071
       40
1005
130A11
  0
LINE
  5
130A12
  8
OBJECT
 10
73.999999999998749
 20
-762.00000000000352
 30
0.0
 11
197.99999999999869
 21
-762.00000000000352
 31
0.0
1001
ACDBBLOCKREPETAG
1070
     1
1071
       41
1005
130A12
  0
LINE
  5
130A13
  8
OBJECT
 10
194.99999999999869
 20
-762.00000000000352
 30
0.0
 11
194.99999999999869
 21
-726.00000000000352
 31
0.0
1001
ACDBBLOCKREPETAG
1070
     1
1071
       42
1005
130A13
  0
LINE
  5
130A14
  8
OBJECT
 10
194.99999999999869
 20
-726.00000000000352
 30
0.0
 11
76.999999999998778
 21
-726.00000000000352
 31
0.0
1001
ACDBBLOCKREPETAG
1070
     1
1071
       43
1005
130A14
  0
LINE
  5
130A15
  8
OBJECT
 10
76.999999999998778
 20
-726.00000000000352
 30
0.0
 11
76.999999999998778
 21
-762.00000000000352
 31
0.0
1001
ACDBBLOCKREPETAG
1070
     1
1071
       44
1005
130A15
  0
LINE
  5
130A16
  8
OBJECT
 10
190.49999999999869
 20
-722.00000000000352
 30
0.0
 11
190.49999999999869
 21
-715.00000000000364
 31
0.0
1001
ACDBBLOCKREPETAG
1070
     1
1071
       45
1005
130A16
  0
LINE
  5
130A17
  8
OBJECT
 10
81.499999999998764
 20
-715.00000000000364
 30
0.0
 11
81.499999999998764
 21
-722.00000000000352
 31
0.0
1001
ACDBBLOCKREPETAG
1070
     1
1071
       46
1005
130A17
  0
LINE
  5
130A18
  8
OBJECT
 10
81.499999999998764
 20
-722.00000000000352
 30
0.0
 11
190.49999999999869
 21
-722.00000000000352
 31
0.0
1001
ACDBBLOCKREPETAG
1070
     1
1071
       47
1005
130A18
  0
LINE
  5
130A19
  8
OBJECT
 10
194.99999999999869
 20
-726.00000000000352
 30
0.0
 11
190.49999999999869
 21
-722.00000000000352
 31
0.0
1001
ACDBBLOCKREPETAG
1070
     1
1071
       48
1005
130A19
  0
LINE
  5
130A1A
  8
OBJECT
 10
76.999999999998778
 20
-726.00000000000352
 30
0.0
 11
81.499999999998764
 21
-722.00000000000352
 31
0.0
1001
ACDBBLOCKREPETAG
1070
     1
1071
       49
1005
130A1A
  0
LINE
  5
130A1B
  8
OBJECT
 10
197.99999999999869
 20
-712.00000000000443
 30
0.0
 11
197.99999999999869
 21
-709.00000000000364
 31
0.0
1001
ACDBBLOCKREPETAG
1070
     1
1071
       50
1005
130A1B
  0
ARC
  5
130A1C
  8
OBJECT
 10
194.99999999999869
 20
-712.00000000000443
 30
0.0
 40
3.0
 50
270.0
 51
0.0
1001
ACDBBLOCKREPETAG
1070
     1
1071
       51
1005
130A1C
  0
LINE
  5
130A1D
  8
OBJECT
 10
73.999999999998749
 20
-709.00000000000364
 30
0.0
 11
73.999999999998749
 21
-712.00000000000273
 31
0.0
1001
ACDBBLOCKREPETAG
1070
     1
1071
       52
1005
130A1D
  0
ARC
  5
130A1E
  8
OBJECT
 10
76.999999999998778
 20
-712.00000000000273
 30
0.0
 40
3.0
 50
180.0
 51
270.0
1001
ACDBBLOCKREPETAG
1070
     1
1071
       53
1005
130A1E
  0
LINE
  5
130A1F
  8
OBJECT
 10
76.999999999998778
 20
-715.00000000000273
 30
0.0
 11
194.99999999999869
 21
-715.00000000000443
 31
0.0
1001
ACDBBLOCKREPETAG
1070
     1
1071
       54
1005
130A1F
  0
INSERT
  5
130A20
  8
OBJECT
  2
*U5
 10
0.0
 20
0.0
 30
0.0
  0
LINE
  5
130A21
  8
HIDDEN
 10
180.49999999999881
 20
-717.00000000000364
 30
0.0
 11
91.499999999998792
 21
-717.00000000000364
 31
0.0
1001
ACDBBLOCKREPETAG
1070
     1
1071
      430
1005
130A21
  0
LINE
  5
130A22
  8
OBJECT
 10
221.99999999999881
 20
-570.00000000000273
 30
0.0
 11
221.99999999999881
 21
-688.00000000000273
 31
0.0
1001
ACDBBLOCKREPETAG
1070
     1
1071
      323
1005
130A22
  0
LINE
  5
130A23
  8
OBJECT
 10
245.99999999999881
 20
-673.50000000000364
 30
0.0
 11
245.99999999999881
 21
-584.50000000000364
 31
0.0
1001
ACDBBLOCKREPETAG
1070
     1
1071
      324
1005
130A23
  0
LINE
  5
130A24
  8
OBJECT
 10
245.99999999999881
 20
-673.50000000000364
 30
0.0
 11
221.99999999999881
 21
-673.50000000000364
 31
0.0
1001
ACDBBLOCKREPETAG
1070
     1
1071
      325
1005
130A24
  0
LINE
  5
130A25
  8
OBJECT
 10
215.99999999999881
 20
-691.00000000000273
 30
0.0
 11
218.99999999999881
 21
-691.00000000000273
 31
0.0
1001
ACDBBLOCKREPETAG
1070
     1
1071
      326
1005
130A25
  0
ARC
  5
130A26
  8
OBJECT
 10
218.99999999999881
 20
-688.00000000000273
 30
0.0
 40
3.0
 50
270.0
 51
0.0
1001
ACDBBLOCKREPETAG
1070
     1
1071
      327
1005
130A26
  0
LINE
  5
130A27
  8
OBJECT
 10
245.99999999999881
 20
-611.17793400000392
 30
0.0
 11
249.8311889999992
 21
-606.89681800000369
 31
0.0
1001
ACDBBLOCKREPETAG
1070
     1
1071
      328
1005
130A27
  0
ARC
  5
130A28
  8
OBJECT
 10
255.99999999999881
 20
-612.00000000000273
 30
0.0
 40
8.0
 50
341.84164700003799
 51
140.40224699998751
1001
ACDBBLOCKREPETAG
1070
     1
1071
      329
1005
130A28
  0
ARC
  5
130A29
  8
OBJECT
 10
258.8505969999992
 20
-612.9349330000033
 30
0.0
 40
5.0
 50
288.48486900001421
 51
341.84164700003799
1001
ACDBBLOCKREPETAG
1070
     1
1071
      330
1005
130A29
  0
LINE
  5
130A2A
  8
OBJECT
 10
255.99999999999881
 20
-624.00000000000364
 30
0.0
 11
248.99999999999881
 21
-624.00000000000364
 31
0.0
1001
ACDBBLOCKREPETAG
1070
     1
1071
      331
1005
130A2A
  0
LINE
  5
130A2B
  8
OBJECT
 10
255.99999999999881
 20
-634.00000000000364
 30
0.0
 11
248.99999999999881
 21
-634.00000000000364
 31
0.0
1001
ACDBBLOCKREPETAG
1070
     1
1071
      332
1005
130A2B
  0
LINE
  5
130A2C
  8
OBJECT
 10
255.99999999999881
 20
-624.00000000000364
 30
0.0
 11
255.99999999999881
 21
-634.00000000000364
 31
0.0
1001
ACDBBLOCKREPETAG
1070
     1
1071
      333
1005
130A2C
  0
LINE
  5
130A2D
  8
OBJECT
 10
248.99999999999881
 20
-621.50000000000364
 30
0.0
 11
248.99999999999881
 21
-636.50000000000364
 31
0.0
1001
ACDBBLOCKREPETAG
1070
     1
1071
      334
1005
130A2D
  0
LINE
  5
130A2E
  8
OBJECT
 10
245.99999999999881
 20
-637.25000000000364
 30
0.0
 11
248.99999999999881
 21
-636.50000000000364
 31
0.0
1001
ACDBBLOCKREPETAG
1070
     1
1071
      335
1005
130A2E
  0
LINE
  5
130A2F
  8
OBJECT
 10
245.99999999999881
 20
-646.8220670000037
 30
0.0
 11
249.8311889999992
 21
-651.10318200000415
 31
0.0
1001
ACDBBLOCKREPETAG
1070
     1
1071
      336
1005
130A2F
  0
LINE
  5
130A30
  8
OBJECT
 10
245.99999999999881
 20
-620.75000000000364
 30
0.0
 11
248.99999999999881
 21
-621.50000000000364
 31
0.0
1001
ACDBBLOCKREPETAG
1070
     1
1071
      337
1005
130A30
  0
ARC
  5
130A31
  8
OBJECT
 10
255.99999999999881
 20
-646.00000000000273
 30
0.0
 40
8.0
 50
219.5977530000124
 51
18.158352999961931
1001
ACDBBLOCKREPETAG
1070
     1
1071
      338
1005
130A31
  0
ARC
  5
130A32
  8
OBJECT
 10
258.8505969999992
 20
-645.06506700000375
 30
0.0
 40
5.0
 50
18.158352999961931
 51
71.515130999985757
1001
ACDBBLOCKREPETAG
1070
     1
1071
      339
1005
130A32
  0
LINE
  5
130A33
  8
OBJECT
 10
260.43586799999918
 20
-640.32303000000411
 30
0.0
 11
248.99999999999881
 21
-636.50000000000364
 31
0.0
1001
ACDBBLOCKREPETAG
1070
     1
1071
      340
1005
130A33
  0
LINE
  5
130A34
  8
OBJECT
 10
260.43586799999918
 20
-617.67697000000305
 30
0.0
 11
248.99999999999881
 21
-621.50000000000364
 31
0.0
1001
ACDBBLOCKREPETAG
1070
     1
1071
      341
1005
130A34
  0
ARC
  5
130A35
  8
OBJECT
 10
218.99999999999881
 20
-570.00000000000273
 30
0.0
 40
3.0
 50
0.0
 51
90.0
1001
ACDBBLOCKREPETAG
1070
     1
1071
      342
1005
130A35
  0
LINE
  5
130A36
  8
OBJECT
 10
215.99999999999881
 20
-567.00000000000273
 30
0.0
 11
218.99999999999881
 21
-567.00000000000273
 31
0.0
1001
ACDBBLOCKREPETAG
1070
     1
1071
      343
1005
130A36
  0
LINE
  5
130A37
  8
OBJECT
 10
245.99999999999881
 20
-584.50000000000364
 30
0.0
 11
221.99999999999881
 21
-584.50000000000364
 31
0.0
1001
ACDBBLOCKREPETAG
1070
     1
1071
      344
1005
130A37
  0
INSERT
  5
130A38
  8
OBJECT
  2
*U6
 10
0.0
 20
0.0
 30
0.0
  0
LINE
  5
130A39
  8
OBJECT
 10
557.99999999999875
 20
-82.000000000003624
 30
0.0
 11
557.99999999999875
 21
-85.000000000003652
 31
0.0
1001
ACDBBLOCKREPETAG
1070
     1
1071
      414
1005
130A39
  0
ARC
  5
130A3A
  8
OBJECT
 10
554.99999999999875
 20
-82.000000000003624
 30
0.0
 40
3.0
 50
0.0
 51
90.0
1001
ACDBBLOCKREPETAG
1070
     1
1071
      415
1005
130A3A
  0
LINE
  5
130A3B
  8
OBJECT
 10
433.99999999999852
 20
-85.000000000003652
 30
0.0
 11
433.99999999999852
 21
-82.000000000003624
 31
0.0
1001
ACDBBLOCKREPETAG
1070
     1
1071
      416
1005
130A3B
  0
ARC
  5
130A3C
  8
OBJECT
 10
436.99999999999852
 20
-82.000000000003624
 30
0.0
 40
3.0
 50
90.0
 51
180.0
1001
ACDBBLOCKREPETAG
1070
     1
1071
      417
1005
130A3C
  0
LINE
  5
130A3D
  8
OBJECT
 10
436.99999999999852
 20
-79.000000000003652
 30
0.0
 11
554.99999999999875
 21
-79.000000000003652
 31
0.0
1001
ACDBBLOCKREPETAG
1070
     1
1071
      418
1005
130A3D
  0
LINE
  5
130A3E
  8
OBJECT
 10
550.99999999999875
 20
-298.00000000000358
 30
0.0
 11
550.99999999999875
 21
-305.00000000000358
 31
0.0
1001
ACDBBLOCKREPETAG
1070
     1
1071
       19
1005
130A3E
  0
LINE
  5
130A3F
  8
OBJECT
 10
550.99999999999875
 20
-305.00000000000358
 30
0.0
 11
440.99999999999852
 21
-305.00000000000358
 31
0.0
1001
ACDBBLOCKREPETAG
1070
     1
1071
       20
1005
130A3F
  0
LINE
  5
130A40
  8
OBJECT
 10
440.99999999999852
 20
-305.00000000000358
 30
0.0
 11
440.99999999999852
 21
-298.00000000000358
 31
0.0
1001
ACDBBLOCKREPETAG
1070
     1
1071
       21
1005
130A40
  0
LINE
  5
130A41
  8
OBJECT
 10
440.99999999999852
 20
-298.00000000000358
 30
0.0
 11
550.99999999999875
 21
-298.00000000000358
 31
0.0
1001
ACDBBLOCKREPETAG
1070
     1
1071
       22
1005
130A41
  0
LINE
  5
130A42
  8
OBJECT
 10
547.99999999999875
 20
-298.00000000000358
 30
0.0
 11
547.99999999999875
 21
-262.00000000000358
 31
0.0
1001
ACDBBLOCKREPETAG
1070
     1
1071
       23
1005
130A42
  0
LINE
  5
130A43
  8
OBJECT
 10
547.99999999999875
 20
-262.00000000000358
 30
0.0
 11
443.99999999999852
 21
-262.00000000000358
 31
0.0
1001
ACDBBLOCKREPETAG
1070
     1
1071
       24
1005
130A43
  0
LINE
  5
130A44
  8
OBJECT
 10
443.99999999999852
 20
-262.00000000000358
 30
0.0
 11
443.99999999999852
 21
-298.00000000000358
 31
0.0
1001
ACDBBLOCKREPETAG
1070
     1
1071
       25
1005
130A44
  0
LINE
  5
130A45
  8
OBJECT
 10
543.49999999999875
 20
-258.00000000000358
 30
0.0
 11
543.49999999999875
 21
-251.00000000000369
 31
0.0
1001
ACDBBLOCKREPETAG
1070
     1
1071
       26
1005
130A45
  0
LINE
  5
130A46
  8
OBJECT
 10
448.49999999999852
 20
-251.00000000000369
 30
0.0
 11
448.49999999999852
 21
-258.00000000000358
 31
0.0
1001
ACDBBLOCKREPETAG
1070
     1
1071
       27
1005
130A46
  0
LINE
  5
130A47
  8
OBJECT
 10
448.49999999999852
 20
-258.00000000000358
 30
0.0
 11
543.49999999999875
 21
-258.00000000000358
 31
0.0
1001
ACDBBLOCKREPETAG
1070
     1
1071
       28
1005
130A47
  0
LINE
  5
130A48
  8
OBJECT
 10
547.99999999999875
 20
-262.00000000000358
 30
0.0
 11
543.49999999999875
 21
-258.00000000000358
 31
0.0
1001
ACDBBLOCKREPETAG
1070
     1
1071
       29
1005
130A48
  0
LINE
  5
130A49
  8
OBJECT
 10
443.99999999999852
 20
-262.00000000000358
 30
0.0
 11
448.49999999999852
 21
-258.00000000000358
 31
0.0
1001
ACDBBLOCKREPETAG
1070
     1
1071
       30
1005
130A49
  0
LINE
  5
130A4A
  8
OBJECT
 10
557.99999999999875
 20
-248.0000000000046
 30
0.0
 11
557.99999999999875
 21
-245.00000000000369
 31
0.0
1001
ACDBBLOCKREPETAG
1070
     1
1071
       31
1005
130A4A
  0
ARC
  5
130A4B
  8
OBJECT
 10
554.99999999999875
 20
-248.0000000000046
 30
0.0
 40
3.0
 50
270.0
 51
0.0
1001
ACDBBLOCKREPETAG
1070
     1
1071
       32
1005
130A4B
  0
LINE
  5
130A4C
  8
OBJECT
 10
433.99999999999852
 20
-245.00000000000369
 30
0.0
 11
433.99999999999852
 21
-248.0000000000027
 31
0.0
1001
ACDBBLOCKREPETAG
1070
     1
1071
       33
1005
130A4C
  0
ARC
  5
130A4D
  8
OBJECT
 10
436.99999999999852
 20
-248.0000000000027
 30
0.0
 40
3.0
 50
180.0
 51
270.0
1001
ACDBBLOCKREPETAG
1070
     1
1071
       34
1005
130A4D
  0
LINE
  5
130A4E
  8
OBJECT
 10
436.99999999999852
 20
-251.0000000000027
 30
0.0
 11
554.99999999999875
 21
-251.00000000000449
 31
0.0
1001
ACDBBLOCKREPETAG
1070
     1
1071
       35
1005
130A4E
  0
INSERT
  5
130A4F
  8
OBJECT
  2
*U7
 10
0.0
 20
0.0
 30
0.0
  0
LINE
  5
130A50
  8
HIDDEN
 10
533.99999999999875
 20
-253.00000000000361
 30
0.0
 11
457.99999999999841
 21
-253.00000000000361
 31
0.0
1001
ACDBBLOCKREPETAG
1070
     1
1071
      427
1005
130A50
  0
LINE
  5
130A51
  8
OBJECT
 10
581.99999999999875
 20
-106.0000000000027
 30
0.0
 11
581.99999999999875
 21
-224.0000000000027
 31
0.0
1001
ACDBBLOCKREPETAG
1070
     1
1071
      323
1005
130A51
  0
LINE
  5
130A52
  8
OBJECT
 10
605.99999999999875
 20
-209.50000000000369
 30
0.0
 11
605.99999999999875
 21
-120.5000000000036
 31
0.0
1001
ACDBBLOCKREPETAG
1070
     1
1071
      324
1005
130A52
  0
LINE
  5
130A53
  8
OBJECT
 10
605.99999999999875
 20
-209.50000000000369
 30
0.0
 11
581.99999999999875
 21
-209.50000000000369
 31
0.0
1001
ACDBBLOCKREPETAG
1070
     1
1071
      325
1005
130A53
  0
LINE
  5
130A54
  8
OBJECT
 10
575.99999999999875
 20
-227.0000000000027
 30
0.0
 11
578.99999999999875
 21
-227.0000000000027
 31
0.0
1001
ACDBBLOCKREPETAG
1070
     1
1071
      326
1005
130A54
  0
ARC
  5
130A55
  8
OBJECT
 10
578.99999999999875
 20
-224.0000000000027
 30
0.0
 40
3.0
 50
270.0
 51
0.0
1001
ACDBBLOCKREPETAG
1070
     1
1071
      327
1005
130A55
  0
LINE
  5
130A56
  8
OBJECT
 10
605.99999999999875
 20
-147.1779340000038
 30
0.0
 11
609.83118899999909
 21
-142.8968180000038
 31
0.0
1001
ACDBBLOCKREPETAG
1070
     1
1071
      328
1005
130A56
  0
ARC
  5
130A57
  8
OBJECT
 10
615.99999999999875
 20
-148.0000000000027
 30
0.0
 40
8.0
 50
341.8416470000376
 51
140.40224699998609
1001
ACDBBLOCKREPETAG
1070
     1
1071
      329
1005
130A57
  0
ARC
  5
130A58
  8
OBJECT
 10
618.8505969999992
 20
-148.93493300000321
 30
0.0
 40
5.0
 50
288.48486900001677
 51
341.8416470000376
1001
ACDBBLOCKREPETAG
1070
     1
1071
      330
1005
130A58
  0
LINE
  5
130A59
  8
OBJECT
 10
615.99999999999875
 20
-160.00000000000361
 30
0.0
 11
608.99999999999875
 21
-160.00000000000361
 31
0.0
1001
ACDBBLOCKREPETAG
1070
     1
1071
      331
1005
130A59
  0
LINE
  5
130A5A
  8
OBJECT
 10
615.99999999999875
 20
-170.00000000000361
 30
0.0
 11
608.99999999999875
 21
-170.00000000000361
 31
0.0
1001
ACDBBLOCKREPETAG
1070
     1
1071
      332
1005
130A5A
  0
LINE
  5
130A5B
  8
OBJECT
 10
615.99999999999875
 20
-160.00000000000361
 30
0.0
 11
615.99999999999875
 21
-170.00000000000361
 31
0.0
1001
ACDBBLOCKREPETAG
1070
     1
1071
      333
1005
130A5B
  0
LINE
  5
130A5C
  8
OBJECT
 10
608.99999999999875
 20
-157.50000000000361
 30
0.0
 11
608.99999999999875
 21
-172.50000000000361
 31
0.0
1001
ACDBBLOCKREPETAG
1070
     1
1071
      334
1005
130A5C
  0
LINE
  5
130A5D
  8
OBJECT
 10
605.99999999999875
 20
-173.25000000000361
 30
0.0
 11
608.99999999999875
 21
-172.50000000000361
 31
0.0
1001
ACDBBLOCKREPETAG
1070
     1
1071
      335
1005
130A5D
  0
LINE
  5
130A5E
  8
OBJECT
 10
605.99999999999875
 20
-182.8220670000037
 30
0.0
 11
609.83118899999909
 21
-187.10318200000441
 31
0.0
1001
ACDBBLOCKREPETAG
1070
     1
1071
      336
1005
130A5E
  0
LINE
  5
130A5F
  8
OBJECT
 10
605.99999999999875
 20
-156.75000000000361
 30
0.0
 11
608.99999999999875
 21
-157.50000000000361
 31
0.0
1001
ACDBBLOCKREPETAG
1070
     1
1071
      337
1005
130A5F
  0
ARC
  5
130A60
  8
OBJECT
 10
615.99999999999875
 20
-182.0000000000025
 30
0.0
 40
8.0
 50
219.59775300001391
 51
18.158352999962421
1001
ACDBBLOCKREPETAG
1070
     1
1071
      338
1005
130A60
  0
ARC
  5
130A61
  8
OBJECT
 10
618.8505969999992
 20
-181.06506700000409
 30
0.0
 40
5.0
 50
18.158352999962421
 51
71.515130999983214
1001
ACDBBLOCKREPETAG
1070
     1
1071
      339
1005
130A61
  0
LINE
  5
130A62
  8
OBJECT
 10
620.43586799999923
 20
-176.32303000000411
 30
0.0
 11
608.99999999999875
 21
-172.50000000000361
 31
0.0
1001
ACDBBLOCKREPETAG
1070
     1
1071
      340
1005
130A62
  0
LINE
  5
130A63
  8
OBJECT
 10
620.43586799999923
 20
-153.67697000000311
 30
0.0
 11
608.99999999999875
 21
-157.50000000000361
 31
0.0
1001
ACDBBLOCKREPETAG
1070
     1
1071
      341
1005
130A63
  0
ARC
  5
130A64
  8
OBJECT
 10
578.99999999999875
 20
-106.0000000000027
 30
0.0
 40
3.0
 50
0.0
 51
90.0
1001
ACDBBLOCKREPETAG
1070
     1
1071
      342
1005
130A64
  0
LINE
  5
130A65
  8
OBJECT
 10
575.99999999999875
 20
-103.0000000000027
 30
0.0
 11
578.99999999999875
 21
-103.0000000000027
 31
0.0
1001
ACDBBLOCKREPETAG
1070
     1
1071
      343
1005
130A65
  0
LINE
  5
130A66
  8
OBJECT
 10
605.99999999999875
 20
-120.5000000000036
 30
0.0
 11
581.99999999999875
 21
-120.5000000000036
 31
0.0
1001
ACDBBLOCKREPETAG
1070
     1
1071
      344
1005
130A66
  0
INSERT
  5
130A67
  8
OBJECT
  2
*U8
 10
0.0
 20
0.0
 30
0.0
  0
LINE
  5
130A68
  8
OBJECT
 10
197.99999999999869
 20
-82.000000000003624
 30
0.0
 11
197.99999999999869
 21
-85.000000000003652
 31
0.0
1001
ACDBBLOCKREPETAG
1070
     1
1071
      414
1005
130A68
  0
ARC
  5
130A69
  8
OBJECT
 10
194.99999999999869
 20
-82.000000000003624
 30
0.0
 40
3.0
 50
0.0
 51
90.0
1001
ACDBBLOCKREPETAG
1070
     1
1071
      415
1005
130A69
  0
LINE
  5
130A6A
  8
OBJECT
 10
73.999999999998749
 20
-85.000000000003652
 30
0.0
 11
73.999999999998749
 21
-82.000000000003624
 31
0.0
1001
ACDBBLOCKREPETAG
1070
     1
1071
      416
1005
130A6A
  0
ARC
  5
130A6B
  8
OBJECT
 10
76.999999999998778
 20
-82.000000000003624
 30
0.0
 40
3.0
 50
90.0
 51
180.0
1001
ACDBBLOCKREPETAG
1070
     1
1071
      417
1005
130A6B
  0
LINE
  5
130A6C
  8
OBJECT
 10
76.999999999998778
 20
-79.000000000003652
 30
0.0
 11
194.99999999999869
 21
-79.000000000003652
 31
0.0
1001
ACDBBLOCKREPETAG
1070
     1
1071
      418
1005
130A6C
  0
LINE
  5
130A6D
  8
OBJECT
 10
182.99999999999869
 20
-298.00000000000358
 30
0.0
 11
182.99999999999869
 21
-305.00000000000358
 31
0.0
1001
ACDBBLOCKREPETAG
1070
     1
1071
        0
1005
130A6D
  0
LINE
  5
130A6E
  8
OBJECT
 10
182.99999999999869
 20
-305.00000000000358
 30
0.0
 11
88.999999999998735
 21
-305.00000000000358
 31
0.0
1001
ACDBBLOCKREPETAG
1070
     1
1071
        1
1005
130A6E
  0
LINE
  5
130A6F
  8
OBJECT
 10
88.999999999998735
 20
-305.00000000000358
 30
0.0
 11
88.999999999998735
 21
-298.00000000000358
 31
0.0
1001
ACDBBLOCKREPETAG
1070
     1
1071
        2
1005
130A6F
  0
LINE
  5
130A70
  8
OBJECT
 10
88.999999999998735
 20
-298.00000000000358
 30
0.0
 11
182.99999999999869
 21
-298.00000000000358
 31
0.0
1001
ACDBBLOCKREPETAG
1070
     1
1071
        3
1005
130A70
  0
LINE
  5
130A71
  8
OBJECT
 10
179.99999999999881
 20
-298.00000000000358
 30
0.0
 11
179.99999999999881
 21
-262.00000000000358
 31
0.0
1001
ACDBBLOCKREPETAG
1070
     1
1071
        4
1005
130A71
  0
LINE
  5
130A72
  8
OBJECT
 10
179.99999999999881
 20
-262.00000000000358
 30
0.0
 11
91.999999999998764
 21
-262.00000000000358
 31
0.0
1001
ACDBBLOCKREPETAG
1070
     1
1071
        5
1005
130A72
  0
LINE
  5
130A73
  8
OBJECT
 10
91.999999999998764
 20
-262.00000000000358
 30
0.0
 11
91.999999999998764
 21
-298.00000000000358
 31
0.0
1001
ACDBBLOCKREPETAG
1070
     1
1071
        6
1005
130A73
  0
LINE
  5
130A74
  8
OBJECT
 10
175.49999999999881
 20
-258.00000000000358
 30
0.0
 11
175.49999999999881
 21
-251.00000000000369
 31
0.0
1001
ACDBBLOCKREPETAG
1070
     1
1071
        7
1005
130A74
  0
LINE
  5
130A75
  8
OBJECT
 10
96.499999999998764
 20
-251.00000000000369
 30
0.0
 11
96.499999999998764
 21
-258.00000000000358
 31
0.0
1001
ACDBBLOCKREPETAG
1070
     1
1071
        8
1005
130A75
  0
LINE
  5
130A76
  8
OBJECT
 10
96.499999999998764
 20
-258.00000000000358
 30
0.0
 11
175.49999999999881
 21
-258.00000000000358
 31
0.0
1001
ACDBBLOCKREPETAG
1070
     1
1071
        9
1005
130A76
  0
LINE
  5
130A77
  8
OBJECT
 10
179.99999999999881
 20
-262.00000000000358
 30
0.0
 11
175.49999999999881
 21
-258.00000000000358
 31
0.0
1001
ACDBBLOCKREPETAG
1070
     1
1071
       10
1005
130A77
  0
LINE
  5
130A78
  8
OBJECT
 10
91.999999999998764
 20
-262.00000000000358
 30
0.0
 11
96.499999999998764
 21
-258.00000000000358
 31
0.0
1001
ACDBBLOCKREPETAG
1070
     1
1071
       11
1005
130A78
  0
LINE
  5
130A79
  8
OBJECT
 10
197.99999999999869
 20
-248.0000000000046
 30
0.0
 11
197.99999999999869
 21
-245.00000000000369
 31
0.0
1001
ACDBBLOCKREPETAG
1070
     1
1071
       12
1005
130A79
  0
ARC
  5
130A7A
  8
OBJECT
 10
194.99999999999869
 20
-248.0000000000046
 30
0.0
 40
3.0
 50
270.0
 51
0.0
1001
ACDBBLOCKREPETAG
1070
     1
1071
       13
1005
130A7A
  0
LINE
  5
130A7B
  8
OBJECT
 10
73.999999999998749
 20
-245.00000000000369
 30
0.0
 11
73.999999999998749
 21
-248.0000000000027
 31
0.0
1001
ACDBBLOCKREPETAG
1070
     1
1071
       14
1005
130A7B
  0
ARC
  5
130A7C
  8
OBJECT
 10
76.999999999998778
 20
-248.0000000000027
 30
0.0
 40
3.0
 50
180.0
 51
270.0
1001
ACDBBLOCKREPETAG
1070
     1
1071
       15
1005
130A7C
  0
LINE
  5
130A7D
  8
OBJECT
 10
76.999999999998778
 20
-251.0000000000027
 30
0.0
 11
194.99999999999869
 21
-251.00000000000449
 31
0.0
1001
ACDBBLOCKREPETAG
1070
     1
1071
       16
1005
130A7D
  0
INSERT
  5
130A7E
  8
OBJECT
  2
*U9
 10
0.0
 20
0.0
 30
0.0
  0
LINE
  5
130A7F
  8
HIDDEN
 10
165.99999999999881
 20
-253.00000000000361
 30
0.0
 11
105.99999999999881
 21
-253.00000000000361
 31
0.0
1001
ACDBBLOCKREPETAG
1070
     1
1071
      424
1005
130A7F
  0
LINE
  5
130A80
  8
OBJECT
 10
221.99999999999881
 20
-106.0000000000027
 30
0.0
 11
221.99999999999881
 21
-224.0000000000027
 31
0.0
1001
ACDBBLOCKREPETAG
1070
     1
1071
      323
1005
130A80
  0
LINE
  5
130A81
  8
OBJECT
 10
245.99999999999881
 20
-209.50000000000369
 30
0.0
 11
245.99999999999881
 21
-120.5000000000036
 31
0.0
1001
ACDBBLOCKREPETAG
1070
     1
1071
      324
1005
130A81
  0
LINE
  5
130A82
  8
OBJECT
 10
245.99999999999881
 20
-209.50000000000369
 30
0.0
 11
221.99999999999881
 21
-209.50000000000369
 31
0.0
1001
ACDBBLOCKREPETAG
1070
     1
1071
      325
1005
130A82
  0
LINE
  5
130A83
  8
OBJECT
 10
215.99999999999881
 20
-227.0000000000027
 30
0.0
 11
218.99999999999881
 21
-227.0000000000027
 31
0.0
1001
ACDBBLOCKREPETAG
1070
     1
1071
      326
1005
130A83
  0
ARC
  5
130A84
  8
OBJECT
 10
218.99999999999881
 20
-224.0000000000027
 30
0.0
 40
3.0
 50
270.0
 51
0.0
1001
ACDBBLOCKREPETAG
1070
     1
1071
      327
1005
130A84
  0
LINE
  5
130A85
  8
OBJECT
 10
245.99999999999881
 20
-147.1779340000038
 30
0.0
 11
249.8311889999992
 21
-142.8968180000038
 31
0.0
1001
ACDBBLOCKREPETAG
1070
     1
1071
      328
1005
130A85
  0
ARC
  5
130A86
  8
OBJECT
 10
255.99999999999881
 20
-148.0000000000027
 30
0.0
 40
8.0
 50
341.84164700003799
 51
140.40224699998501
1001
ACDBBLOCKREPETAG
1070
     1
1071
      329
1005
130A86
  0
ARC
  5
130A87
  8
OBJECT
 10
258.8505969999992
 20
-148.93493300000321
 30
0.0
 40
5.0
 50
288.4848690000137
 51
341.84164700003799
1001
ACDBBLOCKREPETAG
1070
     1
1071
      330
1005
130A87
  0
LINE
  5
130A88
  8
OBJECT
 10
255.99999999999881
 20
-160.00000000000361
 30
0.0
 11
248.99999999999881
 21
-160.00000000000361
 31
0.0
1001
ACDBBLOCKREPETAG
1070
     1
1071
      331
1005
130A88
  0
LINE
  5
130A89
  8
OBJECT
 10
255.99999999999881
 20
-170.00000000000361
 30
0.0
 11
248.99999999999881
 21
-170.00000000000361
 31
0.0
1001
ACDBBLOCKREPETAG
1070
     1
1071
      332
1005
130A89
  0
LINE
  5
130A8A
  8
OBJECT
 10
255.99999999999881
 20
-160.00000000000361
 30
0.0
 11
255.99999999999881
 21
-170.00000000000361
 31
0.0
1001
ACDBBLOCKREPETAG
1070
     1
1071
      333
1005
130A8A
  0
LINE
  5
130A8B
  8
OBJECT
 10
248.99999999999881
 20
-157.50000000000361
 30
0.0
 11
248.99999999999881
 21
-172.50000000000361
 31
0.0
1001
ACDBBLOCKREPETAG
1070
     1
1071
      334
1005
130A8B
  0
LINE
  5
130A8C
  8
OBJECT
 10
245.99999999999881
 20
-173.25000000000361
 30
0.0
 11
248.99999999999881
 21
-172.50000000000361
 31
0.0
1001
ACDBBLOCKREPETAG
1070
     1
1071
      335
1005
130A8C
  0
LINE
  5
130A8D
  8
OBJECT
 10
245.99999999999881
 20
-182.8220670000037
 30
0.0
 11
249.8311889999992
 21
-187.10318200000441
 31
0.0
1001
ACDBBLOCKREPETAG
1070
     1
1071
      336
1005
130A8D
  0
LINE
  5
130A8E
  8
OBJECT
 10
245.99999999999881
 20
-156.75000000000361
 30
0.0
 11
248.99999999999881
 21
-157.50000000000361
 31
0.0
1001
ACDBBLOCKREPETAG
1070
     1
1071
      337
1005
130A8E
  0
ARC
  5
130A8F
  8
OBJECT
 10
255.99999999999881
 20
-182.0000000000025
 30
0.0
 40
8.0
 50
219.59775300001499
 51
18.158352999961931
1001
ACDBBLOCKREPETAG
1070
     1
1071
      338
1005
130A8F
  0
ARC
  5
130A90
  8
OBJECT
 10
258.8505969999992
 20
-181.06506700000409
 30
0.0
 40
5.0
 50
18.158352999961931
 51
71.515130999986297
1001
ACDBBLOCKREPETAG
1070
     1
1071
      339
1005
130A90
  0
LINE
  5
130A91
  8
OBJECT
 10
260.43586799999918
 20
-176.32303000000411
 30
0.0
 11
248.99999999999881
 21
-172.50000000000361
 31
0.0
1001
ACDBBLOCKREPETAG
1070
     1
1071
      340
1005
130A91
  0
LINE
  5
130A92
  8
OBJECT
 10
260.43586799999918
 20
-153.67697000000311
 30
0.0
 11
248.99999999999881
 21
-157.50000000000361
 31
0.0
1001
ACDBBLOCKREPETAG
1070
     1
1071
      341
1005
130A92
  0
ARC
  5
130A93
  8
OBJECT
 10
218.99999999999881
 20
-106.0000000000027
 30
0.0
 40
3.0
 50
0.0
 51
90.0
1001
ACDBBLOCKREPETAG
1070
     1
1071
      342
1005
130A93
  0
LINE
  5
130A94
  8
OBJECT
 10
215.99999999999881
 20
-103.0000000000027
 30
0.0
 11
218.99999999999881
 21
-103.0000000000027
 31
0.0
1001
ACDBBLOCKREPETAG
1070
     1
1071
      343
1005
130A94
  0
LINE
  5
130A95
  8
OBJECT
 10
245.99999999999881
 20
-120.5000000000036
 30
0.0
 11
221.99999999999881
 21
-120.5000000000036
 31
0.0
1001
ACDBBLOCKREPETAG
1070
     1
1071
      344
1005
130A95
  0
INSERT
  5
130A96
  8
OBJECT
  2
*U10
 10
0.0
 20
0.0
 30
0.0
  0
CIRCLE
  5
130A97
  8
OBJECT
 10
495.99999999999852
 20
-629.00000000000364
 30
0.0
 40
70.0
1001
ACDBBLOCKREPETAG
1070
     1
1071
       43
1005
130A97
  0
CIRCLE
  5
130A98
  8
OBJECT
 10
495.99999999999852
 20
-629.00000000000364
 30
0.0
 40
77.0
1001
ACDBBLOCKREPETAG
1070
     1
1071
       44
1005
130A98
  0
ARC
  5
130A99
  8
OBJECT
 10
495.99999999999852
 20
-629.00000000000364
 30
0.0
 40
80.0
 50
140.8050325737787
 51
219.19496742621919
1001
ACDBBLOCKREPETAG
1070
     1
1071
       45
1005
130A99
  0
LINE
  5
130A9A
  8
OBJECT
 10
433.99999999999852
 20
-583.33819977267922
 30
0.0
 11
433.99999999999852
 21
-549.00000000000364
 31
0.0
1001
ACDBBLOCKREPETAG
1070
     1
1071
       46
1005
130A9A
  0
LINE
  5
130A9B
  8
OBJECT
 10
557.99999999999875
 20
-567.00000000000364
 30
0.0
 11
557.99999999999875
 21
-549.00000000000364
 31
0.0
1001
ACDBBLOCKREPETAG
1070
     1
1071
       22
1005
130A9B
  0
LINE
  5
130A9C
  8
OBJECT
 10
557.99999999999875
 20
-567.00000000000364
 30
0.0
 11
575.99999999999875
 21
-567.00000000000364
 31
0.0
1001
ACDBBLOCKREPETAG
1070
     1
1071
       24
1005
130A9C
  0
LINE
  5
130A9D
  8
OBJECT
 10
557.99999999999875
 20
-691.00000000000364
 30
0.0
 11
575.99999999999875
 21
-691.00000000000364
 31
0.0
1001
ACDBBLOCKREPETAG
1070
     1
1071
       25
1005
130A9D
  0
LINE
  5
130A9E
  8
OBJECT
 10
557.99999999999875
 20
-691.00000000000364
 30
0.0
 11
557.99999999999875
 21
-709.00000000000364
 31
0.0
1001
ACDBBLOCKREPETAG
1070
     1
1071
       27
1005
130A9E
  0
LINE
  5
130A9F
  8
OBJECT
 10
433.99999999999852
 20
-674.66180022732794
 30
0.0
 11
433.99999999999852
 21
-709.00000000000364
 31
0.0
1001
ACDBBLOCKREPETAG
1070
     1
1071
       28
1005
130A9F
  0
LINE
  5
130AA0
  8
OBJECT
 10
550.44722215136312
 20
-683.4472221513679
 30
0.0
 11
557.99999999999875
 21
-691.00000000000364
 31
0.0
1001
ACDBBLOCKREPETAG
1070
     1
1071
       37
1005
130AA0
  0
LINE
  5
130AA1
  8
OBJECT
 10
550.44722215136312
 20
-574.55277784863915
 30
0.0
 11
557.99999999999875
 21
-567.00000000000364
 31
0.0
1001
ACDBBLOCKREPETAG
1070
     1
1071
       38
1005
130AA1
  0
POINT
  5
130AA2
  8
DOTS
 10
495.99999999999852
 20
-629.00000000000364
 30
0.0
1001
ACDBBLOCKREPETAG
1070
     1
1071
       39
1005
130AA2
  0
CIRCLE
  5
130AA3
  8
OBJECT
 10
495.99999999999852
 20
-629.00000000000364
 30
0.0
 40
53.5
1001
ACDBBLOCKREPETAG
1070
     1
1071
      153
1005
130AA3
  0
CIRCLE
  5
130AA4
  8
OBJECT
 10
135.99999999999881
 20
-629.00000000000364
 30
0.0
 40
70.0
1001
ACDBBLOCKREPETAG
1070
     1
1071
       43
1005
130AA4
  0
CIRCLE
  5
130AA5
  8
OBJECT
 10
135.99999999999881
 20
-629.00000000000364
 30
0.0
 40
77.0
1001
ACDBBLOCKREPETAG
1070
     1
1071
       44
1005
130AA5
  0
ARC
  5
130AA6
  8
OBJECT
 10
135.99999999999881
 20
-629.00000000000364
 30
0.0
 40
80.0
 50
140.80503257377961
 51
219.1949674262203
1001
ACDBBLOCKREPETAG
1070
     1
1071
       45
1005
130AA6
  0
LINE
  5
130AA7
  8
OBJECT
 10
73.999999999998749
 20
-583.33819977267922
 30
0.0
 11
73.999999999998749
 21
-549.00000000000364
 31
0.0
1001
ACDBBLOCKREPETAG
1070
     1
1071
       46
1005
130AA7
  0
LINE
  5
130AA8
  8
OBJECT
 10
197.99999999999869
 20
-567.00000000000364
 30
0.0
 11
197.99999999999869
 21
-549.00000000000364
 31
0.0
1001
ACDBBLOCKREPETAG
1070
     1
1071
       22
1005
130AA8
  0
LINE
  5
130AA9
  8
OBJECT
 10
197.99999999999869
 20
-567.00000000000364
 30
0.0
 11
215.99999999999881
 21
-567.00000000000364
 31
0.0
1001
ACDBBLOCKREPETAG
1070
     1
1071
       24
1005
130AA9
  0
LINE
  5
130AAA
  8
OBJECT
 10
197.99999999999869
 20
-691.00000000000364
 30
0.0
 11
215.99999999999881
 21
-691.00000000000364
 31
0.0
1001
ACDBBLOCKREPETAG
1070
     1
1071
       25
1005
130AAA
  0
LINE
  5
130AAB
  8
OBJECT
 10
197.99999999999869
 20
-691.00000000000364
 30
0.0
 11
197.99999999999869
 21
-709.00000000000364
 31
0.0
1001
ACDBBLOCKREPETAG
1070
     1
1071
       27
1005
130AAB
  0
LINE
  5
130AAC
  8
OBJECT
 10
73.999999999998749
 20
-674.66180022732794
 30
0.0
 11
73.999999999998749
 21
-709.00000000000364
 31
0.0
1001
ACDBBLOCKREPETAG
1070
     1
1071
       28
1005
130AAC
  0
LINE
  5
130AAD
  8
OBJECT
 10
190.44722215136301
 20
-683.4472221513679
 30
0.0
 11
197.99999999999869
 21
-691.00000000000364
 31
0.0
1001
ACDBBLOCKREPETAG
1070
     1
1071
       37
1005
130AAD
  0
LINE
  5
130AAE
  8
OBJECT
 10
190.44722215136301
 20
-574.55277784863915
 30
0.0
 11
197.99999999999869
 21
-567.00000000000364
 31
0.0
1001
ACDBBLOCKREPETAG
1070
     1
1071
       38
1005
130AAE
  0
POINT
  5
130AAF
  8
DOTS
 10
135.99999999999881
 20
-629.00000000000364
 30
0.0
1001
ACDBBLOCKREPETAG
1070
     1
1071
       39
1005
130AAF
  0
CIRCLE
  5
130AB0
  8
OBJECT
 10
135.99999999999881
 20
-629.00000000000364
 30
0.0
 40
53.5
1001
ACDBBLOCKREPETAG
1070
     1
1071
      153
1005
130AB0
  0
CIRCLE
  5
130AB1
  8
OBJECT
 10
495.99999999999852
 20
-165.00000000000361
 30
0.0
 40
70.0
1001
ACDBBLOCKREPETAG
1070
     1
1071
       43
1005
130AB1
  0
CIRCLE
  5
130AB2
  8
OBJECT
 10
495.99999999999852
 20
-165.00000000000361
 30
0.0
 40
77.0
1001
ACDBBLOCKREPETAG
1070
     1
1071
       44
1005
130AB2
  0
ARC
  5
130AB3
  8
OBJECT
 10
495.99999999999852
 20
-165.00000000000361
 30
0.0
 40
80.0
 50
140.80503257378001
 51
219.194967426218
1001
ACDBBLOCKREPETAG
1070
     1
1071
       45
1005
130AB3
  0
LINE
  5
130AB4
  8
OBJECT
 10
433.99999999999852
 20
-119.3381997726792
 30
0.0
 11
433.99999999999852
 21
-85.000000000003652
 31
0.0
1001
ACDBBLOCKREPETAG
1070
     1
1071
       46
1005
130AB4
  0
LINE
  5
130AB5
  8
OBJECT
 10
557.99999999999875
 20
-103.0000000000035
 30
0.0
 11
557.99999999999875
 21
-85.000000000003652
 31
0.0
1001
ACDBBLOCKREPETAG
1070
     1
1071
       22
1005
130AB5
  0
LINE
  5
130AB6
  8
OBJECT
 10
557.99999999999875
 20
-103.0000000000035
 30
0.0
 11
575.99999999999875
 21
-103.0000000000035
 31
0.0
1001
ACDBBLOCKREPETAG
1070
     1
1071
       24
1005
130AB6
  0
LINE
  5
130AB7
  8
OBJECT
 10
557.99999999999875
 20
-227.00000000000361
 30
0.0
 11
575.99999999999875
 21
-227.00000000000361
 31
0.0
1001
ACDBBLOCKREPETAG
1070
     1
1071
       25
1005
130AB7
  0
LINE
  5
130AB8
  8
OBJECT
 10
557.99999999999875
 20
-227.00000000000361
 30
0.0
 11
557.99999999999875
 21
-245.00000000000369
 31
0.0
1001
ACDBBLOCKREPETAG
1070
     1
1071
       27
1005
130AB8
  0
LINE
  5
130AB9
  8
OBJECT
 10
433.99999999999852
 20
-210.66180022732809
 30
0.0
 11
433.99999999999852
 21
-245.00000000000369
 31
0.0
1001
ACDBBLOCKREPETAG
1070
     1
1071
       28
1005
130AB9
  0
LINE
  5
130ABA
  8
OBJECT
 10
550.44722215136312
 20
-219.4472221513679
 30
0.0
 11
557.99999999999875
 21
-227.00000000000361
 31
0.0
1001
ACDBBLOCKREPETAG
1070
     1
1071
       37
1005
130ABA
  0
LINE
  5
130ABB
  8
OBJECT
 10
550.44722215136312
 20
-110.55277784863929
 30
0.0
 11
557.99999999999875
 21
-103.0000000000035
 31
0.0
1001
ACDBBLOCKREPETAG
1070
     1
1071
       38
1005
130ABB
  0
POINT
  5
130ABC
  8
DOTS
 10
495.99999999999852
 20
-165.00000000000361
 30
0.0
1001
ACDBBLOCKREPETAG
1070
     1
1071
       39
1005
130ABC
  0
CIRCLE
  5
130ABD
  8
OBJECT
 10
495.99999999999852
 20
-165.00000000000361
 30
0.0
 40
53.5
1001
ACDBBLOCKREPETAG
1070
     1
1071
      153
1005
130ABD
  0
CIRCLE
  5
130ABE
  8
OBJECT
 10
135.99999999999881
 20
-165.00000000000361
 30
0.0
 40
70.0
1001
ACDBBLOCKREPETAG
1070
     1
1071
       43
1005
130ABE
  0
CIRCLE
  5
130ABF
  8
OBJECT
 10
135.99999999999881
 20
-165.00000000000361
 30
0.0
 40
77.0
1001
ACDBBLOCKREPETAG
1070
     1
1071
       44
1005
130ABF
  0
ARC
  5
130AC0
  8
OBJECT
 10
135.99999999999881
 20
-165.00000000000361
 30
0.0
 40
80.0
 50
140.80503257378101
 51
219.19496742621899
1001
ACDBBLOCKREPETAG
1070
     1
1071
       45
1005
130AC0
  0
LINE
  5
130AC1
  8
OBJECT
 10
73.999999999998749
 20
-119.3381997726792
 30
0.0
 11
73.999999999998749
 21
-85.000000000003652
 31
0.0
1001
ACDBBLOCKREPETAG
1070
     1
1071
       46
1005
130AC1
  0
LINE
  5
130AC2
  8
OBJECT
 10
197.99999999999869
 20
-103.0000000000035
 30
0.0
 11
197.99999999999869
 21
-85.000000000003652
 31
0.0
1001
ACDBBLOCKREPETAG
1070
     1
1071
       22
1005
130AC2
  0
LINE
  5
130AC3
  8
OBJECT
 10
197.99999999999869
 20
-103.0000000000035
 30
0.0
 11
215.99999999999881
 21
-103.0000000000035
 31
0.0
1001
ACDBBLOCKREPETAG
1070
     1
1071
       24
1005
130AC3
  0
LINE
  5
130AC4
  8
OBJECT
 10
197.99999999999869
 20
-227.00000000000361
 30
0.0
 11
215.99999999999881
 21
-227.00000000000361
 31
0.0
1001
ACDBBLOCKREPETAG
1070
     1
1071
       25
1005
130AC4
  0
LINE
  5
130AC5
  8
OBJECT
 10
197.99999999999869
 20
-227.00000000000361
 30
0.0
 11
197.99999999999869
 21
-245.00000000000369
 31
0.0
1001
ACDBBLOCKREPETAG
1070
     1
1071
       27
1005
130AC5
  0
LINE
  5
130AC6
  8
OBJECT
 10
73.999999999998749
 20
-210.66180022732809
 30
0.0
 11
73.999999999998749
 21
-245.00000000000369
 31
0.0
1001
ACDBBLOCKREPETAG
1070
     1
1071
       28
1005
130AC6
  0
LINE
  5
130AC7
  8
OBJECT
 10
190.44722215136301
 20
-219.4472221513679
 30
0.0
 11
197.99999999999869
 21
-227.00000000000361
 31
0.0
1001
ACDBBLOCKREPETAG
1070
     1
1071
       37
1005
130AC7
  0
LINE
  5
130AC8
  8
OBJECT
 10
190.44722215136301
 20
-110.55277784863929
 30
0.0
 11
197.99999999999869
 21
-103.0000000000035
 31
0.0
1001
ACDBBLOCKREPETAG
1070
     1
1071
       38
1005
130AC8
  0
POINT
  5
130AC9
  8
DOTS
 10
135.99999999999881
 20
-165.00000000000361
 30
0.0
1001
ACDBBLOCKREPETAG
1070
     1
1071
       39
1005
130AC9
  0
CIRCLE
  5
130ACA
  8
OBJECT
 10
135.99999999999881
 20
-165.00000000000361
 30
0.0
 40
53.5
1001
ACDBBLOCKREPETAG
1070
     1
1071
      153
1005
130ACA
  0
POLYLINE
  5
130ACB
  8
HIDDEN
 66
     1
 10
0.0
 20
0.0
 30
0.0
 70
     1
  0
VERTEX
  5
1314EF
  8
HIDDEN
 10
0.0
 20
0.0
 30
0.0
  0
VERTEX
  5
1314F0
  8
HIDDEN
 10
360.0
 20
0.0
 30
0.0
  0
VERTEX
  5
1314F1
  8
HIDDEN
 10
360.0
 20
-464.0
 30
0.0
  0
VERTEX
  5
1314F2
  8
HIDDEN
 10
0.0
 20
-464.0
 30
0.0
  0
SEQEND
  5
1314F3
  8
HIDDEN
  0
POLYLINE
  5
130ACC
  8
HIDDEN
 66
     1
 10
0.0
 20
0.0
 30
0.0
 70
     1
  0
VERTEX
  5
1314F4
  8
HIDDEN
 10
360.0
 20
0.0
 30
0.0
  0
VERTEX
  5
1314F5
  8
HIDDEN
 10
720.0
 20
0.0
 30
0.0
  0
VERTEX
  5
1314F6
  8
HIDDEN
 10
720.0
 20
-464.0
 30
0.0
  0
VERTEX
  5
1314F7
  8
HIDDEN
 10
360.0
 20
-464.0
 30
0.0
  0
SEQEND
  5
1314F8
  8
HIDDEN
  0
POLYLINE
  5
130ACD
  8
HIDDEN
 66
     1
 10
0.0
 20
0.0
 30
0.0
 70
     1
  0
VERTEX
  5
1314F9
  8
HIDDEN
 10
0.0
 20
-464.0
 30
0.0
  0
VERTEX
  5
1314FA
  8
HIDDEN
 10
360.0
 20
-464.0
 30
0.0
  0
VERTEX
  5
1314FB
  8
HIDDEN
 10
360.0
 20
-928.0
 30
0.0
  0
VERTEX
  5
1314FC
  8
HIDDEN
 10
0.0
 20
-928.0
 30
0.0
  0
SEQEND
  5
1314FD
  8
HIDDEN
  0
POLYLINE
  5
130ACE
  8
HIDDEN
 66
     1
 10
0.0
 20
0.0
 30
0.0
 70
     1
  0
VERTEX
  5
1314FE
  8
HIDDEN
 10
360.0
 20
-464.0
 30
0.0
  0
VERTEX
  5
1314FF
  8
HIDDEN
 10
720.0
 20
-464.0
 30
0.0
  0
VERTEX
  5
131500
  8
HIDDEN
 10
720.0
 20
-928.0
 30
0.0
  0
VERTEX
  5
131501
  8
HIDDEN
 10
360.0
 20
-928.0
 30
0.0
  0
SEQEND
  5
131502
  8
HIDDEN
  0
TEXT
  5
130ACF
  8
SLIM
 10
3698.5
 20
-1759.666666666664
 30
0.0
 40
28.0
  1
　※ 掃除口（CO）の正面にはメンテナンススペース
 41
0.75
1001
ACDBBLOCKREPETAG
1070
     1
1071
      103
1005
12E1BE
  0
TEXT
  5
130AD0
  8
SLIM
 10
3707.0999999999999
 20
-1806.3333333333301
 30
0.0
 40
28.0
  1
　　（参考値：80mm以上）を確保してください。
 41
0.75
1001
ACDBBLOCKREPETAG
1070
     1
1071
      103
1005
12E1BE
  0
TEXT
  5
130AD1
  8
SLIM
 10
1698.5
 20
-1558.166666666664
 30
0.0
 40
28.0
  1
　※ 掃除口（CO）の正面にはメンテナンススペース
 41
0.75
1001
ACDBBLOCKREPETAG
1070
     1
1071
      103
1005
12E1BE
  0
TEXT
  5
130AD2
  8
SLIM
 10
1707.0999999999999
 20
-1604.833333333331
 30
0.0
 40
28.0
  1
　　（参考値：80mm以上）を確保してください。
 41
0.75
1001
ACDBBLOCKREPETAG
1070
     1
1071
      103
1005
12E1BE
  0
CIRCLE
  5
130AD3
  8
OBJECT
 10
5000.0
 20
-3294.9999999999959
 30
0.0
 40
53.5
1001
ACDBBLOCKREPETAG
1070
     1
1071
      344
1005
130AD3
  0
LINE
  5
130AD4
  8
CENTER
 10
5080.0
 20
-3294.9999999999959
 30
0.0
 11
4905.0
 21
-3294.9999999999959
 31
0.0
1001
ACDBBLOCKREPETAG
1070
     1
1071
       14
1005
130AD4
  0
LINE
  5
130AD5
  8
CENTER
 10
5000.0
 20
-3389.9999999999968
 30
0.0
 11
5000.0
 21
-3199.9999999999959
 31
0.0
1001
ACDBBLOCKREPETAG
1070
     1
1071
       15
1005
130AD5
  0
CIRCLE
  5
130AD6
  8
OBJECT
 10
5000.0
 20
-3294.9999999999959
 30
0.0
 40
70.0
1001
ACDBBLOCKREPETAG
1070
     1
1071
       16
1005
130AD6
  0
CIRCLE
  5
130AD7
  8
OBJECT
 10
5000.0
 20
-3294.9999999999959
 30
0.0
 40
77.0
1001
ACDBBLOCKREPETAG
1070
     1
1071
       17
1005
130AD7
  0
ARC
  5
130AD8
  8
OBJECT
 10
5000.0
 20
-3294.9999999999959
 30
0.0
 40
80.0
 50
50.805032573882329
 51
309.19496742611773
1001
ACDBBLOCKREPETAG
1070
     1
1071
       18
1005
130AD8
  0
LINE
  5
130AD9
  8
OBJECT
 10
5045.6618002273253
 20
-3232.9999999999959
 30
0.0
 11
5080.0
 21
-3232.9999999999959
 31
0.0
1001
ACDBBLOCKREPETAG
1070
     1
1071
       19
1005
130AD9
  0
LINE
  5
130ADA
  8
OBJECT
 10
5045.6618002273253
 20
-3356.9999999999959
 30
0.0
 11
5080.0
 21
-3356.9999999999959
 31
0.0
1001
ACDBBLOCKREPETAG
1070
     1
1071
       20
1005
130ADA
  0
POINT
  5
130ADB
  8
DOTS
 10
5000.0
 20
-3294.9999999999959
 30
0.0
1001
ACDBBLOCKREPETAG
1070
     1
1071
       21
1005
130ADB
  0
CIRCLE
  5
130ADC
  8
OBJECT
 10
4000.0
 20
-3294.9999999999959
 30
0.0
 40
53.5
1001
ACDBBLOCKREPETAG
1070
     1
1071
      344
1005
130ADC
  0
LINE
  5
130ADD
  8
CENTER
 10
4080.0
 20
-3294.9999999999959
 30
0.0
 11
3905.0
 21
-3294.9999999999959
 31
0.0
1001
ACDBBLOCKREPETAG
1070
     1
1071
       14
1005
130ADD
  0
LINE
  5
130ADE
  8
CENTER
 10
4000.0
 20
-3389.9999999999968
 30
0.0
 11
4000.0
 21
-3199.9999999999959
 31
0.0
1001
ACDBBLOCKREPETAG
1070
     1
1071
       15
1005
130ADE
  0
CIRCLE
  5
130ADF
  8
OBJECT
 10
4000.0
 20
-3294.9999999999959
 30
0.0
 40
70.0
1001
ACDBBLOCKREPETAG
1070
     1
1071
       16
1005
130ADF
  0
CIRCLE
  5
130AE0
  8
OBJECT
 10
4000.0
 20
-3294.9999999999959
 30
0.0
 40
77.0
1001
ACDBBLOCKREPETAG
1070
     1
1071
       17
1005
130AE0
  0
ARC
  5
130AE1
  8
OBJECT
 10
4000.0
 20
-3294.9999999999959
 30
0.0
 40
80.0
 50
50.805032573862128
 51
309.19496742613791
1001
ACDBBLOCKREPETAG
1070
     1
1071
       18
1005
130AE1
  0
LINE
  5
130AE2
  8
OBJECT
 10
4045.661800227324
 20
-3232.9999999999959
 30
0.0
 11
4080.0
 21
-3232.9999999999959
 31
0.0
1001
ACDBBLOCKREPETAG
1070
     1
1071
       19
1005
130AE2
  0
LINE
  5
130AE3
  8
OBJECT
 10
4045.661800227324
 20
-3356.9999999999959
 30
0.0
 11
4080.0
 21
-3356.9999999999959
 31
0.0
1001
ACDBBLOCKREPETAG
1070
     1
1071
       20
1005
130AE3
  0
POINT
  5
130AE4
  8
DOTS
 10
4000.0
 20
-3294.9999999999959
 30
0.0
1001
ACDBBLOCKREPETAG
1070
     1
1071
       21
1005
130AE4
  0
CIRCLE
  5
130AE5
  8
OBJECT
 10
3000.0
 20
-3294.9999999999959
 30
0.0
 40
53.5
1001
ACDBBLOCKREPETAG
1070
     1
1071
      344
1005
130AE5
  0
LINE
  5
130AE6
  8
CENTER
 10
3080.0
 20
-3294.9999999999959
 30
0.0
 11
2905.0
 21
-3294.9999999999959
 31
0.0
1001
ACDBBLOCKREPETAG
1070
     1
1071
       14
1005
130AE6
  0
LINE
  5
130AE7
  8
CENTER
 10
3000.0
 20
-3389.9999999999968
 30
0.0
 11
3000.0
 21
-3199.9999999999959
 31
0.0
1001
ACDBBLOCKREPETAG
1070
     1
1071
       15
1005
130AE7
  0
CIRCLE
  5
130AE8
  8
OBJECT
 10
3000.0
 20
-3294.9999999999959
 30
0.0
 40
70.0
1001
ACDBBLOCKREPETAG
1070
     1
1071
       16
1005
130AE8
  0
CIRCLE
  5
130AE9
  8
OBJECT
 10
3000.0
 20
-3294.9999999999959
 30
0.0
 40
77.0
1001
ACDBBLOCKREPETAG
1070
     1
1071
       17
1005
130AE9
  0
ARC
  5
130AEA
  8
OBJECT
 10
3000.0
 20
-3294.9999999999959
 30
0.0
 40
80.0
 50
50.805032573862128
 51
309.19496742613791
1001
ACDBBLOCKREPETAG
1070
     1
1071
       18
1005
130AEA
  0
LINE
  5
130AEB
  8
OBJECT
 10
3045.6618002273249
 20
-3232.9999999999959
 30
0.0
 11
3080.0
 21
-3232.9999999999959
 31
0.0
1001
ACDBBLOCKREPETAG
1070
     1
1071
       19
1005
130AEB
  0
LINE
  5
130AEC
  8
OBJECT
 10
3045.6618002273249
 20
-3356.9999999999959
 30
0.0
 11
3080.0
 21
-3356.9999999999959
 31
0.0
1001
ACDBBLOCKREPETAG
1070
     1
1071
       20
1005
130AEC
  0
POINT
  5
130AED
  8
DOTS
 10
3000.0
 20
-3294.9999999999959
 30
0.0
1001
ACDBBLOCKREPETAG
1070
     1
1071
       21
1005
130AED
  0
CIRCLE
  5
130AEE
  8
OBJECT
 10
2000.0
 20
-3294.9999999999959
 30
0.0
 40
53.5
1001
ACDBBLOCKREPETAG
1070
     1
1071
      344
1005
130AEE
  0
LINE
  5
130AEF
  8
CENTER
 10
2080.0
 20
-3294.9999999999959
 30
0.0
 11
1905.0
 21
-3294.9999999999959
 31
0.0
1001
ACDBBLOCKREPETAG
1070
     1
1071
       14
1005
130AEF
  0
LINE
  5
130AF0
  8
CENTER
 10
2000.0
 20
-3389.9999999999968
 30
0.0
 11
2000.0
 21
-3199.9999999999959
 31
0.0
1001
ACDBBLOCKREPETAG
1070
     1
1071
       15
1005
130AF0
  0
CIRCLE
  5
130AF1
  8
OBJECT
 10
2000.0
 20
-3294.9999999999959
 30
0.0
 40
70.0
1001
ACDBBLOCKREPETAG
1070
     1
1071
       16
1005
130AF1
  0
CIRCLE
  5
130AF2
  8
OBJECT
 10
2000.0
 20
-3294.9999999999959
 30
0.0
 40
77.0
1001
ACDBBLOCKREPETAG
1070
     1
1071
       17
1005
130AF2
  0
ARC
  5
130AF3
  8
OBJECT
 10
2000.0
 20
-3294.9999999999959
 30
0.0
 40
80.0
 50
50.805032573862128
 51
309.19496742613791
1001
ACDBBLOCKREPETAG
1070
     1
1071
       18
1005
130AF3
  0
LINE
  5
130AF4
  8
OBJECT
 10
2045.6618002273251
 20
-3232.9999999999959
 30
0.0
 11
2080.0
 21
-3232.9999999999959
 31
0.0
1001
ACDBBLOCKREPETAG
1070
     1
1071
       19
1005
130AF4
  0
LINE
  5
130AF5
  8
OBJECT
 10
2045.6618002273251
 20
-3356.9999999999959
 30
0.0
 11
2080.0
 21
-3356.9999999999959
 31
0.0
1001
ACDBBLOCKREPETAG
1070
     1
1071
       20
1005
130AF5
  0
POINT
  5
130AF6
  8
DOTS
 10
2000.0
 20
-3294.9999999999959
 30
0.0
1001
ACDBBLOCKREPETAG
1070
     1
1071
       21
1005
130AF6
  0
CIRCLE
  5
130AF7
  8
OBJECT
 10
2000.0
 20
-199.99999999999909
 30
0.0
 40
53.5
1001
ACDBBLOCKREPETAG
1070
     1
1071
      340
1005
130AF7
  0
LINE
  5
130AF8
  8
CENTER
 10
2080.0
 20
-199.99999999999909
 30
0.0
 11
1920.0
 21
-199.99999999999909
 31
0.0
1001
ACDBBLOCKREPETAG
1070
     1
1071
       49
1005
130AF8
  0
LINE
  5
130AF9
  8
CENTER
 10
2000.0
 20
-279.99999999999909
 30
0.0
 11
2000.0
 21
-104.9999999999991
 31
0.0
1001
ACDBBLOCKREPETAG
1070
     1
1071
       50
1005
130AF9
  0
CIRCLE
  5
130AFA
  8
OBJECT
 10
2000.0
 20
-199.99999999999909
 30
0.0
 40
70.0
1001
ACDBBLOCKREPETAG
1070
     1
1071
       51
1005
130AFA
  0
CIRCLE
  5
130AFB
  8
OBJECT
 10
2000.0
 20
-199.99999999999909
 30
0.0
 40
77.0
1001
ACDBBLOCKREPETAG
1070
     1
1071
       52
1005
130AFB
  0
ARC
  5
130AFC
  8
OBJECT
 10
2000.0
 20
-199.99999999999909
 30
0.0
 40
80.0
 50
50.805032573864182
 51
129.1949674261358
1001
ACDBBLOCKREPETAG
1070
     1
1071
       53
1005
130AFC
  0
LINE
  5
130AFD
  8
OBJECT
 10
2045.6618002273251
 20
-137.99999999999909
 30
0.0
 11
2080.0
 21
-137.99999999999909
 31
0.0
1001
ACDBBLOCKREPETAG
1070
     1
1071
       54
1005
130AFD
  0
LINE
  5
130AFE
  8
OBJECT
 10
2062.0
 20
-261.99999999999909
 30
0.0
 11
2080.0
 21
-261.99999999999909
 31
0.0
1001
ACDBBLOCKREPETAG
1070
     1
1071
       55
1005
130AFE
  0
LINE
  5
130AFF
  8
OBJECT
 10
2062.0
 20
-261.99999999999909
 30
0.0
 11
2062.0
 21
-279.99999999999909
 31
0.0
1001
ACDBBLOCKREPETAG
1070
     1
1071
       57
1005
130AFF
  0
LINE
  5
130B00
  8
OBJECT
 10
1938.0
 20
-261.99999999999909
 30
0.0
 11
1938.0
 21
-279.99999999999909
 31
0.0
1001
ACDBBLOCKREPETAG
1070
     1
1071
       58
1005
130B00
  0
POINT
  5
130B01
  8
DOTS
 10
2000.0
 20
-199.99999999999909
 30
0.0
 50
90.0
1001
ACDBBLOCKREPETAG
1070
     1
1071
       59
1005
130B01
  0
LINE
  5
130B02
  8
OBJECT
 10
1938.0
 20
-261.99999999999909
 30
0.0
 11
1920.0
 21
-261.99999999999909
 31
0.0
1001
ACDBBLOCKREPETAG
1070
     1
1071
       60
1005
130B02
  0
LINE
  5
130B03
  8
OBJECT
 10
1954.3381997726749
 20
-137.99999999999909
 30
0.0
 11
1920.0
 21
-137.99999999999909
 31
0.0
1001
ACDBBLOCKREPETAG
1070
     1
1071
       61
1005
130B03
  0
LINE
  5
130B04
  8
OBJECT
 10
1945.5527778486351
 20
-254.44722215136329
 30
0.0
 11
1938.0
 21
-261.99999999999909
 31
0.0
1001
ACDBBLOCKREPETAG
1070
     1
1071
       42
1005
130B04
  0
LINE
  5
130B05
  8
OBJECT
 10
2054.4472221513638
 20
-254.44722215136329
 30
0.0
 11
2062.0
 21
-261.99999999999909
 31
0.0
1001
ACDBBLOCKREPETAG
1070
     1
1071
       43
1005
130B05
  0
LINE
  5
130B06
  8
OBJECT
 10
1867.0
 20
-261.99999999999909
 30
0.0
 11
1860.0
 21
-261.99999999999909
 31
0.0
1001
ACDBBLOCKREPETAG
1070
     1
1071
       47
1005
130B06
  0
LINE
  5
130B07
  8
OBJECT
 10
1860.0
 20
-261.99999999999909
 30
0.0
 11
1860.0
 21
-137.99999999999909
 31
0.0
1001
ACDBBLOCKREPETAG
1070
     1
1071
       48
1005
130B07
  0
LINE
  5
130B08
  8
OBJECT
 10
1860.0
 20
-137.99999999999909
 30
0.0
 11
1867.0
 21
-137.99999999999909
 31
0.0
1001
ACDBBLOCKREPETAG
1070
     1
1071
       49
1005
130B08
  0
LINE
  5
130B09
  8
OBJECT
 10
1867.0
 20
-137.99999999999909
 30
0.0
 11
1867.0
 21
-261.99999999999909
 31
0.0
1001
ACDBBLOCKREPETAG
1070
     1
1071
       50
1005
130B09
  0
LINE
  5
130B0A
  8
CENTER
 10
1845.0
 20
-199.99999999999909
 30
0.0
 11
1920.0
 21
-199.99999999999909
 31
0.0
1001
ACDBBLOCKREPETAG
1070
     1
1071
       51
1005
130B0A
  0
LINE
  5
130B0B
  8
OBJECT
 10
1867.0
 20
-258.99999999999909
 30
0.0
 11
1903.0
 21
-258.99999999999909
 31
0.0
1001
ACDBBLOCKREPETAG
1070
     1
1071
       52
1005
130B0B
  0
LINE
  5
130B0C
  8
OBJECT
 10
1903.0
 20
-258.99999999999909
 30
0.0
 11
1903.0
 21
-140.99999999999909
 31
0.0
1001
ACDBBLOCKREPETAG
1070
     1
1071
       53
1005
130B0C
  0
LINE
  5
130B0D
  8
OBJECT
 10
1903.0
 20
-140.99999999999909
 30
0.0
 11
1867.0
 21
-140.99999999999909
 31
0.0
1001
ACDBBLOCKREPETAG
1070
     1
1071
       54
1005
130B0D
  0
LINE
  5
130B0E
  8
OBJECT
 10
1907.0
 20
-254.49999999999909
 30
0.0
 11
1914.0
 21
-254.49999999999909
 31
0.0
1001
ACDBBLOCKREPETAG
1070
     1
1071
       55
1005
130B0E
  0
LINE
  5
130B0F
  8
OBJECT
 10
1914.0
 20
-145.49999999999909
 30
0.0
 11
1907.0
 21
-145.49999999999909
 31
0.0
1001
ACDBBLOCKREPETAG
1070
     1
1071
       56
1005
130B0F
  0
LINE
  5
130B10
  8
OBJECT
 10
1907.0
 20
-145.49999999999909
 30
0.0
 11
1907.0
 21
-254.49999999999909
 31
0.0
1001
ACDBBLOCKREPETAG
1070
     1
1071
       57
1005
130B10
  0
LINE
  5
130B11
  8
OBJECT
 10
1903.0
 20
-258.99999999999909
 30
0.0
 11
1907.0
 21
-254.49999999999909
 31
0.0
1001
ACDBBLOCKREPETAG
1070
     1
1071
       58
1005
130B11
  0
LINE
  5
130B12
  8
OBJECT
 10
1903.0
 20
-140.99999999999909
 30
0.0
 11
1907.0
 21
-145.49999999999909
 31
0.0
1001
ACDBBLOCKREPETAG
1070
     1
1071
       59
1005
130B12
  0
LINE
  5
130B13
  8
OBJECT
 10
1917.0
 20
-261.99999999999909
 30
0.0
 11
1920.0
 21
-261.99999999999909
 31
0.0
1001
ACDBBLOCKREPETAG
1070
     1
1071
       60
1005
130B13
  0
ARC
  5
130B14
  8
OBJECT
 10
1917.0
 20
-258.99999999999909
 30
0.0
 40
3.0
 50
180.0
 51
270.0
1001
ACDBBLOCKREPETAG
1070
     1
1071
       61
1005
130B14
  0
LINE
  5
130B15
  8
OBJECT
 10
1920.0
 20
-137.99999999999909
 30
0.0
 11
1917.0
 21
-137.99999999999909
 31
0.0
1001
ACDBBLOCKREPETAG
1070
     1
1071
       62
1005
130B15
  0
ARC
  5
130B16
  8
OBJECT
 10
1917.0
 20
-140.99999999999909
 30
0.0
 40
3.0
 50
90.0
 51
180.0
1001
ACDBBLOCKREPETAG
1070
     1
1071
       63
1005
130B16
  0
LINE
  5
130B17
  8
OBJECT
 10
1914.0
 20
-140.99999999999909
 30
0.0
 11
1914.0
 21
-258.99999999999909
 31
0.0
1001
ACDBBLOCKREPETAG
1070
     1
1071
       64
1005
130B17
  0
LINE
  5
130B18
  8
HIDDEN
 10
1912.0
 20
-244.49999999999909
 30
0.0
 11
1912.0
 21
-155.49999999999909
 31
0.0
1001
ACDBBLOCKREPETAG
1070
     1
1071
       65
1005
130B18
  0
LINE
  5
130B19
  8
CENTER
 10
2000.0
 20
-279.99999999999909
 30
0.0
 11
2000.0
 21
-334.99999999999892
 31
0.0
1001
ACDBBLOCKREPETAG
1070
     1
1071
      352
1005
130B19
  0
LINE
  5
130B1A
  8
OBJECT
 10
2059.0
 20
-285.99999999999892
 30
0.0
 11
1941.0
 21
-285.99999999999892
 31
0.0
1001
ACDBBLOCKREPETAG
1070
     1
1071
      353
1005
130B1A
  0
LINE
  5
130B1B
  8
OBJECT
 10
1955.5
 20
-309.99999999999892
 30
0.0
 11
2044.5
 21
-309.99999999999892
 31
0.0
1001
ACDBBLOCKREPETAG
1070
     1
1071
      354
1005
130B1B
  0
LINE
  5
130B1C
  8
OBJECT
 10
1955.5
 20
-309.99999999999892
 30
0.0
 11
1955.5
 21
-285.99999999999892
 31
0.0
1001
ACDBBLOCKREPETAG
1070
     1
1071
      355
1005
130B1C
  0
LINE
  5
130B1D
  8
OBJECT
 10
1938.0
 20
-279.99999999999909
 30
0.0
 11
1938.0
 21
-282.99999999999892
 31
0.0
1001
ACDBBLOCKREPETAG
1070
     1
1071
      356
1005
130B1D
  0
ARC
  5
130B1E
  8
OBJECT
 10
1941.0
 20
-282.99999999999892
 30
0.0
 40
3.0
 50
180.0
 51
270.0
1001
ACDBBLOCKREPETAG
1070
     1
1071
      357
1005
130B1E
  0
LINE
  5
130B1F
  8
OBJECT
 10
2017.8220660000011
 20
-309.99999999999892
 30
0.0
 11
2022.1031819999989
 21
-313.83118899999948
 31
0.0
1001
ACDBBLOCKREPETAG
1070
     1
1071
      358
1005
130B1F
  0
ARC
  5
130B20
  8
OBJECT
 10
2017.0
 20
-319.99999999999892
 30
0.0
 40
8.0
 50
251.8416470000376
 51
50.402247000150382
1001
ACDBBLOCKREPETAG
1070
     1
1071
      359
1005
130B20
  0
ARC
  5
130B21
  8
OBJECT
 10
2016.0650669999991
 20
-322.8505969999996
 30
0.0
 40
5.0
 50
198.48486899996169
 51
251.8416470000376
1001
ACDBBLOCKREPETAG
1070
     1
1071
      360
1005
130B21
  0
LINE
  5
130B22
  8
OBJECT
 10
2005.0
 20
-319.99999999999892
 30
0.0
 11
2005.0
 21
-312.99999999999909
 31
0.0
1001
ACDBBLOCKREPETAG
1070
     1
1071
      361
1005
130B22
  0
LINE
  5
130B23
  8
OBJECT
 10
1995.0
 20
-319.99999999999892
 30
0.0
 11
1995.0
 21
-312.99999999999909
 31
0.0
1001
ACDBBLOCKREPETAG
1070
     1
1071
      362
1005
130B23
  0
LINE
  5
130B24
  8
OBJECT
 10
2005.0
 20
-319.99999999999892
 30
0.0
 11
1995.0
 21
-319.99999999999892
 31
0.0
1001
ACDBBLOCKREPETAG
1070
     1
1071
      363
1005
130B24
  0
LINE
  5
130B25
  8
OBJECT
 10
2007.5
 20
-312.99999999999909
 30
0.0
 11
1992.5
 21
-312.99999999999909
 31
0.0
1001
ACDBBLOCKREPETAG
1070
     1
1071
      364
1005
130B25
  0
LINE
  5
130B26
  8
OBJECT
 10
1991.75
 20
-309.99999999999892
 30
0.0
 11
1992.5
 21
-312.99999999999909
 31
0.0
1001
ACDBBLOCKREPETAG
1070
     1
1071
      365
1005
130B26
  0
LINE
  5
130B27
  8
OBJECT
 10
1982.177932999999
 20
-309.99999999999892
 30
0.0
 11
1977.8968180000011
 21
-313.83118899999948
 31
0.0
1001
ACDBBLOCKREPETAG
1070
     1
1071
      366
1005
130B27
  0
LINE
  5
130B28
  8
OBJECT
 10
2008.25
 20
-309.99999999999892
 30
0.0
 11
2007.5
 21
-312.99999999999909
 31
0.0
1001
ACDBBLOCKREPETAG
1070
     1
1071
      367
1005
130B28
  0
ARC
  5
130B29
  8
OBJECT
 10
1983.0
 20
-319.99999999999892
 30
0.0
 40
8.0
 50
129.59775299984949
 51
288.1583529999624
1001
ACDBBLOCKREPETAG
1070
     1
1071
      368
1005
130B29
  0
ARC
  5
130B2A
  8
OBJECT
 10
1983.934933
 20
-322.8505969999996
 30
0.0
 40
5.0
 50
288.1583529999624
 51
341.51513100003518
1001
ACDBBLOCKREPETAG
1070
     1
1071
      369
1005
130B2A
  0
LINE
  5
130B2B
  8
OBJECT
 10
1988.67697
 20
-324.43586799999957
 30
0.0
 11
1992.5
 21
-312.99999999999909
 31
0.0
1001
ACDBBLOCKREPETAG
1070
     1
1071
      370
1005
130B2B
  0
LINE
  5
130B2C
  8
OBJECT
 10
2011.3230299999991
 20
-324.43586799999957
 30
0.0
 11
2007.5
 21
-312.99999999999909
 31
0.0
1001
ACDBBLOCKREPETAG
1070
     1
1071
      371
1005
130B2C
  0
ARC
  5
130B2D
  8
OBJECT
 10
2059.0
 20
-282.99999999999892
 30
0.0
 40
3.0
 50
270.0
 51
0.0
1001
ACDBBLOCKREPETAG
1070
     1
1071
      372
1005
130B2D
  0
LINE
  5
130B2E
  8
OBJECT
 10
2062.0
 20
-279.99999999999909
 30
0.0
 11
2062.0
 21
-282.99999999999892
 31
0.0
1001
ACDBBLOCKREPETAG
1070
     1
1071
      373
1005
130B2E
  0
LINE
  5
130B2F
  8
OBJECT
 10
2044.5
 20
-309.99999999999892
 30
0.0
 11
2044.5
 21
-285.99999999999892
 31
0.0
1001
ACDBBLOCKREPETAG
1070
     1
1071
      374
1005
130B2F
  0
LINE
  5
130B30
  8
CENTER
 10
2101.0
 20
-199.99999999999909
 30
0.0
 11
2080.0
 21
-199.99999999999909
 31
0.0
1001
ACDBBLOCKREPETAG
1070
     1
1071
        0
1005
130B30
  0
LINE
  5
130B31
  8
OBJECT
 10
2083.0
 20
-137.99999999999909
 30
0.0
 11
2080.0
 21
-137.99999999999909
 31
0.0
1001
ACDBBLOCKREPETAG
1070
     1
1071
        1
1005
130B31
  0
ARC
  5
130B32
  8
OBJECT
 10
2083.0
 20
-140.99999999999909
 30
0.0
 40
3.0
 50
0.0
 51
90.0
1001
ACDBBLOCKREPETAG
1070
     1
1071
        2
1005
130B32
  0
LINE
  5
130B33
  8
OBJECT
 10
2080.0
 20
-261.99999999999909
 30
0.0
 11
2083.0
 21
-261.99999999999909
 31
0.0
1001
ACDBBLOCKREPETAG
1070
     1
1071
        3
1005
130B33
  0
ARC
  5
130B34
  8
OBJECT
 10
2083.0
 20
-258.99999999999909
 30
0.0
 40
3.0
 50
270.0
 51
0.0
1001
ACDBBLOCKREPETAG
1070
     1
1071
        4
1005
130B34
  0
LINE
  5
130B35
  8
OBJECT
 10
2086.0
 20
-258.99999999999909
 30
0.0
 11
2086.0
 21
-140.99999999999909
 31
0.0
1001
ACDBBLOCKREPETAG
1070
     1
1071
        5
1005
130B35
  0
LINE
  5
130B36
  8
OBJECT
 10
1867.0
 20
-634.0
 30
0.0
 11
1860.0
 21
-634.0
 31
0.0
1001
ACDBBLOCKREPETAG
1070
     1
1071
       45
1005
130B36
  0
LINE
  5
130B37
  8
OBJECT
 10
1860.0
 20
-634.0
 30
0.0
 11
1860.0
 21
-755.0
 31
0.0
1001
ACDBBLOCKREPETAG
1070
     1
1071
       46
1005
130B37
  0
LINE
  5
130B38
  8
OBJECT
 10
1867.0
 20
-755.0
 30
0.0
 11
1867.0
 21
-634.0
 31
0.0
1001
ACDBBLOCKREPETAG
1070
     1
1071
       47
1005
130B38
  0
LINE
  5
130B39
  8
CENTER
 10
1845.0
 20
-696.0
 30
0.0
 11
1929.0
 21
-696.0
 31
0.0
1001
ACDBBLOCKREPETAG
1070
     1
1071
       48
1005
130B39
  0
LINE
  5
130B3A
  8
OBJECT
 10
1867.0
 20
-637.0
 30
0.0
 11
1903.0
 21
-637.0
 31
0.0
1001
ACDBBLOCKREPETAG
1070
     1
1071
       49
1005
130B3A
  0
LINE
  5
130B3B
  8
OBJECT
 10
1903.0
 20
-637.0
 30
0.0
 11
1903.0
 21
-755.0
 31
0.0
1001
ACDBBLOCKREPETAG
1070
     1
1071
       50
1005
130B3B
  0
LINE
  5
130B3C
  8
OBJECT
 10
1903.0
 20
-755.0
 30
0.0
 11
1860.0
 21
-755.0
 31
0.0
1001
ACDBBLOCKREPETAG
1070
     1
1071
       51
1005
130B3C
  0
LINE
  5
130B3D
  8
OBJECT
 10
1907.0
 20
-641.5
 30
0.0
 11
1914.0
 21
-641.5
 31
0.0
1001
ACDBBLOCKREPETAG
1070
     1
1071
       52
1005
130B3D
  0
LINE
  5
130B3E
  8
OBJECT
 10
1914.0
 20
-750.49999999999989
 30
0.0
 11
1907.0
 21
-750.49999999999989
 31
0.0
1001
ACDBBLOCKREPETAG
1070
     1
1071
       53
1005
130B3E
  0
LINE
  5
130B3F
  8
OBJECT
 10
1907.0
 20
-750.49999999999989
 30
0.0
 11
1907.0
 21
-641.5
 31
0.0
1001
ACDBBLOCKREPETAG
1070
     1
1071
       54
1005
130B3F
  0
LINE
  5
130B40
  8
OBJECT
 10
1903.0
 20
-637.0
 30
0.0
 11
1907.0
 21
-641.5
 31
0.0
1001
ACDBBLOCKREPETAG
1070
     1
1071
       55
1005
130B40
  0
LINE
  5
130B41
  8
OBJECT
 10
1903.0
 20
-755.0
 30
0.0
 11
1907.0
 21
-750.49999999999989
 31
0.0
1001
ACDBBLOCKREPETAG
1070
     1
1071
       56
1005
130B41
  0
LINE
  5
130B42
  8
OBJECT
 10
1917.0
 20
-634.0
 30
0.0
 11
1920.0
 21
-634.0
 31
0.0
1001
ACDBBLOCKREPETAG
1070
     1
1071
       57
1005
130B42
  0
ARC
  5
130B43
  8
OBJECT
 10
1917.0
 20
-637.0
 30
0.0
 40
3.0
 50
90.0
 51
180.0
1001
ACDBBLOCKREPETAG
1070
     1
1071
       58
1005
130B43
  0
LINE
  5
130B44
  8
OBJECT
 10
1920.0
 20
-758.0
 30
0.0
 11
1917.0
 21
-758.0
 31
0.0
1001
ACDBBLOCKREPETAG
1070
     1
1071
       59
1005
130B44
  0
ARC
  5
130B45
  8
OBJECT
 10
1917.0
 20
-755.0
 30
0.0
 40
3.0
 50
180.0
 51
270.0
1001
ACDBBLOCKREPETAG
1070
     1
1071
       60
1005
130B45
  0
LINE
  5
130B46
  8
OBJECT
 10
1914.0
 20
-755.0
 30
0.0
 11
1914.0
 21
-637.0
 31
0.0
1001
ACDBBLOCKREPETAG
1070
     1
1071
       61
1005
130B46
  0
LINE
  5
130B47
  8
HIDDEN
 10
1912.0
 20
-651.5
 30
0.0
 11
1912.0
 21
-740.5
 31
0.0
1001
ACDBBLOCKREPETAG
1070
     1
1071
       63
1005
130B47
  0
CIRCLE
  5
130B48
  8
OBJECT
 10
2000.0
 20
-696.0
 30
0.0
 40
62.0
1001
ACDBBLOCKREPETAG
1070
     1
1071
      227
1005
130B48
  0
CIRCLE
  5
130B49
  8
OBJECT
 10
2000.0
 20
-696.0
 30
0.0
 40
36.333333000000003
1001
ACDBBLOCKREPETAG
1070
     1
1071
      228
1005
130B49
  0
CIRCLE
  5
130B4A
  8
OBJECT
 10
2000.0
 20
-696.0
 30
0.0
 40
44.5
1001
ACDBBLOCKREPETAG
1070
     1
1071
      229
1005
130B4A
  0
ARC
  5
130B4B
  8
OBJECT
 10
2000.0
 20
-696.0
 30
0.0
 40
10.0
 50
194.62786100003839
 51
345.37213899996152
1001
ACDBBLOCKREPETAG
1070
     1
1071
      230
1005
130B4B
  0
ARC
  5
130B4C
  8
OBJECT
 10
2000.0
 20
-696.0
 30
0.0
 40
7.5
 50
200.41516800005761
 51
339.58483199994242
1001
ACDBBLOCKREPETAG
1070
     1
1071
      231
1005
130B4C
  0
ARC
  5
130B4D
  8
OBJECT
 10
1977.0
 20
-696.0
 30
0.0
 40
2.0
 50
91.963657999954648
 51
268.03634200004529
1001
ACDBBLOCKREPETAG
1070
     1
1071
      232
1005
130B4D
  0
ARC
  5
130B4E
  8
OBJECT
 10
2000.0
 20
-696.0
 30
0.0
 40
10.0
 50
14.62786100003852
 51
165.37213899996141
1001
ACDBBLOCKREPETAG
1070
     1
1071
      233
1005
130B4E
  0
CIRCLE
  5
130B4F
  8
OBJECT
 10
2000.0
 20
-696.0
 30
0.0
 40
4.5
1001
ACDBBLOCKREPETAG
1070
     1
1071
      234
1005
130B4F
  0
ARC
  5
130B50
  8
OBJECT
 10
2000.0
 20
-696.0
 30
0.0
 40
7.5
 50
20.415168000057569
 51
159.58483199994239
1001
ACDBBLOCKREPETAG
1070
     1
1071
      235
1005
130B50
  0
ARC
  5
130B51
  8
OBJECT
 10
2000.0
 20
-696.0
 30
0.0
 40
24.333333
 50
183.77906500000159
 51
356.22093499999818
1001
ACDBBLOCKREPETAG
1070
     1
1071
      236
1005
130B51
  0
ARC
  5
130B52
  8
OBJECT
 10
2000.0
 20
-696.0
 30
0.0
 40
24.333333
 50
3.7790650000018511
 51
176.22093499999809
1001
ACDBBLOCKREPETAG
1070
     1
1071
      237
1005
130B52
  0
ARC
  5
130B53
  8
OBJECT
 10
2023.0
 20
-696.0
 30
0.0
 40
2.0
 50
271.96365799995459
 51
88.036342000045366
1001
ACDBBLOCKREPETAG
1070
     1
1071
      238
1005
130B53
  0
LINE
  5
130B54
  8
OBJECT
 10
2007.0289220000011
 20
-698.61615099999835
 30
0.0
 11
2023.068531000001
 21
-697.99882499999865
 31
0.0
1001
ACDBBLOCKREPETAG
1070
     1
1071
      239
1005
130B54
  0
LINE
  5
130B55
  8
OBJECT
 10
2007.0289220000011
 20
-693.38384899999983
 30
0.0
 11
2023.068531000001
 21
-694.00117399999908
 31
0.0
1001
ACDBBLOCKREPETAG
1070
     1
1071
      240
1005
130B55
  0
LINE
  5
130B56
  8
OBJECT
 10
1992.9710769999981
 20
-698.61615099999835
 30
0.0
 11
1976.931468999999
 21
-697.99882499999865
 31
0.0
1001
ACDBBLOCKREPETAG
1070
     1
1071
      241
1005
130B56
  0
LINE
  5
130B57
  8
OBJECT
 10
1992.9710769999981
 20
-693.38384899999983
 30
0.0
 11
1976.931468999999
 21
-694.00117399999908
 31
0.0
1001
ACDBBLOCKREPETAG
1070
     1
1071
      242
1005
130B57
  0
LINE
  5
130B58
  8
CENTER
 10
1923.0
 20
-695.9999992574941
 30
0.0
 11
2077.0
 21
-696.00000688055752
 31
0.0
1001
ACDBBLOCKREPETAG
1070
     1
1071
      243
1005
130B58
  0
LINE
  5
130B59
  8
OBJECT
 10
2083.0
 20
-634.0
 30
0.0
 11
2080.0
 21
-634.0
 31
0.0
1001
ACDBBLOCKREPETAG
1070
     1
1071
        1
1005
130B59
  0
ARC
  5
130B5A
  8
OBJECT
 10
2083.0
 20
-637.0
 30
0.0
 40
3.0
 50
0.0
 51
90.0
1001
ACDBBLOCKREPETAG
1070
     1
1071
        2
1005
130B5A
  0
LINE
  5
130B5B
  8
OBJECT
 10
2080.0
 20
-758.0
 30
0.0
 11
2083.0
 21
-758.0
 31
0.0
1001
ACDBBLOCKREPETAG
1070
     1
1071
        3
1005
130B5B
  0
ARC
  5
130B5C
  8
OBJECT
 10
2083.0
 20
-755.0
 30
0.0
 40
3.0
 50
270.0
 51
0.0
1001
ACDBBLOCKREPETAG
1070
     1
1071
        4
1005
130B5C
  0
LINE
  5
130B5D
  8
OBJECT
 10
2086.0
 20
-755.0
 30
0.0
 11
2086.0
 21
-637.0
 31
0.0
1001
ACDBBLOCKREPETAG
1070
     1
1071
        5
1005
130B5D
  0
TEXT
  5
130B5E
  8
SLIM
 10
0.0000035665234464
 20
24.000004585317601
 30
0.0
 40
79.999999999972701
  1
枝管バリエーション
 41
0.75
1001
ACDBBLOCKREPETAG
1070
     1
1071
      119
1005
12CC4A
  0
TEXT
  5
130B5F
  8
SLIM
 10
1837.75
 20
282.50000000000011
 30
0.0
 40
35.0
  1
（枝管サイズ毎に寸法が異なります。管底の位置は50～100で同じです）
 41
0.75
  0
TEXT
  5
130B60
  8
SLIM
 10
1850.0
 20
369.99999999999989
 30
0.0
 40
100.0
  1
4SRT-CO-A0P3
 41
0.75
  0
TEXT
  5
130B61
  8
SLIM
 10
0.0
 20
370.0
 30
0.0
 40
100.0
  1
4SRT-CO-A0PX-S
 41
0.75
  0
LINE
  5
130B62
  8
OBJECT
 10
4923.0
 20
-3515.9999999999968
 30
0.0
 11
4923.0
 21
-3494.9999999999968
 31
0.0
1001
ACDBBLOCKREPETAG
1070
     1
1071
        0
1005
130B62
  0
LINE
  5
130B63
  8
OBJECT
 10
4923.0
 20
-3494.9999999999968
 30
0.0
 11
5077.0
 21
-3494.9999999999968
 31
0.0
1001
ACDBBLOCKREPETAG
1070
     1
1071
        1
1005
130B63
  0
LINE
  5
130B64
  8
HIDDEN
 10
4943.0
 20
-3564.9999999999968
 30
0.0
 11
5057.0
 21
-3564.9999999999968
 31
0.0
1001
ACDBBLOCKREPETAG
1070
     1
1071
        2
1005
130B64
  0
LINE
  5
130B65
  8
OBJECT
 10
5077.0
 20
-3494.9999999999968
 30
0.0
 11
5077.0
 21
-3515.9999999999968
 31
0.0
1001
ACDBBLOCKREPETAG
1070
     1
1071
        3
1005
130B65
  0
LINE
  5
130B66
  8
OBJECT
 10
5077.0
 20
-3515.9999999999968
 30
0.0
 11
4923.0
 21
-3515.9999999999968
 31
0.0
1001
ACDBBLOCKREPETAG
1070
     1
1071
        4
1005
130B66
  0
LINE
  5
130B67
  8
CENTER
 10
5000.0
 20
-3479.9999999999968
 30
0.0
 11
5000.0
 21
-3714.9999999999968
 31
0.0
1001
ACDBBLOCKREPETAG
1070
     1
1071
        5
1005
130B67
  0
LINE
  5
130B68
  8
OBJECT
 10
4925.0
 20
-3578.9999999999968
 30
0.0
 11
4925.0
 21
-3702.9999999999968
 31
0.0
1001
ACDBBLOCKREPETAG
1070
     1
1071
        6
1005
130B68
  0
LINE
  5
130B69
  8
OBJECT
 10
4928.0
 20
-3515.9999999999968
 30
0.0
 11
4928.0
 21
-3578.9999999999968
 31
0.0
1001
ACDBBLOCKREPETAG
1070
     1
1071
        7
1005
130B69
  0
LINE
  5
130B6A
  8
OBJECT
 10
5072.0
 20
-3578.9999999999968
 30
0.0
 11
5072.0
 21
-3515.9999999999968
 31
0.0
1001
ACDBBLOCKREPETAG
1070
     1
1071
        8
1005
130B6A
  0
LINE
  5
130B6B
  8
OBJECT
 10
5074.9999999997999
 20
-3702.9999999997758
 30
0.0
 11
5080.0
 21
-3702.9999999999968
 31
0.0
1001
ACDBBLOCKREPETAG
1070
     1
1071
        9
1005
130B6B
  0
LINE
  5
130B6C
  8
OBJECT
 10
5080.0
 20
-3578.9999999999968
 30
0.0
 11
4925.0
 21
-3578.9999999999968
 31
0.0
1001
ACDBBLOCKREPETAG
1070
     1
1071
       10
1005
130B6C
  0
ARC
  5
130B6D
  8
OBJECT
 10
5200.6872746716726
 20
-3694.408099410105
 30
0.0
 40
170.6350503965856
 50
137.44134459184301
 51
149.9194958133665
1001
ACDBBLOCKREPETAG
1070
     1
1071
       15
1005
130B6D
  0
ARC
  5
130B6E
  8
OBJECT
 10
5118.8455987040506
 20
-3650.8827266953622
 30
0.0
 40
78.072222021763665
 50
147.4551531037684
 51
164.66365997719291
1001
ACDBBLOCKREPETAG
1070
     1
1071
       16
1005
130B6E
  0
ARC
  5
130B6F
  8
OBJECT
 10
5085.7554349608727
 20
-3640.9999999999968
 30
0.0
 40
43.55353926885617
 50
165.6884523008477
 51
194.3115476991523
1001
ACDBBLOCKREPETAG
1070
     1
1071
       17
1005
130B6F
  0
ARC
  5
130B70
  8
OBJECT
 10
5200.6872746716726
 20
-3587.5919005898891
 30
0.0
 40
170.6350503965856
 50
210.0805041866335
 51
222.55865540815699
1001
ACDBBLOCKREPETAG
1070
     1
1071
       18
1005
130B70
  0
ARC
  5
130B71
  8
OBJECT
 10
5118.8455987040506
 20
-3631.1172733046319
 30
0.0
 40
78.072222021763665
 50
195.33634002280701
 51
212.5448468962316
1001
ACDBBLOCKREPETAG
1070
     1
1071
       19
1005
130B71
  0
POINT
  5
130B72
  8
DOTS
 10
5000.0
 20
-3699.9999999999968
 30
0.0
1001
ACDBBLOCKREPETAG
1070
     1
1071
      186
1005
130B72
  0
LINE
  5
130B73
  8
OBJECT
 10
4323.0
 20
-3515.9999999999968
 30
0.0
 11
4323.0
 21
-3494.9999999999968
 31
0.0
1001
ACDBBLOCKREPETAG
1070
     1
1071
       20
1005
130B73
  0
LINE
  5
130B74
  8
OBJECT
 10
4323.0
 20
-3494.9999999999968
 30
0.0
 11
4477.0
 21
-3494.9999999999968
 31
0.0
1001
ACDBBLOCKREPETAG
1070
     1
1071
       21
1005
130B74
  0
LINE
  5
130B75
  8
HIDDEN
 10
4343.0
 20
-3564.9999999999968
 30
0.0
 11
4457.0
 21
-3564.9999999999968
 31
0.0
1001
ACDBBLOCKREPETAG
1070
     1
1071
       22
1005
130B75
  0
LINE
  5
130B76
  8
OBJECT
 10
4477.0
 20
-3494.9999999999968
 30
0.0
 11
4477.0
 21
-3515.9999999999968
 31
0.0
1001
ACDBBLOCKREPETAG
1070
     1
1071
       23
1005
130B76
  0
LINE
  5
130B77
  8
OBJECT
 10
4477.0
 20
-3515.9999999999968
 30
0.0
 11
4323.0
 21
-3515.9999999999968
 31
0.0
1001
ACDBBLOCKREPETAG
1070
     1
1071
       24
1005
130B77
  0
LINE
  5
130B78
  8
CENTER
 10
4400.0
 20
-3479.9999999999968
 30
0.0
 11
4400.0
 21
-3714.9999999999968
 31
0.0
1001
ACDBBLOCKREPETAG
1070
     1
1071
       25
1005
130B78
  0
LINE
  5
130B79
  8
OBJECT
 10
4325.0
 20
-3578.9999999999968
 30
0.0
 11
4325.0
 21
-3702.9999999999968
 31
0.0
1001
ACDBBLOCKREPETAG
1070
     1
1071
       26
1005
130B79
  0
LINE
  5
130B7A
  8
OBJECT
 10
4328.0
 20
-3515.9999999999968
 30
0.0
 11
4328.0
 21
-3578.9999999999968
 31
0.0
1001
ACDBBLOCKREPETAG
1070
     1
1071
       27
1005
130B7A
  0
LINE
  5
130B7B
  8
OBJECT
 10
4472.0
 20
-3578.9999999999968
 30
0.0
 11
4472.0
 21
-3515.9999999999968
 31
0.0
1001
ACDBBLOCKREPETAG
1070
     1
1071
       28
1005
130B7B
  0
LINE
  5
130B7C
  8
OBJECT
 10
4475.0
 20
-3578.9999999999968
 30
0.0
 11
4325.0
 21
-3578.9999999999968
 31
0.0
1001
ACDBBLOCKREPETAG
1070
     1
1071
       30
1005
130B7C
  0
LINE
  5
130B7D
  8
OBJECT
 10
4475.0
 20
-3578.9999999999968
 30
0.0
 11
4475.0
 21
-3702.9999999999968
 31
0.0
1001
ACDBBLOCKREPETAG
1070
     1
1071
       34
1005
130B7D
  0
POINT
  5
130B7E
  8
DOTS
 10
4400.0
 20
-3699.9999999999968
 30
0.0
1001
ACDBBLOCKREPETAG
1070
     1
1071
      187
1005
130B7E
  0
LINE
  5
130B7F
  8
OBJECT
 10
3923.0
 20
-3515.9999999999968
 30
0.0
 11
3923.0
 21
-3494.9999999999968
 31
0.0
1001
ACDBBLOCKREPETAG
1070
     1
1071
        0
1005
130B7F
  0
LINE
  5
130B80
  8
OBJECT
 10
3923.0
 20
-3494.9999999999968
 30
0.0
 11
4077.0
 21
-3494.9999999999968
 31
0.0
1001
ACDBBLOCKREPETAG
1070
     1
1071
        1
1005
130B80
  0
LINE
  5
130B81
  8
HIDDEN
 10
3943.0
 20
-3564.9999999999968
 30
0.0
 11
4057.0
 21
-3564.9999999999968
 31
0.0
1001
ACDBBLOCKREPETAG
1070
     1
1071
        2
1005
130B81
  0
LINE
  5
130B82
  8
OBJECT
 10
4077.0
 20
-3494.9999999999968
 30
0.0
 11
4077.0
 21
-3515.9999999999968
 31
0.0
1001
ACDBBLOCKREPETAG
1070
     1
1071
        3
1005
130B82
  0
LINE
  5
130B83
  8
OBJECT
 10
4077.0
 20
-3515.9999999999968
 30
0.0
 11
3923.0
 21
-3515.9999999999968
 31
0.0
1001
ACDBBLOCKREPETAG
1070
     1
1071
        4
1005
130B83
  0
LINE
  5
130B84
  8
CENTER
 10
4000.0
 20
-3479.9999999999968
 30
0.0
 11
4000.0
 21
-3714.9999999999968
 31
0.0
1001
ACDBBLOCKREPETAG
1070
     1
1071
        5
1005
130B84
  0
LINE
  5
130B85
  8
OBJECT
 10
3925.0
 20
-3578.9999999999968
 30
0.0
 11
3925.0
 21
-3702.9999999999968
 31
0.0
1001
ACDBBLOCKREPETAG
1070
     1
1071
        6
1005
130B85
  0
LINE
  5
130B86
  8
OBJECT
 10
3928.0
 20
-3515.9999999999968
 30
0.0
 11
3928.0
 21
-3578.9999999999968
 31
0.0
1001
ACDBBLOCKREPETAG
1070
     1
1071
        7
1005
130B86
  0
LINE
  5
130B87
  8
OBJECT
 10
4072.0
 20
-3578.9999999999968
 30
0.0
 11
4072.0
 21
-3515.9999999999968
 31
0.0
1001
ACDBBLOCKREPETAG
1070
     1
1071
        8
1005
130B87
  0
LINE
  5
130B88
  8
OBJECT
 10
4074.999999999799
 20
-3702.9999999997758
 30
0.0
 11
4080.0
 21
-3702.9999999999968
 31
0.0
1001
ACDBBLOCKREPETAG
1070
     1
1071
        9
1005
130B88
  0
LINE
  5
130B89
  8
OBJECT
 10
4080.0
 20
-3578.9999999999968
 30
0.0
 11
3925.0
 21
-3578.9999999999968
 31
0.0
1001
ACDBBLOCKREPETAG
1070
     1
1071
       10
1005
130B89
  0
ARC
  5
130B8A
  8
OBJECT
 10
4200.6872746716726
 20
-3694.408099410105
 30
0.0
 40
170.6350503965856
 50
137.44134459184301
 51
149.9194958133665
1001
ACDBBLOCKREPETAG
1070
     1
1071
       15
1005
130B8A
  0
ARC
  5
130B8B
  8
OBJECT
 10
4118.8455987040506
 20
-3650.8827266953622
 30
0.0
 40
78.072222021763665
 50
147.4551531037684
 51
164.663659977186
1001
ACDBBLOCKREPETAG
1070
     1
1071
       16
1005
130B8B
  0
ARC
  5
130B8C
  8
OBJECT
 10
4085.7554349608722
 20
-3640.9999999999968
 30
0.0
 40
43.55353926885617
 50
165.6884523008477
 51
194.3115476991523
1001
ACDBBLOCKREPETAG
1070
     1
1071
       17
1005
130B8C
  0
ARC
  5
130B8D
  8
OBJECT
 10
4200.6872746716726
 20
-3587.5919005898891
 30
0.0
 40
170.6350503965856
 50
210.0805041866335
 51
222.55865540815699
1001
ACDBBLOCKREPETAG
1070
     1
1071
       18
1005
130B8D
  0
ARC
  5
130B8E
  8
OBJECT
 10
4118.8455987040506
 20
-3631.1172733046319
 30
0.0
 40
78.072222021763665
 50
195.33634002281391
 51
212.5448468962316
1001
ACDBBLOCKREPETAG
1070
     1
1071
       19
1005
130B8E
  0
POINT
  5
130B8F
  8
DOTS
 10
4000.0
 20
-3699.9999999999968
 30
0.0
1001
ACDBBLOCKREPETAG
1070
     1
1071
      186
1005
130B8F
  0
LINE
  5
130B90
  8
OBJECT
 10
3323.0
 20
-3515.9999999999968
 30
0.0
 11
3323.0
 21
-3494.9999999999968
 31
0.0
1001
ACDBBLOCKREPETAG
1070
     1
1071
       20
1005
130B90
  0
LINE
  5
130B91
  8
OBJECT
 10
3323.0
 20
-3494.9999999999968
 30
0.0
 11
3477.0
 21
-3494.9999999999968
 31
0.0
1001
ACDBBLOCKREPETAG
1070
     1
1071
       21
1005
130B91
  0
LINE
  5
130B92
  8
HIDDEN
 10
3343.0
 20
-3564.9999999999968
 30
0.0
 11
3457.0
 21
-3564.9999999999968
 31
0.0
1001
ACDBBLOCKREPETAG
1070
     1
1071
       22
1005
130B92
  0
LINE
  5
130B93
  8
OBJECT
 10
3477.0
 20
-3494.9999999999968
 30
0.0
 11
3477.0
 21
-3515.9999999999968
 31
0.0
1001
ACDBBLOCKREPETAG
1070
     1
1071
       23
1005
130B93
  0
LINE
  5
130B94
  8
OBJECT
 10
3477.0
 20
-3515.9999999999968
 30
0.0
 11
3323.0
 21
-3515.9999999999968
 31
0.0
1001
ACDBBLOCKREPETAG
1070
     1
1071
       24
1005
130B94
  0
LINE
  5
130B95
  8
CENTER
 10
3400.0
 20
-3479.9999999999968
 30
0.0
 11
3400.0
 21
-3714.9999999999968
 31
0.0
1001
ACDBBLOCKREPETAG
1070
     1
1071
       25
1005
130B95
  0
LINE
  5
130B96
  8
OBJECT
 10
3325.0
 20
-3578.9999999999968
 30
0.0
 11
3325.0
 21
-3702.9999999999968
 31
0.0
1001
ACDBBLOCKREPETAG
1070
     1
1071
       26
1005
130B96
  0
LINE
  5
130B97
  8
OBJECT
 10
3328.0
 20
-3515.9999999999968
 30
0.0
 11
3328.0
 21
-3578.9999999999968
 31
0.0
1001
ACDBBLOCKREPETAG
1070
     1
1071
       27
1005
130B97
  0
LINE
  5
130B98
  8
OBJECT
 10
3472.0
 20
-3578.9999999999968
 30
0.0
 11
3472.0
 21
-3515.9999999999968
 31
0.0
1001
ACDBBLOCKREPETAG
1070
     1
1071
       28
1005
130B98
  0
LINE
  5
130B99
  8
OBJECT
 10
3475.0
 20
-3578.9999999999968
 30
0.0
 11
3325.0
 21
-3578.9999999999968
 31
0.0
1001
ACDBBLOCKREPETAG
1070
     1
1071
       30
1005
130B99
  0
LINE
  5
130B9A
  8
OBJECT
 10
3475.0
 20
-3578.9999999999968
 30
0.0
 11
3475.0
 21
-3702.9999999999968
 31
0.0
1001
ACDBBLOCKREPETAG
1070
     1
1071
       34
1005
130B9A
  0
POINT
  5
130B9B
  8
DOTS
 10
3400.0
 20
-3699.9999999999968
 30
0.0
1001
ACDBBLOCKREPETAG
1070
     1
1071
      187
1005
130B9B
  0
LINE
  5
130B9C
  8
OBJECT
 10
2923.0
 20
-3515.9999999999968
 30
0.0
 11
2923.0
 21
-3494.9999999999968
 31
0.0
1001
ACDBBLOCKREPETAG
1070
     1
1071
        0
1005
130B9C
  0
LINE
  5
130B9D
  8
OBJECT
 10
2923.0
 20
-3494.9999999999968
 30
0.0
 11
3077.0
 21
-3494.9999999999968
 31
0.0
1001
ACDBBLOCKREPETAG
1070
     1
1071
        1
1005
130B9D
  0
LINE
  5
130B9E
  8
HIDDEN
 10
2943.0
 20
-3564.9999999999968
 30
0.0
 11
3057.0
 21
-3564.9999999999968
 31
0.0
1001
ACDBBLOCKREPETAG
1070
     1
1071
        2
1005
130B9E
  0
LINE
  5
130B9F
  8
OBJECT
 10
3077.0
 20
-3494.9999999999968
 30
0.0
 11
3077.0
 21
-3515.9999999999968
 31
0.0
1001
ACDBBLOCKREPETAG
1070
     1
1071
        3
1005
130B9F
  0
LINE
  5
130BA0
  8
OBJECT
 10
3077.0
 20
-3515.9999999999968
 30
0.0
 11
2923.0
 21
-3515.9999999999968
 31
0.0
1001
ACDBBLOCKREPETAG
1070
     1
1071
        4
1005
130BA0
  0
LINE
  5
130BA1
  8
CENTER
 10
3000.0
 20
-3479.9999999999968
 30
0.0
 11
3000.0
 21
-3714.9999999999968
 31
0.0
1001
ACDBBLOCKREPETAG
1070
     1
1071
        5
1005
130BA1
  0
LINE
  5
130BA2
  8
OBJECT
 10
2925.0
 20
-3578.9999999999968
 30
0.0
 11
2925.0
 21
-3702.9999999999968
 31
0.0
1001
ACDBBLOCKREPETAG
1070
     1
1071
        6
1005
130BA2
  0
LINE
  5
130BA3
  8
OBJECT
 10
2928.0
 20
-3515.9999999999968
 30
0.0
 11
2928.0
 21
-3578.9999999999968
 31
0.0
1001
ACDBBLOCKREPETAG
1070
     1
1071
        7
1005
130BA3
  0
LINE
  5
130BA4
  8
OBJECT
 10
3072.0
 20
-3578.9999999999968
 30
0.0
 11
3072.0
 21
-3515.9999999999968
 31
0.0
1001
ACDBBLOCKREPETAG
1070
     1
1071
        8
1005
130BA4
  0
LINE
  5
130BA5
  8
OBJECT
 10
3074.9999999997999
 20
-3702.9999999997758
 30
0.0
 11
3080.0
 21
-3702.9999999999968
 31
0.0
1001
ACDBBLOCKREPETAG
1070
     1
1071
        9
1005
130BA5
  0
LINE
  5
130BA6
  8
OBJECT
 10
3080.0
 20
-3578.9999999999968
 30
0.0
 11
2925.0
 21
-3578.9999999999968
 31
0.0
1001
ACDBBLOCKREPETAG
1070
     1
1071
       10
1005
130BA6
  0
ARC
  5
130BA7
  8
OBJECT
 10
3200.6872746716722
 20
-3694.408099410105
 30
0.0
 40
170.6350503965856
 50
137.44134459184301
 51
149.9194958133665
1001
ACDBBLOCKREPETAG
1070
     1
1071
       15
1005
130BA7
  0
ARC
  5
130BA8
  8
OBJECT
 10
3118.8455987040511
 20
-3650.8827266953622
 30
0.0
 40
78.072222021763665
 50
147.4551531037684
 51
164.663659977186
1001
ACDBBLOCKREPETAG
1070
     1
1071
       16
1005
130BA8
  0
ARC
  5
130BA9
  8
OBJECT
 10
3085.7554349608731
 20
-3640.9999999999968
 30
0.0
 40
43.55353926885617
 50
165.6884523008477
 51
194.3115476991523
1001
ACDBBLOCKREPETAG
1070
     1
1071
       17
1005
130BA9
  0
ARC
  5
130BAA
  8
OBJECT
 10
3200.6872746716722
 20
-3587.5919005898891
 30
0.0
 40
170.6350503965856
 50
210.0805041866335
 51
222.55865540815699
1001
ACDBBLOCKREPETAG
1070
     1
1071
       18
1005
130BAA
  0
ARC
  5
130BAB
  8
OBJECT
 10
3118.8455987040511
 20
-3631.1172733046319
 30
0.0
 40
78.072222021763665
 50
195.33634002281391
 51
212.5448468962316
1001
ACDBBLOCKREPETAG
1070
     1
1071
       19
1005
130BAB
  0
POINT
  5
130BAC
  8
DOTS
 10
3000.0
 20
-3699.9999999999968
 30
0.0
1001
ACDBBLOCKREPETAG
1070
     1
1071
      186
1005
130BAC
  0
LINE
  5
130BAD
  8
OBJECT
 10
2323.0
 20
-3515.9999999999968
 30
0.0
 11
2323.0
 21
-3494.9999999999968
 31
0.0
1001
ACDBBLOCKREPETAG
1070
     1
1071
       20
1005
130BAD
  0
LINE
  5
130BAE
  8
OBJECT
 10
2323.0
 20
-3494.9999999999968
 30
0.0
 11
2477.0
 21
-3494.9999999999968
 31
0.0
1001
ACDBBLOCKREPETAG
1070
     1
1071
       21
1005
130BAE
  0
LINE
  5
130BAF
  8
HIDDEN
 10
2343.0
 20
-3564.9999999999968
 30
0.0
 11
2457.0
 21
-3564.9999999999968
 31
0.0
1001
ACDBBLOCKREPETAG
1070
     1
1071
       22
1005
130BAF
  0
LINE
  5
130BB0
  8
OBJECT
 10
2477.0
 20
-3494.9999999999968
 30
0.0
 11
2477.0
 21
-3515.9999999999968
 31
0.0
1001
ACDBBLOCKREPETAG
1070
     1
1071
       23
1005
130BB0
  0
LINE
  5
130BB1
  8
OBJECT
 10
2477.0
 20
-3515.9999999999968
 30
0.0
 11
2323.0
 21
-3515.9999999999968
 31
0.0
1001
ACDBBLOCKREPETAG
1070
     1
1071
       24
1005
130BB1
  0
LINE
  5
130BB2
  8
CENTER
 10
2400.0
 20
-3479.9999999999968
 30
0.0
 11
2400.0
 21
-3714.9999999999968
 31
0.0
1001
ACDBBLOCKREPETAG
1070
     1
1071
       25
1005
130BB2
  0
LINE
  5
130BB3
  8
OBJECT
 10
2325.0
 20
-3578.9999999999968
 30
0.0
 11
2325.0
 21
-3702.9999999999968
 31
0.0
1001
ACDBBLOCKREPETAG
1070
     1
1071
       26
1005
130BB3
  0
LINE
  5
130BB4
  8
OBJECT
 10
2328.0
 20
-3515.9999999999968
 30
0.0
 11
2328.0
 21
-3578.9999999999968
 31
0.0
1001
ACDBBLOCKREPETAG
1070
     1
1071
       27
1005
130BB4
  0
LINE
  5
130BB5
  8
OBJECT
 10
2472.0
 20
-3578.9999999999968
 30
0.0
 11
2472.0
 21
-3515.9999999999968
 31
0.0
1001
ACDBBLOCKREPETAG
1070
     1
1071
       28
1005
130BB5
  0
LINE
  5
130BB6
  8
OBJECT
 10
2475.0
 20
-3578.9999999999968
 30
0.0
 11
2325.0
 21
-3578.9999999999968
 31
0.0
1001
ACDBBLOCKREPETAG
1070
     1
1071
       30
1005
130BB6
  0
LINE
  5
130BB7
  8
OBJECT
 10
2475.0
 20
-3578.9999999999968
 30
0.0
 11
2475.0
 21
-3702.9999999999968
 31
0.0
1001
ACDBBLOCKREPETAG
1070
     1
1071
       34
1005
130BB7
  0
POINT
  5
130BB8
  8
DOTS
 10
2400.0
 20
-3699.9999999999968
 30
0.0
1001
ACDBBLOCKREPETAG
1070
     1
1071
      187
1005
130BB8
  0
LINE
  5
130BB9
  8
OBJECT
 10
1923.0
 20
-3515.9999999999968
 30
0.0
 11
1923.0
 21
-3494.9999999999968
 31
0.0
1001
ACDBBLOCKREPETAG
1070
     1
1071
        0
1005
130BB9
  0
LINE
  5
130BBA
  8
OBJECT
 10
1923.0
 20
-3494.9999999999968
 30
0.0
 11
2077.0
 21
-3494.9999999999968
 31
0.0
1001
ACDBBLOCKREPETAG
1070
     1
1071
        1
1005
130BBA
  0
LINE
  5
130BBB
  8
HIDDEN
 10
1943.0
 20
-3564.9999999999968
 30
0.0
 11
2057.0
 21
-3564.9999999999968
 31
0.0
1001
ACDBBLOCKREPETAG
1070
     1
1071
        2
1005
130BBB
  0
LINE
  5
130BBC
  8
OBJECT
 10
2077.0
 20
-3494.9999999999968
 30
0.0
 11
2077.0
 21
-3515.9999999999968
 31
0.0
1001
ACDBBLOCKREPETAG
1070
     1
1071
        3
1005
130BBC
  0
LINE
  5
130BBD
  8
OBJECT
 10
2077.0
 20
-3515.9999999999968
 30
0.0
 11
1923.0
 21
-3515.9999999999968
 31
0.0
1001
ACDBBLOCKREPETAG
1070
     1
1071
        4
1005
130BBD
  0
LINE
  5
130BBE
  8
CENTER
 10
2000.0
 20
-3479.9999999999968
 30
0.0
 11
2000.0
 21
-3714.9999999999968
 31
0.0
1001
ACDBBLOCKREPETAG
1070
     1
1071
        5
1005
130BBE
  0
LINE
  5
130BBF
  8
OBJECT
 10
1925.0
 20
-3578.9999999999968
 30
0.0
 11
1925.0
 21
-3702.9999999999968
 31
0.0
1001
ACDBBLOCKREPETAG
1070
     1
1071
        6
1005
130BBF
  0
LINE
  5
130BC0
  8
OBJECT
 10
1928.0
 20
-3515.9999999999968
 30
0.0
 11
1928.0
 21
-3578.9999999999968
 31
0.0
1001
ACDBBLOCKREPETAG
1070
     1
1071
        7
1005
130BC0
  0
LINE
  5
130BC1
  8
OBJECT
 10
2072.0
 20
-3578.9999999999968
 30
0.0
 11
2072.0
 21
-3515.9999999999968
 31
0.0
1001
ACDBBLOCKREPETAG
1070
     1
1071
        8
1005
130BC1
  0
LINE
  5
130BC2
  8
OBJECT
 10
2074.999999999799
 20
-3702.9999999997758
 30
0.0
 11
2080.0
 21
-3702.9999999999968
 31
0.0
1001
ACDBBLOCKREPETAG
1070
     1
1071
        9
1005
130BC2
  0
LINE
  5
130BC3
  8
OBJECT
 10
2080.0
 20
-3578.9999999999968
 30
0.0
 11
1925.0
 21
-3578.9999999999968
 31
0.0
1001
ACDBBLOCKREPETAG
1070
     1
1071
       10
1005
130BC3
  0
ARC
  5
130BC4
  8
OBJECT
 10
2200.6872746716731
 20
-3694.408099410105
 30
0.0
 40
170.6350503965856
 50
137.44134459184301
 51
149.91949581335999
1001
ACDBBLOCKREPETAG
1070
     1
1071
       15
1005
130BC4
  0
ARC
  5
130BC5
  8
OBJECT
 10
2118.8455987040511
 20
-3650.8827266953622
 30
0.0
 40
78.072222021763665
 50
147.45515310377539
 51
164.663659977186
1001
ACDBBLOCKREPETAG
1070
     1
1071
       16
1005
130BC5
  0
ARC
  5
130BC6
  8
OBJECT
 10
2085.7554349608731
 20
-3640.9999999999968
 30
0.0
 40
43.55353926885617
 50
165.6884523008477
 51
194.3115476991523
1001
ACDBBLOCKREPETAG
1070
     1
1071
       17
1005
130BC6
  0
ARC
  5
130BC7
  8
OBJECT
 10
2200.6872746716731
 20
-3587.5919005898891
 30
0.0
 40
170.6350503965856
 50
210.08050418664001
 51
222.55865540815699
1001
ACDBBLOCKREPETAG
1070
     1
1071
       18
1005
130BC7
  0
ARC
  5
130BC8
  8
OBJECT
 10
2118.8455987040511
 20
-3631.1172733046319
 30
0.0
 40
78.072222021763665
 50
195.33634002281391
 51
212.54484689622461
1001
ACDBBLOCKREPETAG
1070
     1
1071
       19
1005
130BC8
  0
POINT
  5
130BC9
  8
DOTS
 10
2000.0
 20
-3699.9999999999968
 30
0.0
1001
ACDBBLOCKREPETAG
1070
     1
1071
      186
1005
130BC9
  0
LINE
  5
130BCA
  8
DIM
 10
2150.0
 20
-3341.9999999999959
 30
0.0
 11
2228.479620594459
 21
-3341.9999999999959
 31
0.0
  0
LINE
  5
130BCB
  8
DIM
 10
2150.0
 20
-3247.9999999999959
 30
0.0
 11
2228.479620594459
 21
-3247.9999999999959
 31
0.0
  0
LINE
  5
130BCC
  8
DIM
 10
2218.479620594459
 20
-3321.9999999999959
 30
0.0
 11
2218.479620594459
 21
-3267.9999999999959
 31
0.0
  0
INSERT
  5
130BCD
  8
DIM
  2
_OPEN30
 10
2218.479620594459
 20
-3341.9999999999959
 30
0.0
 41
20.0
 42
20.0
 43
20.0
 50
270.0
  0
INSERT
  5
130BCE
  8
DIM
  2
_OPEN30
 10
2218.479620594459
 20
-3247.9999999999959
 30
0.0
 41
20.0
 42
20.0
 43
20.0
 50
90.0
  0
INSERT
  5
130BCF
  8
OBJECT
  2
*U11
 10
0.0
 20
0.0
 30
0.0
  0
LINE
  5
130BD0
  8
DIM
 10
2150.0
 20
-3699.9999999999968
 30
0.0
 11
2226.8409284037339
 21
-3699.9999999999968
 31
0.0
  0
LINE
  5
130BD1
  8
DIM
 10
2165.0
 20
-3655.9999999999968
 30
0.0
 11
2226.8409284037339
 21
-3655.9999999999968
 31
0.0
  0
LINE
  5
130BD2
  8
DIM
 10
2216.840928403733
 20
-3719.9999999999968
 30
0.0
 11
2216.840928403733
 21
-3739.9999999999968
 31
0.0
  0
LINE
  5
130BD3
  8
DIM
 10
2216.840928403733
 20
-3635.9999999999968
 30
0.0
 11
2216.840928403733
 21
-3615.9999999999968
 31
0.0
  0
LINE
  5
130BD4
  8
DIM
 10
2216.840928403733
 20
-3699.9999999999968
 30
0.0
 11
2216.840928403733
 21
-3655.9999999999968
 31
0.0
  0
INSERT
  5
130BD5
  8
DIM
  2
_OPEN30
 10
2216.840928403733
 20
-3699.9999999999968
 30
0.0
 41
20.0
 42
20.0
 43
20.0
 50
90.0
  0
INSERT
  5
130BD6
  8
DIM
  2
_OPEN30
 10
2216.840928403733
 20
-3655.9999999999968
 30
0.0
 41
20.0
 42
20.0
 43
20.0
 50
270.0
  0
INSERT
  5
130BD7
  8
OBJECT
  2
*U12
 10
0.0
 20
0.0
 30
0.0
  0
LINE
  5
130BD8
  8
DIM
 10
2000.0
 20
-3189.9999999999959
 30
0.0
 11
2000.0
 21
-3157.2081219844449
 31
0.0
  0
LINE
  5
130BD9
  8
DIM
 10
2140.0
 20
-3237.9999999999959
 30
0.0
 11
2140.0
 21
-3157.2081219844449
 31
0.0
  0
LINE
  5
130BDA
  8
DIM
 10
2020.0
 20
-3167.208121984444
 30
0.0
 11
2120.0
 21
-3167.208121984444
 31
0.0
  0
INSERT
  5
130BDB
  8
DIM
  2
_OPEN30
 10
2000.0
 20
-3167.208121984444
 30
0.0
 41
20.0
 42
20.0
 43
20.0
 50
180.0
  0
INSERT
  5
130BDC
  8
DIM
  2
_OPEN30
 10
2140.0
 20
-3167.208121984444
 30
0.0
 41
20.0
 42
20.0
 43
20.0
  0
INSERT
  5
130BDD
  8
OBJECT
  2
*U13
 10
0.0
 20
0.0
 30
0.0
  0
TEXT
  5
130BDE
  8
SLIM
 10
2631.0
 20
-3072.50001604727
 30
0.0
 40
40.0
  1
C寸法
 41
0.75
  0
TEXT
  5
130BDF
  8
SLIM
 10
2631.0
 20
-3002.50001604727
 30
0.0
 40
40.0
  1
B寸法
 41
0.75
  0
TEXT
  5
130BE0
  8
SLIM
 10
2630.2857142857142
 20
-2932.50001604727
 30
0.0
 40
40.0
  1
A寸法
 41
0.75
  0
TEXT
  5
130BE1
  8
SLIM
 10
3159.2857142857151
 20
-3072.50001604727
 30
0.0
 40
40.0
  1
150
 41
0.75
  0
TEXT
  5
130BE2
  8
SLIM
 10
3029.2857142857151
 20
-3072.50001604727
 30
0.0
 40
40.0
  1
140
 41
0.75
  0
TEXT
  5
130BE3
  8
SLIM
 10
2769.2857142857151
 20
-3072.50001604727
 30
0.0
 40
40.0
  1
140
 41
0.75
  0
TEXT
  5
130BE4
  8
SLIM
 10
2899.2857142857151
 20
-3072.50001604727
 30
0.0
 40
40.0
  1
140
 41
0.75
  0
TEXT
  5
130BE5
  8
SLIM
 10
3170.7142857142858
 20
-3002.50001604727
 30
0.0
 40
40.0
  1
72
 41
0.75
  0
TEXT
  5
130BE6
  8
SLIM
 10
3041.4285714285711
 20
-3002.50001604727
 30
0.0
 40
40.0
  1
59
 41
0.75
  0
TEXT
  5
130BE7
  8
SLIM
 10
2780.0
 20
-3002.50001604727
 30
0.0
 40
40.0
  1
44
 41
0.75
  0
TEXT
  5
130BE8
  8
SLIM
 10
2910.7142857142858
 20
-3002.50001604727
 30
0.0
 40
40.0
  1
52
 41
0.75
  0
TEXT
  5
130BE9
  8
SLIM
 10
2891.0
 20
-2807.50001604727
 30
0.0
 40
40.0
  1
横枝管サイズ
 41
0.75
  0
TEXT
  5
130BEA
  8
SLIM
 10
3136.2857142857151
 20
-2862.50001604727
 30
0.0
 40
30.0
  1
100（4）
 41
0.75
  0
TEXT
  5
130BEB
  8
SLIM
 10
3014.857142857144
 20
-2862.50001604727
 30
0.0
 40
30.0
  1
75（3）
 41
0.75
  0
TEXT
  5
130BEC
  8
SLIM
 10
2884.8571428571431
 20
-2862.50001604727
 30
0.0
 40
30.0
  1
65（2）
 41
0.75
  0
TEXT
  5
130BED
  8
SLIM
 10
2757.0
 20
-2862.50001604727
 30
0.0
 40
30.0
  1
50（1）
 41
0.75
  0
TEXT
  5
130BEE
  8
SLIM
 10
3159.2857142857151
 20
-2932.50001604727
 30
0.0
 40
40.0
  1
150
 41
0.75
  0
TEXT
  5
130BEF
  8
SLIM
 10
3028.571428571428
 20
-2932.50001604727
 30
0.0
 40
40.0
  1
124
 41
0.75
  0
TEXT
  5
130BF0
  8
SLIM
 10
2780.0
 20
-2932.50001604727
 30
0.0
 40
40.0
  1
94
 41
0.75
  0
TEXT
  5
130BF1
  8
SLIM
 10
2902.1428571428569
 20
-2932.50001604727
 30
0.0
 40
40.0
  1
110
 41
0.75
  0
TEXT
  5
130BF2
  8
SLIM
 10
1849.9999999999991
 20
-2832.5
 30
0.0
 40
75.0
  1
枝管サイズ毎の形状
 41
0.75
  0
LINE
  5
130BF3
  8
OBJECT
 10
5150.0
 20
-3552.9999999999968
 30
0.0
 11
5143.0
 21
-3552.9999999999968
 31
0.0
1001
ACDBBLOCKREPETAG
1070
     1
1071
       64
1005
130BF3
  0
LINE
  5
130BF4
  8
OBJECT
 10
5143.0
 20
-3552.9999999999968
 30
0.0
 11
5143.0
 21
-3699.9999999999968
 31
0.0
1001
ACDBBLOCKREPETAG
1070
     1
1071
       65
1005
130BF4
  0
LINE
  5
130BF5
  8
OBJECT
 10
5101.5
 20
-3555.9999999999968
 30
0.0
 11
5101.5
 21
-3699.9999999999968
 31
0.0
1001
ACDBBLOCKREPETAG
1070
     1
1071
       66
1005
130BF5
  0
LINE
  5
130BF6
  8
OBJECT
 10
5090.0
 20
-3562.4999999999968
 30
0.0
 11
5090.0
 21
-3693.4999999999968
 31
0.0
1001
ACDBBLOCKREPETAG
1070
     1
1071
       67
1005
130BF6
  0
LINE
  5
130BF7
  8
OBJECT
 10
5086.0
 20
-3634.5000000000041
 30
0.0
 11
5086.0
 21
-3699.9999999999968
 31
0.0
1001
ACDBBLOCKREPETAG
1070
     1
1071
       68
1005
130BF7
  0
LINE
  5
130BF8
  8
OBJECT
 10
5150.0
 20
-3699.9999999999968
 30
0.0
 11
5150.0
 21
-3552.9999999999968
 31
0.0
1001
ACDBBLOCKREPETAG
1070
     1
1071
       69
1005
130BF8
  0
LINE
  5
130BF9
  8
CENTER
 10
5165.0
 20
-3627.9999999999968
 30
0.0
 11
5070.4144144144157
 21
-3627.9999999999968
 31
0.0
1001
ACDBBLOCKREPETAG
1070
     1
1071
       70
1005
130BF9
  0
LINE
  5
130BFA
  8
OBJECT
 10
5083.0000000000045
 20
-3702.9999999999968
 30
0.0
 11
5080.0
 21
-3702.9999999999968
 31
0.0
1001
ACDBBLOCKREPETAG
1070
     1
1071
       71
1005
130BFA
  0
ARC
  5
130BFB
  8
OBJECT
 10
5091.8815171830656
 20
-3701.4555591801432
 30
0.0
 40
6.0
 50
60.52411099686767
 51
170.6927439126847
1001
ACDBBLOCKREPETAG
1070
     1
1071
       72
1005
130BFB
  0
ARC
  5
130BFC
  8
OBJECT
 10
5083.0
 20
-3699.9999999999968
 30
0.0
 40
3.0
 50
270.0
 51
350.69274391268482
1001
ACDBBLOCKREPETAG
1070
     1
1071
       73
1005
130BFC
  0
LINE
  5
130BFD
  8
OBJECT
 10
5081.0
 20
-3578.9999999999968
 30
0.0
 11
5080.0
 21
-3578.9999999999968
 31
0.0
1001
ACDBBLOCKREPETAG
1070
     1
1071
       74
1005
130BFD
  0
LINE
  5
130BFE
  8
OBJECT
 10
5150.0
 20
-3699.9999999999968
 30
0.0
 11
5101.5
 21
-3699.9999999999968
 31
0.0
1001
ACDBBLOCKREPETAG
1070
     1
1071
       75
1005
130BFE
  0
LINE
  5
130BFF
  8
OBJECT
 10
5101.5
 20
-3555.9999999999968
 30
0.0
 11
5090.0
 21
-3562.4999999999968
 31
0.0
1001
ACDBBLOCKREPETAG
1070
     1
1071
       76
1005
130BFF
  0
LINE
  5
130C00
  8
OBJECT
 10
5143.0
 20
-3555.9999999999968
 30
0.0
 11
5101.5
 21
-3555.9999999999968
 31
0.0
1001
ACDBBLOCKREPETAG
1070
     1
1071
       77
1005
130C00
  0
LINE
  5
130C01
  8
OBJECT
 10
5086.0
 20
-3634.5000000000041
 30
0.0
 11
5081.0
 21
-3578.9999999999968
 31
0.0
1001
ACDBBLOCKREPETAG
1070
     1
1071
       78
1005
130C01
  0
LINE
  5
130C02
  8
OBJECT
 10
5090.0
 20
-3562.4999999999968
 30
0.0
 11
5081.0
 21
-3578.9999999999968
 31
0.0
1001
ACDBBLOCKREPETAG
1070
     1
1071
       79
1005
130C02
  0
LINE
  5
130C03
  8
OBJECT
 10
5101.5
 20
-3699.9999999999968
 30
0.0
 11
5094.8338607230708
 21
-3696.232182147819
 31
0.0
1001
ACDBBLOCKREPETAG
1070
     1
1071
       80
1005
130C03
  0
LINE
  5
130C04
  8
HIDDEN
 10
5098.0
 20
-3684.9999999999968
 30
0.0
 11
5098.0
 21
-3570.9999999999968
 31
0.0
1001
ACDBBLOCKREPETAG
1070
     1
1071
       81
1005
130C04
  0
LINE
  5
130C05
  8
OBJECT
 10
5150.0
 20
-3219.9999999999959
 30
0.0
 11
5143.0
 21
-3219.9999999999959
 31
0.0
1001
ACDBBLOCKREPETAG
1070
     1
1071
       67
1005
130C05
  0
LINE
  5
130C06
  8
OBJECT
 10
5143.0
 20
-3219.9999999999959
 30
0.0
 11
5143.0
 21
-3369.9999999999959
 31
0.0
1001
ACDBBLOCKREPETAG
1070
     1
1071
       68
1005
130C06
  0
LINE
  5
130C07
  8
OBJECT
 10
5101.5
 20
-3222.9999999999959
 30
0.0
 11
5101.5
 21
-3366.9999999999959
 31
0.0
1001
ACDBBLOCKREPETAG
1070
     1
1071
       69
1005
130C07
  0
LINE
  5
130C08
  8
OBJECT
 10
5090.0
 20
-3229.4999999999959
 30
0.0
 11
5090.0
 21
-3360.4999999999959
 31
0.0
1001
ACDBBLOCKREPETAG
1070
     1
1071
       70
1005
130C08
  0
LINE
  5
130C09
  8
OBJECT
 10
5143.0
 20
-3369.9999999999959
 30
0.0
 11
5150.0
 21
-3369.9999999999959
 31
0.0
1001
ACDBBLOCKREPETAG
1070
     1
1071
       71
1005
130C09
  0
LINE
  5
130C0A
  8
OBJECT
 10
5150.0
 20
-3369.9999999999959
 30
0.0
 11
5150.0
 21
-3219.9999999999959
 31
0.0
1001
ACDBBLOCKREPETAG
1070
     1
1071
       72
1005
130C0A
  0
LINE
  5
130C0B
  8
HIDDEN
 10
5098.0
 20
-3351.9999999999959
 30
0.0
 11
5098.0
 21
-3237.9999999999959
 31
0.0
1001
ACDBBLOCKREPETAG
1070
     1
1071
       73
1005
130C0B
  0
LINE
  5
130C0C
  8
CENTER
 10
5165.0
 20
-3294.9999999999959
 30
0.0
 11
5080.0
 21
-3294.9999999999959
 31
0.0
1001
ACDBBLOCKREPETAG
1070
     1
1071
       74
1005
130C0C
  0
LINE
  5
130C0D
  8
OBJECT
 10
5086.0
 20
-3356.9999999999959
 30
0.0
 11
5080.0
 21
-3356.9999999999959
 31
0.0
1001
ACDBBLOCKREPETAG
1070
     1
1071
       75
1005
130C0D
  0
LINE
  5
130C0E
  8
OBJECT
 10
5143.0
 20
-3366.9999999999959
 30
0.0
 11
5101.5
 21
-3366.9999999999959
 31
0.0
1001
ACDBBLOCKREPETAG
1070
     1
1071
       76
1005
130C0E
  0
LINE
  5
130C0F
  8
OBJECT
 10
5101.5
 20
-3366.9999999999959
 30
0.0
 11
5090.0
 21
-3360.4999999999959
 31
0.0
1001
ACDBBLOCKREPETAG
1070
     1
1071
       77
1005
130C0F
  0
LINE
  5
130C10
  8
OBJECT
 10
5090.0
 20
-3360.4999999999959
 30
0.0
 11
5086.0
 21
-3356.9999999999959
 31
0.0
1001
ACDBBLOCKREPETAG
1070
     1
1071
       78
1005
130C10
  0
LINE
  5
130C11
  8
OBJECT
 10
5101.5
 20
-3222.9999999999959
 30
0.0
 11
5090.0
 21
-3229.4999999999959
 31
0.0
1001
ACDBBLOCKREPETAG
1070
     1
1071
       79
1005
130C11
  0
LINE
  5
130C12
  8
OBJECT
 10
5090.0
 20
-3229.4999999999959
 30
0.0
 11
5086.0
 21
-3232.9999999999959
 31
0.0
1001
ACDBBLOCKREPETAG
1070
     1
1071
       80
1005
130C12
  0
ARC
  5
130C13
  8
OBJECT
 10
5467.9000000000005
 20
-3294.9999999999959
 30
0.0
 40
386.89999999999998
 50
170.77870136260421
 51
189.22129863739571
1001
ACDBBLOCKREPETAG
1070
     1
1071
       81
1005
130C13
  0
LINE
  5
130C14
  8
OBJECT
 10
5086.0
 20
-3232.9999999999959
 30
0.0
 11
5080.0
 21
-3232.9999999999959
 31
0.0
1001
ACDBBLOCKREPETAG
1070
     1
1071
       82
1005
130C14
  0
LINE
  5
130C15
  8
OBJECT
 10
5143.0
 20
-3222.9999999999959
 30
0.0
 11
5101.5
 21
-3222.9999999999959
 31
0.0
1001
ACDBBLOCKREPETAG
1070
     1
1071
       83
1005
130C15
  0
TEXT
  5
130C16
  8
SLIM
 10
4884.25
 20
-3817.4999999999959
 30
0.0
 40
35.0
  1
通常枝100（4）
 41
0.75
  0
LINE
  5
130C17
  8
CENTER
 10
4477.0
 20
-3640.9999999999968
 30
0.0
 11
4323.0
 21
-3640.9999999999968
 31
0.0
1001
ACDBBLOCKREPETAG
1070
     1
1071
       17
1005
130C17
  0
CIRCLE
  5
130C18
  8
OBJECT
 10
4400.0
 20
-3640.9999999999968
 30
0.0
 40
41.5
1001
ACDBBLOCKREPETAG
1070
     1
1071
       19
1005
130C18
  0
CIRCLE
  5
130C19
  8
OBJECT
 10
4400.0
 20
-3640.9999999999968
 30
0.0
 40
54.0
1001
ACDBBLOCKREPETAG
1070
     1
1071
       20
1005
130C19
  0
ARC
  5
130C1A
  8
OBJECT
 10
4400.0
 20
-3640.9999999999968
 30
0.0
 40
62.0
 50
287.89655112921122
 51
252.1034488707887
1001
ACDBBLOCKREPETAG
1070
     1
1071
       21
1005
130C1A
  0
LINE
  5
130C1B
  8
OBJECT
 10
4380.947441116743
 20
-3699.9999999999968
 30
0.0
 11
4419.052558883257
 21
-3699.9999999999968
 31
0.0
1001
ACDBBLOCKREPETAG
1070
     1
1071
       22
1005
130C1B
  0
LINE
  5
130C1C
  8
OBJECT
 10
4133.0
 20
-3578.9999999999968
 30
0.0
 11
4140.0
 21
-3578.9999999999968
 31
0.0
1001
ACDBBLOCKREPETAG
1070
     1
1071
       45
1005
130C1C
  0
LINE
  5
130C1D
  8
OBJECT
 10
4140.0
 20
-3578.9999999999968
 30
0.0
 11
4140.0
 21
-3699.9999999999968
 31
0.0
1001
ACDBBLOCKREPETAG
1070
     1
1071
       46
1005
130C1D
  0
LINE
  5
130C1E
  8
OBJECT
 10
4133.0
 20
-3699.9999999999968
 30
0.0
 11
4133.0
 21
-3578.9999999999968
 31
0.0
1001
ACDBBLOCKREPETAG
1070
     1
1071
       47
1005
130C1E
  0
LINE
  5
130C1F
  8
CENTER
 10
4155.0
 20
-3640.9999999999968
 30
0.0
 11
4071.0
 21
-3640.9999999999968
 31
0.0
1001
ACDBBLOCKREPETAG
1070
     1
1071
       48
1005
130C1F
  0
LINE
  5
130C20
  8
OBJECT
 10
4133.0
 20
-3581.9999999999968
 30
0.0
 11
4097.0
 21
-3581.9999999999968
 31
0.0
1001
ACDBBLOCKREPETAG
1070
     1
1071
       49
1005
130C20
  0
LINE
  5
130C21
  8
OBJECT
 10
4097.0
 20
-3581.9999999999968
 30
0.0
 11
4097.0
 21
-3699.9999999999968
 31
0.0
1001
ACDBBLOCKREPETAG
1070
     1
1071
       50
1005
130C21
  0
LINE
  5
130C22
  8
OBJECT
 10
4097.0
 20
-3699.9999999999968
 30
0.0
 11
4140.0
 21
-3699.9999999999968
 31
0.0
1001
ACDBBLOCKREPETAG
1070
     1
1071
       51
1005
130C22
  0
LINE
  5
130C23
  8
OBJECT
 10
4093.0
 20
-3586.4999999999968
 30
0.0
 11
4086.0
 21
-3586.4999999999968
 31
0.0
1001
ACDBBLOCKREPETAG
1070
     1
1071
       52
1005
130C23
  0
LINE
  5
130C24
  8
OBJECT
 10
4086.0
 20
-3695.4999999999968
 30
0.0
 11
4093.0
 21
-3695.4999999999968
 31
0.0
1001
ACDBBLOCKREPETAG
1070
     1
1071
       53
1005
130C24
  0
LINE
  5
130C25
  8
OBJECT
 10
4093.0
 20
-3695.4999999999968
 30
0.0
 11
4093.0
 21
-3586.4999999999968
 31
0.0
1001
ACDBBLOCKREPETAG
1070
     1
1071
       54
1005
130C25
  0
LINE
  5
130C26
  8
OBJECT
 10
4097.0
 20
-3581.9999999999968
 30
0.0
 11
4093.0
 21
-3586.4999999999968
 31
0.0
1001
ACDBBLOCKREPETAG
1070
     1
1071
       55
1005
130C26
  0
LINE
  5
130C27
  8
OBJECT
 10
4097.0
 20
-3699.9999999999968
 30
0.0
 11
4093.0
 21
-3695.4999999999968
 31
0.0
1001
ACDBBLOCKREPETAG
1070
     1
1071
       56
1005
130C27
  0
LINE
  5
130C28
  8
OBJECT
 10
4083.0
 20
-3578.9999999999968
 30
0.0
 11
4080.0
 21
-3578.9999999999968
 31
0.0
1001
ACDBBLOCKREPETAG
1070
     1
1071
       57
1005
130C28
  0
ARC
  5
130C29
  8
OBJECT
 10
4083.0
 20
-3581.9999999999968
 30
0.0
 40
3.0
 50
0.0
 51
90.0
1001
ACDBBLOCKREPETAG
1070
     1
1071
       58
1005
130C29
  0
LINE
  5
130C2A
  8
OBJECT
 10
4080.0
 20
-3702.9999999999968
 30
0.0
 11
4083.0
 21
-3702.9999999999968
 31
0.0
1001
ACDBBLOCKREPETAG
1070
     1
1071
       59
1005
130C2A
  0
ARC
  5
130C2B
  8
OBJECT
 10
4083.0
 20
-3699.9999999999968
 30
0.0
 40
3.0
 50
270.0
 51
0.0
1001
ACDBBLOCKREPETAG
1070
     1
1071
       60
1005
130C2B
  0
LINE
  5
130C2C
  8
OBJECT
 10
4086.0
 20
-3699.9999999999968
 30
0.0
 11
4086.0
 21
-3581.9999999999968
 31
0.0
1001
ACDBBLOCKREPETAG
1070
     1
1071
       61
1005
130C2C
  0
LINE
  5
130C2D
  8
HIDDEN
 10
4088.0
 20
-3596.4999999999968
 30
0.0
 11
4088.0
 21
-3685.4999999999968
 31
0.0
1001
ACDBBLOCKREPETAG
1070
     1
1071
       63
1005
130C2D
  0
LINE
  5
130C2E
  8
OBJECT
 10
4133.0
 20
-3232.9999999999959
 30
0.0
 11
4140.0
 21
-3232.9999999999959
 31
0.0
1001
ACDBBLOCKREPETAG
1070
     1
1071
       47
1005
130C2E
  0
LINE
  5
130C2F
  8
OBJECT
 10
4140.0
 20
-3232.9999999999959
 30
0.0
 11
4140.0
 21
-3356.9999999999959
 31
0.0
1001
ACDBBLOCKREPETAG
1070
     1
1071
       48
1005
130C2F
  0
LINE
  5
130C30
  8
OBJECT
 10
4140.0
 20
-3356.9999999999959
 30
0.0
 11
4133.0
 21
-3356.9999999999959
 31
0.0
1001
ACDBBLOCKREPETAG
1070
     1
1071
       49
1005
130C30
  0
LINE
  5
130C31
  8
OBJECT
 10
4133.0
 20
-3356.9999999999959
 30
0.0
 11
4133.0
 21
-3232.9999999999959
 31
0.0
1001
ACDBBLOCKREPETAG
1070
     1
1071
       50
1005
130C31
  0
LINE
  5
130C32
  8
CENTER
 10
4155.0
 20
-3294.9999999999959
 30
0.0
 11
4080.0
 21
-3294.9999999999959
 31
0.0
1001
ACDBBLOCKREPETAG
1070
     1
1071
       51
1005
130C32
  0
LINE
  5
130C33
  8
OBJECT
 10
4133.0
 20
-3235.9999999999959
 30
0.0
 11
4097.0
 21
-3235.9999999999959
 31
0.0
1001
ACDBBLOCKREPETAG
1070
     1
1071
       52
1005
130C33
  0
LINE
  5
130C34
  8
OBJECT
 10
4097.0
 20
-3235.9999999999959
 30
0.0
 11
4097.0
 21
-3353.9999999999959
 31
0.0
1001
ACDBBLOCKREPETAG
1070
     1
1071
       53
1005
130C34
  0
LINE
  5
130C35
  8
OBJECT
 10
4097.0
 20
-3353.9999999999959
 30
0.0
 11
4133.0
 21
-3353.9999999999959
 31
0.0
1001
ACDBBLOCKREPETAG
1070
     1
1071
       54
1005
130C35
  0
LINE
  5
130C36
  8
OBJECT
 10
4093.0
 20
-3240.4999999999959
 30
0.0
 11
4086.0
 21
-3240.4999999999959
 31
0.0
1001
ACDBBLOCKREPETAG
1070
     1
1071
       55
1005
130C36
  0
LINE
  5
130C37
  8
OBJECT
 10
4086.0
 20
-3349.4999999999959
 30
0.0
 11
4093.0
 21
-3349.4999999999959
 31
0.0
1001
ACDBBLOCKREPETAG
1070
     1
1071
       56
1005
130C37
  0
LINE
  5
130C38
  8
OBJECT
 10
4093.0
 20
-3349.4999999999959
 30
0.0
 11
4093.0
 21
-3240.4999999999959
 31
0.0
1001
ACDBBLOCKREPETAG
1070
     1
1071
       57
1005
130C38
  0
LINE
  5
130C39
  8
OBJECT
 10
4097.0
 20
-3235.9999999999959
 30
0.0
 11
4093.0
 21
-3240.4999999999959
 31
0.0
1001
ACDBBLOCKREPETAG
1070
     1
1071
       58
1005
130C39
  0
LINE
  5
130C3A
  8
OBJECT
 10
4097.0
 20
-3353.9999999999959
 30
0.0
 11
4093.0
 21
-3349.4999999999959
 31
0.0
1001
ACDBBLOCKREPETAG
1070
     1
1071
       59
1005
130C3A
  0
LINE
  5
130C3B
  8
OBJECT
 10
4083.0
 20
-3232.9999999999959
 30
0.0
 11
4080.0
 21
-3232.9999999999959
 31
0.0
1001
ACDBBLOCKREPETAG
1070
     1
1071
       60
1005
130C3B
  0
ARC
  5
130C3C
  8
OBJECT
 10
4083.0
 20
-3235.9999999999959
 30
0.0
 40
3.0
 50
0.0
 51
90.0
1001
ACDBBLOCKREPETAG
1070
     1
1071
       61
1005
130C3C
  0
LINE
  5
130C3D
  8
OBJECT
 10
4080.0
 20
-3356.9999999999959
 30
0.0
 11
4083.0
 21
-3356.9999999999959
 31
0.0
1001
ACDBBLOCKREPETAG
1070
     1
1071
       62
1005
130C3D
  0
ARC
  5
130C3E
  8
OBJECT
 10
4083.0
 20
-3353.9999999999959
 30
0.0
 40
3.0
 50
270.0
 51
0.0
1001
ACDBBLOCKREPETAG
1070
     1
1071
       63
1005
130C3E
  0
LINE
  5
130C3F
  8
OBJECT
 10
4086.0
 20
-3353.9999999999959
 30
0.0
 11
4086.0
 21
-3235.9999999999959
 31
0.0
1001
ACDBBLOCKREPETAG
1070
     1
1071
       64
1005
130C3F
  0
LINE
  5
130C40
  8
HIDDEN
 10
4088.0
 20
-3250.4999999999959
 30
0.0
 11
4088.0
 21
-3339.4999999999959
 31
0.0
1001
ACDBBLOCKREPETAG
1070
     1
1071
       65
1005
130C40
  0
TEXT
  5
130C41
  8
SLIM
 10
3894.25
 20
-3817.4999999999959
 30
0.0
 40
35.0
  1
通常枝75（3）
 41
0.75
  0
CIRCLE
  5
130C42
  8
OBJECT
 10
3400.0
 20
-3647.9999999999968
 30
0.0
 40
35.5
1001
ACDBBLOCKREPETAG
1070
     1
1071
       10
1005
130C42
  0
CIRCLE
  5
130C43
  8
OBJECT
 10
3400.0
 20
-3640.9999999999968
 30
0.0
 40
62.0
1001
ACDBBLOCKREPETAG
1070
     1
1071
       11
1005
130C43
  0
LINE
  5
130C44
  8
CENTER
 10
3330.0
 20
-3647.9999999999968
 30
0.0
 11
3470.0
 21
-3647.9999999999968
 31
0.0
1001
ACDBBLOCKREPETAG
1070
     1
1071
       12
1005
130C44
  0
CIRCLE
  5
130C45
  8
OBJECT
 10
3400.0
 20
-3647.9999999999968
 30
0.0
 40
47.0
1001
ACDBBLOCKREPETAG
1070
     1
1071
       14
1005
130C45
  0
ARC
  5
130C46
  8
OBJECT
 10
3400.0
 20
-3647.9999999999968
 30
0.0
 40
55.0
 50
289.01126526011359
 51
250.98873473988641
1001
ACDBBLOCKREPETAG
1070
     1
1071
       15
1005
130C46
  0
LINE
  5
130C47
  8
OBJECT
 10
3382.0835271328328
 20
-3699.9999999999968
 30
0.0
 11
3417.9164728671681
 21
-3699.9999999999968
 31
0.0
1001
ACDBBLOCKREPETAG
1070
     1
1071
       16
1005
130C47
  0
LINE
  5
130C48
  8
OBJECT
 10
3133.0
 20
-3592.9999999999968
 30
0.0
 11
3140.0
 21
-3592.9999999999968
 31
0.0
1001
ACDBBLOCKREPETAG
1070
     1
1071
       26
1005
130C48
  0
LINE
  5
130C49
  8
OBJECT
 10
3140.0
 20
-3592.9999999999968
 30
0.0
 11
3140.0
 21
-3699.9999999999968
 31
0.0
1001
ACDBBLOCKREPETAG
1070
     1
1071
       27
1005
130C49
  0
LINE
  5
130C4A
  8
OBJECT
 10
3133.0
 20
-3699.9999999999968
 30
0.0
 11
3133.0
 21
-3592.9999999999968
 31
0.0
1001
ACDBBLOCKREPETAG
1070
     1
1071
       28
1005
130C4A
  0
LINE
  5
130C4B
  8
CENTER
 10
3155.0
 20
-3647.9999999999968
 30
0.0
 11
3071.0
 21
-3647.9999999999968
 31
0.0
1001
ACDBBLOCKREPETAG
1070
     1
1071
       29
1005
130C4B
  0
LINE
  5
130C4C
  8
OBJECT
 10
3133.0
 20
-3595.9999999999968
 30
0.0
 11
3097.0
 21
-3595.9999999999968
 31
0.0
1001
ACDBBLOCKREPETAG
1070
     1
1071
       30
1005
130C4C
  0
LINE
  5
130C4D
  8
OBJECT
 10
3097.0
 20
-3595.9999999999968
 30
0.0
 11
3097.0
 21
-3699.9999999999968
 31
0.0
1001
ACDBBLOCKREPETAG
1070
     1
1071
       31
1005
130C4D
  0
LINE
  5
130C4E
  8
OBJECT
 10
3097.0
 20
-3699.9999999999968
 30
0.0
 11
3140.0
 21
-3699.9999999999968
 31
0.0
1001
ACDBBLOCKREPETAG
1070
     1
1071
       32
1005
130C4E
  0
LINE
  5
130C4F
  8
OBJECT
 10
3093.0
 20
-3600.4999999999968
 30
0.0
 11
3086.0
 21
-3600.4999999999968
 31
0.0
1001
ACDBBLOCKREPETAG
1070
     1
1071
       33
1005
130C4F
  0
LINE
  5
130C50
  8
OBJECT
 10
3086.0
 20
-3695.4999999999968
 30
0.0
 11
3093.0
 21
-3695.4999999999968
 31
0.0
1001
ACDBBLOCKREPETAG
1070
     1
1071
       34
1005
130C50
  0
LINE
  5
130C51
  8
OBJECT
 10
3093.0
 20
-3695.4999999999968
 30
0.0
 11
3093.0
 21
-3600.4999999999968
 31
0.0
1001
ACDBBLOCKREPETAG
1070
     1
1071
       35
1005
130C51
  0
LINE
  5
130C52
  8
OBJECT
 10
3097.0
 20
-3595.9999999999968
 30
0.0
 11
3093.0
 21
-3600.4999999999968
 31
0.0
1001
ACDBBLOCKREPETAG
1070
     1
1071
       36
1005
130C52
  0
LINE
  5
130C53
  8
OBJECT
 10
3097.0
 20
-3699.9999999999968
 30
0.0
 11
3093.0
 21
-3695.4999999999968
 31
0.0
1001
ACDBBLOCKREPETAG
1070
     1
1071
       37
1005
130C53
  0
LINE
  5
130C54
  8
OBJECT
 10
3083.0
 20
-3578.9999999999968
 30
0.0
 11
3080.0
 21
-3578.9999999999968
 31
0.0
1001
ACDBBLOCKREPETAG
1070
     1
1071
       38
1005
130C54
  0
ARC
  5
130C55
  8
OBJECT
 10
3083.0
 20
-3581.9999999999968
 30
0.0
 40
3.0
 50
0.0
 51
90.0
1001
ACDBBLOCKREPETAG
1070
     1
1071
       39
1005
130C55
  0
LINE
  5
130C56
  8
OBJECT
 10
3080.0
 20
-3702.9999999999968
 30
0.0
 11
3083.0
 21
-3702.9999999999968
 31
0.0
1001
ACDBBLOCKREPETAG
1070
     1
1071
       40
1005
130C56
  0
ARC
  5
130C57
  8
OBJECT
 10
3083.0
 20
-3699.9999999999968
 30
0.0
 40
3.0
 50
270.0
 51
0.0
1001
ACDBBLOCKREPETAG
1070
     1
1071
       41
1005
130C57
  0
LINE
  5
130C58
  8
OBJECT
 10
3086.0
 20
-3699.9999999999968
 30
0.0
 11
3086.0
 21
-3581.9999999999968
 31
0.0
1001
ACDBBLOCKREPETAG
1070
     1
1071
       42
1005
130C58
  0
LINE
  5
130C59
  8
HIDDEN
 10
3088.0
 20
-3609.9999999999968
 30
0.0
 11
3088.0
 21
-3685.9999999999968
 31
0.0
1001
ACDBBLOCKREPETAG
1070
     1
1071
       43
1005
130C59
  0
LINE
  5
130C5A
  8
OBJECT
 10
3133.0
 20
-3239.9999999999968
 30
0.0
 11
3140.0
 21
-3239.9999999999968
 31
0.0
1001
ACDBBLOCKREPETAG
1070
     1
1071
       27
1005
130C5A
  0
LINE
  5
130C5B
  8
OBJECT
 10
3140.0
 20
-3239.9999999999968
 30
0.0
 11
3140.0
 21
-3349.9999999999959
 31
0.0
1001
ACDBBLOCKREPETAG
1070
     1
1071
       28
1005
130C5B
  0
LINE
  5
130C5C
  8
OBJECT
 10
3140.0
 20
-3349.9999999999959
 30
0.0
 11
3133.0
 21
-3349.9999999999959
 31
0.0
1001
ACDBBLOCKREPETAG
1070
     1
1071
       29
1005
130C5C
  0
LINE
  5
130C5D
  8
OBJECT
 10
3133.0
 20
-3349.9999999999959
 30
0.0
 11
3133.0
 21
-3239.9999999999968
 31
0.0
1001
ACDBBLOCKREPETAG
1070
     1
1071
       30
1005
130C5D
  0
LINE
  5
130C5E
  8
CENTER
 10
3155.0
 20
-3294.9999999999959
 30
0.0
 11
3080.0
 21
-3294.9999999999959
 31
0.0
1001
ACDBBLOCKREPETAG
1070
     1
1071
       31
1005
130C5E
  0
LINE
  5
130C5F
  8
OBJECT
 10
3133.0
 20
-3242.9999999999959
 30
0.0
 11
3097.0
 21
-3242.9999999999959
 31
0.0
1001
ACDBBLOCKREPETAG
1070
     1
1071
       32
1005
130C5F
  0
LINE
  5
130C60
  8
OBJECT
 10
3097.0
 20
-3242.9999999999959
 30
0.0
 11
3097.0
 21
-3346.9999999999959
 31
0.0
1001
ACDBBLOCKREPETAG
1070
     1
1071
       33
1005
130C60
  0
LINE
  5
130C61
  8
OBJECT
 10
3097.0
 20
-3346.9999999999959
 30
0.0
 11
3133.0
 21
-3346.9999999999959
 31
0.0
1001
ACDBBLOCKREPETAG
1070
     1
1071
       34
1005
130C61
  0
LINE
  5
130C62
  8
OBJECT
 10
3093.0
 20
-3247.4999999999959
 30
0.0
 11
3086.0
 21
-3247.4999999999959
 31
0.0
1001
ACDBBLOCKREPETAG
1070
     1
1071
       35
1005
130C62
  0
LINE
  5
130C63
  8
OBJECT
 10
3086.0
 20
-3342.4999999999959
 30
0.0
 11
3093.0
 21
-3342.4999999999959
 31
0.0
1001
ACDBBLOCKREPETAG
1070
     1
1071
       36
1005
130C63
  0
LINE
  5
130C64
  8
OBJECT
 10
3093.0
 20
-3342.4999999999959
 30
0.0
 11
3093.0
 21
-3247.4999999999959
 31
0.0
1001
ACDBBLOCKREPETAG
1070
     1
1071
       37
1005
130C64
  0
LINE
  5
130C65
  8
OBJECT
 10
3097.0
 20
-3242.9999999999959
 30
0.0
 11
3093.0
 21
-3247.4999999999959
 31
0.0
1001
ACDBBLOCKREPETAG
1070
     1
1071
       38
1005
130C65
  0
LINE
  5
130C66
  8
OBJECT
 10
3097.0
 20
-3346.9999999999959
 30
0.0
 11
3093.0
 21
-3342.4999999999959
 31
0.0
1001
ACDBBLOCKREPETAG
1070
     1
1071
       39
1005
130C66
  0
LINE
  5
130C67
  8
OBJECT
 10
3083.0
 20
-3232.9999999999959
 30
0.0
 11
3080.0
 21
-3232.9999999999959
 31
0.0
1001
ACDBBLOCKREPETAG
1070
     1
1071
       40
1005
130C67
  0
ARC
  5
130C68
  8
OBJECT
 10
3083.0
 20
-3235.9999999999959
 30
0.0
 40
3.0
 50
0.0
 51
90.0
1001
ACDBBLOCKREPETAG
1070
     1
1071
       41
1005
130C68
  0
LINE
  5
130C69
  8
OBJECT
 10
3080.0
 20
-3356.9999999999959
 30
0.0
 11
3083.0
 21
-3356.9999999999959
 31
0.0
1001
ACDBBLOCKREPETAG
1070
     1
1071
       42
1005
130C69
  0
ARC
  5
130C6A
  8
OBJECT
 10
3083.0
 20
-3353.9999999999959
 30
0.0
 40
3.0
 50
270.0
 51
0.0
1001
ACDBBLOCKREPETAG
1070
     1
1071
       43
1005
130C6A
  0
LINE
  5
130C6B
  8
OBJECT
 10
3086.0
 20
-3353.9999999999959
 30
0.0
 11
3086.0
 21
-3235.9999999999959
 31
0.0
1001
ACDBBLOCKREPETAG
1070
     1
1071
       44
1005
130C6B
  0
LINE
  5
130C6C
  8
HIDDEN
 10
3088.0
 20
-3256.9999999999959
 30
0.0
 11
3088.0
 21
-3332.9999999999968
 31
0.0
1001
ACDBBLOCKREPETAG
1070
     1
1071
       45
1005
130C6C
  0
TEXT
  5
130C6D
  8
SLIM
 10
2894.25
 20
-3817.4999999999959
 30
0.0
 40
35.0
  1
通常枝65（2）
 41
0.75
  0
CIRCLE
  5
130C6E
  8
OBJECT
 10
2400.0
 20
-3640.9999999999968
 30
0.0
 40
62.0
1001
ACDBBLOCKREPETAG
1070
     1
1071
        3
1005
130C6E
  0
LINE
  5
130C6F
  8
CENTER
 10
2338.0
 20
-3655.9999999999968
 30
0.0
 11
2462.0
 21
-3655.9999999999968
 31
0.0
1001
ACDBBLOCKREPETAG
1070
     1
1071
        4
1005
130C6F
  0
CIRCLE
  5
130C70
  8
OBJECT
 10
2400.0
 20
-3655.9999999999968
 30
0.0
 40
28.0
1001
ACDBBLOCKREPETAG
1070
     1
1071
        6
1005
130C70
  0
CIRCLE
  5
130C71
  8
OBJECT
 10
2400.0
 20
-3655.9999999999968
 30
0.0
 40
39.0
1001
ACDBBLOCKREPETAG
1070
     1
1071
        7
1005
130C71
  0
ARC
  5
130C72
  8
OBJECT
 10
2400.0
 20
-3655.9999999999968
 30
0.0
 40
47.0
 50
290.58196921144412
 51
249.41803078855591
1001
ACDBBLOCKREPETAG
1070
     1
1071
        8
1005
130C72
  0
LINE
  5
130C73
  8
OBJECT
 10
2383.4772883581431
 20
-3699.9999999999968
 30
0.0
 11
2416.5227116418569
 21
-3699.9999999999968
 31
0.0
1001
ACDBBLOCKREPETAG
1070
     1
1071
        9
1005
130C73
  0
LINE
  5
130C74
  8
OBJECT
 10
2133.0
 20
-3608.9999999999968
 30
0.0
 11
2140.0
 21
-3608.9999999999968
 31
0.0
1001
ACDBBLOCKREPETAG
1070
     1
1071
        7
1005
130C74
  0
LINE
  5
130C75
  8
OBJECT
 10
2140.0
 20
-3608.9999999999968
 30
0.0
 11
2140.0
 21
-3699.9999999999968
 31
0.0
1001
ACDBBLOCKREPETAG
1070
     1
1071
        8
1005
130C75
  0
LINE
  5
130C76
  8
OBJECT
 10
2133.0
 20
-3699.9999999999968
 30
0.0
 11
2133.0
 21
-3608.9999999999968
 31
0.0
1001
ACDBBLOCKREPETAG
1070
     1
1071
        9
1005
130C76
  0
LINE
  5
130C77
  8
CENTER
 10
2155.0
 20
-3655.9999999999968
 30
0.0
 11
2071.0
 21
-3655.9999999999968
 31
0.0
1001
ACDBBLOCKREPETAG
1070
     1
1071
       10
1005
130C77
  0
LINE
  5
130C78
  8
OBJECT
 10
2133.0
 20
-3611.9999999999968
 30
0.0
 11
2097.0
 21
-3611.9999999999968
 31
0.0
1001
ACDBBLOCKREPETAG
1070
     1
1071
       11
1005
130C78
  0
LINE
  5
130C79
  8
OBJECT
 10
2097.0
 20
-3611.9999999999968
 30
0.0
 11
2097.0
 21
-3699.9999999999968
 31
0.0
1001
ACDBBLOCKREPETAG
1070
     1
1071
       12
1005
130C79
  0
LINE
  5
130C7A
  8
OBJECT
 10
2097.0
 20
-3699.9999999999968
 30
0.0
 11
2140.0
 21
-3699.9999999999968
 31
0.0
1001
ACDBBLOCKREPETAG
1070
     1
1071
       13
1005
130C7A
  0
LINE
  5
130C7B
  8
OBJECT
 10
2093.0
 20
-3616.4999999999968
 30
0.0
 11
2086.0
 21
-3616.4999999999968
 31
0.0
1001
ACDBBLOCKREPETAG
1070
     1
1071
       14
1005
130C7B
  0
LINE
  5
130C7C
  8
OBJECT
 10
2086.0
 20
-3695.4999999999968
 30
0.0
 11
2093.0
 21
-3695.4999999999968
 31
0.0
1001
ACDBBLOCKREPETAG
1070
     1
1071
       15
1005
130C7C
  0
LINE
  5
130C7D
  8
OBJECT
 10
2093.0
 20
-3695.4999999999968
 30
0.0
 11
2093.0
 21
-3616.4999999999968
 31
0.0
1001
ACDBBLOCKREPETAG
1070
     1
1071
       16
1005
130C7D
  0
LINE
  5
130C7E
  8
OBJECT
 10
2097.0
 20
-3611.9999999999968
 30
0.0
 11
2093.0
 21
-3616.4999999999968
 31
0.0
1001
ACDBBLOCKREPETAG
1070
     1
1071
       17
1005
130C7E
  0
LINE
  5
130C7F
  8
OBJECT
 10
2097.0
 20
-3699.9999999999968
 30
0.0
 11
2093.0
 21
-3695.4999999999968
 31
0.0
1001
ACDBBLOCKREPETAG
1070
     1
1071
       18
1005
130C7F
  0
LINE
  5
130C80
  8
OBJECT
 10
2083.0
 20
-3578.9999999999968
 30
0.0
 11
2080.0
 21
-3578.9999999999968
 31
0.0
1001
ACDBBLOCKREPETAG
1070
     1
1071
       19
1005
130C80
  0
ARC
  5
130C81
  8
OBJECT
 10
2083.0
 20
-3581.9999999999968
 30
0.0
 40
3.0
 50
0.0
 51
90.0
1001
ACDBBLOCKREPETAG
1070
     1
1071
       20
1005
130C81
  0
LINE
  5
130C82
  8
OBJECT
 10
2080.0
 20
-3702.9999999999968
 30
0.0
 11
2083.0
 21
-3702.9999999999968
 31
0.0
1001
ACDBBLOCKREPETAG
1070
     1
1071
       21
1005
130C82
  0
ARC
  5
130C83
  8
OBJECT
 10
2083.0
 20
-3699.9999999999968
 30
0.0
 40
3.0
 50
270.0
 51
0.0
1001
ACDBBLOCKREPETAG
1070
     1
1071
       22
1005
130C83
  0
LINE
  5
130C84
  8
OBJECT
 10
2086.0
 20
-3699.9999999999968
 30
0.0
 11
2086.0
 21
-3581.9999999999968
 31
0.0
1001
ACDBBLOCKREPETAG
1070
     1
1071
       23
1005
130C84
  0
LINE
  5
130C85
  8
HIDDEN
 10
2088.0
 20
-3625.9999999999968
 30
0.0
 11
2088.0
 21
-3685.9999999999968
 31
0.0
1001
ACDBBLOCKREPETAG
1070
     1
1071
       24
1005
130C85
  0
LINE
  5
130C86
  8
OBJECT
 10
2133.0
 20
-3247.9999999999959
 30
0.0
 11
2140.0
 21
-3247.9999999999959
 31
0.0
1001
ACDBBLOCKREPETAG
1070
     1
1071
        7
1005
130C86
  0
LINE
  5
130C87
  8
OBJECT
 10
2140.0
 20
-3247.9999999999959
 30
0.0
 11
2140.0
 21
-3341.9999999999959
 31
0.0
1001
ACDBBLOCKREPETAG
1070
     1
1071
        8
1005
130C87
  0
LINE
  5
130C88
  8
OBJECT
 10
2140.0
 20
-3341.9999999999959
 30
0.0
 11
2133.0
 21
-3341.9999999999959
 31
0.0
1001
ACDBBLOCKREPETAG
1070
     1
1071
        9
1005
130C88
  0
LINE
  5
130C89
  8
OBJECT
 10
2133.0
 20
-3341.9999999999959
 30
0.0
 11
2133.0
 21
-3247.9999999999959
 31
0.0
1001
ACDBBLOCKREPETAG
1070
     1
1071
       10
1005
130C89
  0
LINE
  5
130C8A
  8
CENTER
 10
2155.0
 20
-3294.9999999999959
 30
0.0
 11
2080.0
 21
-3294.9999999999959
 31
0.0
1001
ACDBBLOCKREPETAG
1070
     1
1071
       11
1005
130C8A
  0
LINE
  5
130C8B
  8
OBJECT
 10
2133.0
 20
-3250.9999999999959
 30
0.0
 11
2097.0
 21
-3250.9999999999959
 31
0.0
1001
ACDBBLOCKREPETAG
1070
     1
1071
       12
1005
130C8B
  0
LINE
  5
130C8C
  8
OBJECT
 10
2097.0
 20
-3250.9999999999959
 30
0.0
 11
2097.0
 21
-3338.9999999999959
 31
0.0
1001
ACDBBLOCKREPETAG
1070
     1
1071
       13
1005
130C8C
  0
LINE
  5
130C8D
  8
OBJECT
 10
2097.0
 20
-3338.9999999999959
 30
0.0
 11
2133.0
 21
-3338.9999999999959
 31
0.0
1001
ACDBBLOCKREPETAG
1070
     1
1071
       14
1005
130C8D
  0
LINE
  5
130C8E
  8
OBJECT
 10
2093.0
 20
-3255.4999999999959
 30
0.0
 11
2086.0
 21
-3255.4999999999959
 31
0.0
1001
ACDBBLOCKREPETAG
1070
     1
1071
       15
1005
130C8E
  0
LINE
  5
130C8F
  8
OBJECT
 10
2086.0
 20
-3334.4999999999959
 30
0.0
 11
2093.0
 21
-3334.4999999999959
 31
0.0
1001
ACDBBLOCKREPETAG
1070
     1
1071
       16
1005
130C8F
  0
LINE
  5
130C90
  8
OBJECT
 10
2093.0
 20
-3334.4999999999959
 30
0.0
 11
2093.0
 21
-3255.4999999999959
 31
0.0
1001
ACDBBLOCKREPETAG
1070
     1
1071
       17
1005
130C90
  0
LINE
  5
130C91
  8
OBJECT
 10
2097.0
 20
-3250.9999999999959
 30
0.0
 11
2093.0
 21
-3255.4999999999959
 31
0.0
1001
ACDBBLOCKREPETAG
1070
     1
1071
       18
1005
130C91
  0
LINE
  5
130C92
  8
OBJECT
 10
2097.0
 20
-3338.9999999999959
 30
0.0
 11
2093.0
 21
-3334.4999999999959
 31
0.0
1001
ACDBBLOCKREPETAG
1070
     1
1071
       19
1005
130C92
  0
LINE
  5
130C93
  8
OBJECT
 10
2083.0
 20
-3232.9999999999959
 30
0.0
 11
2080.0
 21
-3232.9999999999959
 31
0.0
1001
ACDBBLOCKREPETAG
1070
     1
1071
       20
1005
130C93
  0
ARC
  5
130C94
  8
OBJECT
 10
2083.0
 20
-3235.9999999999959
 30
0.0
 40
3.0
 50
0.0
 51
90.0
1001
ACDBBLOCKREPETAG
1070
     1
1071
       21
1005
130C94
  0
LINE
  5
130C95
  8
OBJECT
 10
2080.0
 20
-3356.9999999999959
 30
0.0
 11
2083.0
 21
-3356.9999999999959
 31
0.0
1001
ACDBBLOCKREPETAG
1070
     1
1071
       22
1005
130C95
  0
ARC
  5
130C96
  8
OBJECT
 10
2083.0
 20
-3353.9999999999959
 30
0.0
 40
3.0
 50
270.0
 51
0.0
1001
ACDBBLOCKREPETAG
1070
     1
1071
       23
1005
130C96
  0
LINE
  5
130C97
  8
OBJECT
 10
2086.0
 20
-3353.9999999999959
 30
0.0
 11
2086.0
 21
-3235.9999999999959
 31
0.0
1001
ACDBBLOCKREPETAG
1070
     1
1071
       24
1005
130C97
  0
LINE
  5
130C98
  8
HIDDEN
 10
2088.0
 20
-3264.9999999999968
 30
0.0
 11
2088.0
 21
-3324.9999999999959
 31
0.0
1001
ACDBBLOCKREPETAG
1070
     1
1071
       25
1005
130C98
  0
TEXT
  5
130C99
  8
SLIM
 10
1896.75
 20
-3817.4999999999959
 30
0.0
 40
35.0
  1
通常枝50（1）
 41
0.75
  0
LINE
  5
130C9A
  8
SLIM
 10
3914.9999999999941
 20
-759.47385309434696
 30
0.0
 11
3919.47385309434
 21
-754.99999999999955
 31
0.0
1001
ACDBBLOCKREPETAG
1070
     1
1071
        0
1005
0
1001
ACAD
1010
0.0
1020
0.0
1030
0.0
  0
LINE
  5
130C9B
  8
SLIM
 10
3914.9999999999941
 20
-777.43436533648503
 30
0.0
 11
3937.434365336479
 21
-754.99999999999955
 31
0.0
1001
ACAD
1010
0.0
1020
0.0
1030
0.0
1001
ACDBBLOCKREPETAG
1070
     1
1071
       14
1005
130C9B
  0
LINE
  5
130C9C
  8
SLIM
 10
3914.9999999999941
 20
-795.39487757862275
 30
0.0
 11
3955.394877578618
 21
-754.99999999999955
 31
0.0
1001
ACAD
1010
0.0
1020
0.0
1030
0.0
1001
ACDBBLOCKREPETAG
1070
     1
1071
       15
1005
130C9C
  0
LINE
  5
130C9D
  8
SLIM
 10
3914.9999999999941
 20
-813.35538982076082
 30
0.0
 11
3973.3553898207551
 21
-754.99999999999955
 31
0.0
1001
ACAD
1010
0.0
1020
0.0
1030
0.0
1001
ACDBBLOCKREPETAG
1070
     1
1071
       16
1005
130C9D
  0
LINE
  5
130C9E
  8
SLIM
 10
3914.999999999995
 20
-831.31590206289854
 30
0.0
 11
3991.3159020628941
 21
-754.99999999999955
 31
0.0
1001
ACAD
1010
0.0
1020
0.0
1030
0.0
1001
ACDBBLOCKREPETAG
1070
     1
1071
       17
1005
130C9E
  0
LINE
  5
130C9F
  8
SLIM
 10
3914.999999999995
 20
-849.2764143050365
 30
0.0
 11
4009.2764143050308
 21
-754.99999999999955
 31
0.0
1001
ACAD
1010
0.0
1020
0.0
1030
0.0
1001
ACDBBLOCKREPETAG
1070
     1
1071
       18
1005
130C9F
  0
LINE
  5
130CA0
  8
SLIM
 10
3914.999999999995
 20
-867.23692654717422
 30
0.0
 11
4027.2369265471689
 21
-754.99999999999955
 31
0.0
1001
ACAD
1010
0.0
1020
0.0
1030
0.0
1001
ACDBBLOCKREPETAG
1070
     1
1071
       19
1005
130CA0
  0
LINE
  5
130CA1
  8
SLIM
 10
3914.999999999995
 20
-885.1974387893124
 30
0.0
 11
4045.1974387893069
 21
-754.99999999999955
 31
0.0
1001
ACAD
1010
0.0
1020
0.0
1030
0.0
1001
ACDBBLOCKREPETAG
1070
     1
1071
       20
1005
130CA1
  0
LINE
  5
130CA2
  8
SLIM
 10
3914.9999999999968
 20
-903.15795103145035
 30
0.0
 11
4063.157951031445
 21
-754.99999999999955
 31
0.0
1001
ACAD
1010
0.0
1020
0.0
1030
0.0
1001
ACDBBLOCKREPETAG
1070
     1
1071
       21
1005
130CA2
  0
LINE
  5
130CA3
  8
SLIM
 10
3915.1454972543161
 20
-920.97296601926894
 30
0.0
 11
4081.1184632735849
 21
-754.99999999999955
 31
0.0
1001
ACAD
1010
0.0
1020
0.0
1030
0.0
1001
ACDBBLOCKREPETAG
1070
     1
1071
       22
1005
130CA3
  0
LINE
  5
130CA4
  8
SLIM
 10
3917.104627495245
 20
-936.97434802047871
 30
0.0
 11
4085.0000000000068
 21
-769.07897551571591
 31
0.0
1001
ACAD
1010
0.0
1020
0.0
1030
0.0
1001
ACDBBLOCKREPETAG
1070
     1
1071
       23
1005
130CA4
  0
LINE
  5
130CA5
  8
SLIM
 10
3919.0637577361722
 20
-952.9757300216894
 30
0.0
 11
4085.0000000000068
 21
-787.03948775785432
 31
0.0
1001
ACAD
1010
0.0
1020
0.0
1030
0.0
1001
ACDBBLOCKREPETAG
1070
     1
1071
       24
1005
130CA5
  0
LINE
  5
130CA6
  8
SLIM
 10
3920.0
 20
-969.99999999999966
 30
0.0
 11
4085.0000000000068
 21
-804.99999999999341
 31
0.0
1001
ACAD
1010
0.0
1020
0.0
1030
0.0
1001
ACDBBLOCKREPETAG
1070
     1
1071
       25
1005
130CA6
  0
LINE
  5
130CA7
  8
SLIM
 10
3920.0
 20
-987.96051224213795
 30
0.0
 11
4085.0000000000059
 21
-822.96051224213215
 31
0.0
1001
ACAD
1010
0.0
1020
0.0
1030
0.0
1001
ACDBBLOCKREPETAG
1070
     1
1071
       26
1005
130CA7
  0
LINE
  5
130CA8
  8
SLIM
 10
3920.0
 20
-1005.921024484276
 30
0.0
 11
4085.0000000000059
 21
-840.92102448427045
 31
0.0
1001
ACAD
1010
0.0
1020
0.0
1030
0.0
1001
ACDBBLOCKREPETAG
1070
     1
1071
       27
1005
130CA8
  0
LINE
  5
130CA9
  8
SLIM
 10
3920.0
 20
-1023.881536726414
 30
0.0
 11
4085.000000000005
 21
-858.88153672640954
 31
0.0
1001
ACAD
1010
0.0
1020
0.0
1030
0.0
1001
ACDBBLOCKREPETAG
1070
     1
1071
       28
1005
130CA9
  0
LINE
  5
130CAA
  8
SLIM
 10
3920.0
 20
-1041.842048968552
 30
0.0
 11
4085.0000000000041
 21
-876.84204896854817
 31
0.0
1001
ACAD
1010
0.0
1020
0.0
1030
0.0
1001
ACDBBLOCKREPETAG
1070
     1
1071
       29
1005
130CAA
  0
LINE
  5
130CAB
  8
SLIM
 10
3920.0
 20
-1059.802561210691
 30
0.0
 11
4085.0000000000041
 21
-894.80256121068692
 31
0.0
1001
ACAD
1010
0.0
1020
0.0
1030
0.0
1001
ACDBBLOCKREPETAG
1070
     1
1071
       30
1005
130CAB
  0
LINE
  5
130CAC
  8
SLIM
 10
3920.0
 20
-1077.7630734528291
 30
0.0
 11
4085.0000000000032
 21
-912.76307345282555
 31
0.0
1001
ACAD
1010
0.0
1020
0.0
1030
0.0
1001
ACDBBLOCKREPETAG
1070
     1
1071
       31
1005
130CAC
  0
LINE
  5
130CAD
  8
SLIM
 10
3930.0
 20
-1085.723585694966
 30
0.0
 11
3930.7235856949678
 21
-1084.9999999999991
 31
0.0
1001
ACAD
1010
0.0
1020
0.0
1030
0.0
1001
ACDBBLOCKREPETAG
1070
     1
1071
       32
1005
130CAD
  0
LINE
  5
130CAE
  8
SLIM
 10
3930.7235856949678
 20
-1084.9999999999991
 30
0.0
 11
4083.4738280308079
 21
-932.24975766415935
 31
0.0
1001
ACAD
1010
0.0
1020
0.0
1030
0.0
1001
ACDBBLOCKREPETAG
1070
     1
1071
       33
1005
130CAE
  0
LINE
  5
130CAF
  8
SLIM
 10
3930.0
 20
-1103.6840979371059
 30
0.0
 11
3948.6840979371068
 21
-1084.9999999999991
 31
0.0
1001
ACAD
1010
0.0
1020
0.0
1030
0.0
1001
ACDBBLOCKREPETAG
1070
     1
1071
       34
1005
130CAF
  0
LINE
  5
130CB0
  8
SLIM
 10
3948.6840979371068
 20
-1084.9999999999991
 30
0.0
 11
4080.9680345671368
 21
-952.71606336996854
 31
0.0
1001
ACAD
1010
0.0
1020
0.0
1030
0.0
1001
ACDBBLOCKREPETAG
1070
     1
1071
       35
1005
130CB0
  0
LINE
  5
130CB1
  8
SLIM
 10
3946.6446101792449
 20
-1104.9999999999991
 30
0.0
 11
3966.6446101792449
 21
-1084.9999999999991
 31
0.0
1001
ACAD
1010
0.0
1020
0.0
1030
0.0
1001
ACDBBLOCKREPETAG
1070
     1
1071
       36
1005
130CB1
  0
LINE
  5
130CB2
  8
SLIM
 10
3966.6446101792449
 20
-1084.9999999999991
 30
0.0
 11
4080.0
 21
-971.64461017924452
 31
0.0
1001
ACAD
1010
0.0
1020
0.0
1030
0.0
1001
ACDBBLOCKREPETAG
1070
     1
1071
       37
1005
130CB2
  0
LINE
  5
130CB3
  8
SLIM
 10
3964.6051224213829
 20
-1104.9999999999991
 30
0.0
 11
3984.6051224213829
 21
-1084.9999999999991
 31
0.0
1001
ACAD
1010
0.0
1020
0.0
1030
0.0
1001
ACDBBLOCKREPETAG
1070
     1
1071
       38
1005
130CB3
  0
LINE
  5
130CB4
  8
SLIM
 10
3984.6051224213829
 20
-1084.9999999999991
 30
0.0
 11
4080.0
 21
-989.60512242138304
 31
0.0
1001
ACAD
1010
0.0
1020
0.0
1030
0.0
1001
ACDBBLOCKREPETAG
1070
     1
1071
       39
1005
130CB4
  0
LINE
  5
130CB5
  8
SLIM
 10
3982.565634663521
 20
-1104.9999999999991
 30
0.0
 11
4002.565634663521
 21
-1084.9999999999991
 31
0.0
1001
ACAD
1010
0.0
1020
0.0
1030
0.0
1001
ACDBBLOCKREPETAG
1070
     1
1071
       40
1005
130CB5
  0
LINE
  5
130CB6
  8
SLIM
 10
4002.565634663521
 20
-1084.9999999999991
 30
0.0
 11
4079.9999999999991
 21
-1007.565634663521
 31
0.0
1001
ACAD
1010
0.0
1020
0.0
1030
0.0
1001
ACDBBLOCKREPETAG
1070
     1
1071
       41
1005
130CB6
  0
LINE
  5
130CB7
  8
SLIM
 10
4000.5261469056568
 20
-1104.9999999999991
 30
0.0
 11
4020.52614690566
 21
-1084.9999999999991
 31
0.0
1001
ACAD
1010
0.0
1020
0.0
1030
0.0
1001
ACDBBLOCKREPETAG
1070
     1
1071
       42
1005
130CB7
  0
LINE
  5
130CB8
  8
SLIM
 10
4020.52614690566
 20
-1084.9999999999991
 30
0.0
 11
4079.9999999999991
 21
-1025.52614690566
 31
0.0
1001
ACAD
1010
0.0
1020
0.0
1030
0.0
1001
ACDBBLOCKREPETAG
1070
     1
1071
       43
1005
130CB8
  0
LINE
  5
130CB9
  8
SLIM
 10
4018.486659147798
 20
-1104.9999999999991
 30
0.0
 11
4038.486659147798
 21
-1084.9999999999991
 31
0.0
1001
ACAD
1010
0.0
1020
0.0
1030
0.0
1001
ACDBBLOCKREPETAG
1070
     1
1071
       44
1005
130CB9
  0
LINE
  5
130CBA
  8
SLIM
 10
4038.486659147798
 20
-1084.9999999999991
 30
0.0
 11
4079.9999999999991
 21
-1043.4866591477989
 31
0.0
1001
ACAD
1010
0.0
1020
0.0
1030
0.0
1001
ACDBBLOCKREPETAG
1070
     1
1071
       45
1005
130CBA
  0
LINE
  5
130CBB
  8
SLIM
 10
4036.4471713899361
 20
-1104.9999999999991
 30
0.0
 11
4056.4471713899361
 21
-1084.9999999999991
 31
0.0
1001
ACAD
1010
0.0
1020
0.0
1030
0.0
1001
ACDBBLOCKREPETAG
1070
     1
1071
       46
1005
130CBB
  0
LINE
  5
130CBC
  8
SLIM
 10
4056.4471713899361
 20
-1084.9999999999991
 30
0.0
 11
4079.9999999999991
 21
-1061.447171389937
 31
0.0
1001
ACAD
1010
0.0
1020
0.0
1030
0.0
1001
ACDBBLOCKREPETAG
1070
     1
1071
       47
1005
130CBC
  0
LINE
  5
130CBD
  8
SLIM
 10
4054.4076836320728
 20
-1104.9999999999991
 30
0.0
 11
4070.0
 21
-1089.4076836320739
 31
0.0
1001
ACAD
1010
0.0
1020
0.0
1030
0.0
1001
ACDBBLOCKREPETAG
1070
     1
1071
       48
1005
130CBD
  0
LINE
  5
130CBE
  8
SLIM
 10
4074.4076836320728
 20
-1084.9999999999991
 30
0.0
 11
4079.9999999999991
 21
-1079.407683632076
 31
0.0
1001
ACAD
1010
0.0
1020
0.0
1030
0.0
1001
ACDBBLOCKREPETAG
1070
     1
1071
       49
1005
130CBE
  0
LINE
  5
130CBF
  8
OBJECT
 10
3914.9999999999941
 20
-754.99999999999955
 30
0.0
 11
3914.9999999999968
 21
-919.78460339903484
 31
0.0
1001
ACDBBLOCKREPETAG
1070
     1
1071
        1
1005
130CBF
  0
LINE
  5
130CC0
  8
OBJECT
 10
4085.0000000000068
 20
-754.99999999999955
 30
0.0
 11
4085.0000000000032
 21
-919.78460339904154
 31
0.0
1001
ACDBBLOCKREPETAG
1070
     1
1071
        2
1005
130CC0
  0
LINE
  5
130CC1
  8
OBJECT
 10
4085.0000000000068
 20
-754.99999999999955
 30
0.0
 11
3914.9999999999941
 21
-754.99999999999955
 31
0.0
1001
ACDBBLOCKREPETAG
1070
     1
1071
        3
1005
130CC1
  0
LINE
  5
130CC2
  8
OBJECT
 10
4079.9999999999991
 20
-1084.9999999999991
 30
0.0
 11
3920.0
 21
-1084.9999999999991
 31
0.0
1001
ACDBBLOCKREPETAG
1070
     1
1071
        4
1005
130CC2
  0
LINE
  5
130CC3
  8
OBJECT
 10
3914.9999999999968
 20
-919.78460339903484
 30
0.0
 11
3920.0
 21
-960.62257748298634
 31
0.0
1001
ACDBBLOCKREPETAG
1070
     1
1071
        6
1005
130CC3
  0
LINE
  5
130CC4
  8
OBJECT
 10
3920.0
 20
-960.62257748298634
 30
0.0
 11
3920.0
 21
-1084.9999999999991
 31
0.0
1001
ACDBBLOCKREPETAG
1070
     1
1071
        7
1005
130CC4
  0
LINE
  5
130CC5
  8
OBJECT
 10
4085.0000000000032
 20
-919.78460339904154
 30
0.0
 11
4080.0
 21
-960.62257748298634
 31
0.0
1001
ACDBBLOCKREPETAG
1070
     1
1071
        8
1005
130CC5
  0
LINE
  5
130CC6
  8
OBJECT
 10
4080.0
 20
-960.62257748298634
 30
0.0
 11
4079.9999999999991
 21
-1084.9999999999991
 31
0.0
1001
ACDBBLOCKREPETAG
1070
     1
1071
        9
1005
130CC6
  0
LINE
  5
130CC7
  8
OBJECT
 10
3930.0
 20
-1084.9999999999991
 30
0.0
 11
3930.0
 21
-1104.9999999999991
 31
0.0
1001
ACDBBLOCKREPETAG
1070
     1
1071
       10
1005
130CC7
  0
LINE
  5
130CC8
  8
OBJECT
 10
3930.0
 20
-1104.9999999999991
 30
0.0
 11
4070.0
 21
-1104.9999999999991
 31
0.0
1001
ACDBBLOCKREPETAG
1070
     1
1071
       11
1005
130CC8
  0
LINE
  5
130CC9
  8
OBJECT
 10
4070.0
 20
-1104.9999999999991
 30
0.0
 11
4070.0
 21
-1084.9999999999991
 31
0.0
1001
ACDBBLOCKREPETAG
1070
     1
1071
       12
1005
130CC9
  0
LINE
  5
130CCA
  8
OBJECT
 10
1923.0
 20
-570.99999999999955
 30
0.0
 11
1923.0
 21
-549.99999999999955
 31
0.0
1001
ACDBBLOCKREPETAG
1070
     1
1071
       38
1005
130CCA
  0
LINE
  5
130CCB
  8
OBJECT
 10
1923.0
 20
-549.99999999999955
 30
0.0
 11
2077.0
 21
-549.99999999999955
 31
0.0
1001
ACDBBLOCKREPETAG
1070
     1
1071
       39
1005
130CCB
  0
LINE
  5
130CCC
  8
HIDDEN
 10
1943.0
 20
-619.99999999999955
 30
0.0
 11
2057.0
 21
-619.99999999999955
 31
0.0
1001
ACDBBLOCKREPETAG
1070
     1
1071
       40
1005
130CCC
  0
LINE
  5
130CCD
  8
OBJECT
 10
2077.0
 20
-549.99999999999955
 30
0.0
 11
2077.0
 21
-570.99999999999955
 31
0.0
1001
ACDBBLOCKREPETAG
1070
     1
1071
       41
1005
130CCD
  0
LINE
  5
130CCE
  8
OBJECT
 10
2077.0
 20
-570.99999999999955
 30
0.0
 11
1923.0
 21
-570.99999999999955
 31
0.0
1001
ACDBBLOCKREPETAG
1070
     1
1071
       42
1005
130CCE
  0
LINE
  5
130CCF
  8
CENTER
 10
2000.0
 20
-534.99999999999955
 30
0.0
 11
2000.0
 21
-889.99999999999955
 31
0.0
1001
ACDBBLOCKREPETAG
1070
     1
1071
       43
1005
130CCF
  0
LINE
  5
130CD0
  8
OBJECT
 10
1928.0
 20
-570.99999999999955
 30
0.0
 11
1928.0
 21
-633.99999999999955
 31
0.0
1001
ACDBBLOCKREPETAG
1070
     1
1071
       44
1005
130CD0
  0
LINE
  5
130CD1
  8
OBJECT
 10
2072.0
 20
-633.99999999999955
 30
0.0
 11
2072.0
 21
-570.99999999999955
 31
0.0
1001
ACDBBLOCKREPETAG
1070
     1
1071
       45
1005
130CD1
  0
LINE
  5
130CD2
  8
OBJECT
 10
1920.0
 20
-877.99999999999955
 30
0.0
 11
2080.0
 21
-877.99999999999955
 31
0.0
1001
ACDBBLOCKREPETAG
1070
     1
1071
       46
1005
130CD2
  0
LINE
  5
130CD3
  8
OBJECT
 10
2080.0
 20
-633.99999999999955
 30
0.0
 11
1920.0
 21
-633.99999999999955
 31
0.0
1001
ACDBBLOCKREPETAG
1070
     1
1071
       47
1005
130CD3
  0
LINE
  5
130CD4
  8
OBJECT
 10
1920.0
 20
-877.99999999999955
 30
0.0
 11
1920.0
 21
-889.99999999999955
 31
0.0
1001
ACDBBLOCKREPETAG
1070
     1
1071
       48
1005
130CD4
  0
LINE
  5
130CD5
  8
OBJECT
 10
1920.0
 20
-889.99999999999955
 30
0.0
 11
2080.0
 21
-889.99999999999955
 31
0.0
1001
ACDBBLOCKREPETAG
1070
     1
1071
       49
1005
130CD5
  0
LINE
  5
130CD6
  8
OBJECT
 10
2080.0
 20
-889.99999999999955
 30
0.0
 11
2080.0
 21
-877.99999999999955
 31
0.0
1001
ACDBBLOCKREPETAG
1070
     1
1071
       50
1005
130CD6
  0
LINE
  5
130CD7
  8
OBJECT
 10
2074.9999999998622
 20
-757.99999999985005
 30
0.0
 11
2075.0
 21
-877.99999999999955
 31
0.0
1001
ACDBBLOCKREPETAG
1070
     1
1071
       54
1005
130CD7
  0
LINE
  5
130CD8
  8
OBJECT
 10
2074.9999908029849
 20
-757.99998602702112
 30
0.0
 11
2080.0
 21
-757.99998602702112
 31
0.0
1001
ACDBBLOCKREPETAG
1070
     1
1071
       55
1005
130CD8
  0
LINE
  5
130CD9
  8
OBJECT
 10
1925.000000000138
 20
-757.99999999985005
 30
0.0
 11
1925.0
 21
-877.99999999999955
 31
0.0
1001
ACDBBLOCKREPETAG
1070
     1
1071
       56
1005
130CD9
  0
LINE
  5
130CDA
  8
OBJECT
 10
1925.000009197013
 20
-757.99998602702112
 30
0.0
 11
1920.0
 21
-757.99998602702112
 31
0.0
1001
ACDBBLOCKREPETAG
1070
     1
1071
       57
1005
130CDA
  0
ARC
  5
130CDB
  8
OBJECT
 10
2200.6872746716731
 20
-749.40809941010718
 30
0.0
 40
170.6350503965856
 50
137.44134459184301
 51
149.91949581336559
1001
ACDBBLOCKREPETAG
1070
     1
1071
       58
1005
130CDB
  0
ARC
  5
130CDC
  8
OBJECT
 10
2200.6872746716731
 20
-642.59190058989179
 30
0.0
 40
170.6350503965856
 50
210.0805041866343
 51
222.55865540815699
1001
ACDBBLOCKREPETAG
1070
     1
1071
       59
1005
130CDC
  0
ARC
  5
130CDD
  8
OBJECT
 10
1799.312725328326
 20
-749.40809941010718
 30
0.0
 40
170.6350503965856
 50
30.080504186774089
 51
42.558655408382627
1001
ACDBBLOCKREPETAG
1070
     1
1071
       60
1005
130CDD
  0
ARC
  5
130CDE
  8
OBJECT
 10
1799.312725328326
 20
-642.59190058989179
 30
0.0
 40
170.6350503965856
 50
317.44134459161722
 51
329.91949581322592
1001
ACDBBLOCKREPETAG
1070
     1
1071
       61
1005
130CDE
  0
POINT
  5
130CDF
  8
DOTS
 10
2000.0
 20
-754.99999999999955
 30
0.0
1001
ACDBBLOCKREPETAG
1070
     1
1071
      185
1005
130CDF
  0
LINE
  5
130CE0
  8
OBJECT
 10
3930.0
 20
-1199.999999999997
 30
0.0
 11
4070.0
 21
-1199.999999999997
 31
0.0
1001
ACDBBLOCKREPETAG
1070
     1
1071
        0
1005
130CE0
  0
LINE
  5
130CE1
  8
OBJECT
 10
3930.0
 20
-1199.999999999997
 30
0.0
 11
3930.0
 21
-959.9999999999967
 31
0.0
1001
ACDBBLOCKREPETAG
1070
     1
1071
        1
1005
130CE1
  0
LINE
  5
130CE2
  8
OBJECT
 10
4070.0
 20
-1199.999999999997
 30
0.0
 11
4070.0
 21
-959.9999999999967
 31
0.0
1001
ACDBBLOCKREPETAG
1070
     1
1071
        2
1005
130CE2
  0
LINE
  5
130CE3
  8
OBJECT
 10
3930.0
 20
-959.9999999999967
 30
0.0
 11
4070.0
 21
-959.9999999999967
 31
0.0
1001
ACDBBLOCKREPETAG
1070
     1
1071
        3
1005
130CE3
  0
LINE
  5
130CE4
  8
HIDDEN
 10
3937.5
 20
-959.9999999999967
 30
0.0
 11
3937.5
 21
-1199.999999999997
 31
0.0
1001
ACDBBLOCKREPETAG
1070
     1
1071
        4
1005
130CE4
  0
LINE
  5
130CE5
  8
HIDDEN
 10
4062.5
 20
-959.9999999999967
 30
0.0
 11
4062.5
 21
-1199.999999999997
 31
0.0
1001
ACDBBLOCKREPETAG
1070
     1
1071
        5
1005
130CE5
  0
LINE
  5
130CE6
  8
CENTER
 10
4000.0
 20
-889.99999999999875
 30
0.0
 11
4000.0
 21
-1214.999999999997
 31
0.0
1001
ACDBBLOCKREPETAG
1070
     1
1071
        6
1005
130CE6
  0
LINE
  5
130CE7
  8
OBJECT
 10
3925.0
 20
-889.99999999999875
 30
0.0
 11
3925.0
 21
-919.99999999999693
 31
0.0
1001
ACDBBLOCKREPETAG
1070
     1
1071
        7
1005
130CE7
  0
LINE
  5
130CE8
  8
OBJECT
 10
4075.0000000000032
 20
-889.99999999999875
 30
0.0
 11
4075.0
 21
-919.99999999999693
 31
0.0
1001
ACDBBLOCKREPETAG
1070
     1
1071
        8
1005
130CE8
  0
LINE
  5
130CE9
  8
OBJECT
 10
3925.0
 20
-919.99999999999693
 30
0.0
 11
4075.0
 21
-919.99999999999693
 31
0.0
1001
ACDBBLOCKREPETAG
1070
     1
1071
        9
1005
130CE9
  0
LINE
  5
130CEA
  8
OBJECT
 10
3925.0
 20
-919.99999999999693
 30
0.0
 11
3930.0
 21
-959.9999999999967
 31
0.0
1001
ACDBBLOCKREPETAG
1070
     1
1071
       10
1005
130CEA
  0
LINE
  5
130CEB
  8
OBJECT
 10
4070.0
 20
-959.9999999999967
 30
0.0
 11
4075.0
 21
-919.99999999999693
 31
0.0
1001
ACDBBLOCKREPETAG
1070
     1
1071
       11
1005
130CEB
  0
LINE
  5
130CEC
  8
OBJECT
 10
1930.0
 20
-1199.999999999997
 30
0.0
 11
2070.0
 21
-1199.999999999997
 31
0.0
1001
ACDBBLOCKREPETAG
1070
     1
1071
        0
1005
130CEC
  0
LINE
  5
130CED
  8
OBJECT
 10
1930.0
 20
-1199.999999999997
 30
0.0
 11
1930.0
 21
-959.99999999999784
 31
0.0
1001
ACDBBLOCKREPETAG
1070
     1
1071
        1
1005
130CED
  0
LINE
  5
130CEE
  8
OBJECT
 10
2070.0
 20
-1199.999999999997
 30
0.0
 11
2070.0
 21
-959.99999999999784
 31
0.0
1001
ACDBBLOCKREPETAG
1070
     1
1071
        2
1005
130CEE
  0
LINE
  5
130CEF
  8
OBJECT
 10
1930.0
 20
-959.99999999999784
 30
0.0
 11
2070.0
 21
-959.99999999999784
 31
0.0
1001
ACDBBLOCKREPETAG
1070
     1
1071
        3
1005
130CEF
  0
LINE
  5
130CF0
  8
HIDDEN
 10
1937.5
 20
-959.99999999999784
 30
0.0
 11
1937.5
 21
-1199.999999999997
 31
0.0
1001
ACDBBLOCKREPETAG
1070
     1
1071
        4
1005
130CF0
  0
LINE
  5
130CF1
  8
HIDDEN
 10
2062.5
 20
-959.99999999999784
 30
0.0
 11
2062.5
 21
-1199.999999999997
 31
0.0
1001
ACDBBLOCKREPETAG
1070
     1
1071
        5
1005
130CF1
  0
LINE
  5
130CF2
  8
CENTER
 10
2000.0
 20
-889.99999999999955
 30
0.0
 11
2000.0
 21
-1214.999999999998
 31
0.0
1001
ACDBBLOCKREPETAG
1070
     1
1071
        6
1005
130CF2
  0
LINE
  5
130CF3
  8
OBJECT
 10
1925.0
 20
-889.99999999999955
 30
0.0
 11
1925.0
 21
-919.99999999999761
 31
0.0
1001
ACDBBLOCKREPETAG
1070
     1
1071
        7
1005
130CF3
  0
LINE
  5
130CF4
  8
OBJECT
 10
2075.0000000000041
 20
-889.99999999999955
 30
0.0
 11
2075.0
 21
-919.99999999999761
 31
0.0
1001
ACDBBLOCKREPETAG
1070
     1
1071
        8
1005
130CF4
  0
LINE
  5
130CF5
  8
OBJECT
 10
1925.0
 20
-919.99999999999761
 30
0.0
 11
2075.0
 21
-919.99999999999761
 31
0.0
1001
ACDBBLOCKREPETAG
1070
     1
1071
        9
1005
130CF5
  0
LINE
  5
130CF6
  8
OBJECT
 10
1925.0
 20
-919.99999999999761
 30
0.0
 11
1930.0
 21
-959.99999999999784
 31
0.0
1001
ACDBBLOCKREPETAG
1070
     1
1071
       10
1005
130CF6
  0
LINE
  5
130CF7
  8
OBJECT
 10
2070.0
 20
-959.99999999999784
 30
0.0
 11
2075.0
 21
-919.99999999999761
 31
0.0
1001
ACDBBLOCKREPETAG
1070
     1
1071
       11
1005
130CF7
  0
TEXT
  5
130CF8
  8
SLIM
 10
3824.5999999999999
 20
-1528.999999999997
 30
0.0
 40
28.0
  1
※ 対応スラブ厚　180～320
 41
0.75
  0
TEXT
  5
130CF9
  8
SLIM
 10
3611.5
 20
-1622.3333333333301
 30
0.0
 40
28.0
  1
国土交通大臣認定・（財）日本消防設備安全センター性能評定取得品
 41
0.75
  0
TEXT
  5
130CFA
  8
SLIM
 10
3631.1000000000022
 20
-1668.999999999997
 30
0.0
 40
28.0
  1
注）ご採用にあたり、認定書及び評定書の内容をご確認ください。
 41
0.75
  0
TEXT
  5
130CFB
  8
SLIM
 10
3741.6250000000009
 20
-1467.499999999997
 30
0.0
 40
35.0
  1
片受けスタイル（S）＋シンドカット
 41
0.75
  0
TEXT
  5
130CFC
  8
SLIM
 10
1856.25
 20
-1467.499999999998
 30
0.0
 40
35.0
  1
片受けスタイル（S）
 41
0.75
  0
TEXT
  5
1314CE
  8
SLIM
 10
1850.0
 20
532.5
 30
0.0
 40
75.0
  1
側面図の代表機種
 41
0.75
  0
VIEWPORT
  5
F6BA7
 67
     1
  8
0
 10
145.33033752441401
 20
101.8328354358673
 30
0.0
 40
334.0025019414623
 41
222.19657968139651
 68
     1
 69
     1
1001
ACAD
1000
MVIEW
1002
{
1070
    16
1010
0.0
1020
0.0
1030
0.0
1010
0.0
1020
0.0
1030
1.0
1040
0.0
1040
222.19657968139651
1040
145.33033752441401
1040
101.8328354358673
1040
50.0
1040
0.0
1040
0.0
1070
     0
1070
     0
1070
     1
1070
     1
1070
     0
1070
     0
1070
     0
1070
     0
1040
0.0
1040
0.0
1040
0.0
1040
10.0
1040
10.0
1040
10.0
1040
10.0
1070
     0
1002
{
1002
}
1002
}
  0
VIEWPORT
  5
F6BA9
 67
     1
  8
OBJECT
 10
145.3303314447403
 20
101.8328338861465
 30
0.0
 40
232.5285303115844
 41
162.93253421783439
 68
     2
 69
     2
1001
ACAD
1000
MVIEW
1002
{
1070
    16
1010
0.0
1020
0.0
1030
0.0
1010
0.0
1020
0.0
1030
1.0
1040
0.0
1040
25942.55904403147
1040
2377.604457077377
1040
-7591.5176687056619
1040
50.0
1040
0.0
1040
0.0
1070
     0
1070
   600
1070
     1
1070
     1
1070
     0
1070
     0
1070
     0
1070
     0
1040
0.0
1040
0.0
1040
0.0
1040
1.0
1040
1.0
1040
0.0
1040
0.0
1070
     0
1002
{
1002
}
1002
}
  0
ENDSEC
  0
EOF
