  0
SECTION
  2
HEADER
  9
$ACADVER
  1
AC1009
  9
$INSBASE
 10
0.0
 20
0.0
 30
0.0
  9
$EXTMIN
 10
0.0
 20
-1568.999999999997
 30
0.0
  9
$EXTMAX
 10
4387.0999999999931
 20
470.0
 30
0.0
  9
$LIMMIN
 10
0.0
 20
0.0
  9
$LIMMAX
 10
210.0
 20
297.0
  9
$ORTHOMODE
 70
     0
  9
$REGENMODE
 70
     1
  9
$FILLMODE
 70
     1
  9
$QTEXTMODE
 70
     0
  9
$MIRRTEXT
 70
     0
  9
$DRAGMODE
 70
     2
  9
$LTSCALE
 40
1.0
  9
$OSMODE
 70
   125
  9
$ATTMODE
 70
     1
  9
$TEXTSIZE
 40
4.0
  9
$TRACEWID
 40
0.05
  9
$TEXTSTYLE
  7
STANDARD
  9
$CLAYER
  8
OBJECT
  9
$CELTYPE
  6
BYLAYER
  9
$CECOLOR
 62
   256
  9
$DIMSCALE
 40
10.0
  9
$DIMASZ
 40
2.0
  9
$DIMEXO
 40
1.0
  9
$DIMDLI
 40
10.0
  9
$DIMRND
 40
0.0
  9
$DIMDLE
 40
0.0
  9
$DIMEXE
 40
1.0
  9
$DIMTP
 40
0.0
  9
$DIMTM
 40
0.0
  9
$DIMTXT
 40
3.2000000000000002
  9
$DIMCEN
 40
0.0
  9
$DIMTSZ
 40
0.0
  9
$DIMTOL
 70
     0
  9
$DIMLIM
 70
     0
  9
$DIMTIH
 70
     0
  9
$DIMTOH
 70
     0
  9
$DIMSE1
 70
     0
  9
$DIMSE2
 70
     0
  9
$DIMTAD
 70
     1
  9
$DIMZIN
 70
     8
  9
$DIMBLK
  1
OPEN30
  9
$DIMASO
 70
     1
  9
$DIMSHO
 70
     1
  9
$DIMPOST
  1

  9
$DIMAPOST
  1

  9
$DIMALT
 70
     0
  9
$DIMALTD
 70
     2
  9
$DIMALTF
 40
25.399999999999999
  9
$DIMLFAC
 40
1.0
  9
$DIMTOFL
 70
     1
  9
$DIMTVP
 40
0.0
  9
$DIMTIX
 70
     0
  9
$DIMSOXD
 70
     0
  9
$DIMSAH
 70
     0
  9
$DIMBLK1
  1

  9
$DIMBLK2
  1

  9
$DIMSTYLE
  2
S10
  9
$DIMCLRD
 70
   256
  9
$DIMCLRE
 70
   256
  9
$DIMCLRT
 70
   256
  9
$DIMTFAC
 40
1.0
  9
$DIMGAP
 40
0.9
  9
$LUNITS
 70
     2
  9
$LUPREC
 70
     2
  9
$SKETCHINC
 40
0.1
  9
$FILLETRAD
 40
0.0
  9
$AUNITS
 70
     0
  9
$AUPREC
 70
     2
  9
$MENU
  1
ACAD
  9
$ELEVATION
 40
0.0
  9
$PELEVATION
 40
0.0
  9
$THICKNESS
 40
0.0
  9
$LIMCHECK
 70
     0
  9
$BLIPMODE
 70
     0
  9
$CHAMFERA
 40
2.0
  9
$CHAMFERB
 40
2.0
  9
$SKPOLY
 70
     0
  9
$TDCREATE
 40
2453095.4929404748
  9
$TDUPDATE
 40
2456678.7954303818
  9
$TDINDWG
 40
18.349299027800001
  9
$TDUSRTIMER
 40
18.349298310199998
  9
$USRTIMER
 70
     1
  9
$ANGBASE
 50
0.0
  9
$ANGDIR
 70
     0
  9
$PDMODE
 70
    35
  9
$PDSIZE
 40
2.0
  9
$PLINEWID
 40
0.0
  9
$COORDS
 70
     1
  9
$SPLFRAME
 70
     0
  9
$SPLINETYPE
 70
     6
  9
$SPLINESEGS
 70
     8
  9
$ATTDIA
 70
     1
  9
$ATTREQ
 70
     1
  9
$HANDLING
 70
     1
  9
$HANDSEED
  5
1226CE
  9
$SURFTAB1
 70
     6
  9
$SURFTAB2
 70
     6
  9
$SURFTYPE
 70
     6
  9
$SURFU
 70
     6
  9
$SURFV
 70
     6
  9
$UCSNAME
  2

  9
$UCSORG
 10
0.0
 20
0.0
 30
0.0
  9
$UCSXDIR
 10
1.0
 20
0.0
 30
0.0
  9
$UCSYDIR
 10
0.0
 20
1.0
 30
0.0
  9
$PUCSNAME
  2

  9
$PUCSORG
 10
0.0
 20
0.0
 30
0.0
  9
$PUCSXDIR
 10
1.0
 20
0.0
 30
0.0
  9
$PUCSYDIR
 10
0.0
 20
1.0
 30
0.0
  9
$USERI1
 70
     0
  9
$USERI2
 70
     0
  9
$USERI3
 70
     0
  9
$USERI4
 70
     0
  9
$USERI5
 70
     0
  9
$USERR1
 40
0.0
  9
$USERR2
 40
0.0
  9
$USERR3
 40
0.0
  9
$USERR4
 40
0.0
  9
$USERR5
 40
0.0
  9
$WORLDVIEW
 70
     1
  9
$SHADEDGE
 70
     3
  9
$SHADEDIF
 70
    70
  9
$TILEMODE
 70
     1
  9
$MAXACTVP
 70
    64
  9
$PLIMCHECK
 70
     0
  9
$PEXTMIN
 10
29.066066288948051
 20
20.366566777229309
 30
0.0
  9
$PEXTMAX
 10
261.5945966005325
 20
183.29910099506381
 30
0.0
  9
$PLIMMIN
 10
-3.17498779296875
 20
-3.1749999523162842
  9
$PLIMMAX
 10
293.83566284179687
 20
206.8406708240509
  9
$UNITMODE
 70
     0
  9
$VISRETAIN
 70
     1
  9
$PLINEGEN
 70
     0
  9
$PSLTSCALE
 70
     1
  0
ENDSEC
  0
SECTION
  2
TABLES
  0
TABLE
  2
VPORT
 70
     1
  0
VPORT
  2
*ACTIVE
 70
     0
 10
0.0
 20
0.0
 11
1.0
 21
1.0
 12
3700.4976657512821
 22
-983.59385035246123
 13
0.0
 23
0.0
 14
1.0
 24
1.0
 15
0.0
 25
0.0
 16
0.0
 26
0.0
 36
1.0
 17
0.0
 27
0.0
 37
0.0
 40
6366.8167328028167
 41
1.964560862865947
 42
50.0
 43
0.0
 44
0.0
 50
0.0
 51
0.0
 71
     0
 72
   600
 73
     1
 74
     1
 75
     0
 76
     0
 77
     0
 78
     0
  0
ENDTAB
  0
TABLE
  2
LTYPE
 70
     5
  0
LTYPE
  2
CONTINUOUS
 70
     0
  3
Solid line
 72
    65
 73
     0
 40
0.0
  0
LTYPE
  2
PHANTOM2
 70
     0
  3
___ _ _ ___ _ _ ___ _ _ ___ _ _
 72
    65
 73
     6
 40
1.25
 49
0.625
 49
-0.125
 49
0.125
 49
-0.125
 49
0.125
 49
-0.125
  0
LTYPE
  2
ACAD_ISO08W100
 70
     0
  3
ISO long-dash short-dash ____ __ ____ __ ____ _
 72
    65
 73
     4
 40
36.0
 49
24.0
 49
-3.0
 49
6.0
 49
-3.0
  0
LTYPE
  2
ACAD_ISO02W100
 70
     0
  3
ISO dash __ __ __ __ __ __ __ __ __ __ __ __ __
 72
    65
 73
     2
 40
15.0
 49
12.0
 49
-3.0
  0
ENDTAB
  0
TABLE
  2
LAYER
 70
     7
  0
LAYER
  2
0
 70
     0
 62
     7
  6
CONTINUOUS
  0
LAYER
  2
OBJECT
 70
     0
 62
     4
  6
CONTINUOUS
  0
LAYER
  2
DEFPOINTS
 70
     0
 62
     7
  6
CONTINUOUS
  0
LAYER
  2
HIDDEN
 70
     0
 62
     2
  6
ACAD_ISO02W100
  0
LAYER
  2
CENTER
 70
     0
 62
     2
  6
ACAD_ISO08W100
  0
LAYER
  2
DOTS
 70
     0
 62
     1
  6
CONTINUOUS
  0
LAYER
  2
SLIM
 70
     0
 62
     2
  6
CONTINUOUS
  0
ENDTAB
  0
TABLE
  2
STYLE
 70
     2
  0
STYLE
  2
STANDARD
 70
     0
 40
0.0
 41
0.75
 50
0.0
 71
     0
 42
4.0
  3
simplex.shx
  4
bigfont.shx
  0
STYLE
  2
ANNOTATIVE
 70
     0
 40
0.0
 41
1.0
 50
0.0
 71
     0
 42
0.2
  3
txt
  4

  0
ENDTAB
  0
TABLE
  2
VIEW
 70
     0
  0
ENDTAB
  0
TABLE
  2
UCS
 70
     0
  0
ENDTAB
  0
TABLE
  2
APPID
 70
    18
  0
APPID
  2
ACAD
 70
     0
  0
APPID
  2
ACADANNOTATIVE
 70
     0
  0
APPID
  2
ACAD_PSEXT
 70
     0
  0
APPID
  2
ACAD_EXEMPT_FROM_CAD_STANDARDS
 70
     0
  0
APPID
  2
ACAECLAYERSTANDARD
 70
     0
  0
APPID
  2
ACAUTHENVIRON
 70
     0
  0
APPID
  2
ACDBDYNAMICBLOCKTRUENAME
 70
     0
  0
APPID
  2
ACDBDYNAMICBLOCKGUID
 70
     0
  0
APPID
  2
ACDBBLOCKREPETAG
 70
     0
  0
APPID
  2
ACDBBLOCKREPBTAG
 70
     0
  0
APPID
  2
ACAD_NAV_VCDISPLAY
 70
     0
  0
APPID
  2
ACAD_DSTYLE_DIMRADIAL_EXTENSION
 70
     0
  0
APPID
  2
ACAD_DSTYLE_DIMJAG
 70
     0
  0
APPID
  2
ACAD_DSTYLE_DIMTALN
 70
     0
  0
APPID
  2
ACADANNOPO
 70
     0
  0
APPID
  2
GRADIENTCOLOR1ACI
 70
     0
  0
APPID
  2
GRADIENTCOLOR2ACI
 70
     0
  0
APPID
  2
ACAD_MLEADERVER
 70
     0
  0
ENDTAB
  0
TABLE
  2
DIMSTYLE
 70
     3
  0
DIMSTYLE
  2
STANDARD
 70
     0
  3

  4

  5

  6

  7

 40
1.0
 41
0.18
 42
0.0625
 43
0.38
 44
0.18
 45
0.0
 46
0.0
 47
0.0
 48
0.0
140
0.18
141
0.09
142
0.0
143
25.399999999999999
144
1.0
145
0.0
146
1.0
147
0.09
 71
     0
 72
     0
 73
     1
 74
     1
 75
     0
 76
     0
 77
     0
 78
     0
170
     0
171
     2
172
     0
173
     0
174
     0
175
     0
176
     0
177
     0
178
     0
  0
DIMSTYLE
  2
ANNOTATIVE
 70
     0
  3

  4

  5

  6

  7

 40
1.0
 41
0.18
 42
0.0625
 43
0.38
 44
0.18
 45
0.0
 46
0.0
 47
0.0
 48
0.0
140
0.18
141
0.09
142
0.0
143
25.399999999999999
144
1.0
145
0.0
146
1.0
147
0.09
 71
     0
 72
     0
 73
     1
 74
     1
 75
     0
 76
     0
 77
     0
 78
     0
170
     0
171
     2
172
     0
173
     0
174
     0
175
     0
176
     0
177
     0
178
     0
  0
DIMSTYLE
  2
S10
 70
     0
  3

  4

  5

  6

  7

 40
10.0
 41
2.0
 42
1.0
 43
10.0
 44
1.0
 45
0.0
 46
0.0
 47
0.0
 48
0.0
140
3.2000000000000002
141
0.0
142
0.0
143
25.399999999999999
144
1.0
145
0.0
146
1.0
147
0.9
 71
     0
 72
     0
 73
     0
 74
     0
 75
     0
 76
     0
 77
     1
 78
     8
170
     0
171
     2
172
     1
173
     0
174
     0
175
     0
176
   256
177
   256
178
   256
  0
ENDTAB
  0
ENDSEC
  0
SECTION
  2
BLOCKS
  0
BLOCK
  8
0
  2
$MODEL_SPACE
 70
     0
 10
0.0
 20
0.0
 30
0.0
  3
$MODEL_SPACE
  1

  0
ENDBLK
  5
12261B
  8
0
  0
BLOCK
 67
     1
  8
0
  2
$PAPER_SPACE
 70
     0
 10
0.0
 20
0.0
 30
0.0
  3
$PAPER_SPACE
  1

  0
ENDBLK
  5
122617
 67
     1
  8
0
  0
BLOCK
  8
0
  2
_OPEN30
 70
     0
 10
0.0
 20
0.0
 30
0.0
  3
_OPEN30
  1

  0
LINE
  5
202
  8
0
  6
BYBLOCK
 62
     0
 10
-1.0
 20
0.26794919
 30
0.0
 11
0.0
 21
0.0
 31
0.0
  0
LINE
  5
203
  8
0
  6
BYBLOCK
 62
     0
 10
0.0
 20
0.0
 30
0.0
 11
-1.0
 21
-0.26794919
 31
0.0
  0
LINE
  5
204
  8
0
  6
BYBLOCK
 62
     0
 10
0.0
 20
0.0
 30
0.0
 11
-1.0
 21
0.0
 31
0.0
  0
ENDBLK
  5
206
  8
0
  0
ENDSEC
  0
SECTION
  2
ENTITIES
  0
LINE
  5
12229B
  8
SLIM
 10
3927.3018300565232
 20
-155.95484036957691
 30
0.0
 11
3955.9548403695781
 21
-127.30183005652231
 31
0.0
1001
GRADIENTCOLOR1ACI
1070
     5
1001
GRADIENTCOLOR2ACI
1070
     2
1001
ACAD
1010
0.0
1020
0.0
1030
0.0
1001
ACDBBLOCKREPETAG
1070
     1
1071
      436
1005
12229B
  0
LINE
  5
12229C
  8
SLIM
 10
3919.4861520708369
 20
-172.75077447633191
 30
0.0
 11
3938.2903089572728
 21
-153.94661758989659
 31
0.0
1001
GRADIENTCOLOR1ACI
1070
     5
1001
GRADIENTCOLOR2ACI
1070
     2
1001
ACAD
1010
0.0
1020
0.0
1030
0.0
1001
ACDBBLOCKREPETAG
1070
     1
1071
      437
1005
12229C
  0
LINE
  5
12229D
  8
SLIM
 10
3953.946617589897
 20
-138.29030895727169
 30
0.0
 11
3972.7507744763329
 21
-119.4861520708364
 31
0.0
1001
GRADIENTCOLOR1ACI
1070
     5
1001
GRADIENTCOLOR2ACI
1070
     2
1001
ACAD
1010
0.0
1020
0.0
1030
0.0
1001
ACDBBLOCKREPETAG
1070
     1
1071
      438
1005
12229D
  0
LINE
  5
12229E
  8
SLIM
 10
3916.359667993378
 20
-184.8575146748604
 30
0.0
 11
3927.6959583557841
 21
-173.5212243124561
 31
0.0
1001
GRADIENTCOLOR1ACI
1070
     5
1001
GRADIENTCOLOR2ACI
1070
     2
1001
ACAD
1010
0.0
1020
0.0
1030
0.0
1001
ACDBBLOCKREPETAG
1070
     1
1071
      439
1005
12229E
  0
LINE
  5
12229F
  8
SLIM
 10
3973.521224312457
 20
-127.6959583557812
 30
0.0
 11
3984.8575146748631
 21
-116.359667993377
 31
0.0
1001
GRADIENTCOLOR1ACI
1070
     5
1001
GRADIENTCOLOR2ACI
1070
     2
1001
ACAD
1010
0.0
1020
0.0
1030
0.0
1001
ACDBBLOCKREPETAG
1070
     1
1071
      440
1005
12229F
  0
LINE
  5
1222A0
  8
SLIM
 10
3915.1440575890529
 20
-195.0533812002549
 30
0.0
 11
3924.303021643183
 21
-185.89441714612491
 31
0.0
1001
GRADIENTCOLOR1ACI
1070
     5
1001
GRADIENTCOLOR2ACI
1070
     2
1001
ACAD
1010
0.0
1020
0.0
1030
0.0
1001
ACDBBLOCKREPETAG
1070
     1
1071
      441
1005
1222A0
  0
LINE
  5
1222A1
  8
SLIM
 10
3985.8944171461271
 20
-124.30302164318159
 30
0.0
 11
3995.0533812002559
 21
-115.1440575890517
 31
0.0
1001
GRADIENTCOLOR1ACI
1070
     5
1001
GRADIENTCOLOR2ACI
1070
     2
1001
ACAD
1010
0.0
1020
0.0
1030
0.0
1001
ACDBBLOCKREPETAG
1070
     1
1071
      442
1005
1222A1
  0
LINE
  5
1222A2
  8
SLIM
 10
3915.097963557474
 20
-204.07973135290339
 30
0.0
 11
3919.1776949103769
 21
-199.99999999999909
 31
0.0
1001
GRADIENTCOLOR1ACI
1070
     5
1001
GRADIENTCOLOR2ACI
1070
     2
1001
ACAD
1010
0.0
1020
0.0
1030
0.0
1001
ACDBBLOCKREPETAG
1070
     1
1071
      443
1005
1222A2
  0
LINE
  5
1222A3
  8
SLIM
 10
4000.0
 20
-119.1776949103767
 30
0.0
 11
4004.0797313529042
 21
-115.0979635574724
 31
0.0
1001
GRADIENTCOLOR1ACI
1070
     5
1001
GRADIENTCOLOR2ACI
1070
     2
1001
ACAD
1010
0.0
1020
0.0
1030
0.0
1001
ACDBBLOCKREPETAG
1070
     1
1071
      444
1005
1222A3
  0
LINE
  5
1222A4
  8
SLIM
 10
3919.1776949103769
 20
-199.99999999999909
 30
0.0
 11
3923.0999621611709
 21
-196.07773274920581
 31
0.0
1001
GRADIENTCOLOR1ACI
1070
     5
1001
GRADIENTCOLOR2ACI
1070
     2
1001
ACAD
1010
0.0
1020
0.0
1030
0.0
1001
ACDBBLOCKREPETAG
1070
     1
1071
      445
1005
1222A4
  0
LINE
  5
1222A5
  8
SLIM
 10
3996.0777327492078
 20
-123.0999621611699
 30
0.0
 11
4000.0
 21
-119.1776949103767
 31
0.0
1001
GRADIENTCOLOR1ACI
1070
     5
1001
GRADIENTCOLOR2ACI
1070
     2
1001
ACAD
1010
0.0
1020
0.0
1030
0.0
1001
ACDBBLOCKREPETAG
1070
     1
1071
      446
1005
1222A5
  0
LINE
  5
1222A6
  8
SLIM
 10
3915.8899726208729
 20
-212.26797841057399
 30
0.0
 11
3923.162230777169
 21
-204.9957202542767
 31
0.0
1001
GRADIENTCOLOR1ACI
1070
     5
1001
GRADIENTCOLOR2ACI
1070
     2
1001
ACAD
1010
0.0
1020
0.0
1030
0.0
1001
ACDBBLOCKREPETAG
1070
     1
1071
      447
1005
1222A6
  0
LINE
  5
1222A7
  8
SLIM
 10
4004.9957202542769
 20
-123.1622307771683
 30
0.0
 11
4012.2679784105749
 21
-115.88997262087101
 31
0.0
1001
GRADIENTCOLOR1ACI
1070
     5
1001
GRADIENTCOLOR2ACI
1070
     2
1001
ACAD
1010
0.0
1020
0.0
1030
0.0
1001
ACDBBLOCKREPETAG
1070
     1
1071
      448
1005
1222A7
  0
LINE
  5
1222A8
  8
SLIM
 10
3917.338265695154
 20
-219.79994145736151
 30
0.0
 11
3924.1101477855509
 21
-213.02805936696359
 31
0.0
1001
GRADIENTCOLOR1ACI
1070
     5
1001
GRADIENTCOLOR2ACI
1070
     2
1001
ACAD
1010
0.0
1020
0.0
1030
0.0
1001
ACDBBLOCKREPETAG
1070
     1
1071
      449
1005
1222A8
  0
LINE
  5
1222A9
  8
SLIM
 10
4013.028059366964
 20
-124.1101477855505
 30
0.0
 11
4019.7999414573601
 21
-117.3382656951526
 31
0.0
1001
GRADIENTCOLOR1ACI
1070
     5
1001
GRADIENTCOLOR2ACI
1070
     2
1001
ACAD
1010
0.0
1020
0.0
1030
0.0
1001
ACDBBLOCKREPETAG
1070
     1
1071
      450
1005
1222A9
  0
LINE
  5
1222AA
  8
SLIM
 10
3919.331259406305
 20
-226.78720386727881
 30
0.0
 11
3925.7443819593391
 21
-220.3740813142449
 31
0.0
1001
GRADIENTCOLOR1ACI
1070
     5
1001
GRADIENTCOLOR2ACI
1070
     2
1001
ACAD
1010
0.0
1020
0.0
1030
0.0
1001
ACDBBLOCKREPETAG
1070
     1
1071
      451
1005
1222AA
  0
LINE
  5
1222AB
  8
SLIM
 10
4020.3740813142458
 20
-125.7443819593384
 30
0.0
 11
4026.7872038672799
 21
-119.3312594063044
 31
0.0
1001
GRADIENTCOLOR1ACI
1070
     5
1001
GRADIENTCOLOR2ACI
1070
     2
1001
ACAD
1010
0.0
1020
0.0
1030
0.0
1001
ACDBBLOCKREPETAG
1070
     1
1071
      452
1005
1222AB
  0
LINE
  5
1222AC
  8
SLIM
 10
3921.795716318622
 20
-233.30300307603289
 30
0.0
 11
3927.9462473957792
 21
-227.1524719988744
 31
0.0
1001
GRADIENTCOLOR1ACI
1070
     5
1001
GRADIENTCOLOR2ACI
1070
     2
1001
ACAD
1010
0.0
1020
0.0
1030
0.0
1001
ACDBBLOCKREPETAG
1070
     1
1071
      453
1005
1222AC
  0
LINE
  5
1222AD
  8
SLIM
 10
4027.1524719988752
 20
-127.946247395778
 30
0.0
 11
4033.3030030760319
 21
-121.7957163186195
 31
0.0
1001
GRADIENTCOLOR1ACI
1070
     5
1001
GRADIENTCOLOR2ACI
1070
     2
1001
ACAD
1010
0.0
1020
0.0
1030
0.0
1001
ACDBBLOCKREPETAG
1070
     1
1071
      454
1005
1222AD
  0
LINE
  5
1222AE
  8
SLIM
 10
3924.6816635313448
 20
-239.39731198437769
 30
0.0
 11
3930.6398768643921
 21
-233.4390986513296
 31
0.0
1001
GRADIENTCOLOR1ACI
1070
     5
1001
GRADIENTCOLOR2ACI
1070
     2
1001
ACAD
1010
0.0
1020
0.0
1030
0.0
1001
ACDBBLOCKREPETAG
1070
     1
1071
      455
1005
1222AE
  0
LINE
  5
1222AF
  8
SLIM
 10
4033.4390986513308
 20
-130.63987686439199
 30
0.0
 11
4039.3973119843781
 21
-124.6816635313439
 31
0.0
1001
GRADIENTCOLOR1ACI
1070
     5
1001
GRADIENTCOLOR2ACI
1070
     2
1001
ACAD
1010
0.0
1020
0.0
1030
0.0
1001
ACDBBLOCKREPETAG
1070
     1
1071
      456
1005
1222AF
  0
LINE
  5
1222B0
  8
SLIM
 10
3927.9544611024248
 20
-245.10477053436691
 30
0.0
 11
3933.775007014995
 21
-239.28422462179759
 31
0.0
1001
GRADIENTCOLOR1ACI
1070
     5
1001
GRADIENTCOLOR2ACI
1070
     2
1001
ACAD
1010
0.0
1020
0.0
1030
0.0
1001
ACDBBLOCKREPETAG
1070
     1
1071
      457
1005
1222B0
  0
LINE
  5
1222B1
  8
SLIM
 10
4039.284224621797
 20
-133.77500701499321
 30
0.0
 11
4045.1047705343681
 21
-127.95446110242381
 31
0.0
1001
GRADIENTCOLOR1ACI
1070
     5
1001
GRADIENTCOLOR2ACI
1070
     2
1001
ACAD
1010
0.0
1020
0.0
1030
0.0
1001
ACDBBLOCKREPETAG
1070
     1
1071
      458
1005
1222B1
  0
LINE
  5
1222B2
  8
SLIM
 10
3931.5903319686659
 20
-250.4491557891954
 30
0.0
 11
3937.3182075880568
 21
-244.72128016980341
 31
0.0
1001
GRADIENTCOLOR1ACI
1070
     5
1001
GRADIENTCOLOR2ACI
1070
     2
1001
ACAD
1010
0.0
1020
0.0
1030
0.0
1001
ACDBBLOCKREPETAG
1070
     1
1071
      459
1005
1222B2
  0
LINE
  5
1222B3
  8
SLIM
 10
4044.7212801698038
 20
-137.31820758805651
 30
0.0
 11
4050.4491557891961
 21
-131.59033196866449
 31
0.0
1001
GRADIENTCOLOR1ACI
1070
     5
1001
GRADIENTCOLOR2ACI
1070
     2
1001
ACAD
1010
0.0
1020
0.0
1030
0.0
1001
ACDBBLOCKREPETAG
1070
     1
1071
      460
1005
1222B3
  0
LINE
  5
1222B4
  8
SLIM
 10
3935.5737496925258
 20
-255.4459941864034
 30
0.0
 11
3941.24811054159
 21
-249.77163333734029
 31
0.0
1001
GRADIENTCOLOR1ACI
1070
     5
1001
GRADIENTCOLOR2ACI
1070
     2
1001
ACAD
1010
0.0
1020
0.0
1030
0.0
1001
ACDBBLOCKREPETAG
1070
     1
1071
      461
1005
1222B4
  0
LINE
  5
1222B5
  8
SLIM
 10
4053.0197438789291
 20
-137.99999999999909
 30
0.0
 11
4055.4459941864038
 21
-135.57374969252561
 31
0.0
1001
GRADIENTCOLOR1ACI
1070
     5
1001
GRADIENTCOLOR2ACI
1070
     2
1001
ACAD
1010
0.0
1020
0.0
1030
0.0
1001
ACDBBLOCKREPETAG
1070
     1
1071
      462
1005
1222B5
  0
LINE
  5
1222B6
  8
SLIM
 10
3939.8959235991442
 20
-260.10407640085572
 30
0.0
 11
3945.5527778486362
 21
-254.44722215136329
 31
0.0
1001
GRADIENTCOLOR1ACI
1070
     5
1001
GRADIENTCOLOR2ACI
1070
     2
1001
ACAD
1010
0.0
1020
0.0
1030
0.0
1001
ACDBBLOCKREPETAG
1070
     1
1071
      463
1005
1222B6
  0
LINE
  5
1222B7
  8
SLIM
 10
3944.5540058135962
 20
-264.4262503074724
 30
0.0
 11
3950.2283666626599
 21
-258.75188945840949
 31
0.0
1001
GRADIENTCOLOR1ACI
1070
     5
1001
GRADIENTCOLOR2ACI
1070
     2
1001
ACAD
1010
0.0
1020
0.0
1030
0.0
1001
ACDBBLOCKREPETAG
1070
     1
1071
      464
1005
1222B7
  0
LINE
  5
1222B8
  8
SLIM
 10
3949.5508442108039
 20
-268.40966803133369
 30
0.0
 11
3955.2787198301962
 21
-262.68179241194167
 31
0.0
1001
GRADIENTCOLOR1ACI
1070
     5
1001
GRADIENTCOLOR2ACI
1070
     2
1001
ACAD
1010
0.0
1020
0.0
1030
0.0
1001
ACDBBLOCKREPETAG
1070
     1
1071
      465
1005
1222B8
  0
LINE
  5
1222B9
  8
SLIM
 10
3954.8952294656328
 20
-272.04553889757437
 30
0.0
 11
3960.7157753782012
 21
-266.22499298500497
 31
0.0
1001
GRADIENTCOLOR1ACI
1070
     5
1001
GRADIENTCOLOR2ACI
1070
     2
1001
ACAD
1010
0.0
1020
0.0
1030
0.0
1001
ACDBBLOCKREPETAG
1070
     1
1071
      466
1005
1222B9
  0
LINE
  5
1222BA
  8
SLIM
 10
3960.602688015621
 20
-275.31833646865431
 30
0.0
 11
3966.560901348671
 21
-269.36012313560622
 31
0.0
1001
GRADIENTCOLOR1ACI
1070
     5
1001
GRADIENTCOLOR2ACI
1070
     2
1001
ACAD
1010
0.0
1020
0.0
1030
0.0
1001
ACDBBLOCKREPETAG
1070
     1
1071
      467
1005
1222BA
  0
LINE
  5
1222BB
  8
SLIM
 10
3966.6969969239681
 20
-278.20428368137868
 30
0.0
 11
3972.8475280011248
 21
-272.05375260422022
 31
0.0
1001
GRADIENTCOLOR1ACI
1070
     5
1001
GRADIENTCOLOR2ACI
1070
     2
1001
ACAD
1010
0.0
1020
0.0
1030
0.0
1001
ACDBBLOCKREPETAG
1070
     1
1071
      468
1005
1222BB
  0
LINE
  5
1222BC
  8
SLIM
 10
3973.2127961327192
 20
-280.66874059369371
 30
0.0
 11
3979.6259186857542
 21
-274.25561804065973
 31
0.0
1001
GRADIENTCOLOR1ACI
1070
     5
1001
GRADIENTCOLOR2ACI
1070
     2
1001
ACAD
1010
0.0
1020
0.0
1030
0.0
1001
ACDBBLOCKREPETAG
1070
     1
1071
      469
1005
1222BC
  0
LINE
  5
1222BD
  8
SLIM
 10
3980.200058542639
 20
-282.6617343048456
 30
0.0
 11
3986.971940633035
 21
-275.88985221444773
 31
0.0
1001
GRADIENTCOLOR1ACI
1070
     5
1001
GRADIENTCOLOR2ACI
1070
     2
1001
ACAD
1010
0.0
1020
0.0
1030
0.0
1001
ACDBBLOCKREPETAG
1070
     1
1071
      470
1005
1222BD
  0
LINE
  5
1222BE
  8
SLIM
 10
3987.7320215894251
 20
-284.11002737912702
 30
0.0
 11
3995.0042797457209
 21
-276.83776922282988
 31
0.0
1001
GRADIENTCOLOR1ACI
1070
     5
1001
GRADIENTCOLOR2ACI
1070
     2
1001
ACAD
1010
0.0
1020
0.0
1030
0.0
1001
ACDBBLOCKREPETAG
1070
     1
1071
      471
1005
1222BE
  0
LINE
  5
1222BF
  8
SLIM
 10
3995.9202686470958
 20
-284.9020364425258
 30
0.0
 11
4000.0
 21
-280.82230508962152
 31
0.0
1001
GRADIENTCOLOR1ACI
1070
     5
1001
GRADIENTCOLOR2ACI
1070
     2
1001
ACAD
1010
0.0
1020
0.0
1030
0.0
1001
ACDBBLOCKREPETAG
1070
     1
1071
      472
1005
1222BF
  0
LINE
  5
1222C0
  8
SLIM
 10
4000.0
 20
-280.82230508962152
 30
0.0
 11
4003.9222672507922
 21
-276.90003783882821
 31
0.0
1001
GRADIENTCOLOR1ACI
1070
     5
1001
GRADIENTCOLOR2ACI
1070
     2
1001
ACAD
1010
0.0
1020
0.0
1030
0.0
1001
ACDBBLOCKREPETAG
1070
     1
1071
      473
1005
1222C0
  0
LINE
  5
1222C1
  8
SLIM
 10
4004.9466187997441
 20
-284.85594241094651
 30
0.0
 11
4014.1055828538729
 21
-275.6969783568166
 31
0.0
1001
GRADIENTCOLOR1ACI
1070
     5
1001
GRADIENTCOLOR2ACI
1070
     2
1001
ACAD
1010
0.0
1020
0.0
1030
0.0
1001
ACDBBLOCKREPETAG
1070
     1
1071
      474
1005
1222C1
  0
LINE
  5
1222C2
  8
SLIM
 10
4015.1424853251392
 20
-283.64033200662118
 30
0.0
 11
4026.4787756875421
 21
-272.30404164421702
 31
0.0
1001
GRADIENTCOLOR1ACI
1070
     5
1001
GRADIENTCOLOR2ACI
1070
     2
1001
ACAD
1010
0.0
1020
0.0
1030
0.0
1001
ACDBBLOCKREPETAG
1070
     1
1071
      475
1005
1222C2
  0
LINE
  5
1222C3
  8
SLIM
 10
4027.2492255236671
 20
-280.51384792916173
 30
0.0
 11
4045.7630734528302
 21
-261.99999999999909
 31
0.0
1001
GRADIENTCOLOR1ACI
1070
     5
1001
GRADIENTCOLOR2ACI
1070
     2
1001
ACAD
1010
0.0
1020
0.0
1030
0.0
1001
ACDBBLOCKREPETAG
1070
     1
1071
      476
1005
1222C3
  0
LINE
  5
1222C4
  8
SLIM
 10
4044.0451596304219
 20
-272.69816994347582
 30
0.0
 11
4054.7433295738979
 21
-261.99999999999909
 31
0.0
1001
GRADIENTCOLOR1ACI
1070
     5
1001
GRADIENTCOLOR2ACI
1070
     2
1001
ACAD
1010
0.0
1020
0.0
1030
0.0
1001
ACDBBLOCKREPETAG
1070
     1
1071
      477
1005
1222C4
  0
LINE
  5
1222C5
  8
CENTER
 10
4080.0
 20
-199.99999999999909
 30
0.0
 11
3900.0
 21
-199.99999999999909
 31
0.0
1001
ACDBBLOCKREPETAG
1070
     1
1071
      187
1005
1222C5
  0
LINE
  5
1222C6
  8
CENTER
 10
4000.0
 20
-299.99999999999892
 30
0.0
 11
4000.0
 21
-99.999999999999091
 31
0.0
1001
ACDBBLOCKREPETAG
1070
     1
1071
      188
1005
1222C6
  0
CIRCLE
  5
1222C7
  8
OBJECT
 10
4000.0
 20
-199.99999999999909
 30
0.0
 40
70.0
1001
ACDBBLOCKREPETAG
1070
     1
1071
      189
1005
1222C7
  0
CIRCLE
  5
1222C8
  8
OBJECT
 10
4000.0
 20
-199.99999999999909
 30
0.0
 40
77.0
1001
ACDBBLOCKREPETAG
1070
     1
1071
      190
1005
1222C8
  0
LINE
  5
1222C9
  8
OBJECT
 10
4045.661800227324
 20
-137.99999999999909
 30
0.0
 11
4080.0
 21
-137.99999999999909
 31
0.0
1001
ACDBBLOCKREPETAG
1070
     1
1071
      192
1005
1222C9
  0
LINE
  5
1222CA
  8
OBJECT
 10
4045.661800227324
 20
-261.99999999999909
 30
0.0
 11
4080.0
 21
-261.99999999999909
 31
0.0
1001
ACDBBLOCKREPETAG
1070
     1
1071
      193
1005
1222CA
  0
POINT
  5
1222CB
  8
DOTS
 10
4000.0
 20
-199.99999999999909
 30
0.0
1001
ACDBBLOCKREPETAG
1070
     1
1071
      194
1005
1222CB
  0
ARC
  5
1222CC
  8
OBJECT
 10
4000.0
 20
-199.99999999999909
 30
0.0
 40
85.0
 50
46.837102859834147
 51
313.16289714016602
1001
ACDBBLOCKREPETAG
1070
     1
1071
      202
1005
1222CC
  0
CIRCLE
  5
1222CD
  8
OBJECT
 10
4000.0
 20
-199.99999999999909
 30
0.0
 40
53.5
1001
ACDBBLOCKREPETAG
1070
     1
1071
      356
1005
1222CD
  0
LINE
  5
1222CE
  8
OBJECT
 10
3923.0
 20
-470.99999999999932
 30
0.0
 11
3923.0
 21
-449.99999999999932
 31
0.0
1001
ACDBBLOCKREPETAG
1070
     1
1071
        0
1005
1222CE
  0
LINE
  5
1222CF
  8
OBJECT
 10
3923.0
 20
-449.99999999999932
 30
0.0
 11
4077.0
 21
-449.99999999999932
 31
0.0
1001
ACDBBLOCKREPETAG
1070
     1
1071
        1
1005
1222CF
  0
LINE
  5
1222D0
  8
HIDDEN
 10
3943.0
 20
-519.99999999999955
 30
0.0
 11
4057.0
 21
-519.99999999999955
 31
0.0
1001
ACDBBLOCKREPETAG
1070
     1
1071
        2
1005
1222D0
  0
LINE
  5
1222D1
  8
OBJECT
 10
4077.0
 20
-449.99999999999932
 30
0.0
 11
4077.0
 21
-470.99999999999932
 31
0.0
1001
ACDBBLOCKREPETAG
1070
     1
1071
        3
1005
1222D1
  0
LINE
  5
1222D2
  8
OBJECT
 10
4077.0
 20
-470.99999999999932
 30
0.0
 11
3923.0
 21
-470.99999999999932
 31
0.0
1001
ACDBBLOCKREPETAG
1070
     1
1071
        4
1005
1222D2
  0
LINE
  5
1222D3
  8
CENTER
 10
4000.0
 20
-434.99999999999949
 30
0.0
 11
4000.0
 21
-789.99999999999955
 31
0.0
1001
ACDBBLOCKREPETAG
1070
     1
1071
        5
1005
1222D3
  0
LINE
  5
1222D4
  8
OBJECT
 10
3925.0
 20
-533.99999999999955
 30
0.0
 11
3925.0
 21
-777.99999999999955
 31
0.0
1001
ACDBBLOCKREPETAG
1070
     1
1071
        6
1005
1222D4
  0
LINE
  5
1222D5
  8
OBJECT
 10
3928.0
 20
-470.99999999999932
 30
0.0
 11
3928.0
 21
-533.99999999999955
 31
0.0
1001
ACDBBLOCKREPETAG
1070
     1
1071
        7
1005
1222D5
  0
LINE
  5
1222D6
  8
OBJECT
 10
4072.0
 20
-533.99999999999955
 30
0.0
 11
4072.0
 21
-470.99999999999932
 31
0.0
1001
ACDBBLOCKREPETAG
1070
     1
1071
        8
1005
1222D6
  0
LINE
  5
1222D7
  8
OBJECT
 10
3920.0
 20
-777.99999999999955
 30
0.0
 11
4080.0
 21
-777.99999999999955
 31
0.0
1001
ACDBBLOCKREPETAG
1070
     1
1071
        9
1005
1222D7
  0
LINE
  5
1222D8
  8
OBJECT
 10
4080.0
 20
-533.99999999999955
 30
0.0
 11
3925.0
 21
-533.99999999999955
 31
0.0
1001
ACDBBLOCKREPETAG
1070
     1
1071
       10
1005
1222D8
  0
LINE
  5
1222D9
  8
OBJECT
 10
3920.0
 20
-777.99999999999955
 30
0.0
 11
3920.0
 21
-789.99999999999955
 31
0.0
1001
ACDBBLOCKREPETAG
1070
     1
1071
       11
1005
1222D9
  0
LINE
  5
1222DA
  8
OBJECT
 10
3920.0
 20
-789.99999999999955
 30
0.0
 11
4080.0
 21
-789.99999999999955
 31
0.0
1001
ACDBBLOCKREPETAG
1070
     1
1071
       12
1005
1222DA
  0
LINE
  5
1222DB
  8
OBJECT
 10
4080.0
 20
-789.99999999999955
 30
0.0
 11
4080.0
 21
-777.99999999999955
 31
0.0
1001
ACDBBLOCKREPETAG
1070
     1
1071
       13
1005
1222DB
  0
LINE
  5
1222DC
  8
OBJECT
 10
4074.9999999998631
 20
-657.99999999985039
 30
0.0
 11
4075.0
 21
-777.99999999999955
 31
0.0
1001
ACDBBLOCKREPETAG
1070
     1
1071
       15
1005
1222DC
  0
LINE
  5
1222DD
  8
OBJECT
 10
4074.9999908029849
 20
-657.99998602702135
 30
0.0
 11
4080.0
 21
-657.99998602702135
 31
0.0
1001
ACDBBLOCKREPETAG
1070
     1
1071
       16
1005
1222DD
  0
ARC
  5
1222DE
  8
OBJECT
 10
4200.6872746716726
 20
-649.40809941010718
 30
0.0
 40
170.6350503965856
 50
137.44134459184301
 51
149.91949581337221
1001
ACDBBLOCKREPETAG
1070
     1
1071
       17
1005
1222DE
  0
ARC
  5
1222DF
  8
OBJECT
 10
4118.8455987040506
 20
-605.88272669536445
 30
0.0
 40
78.072222021763665
 50
147.4551531038623
 51
164.6636599771798
1001
ACDBBLOCKREPETAG
1070
     1
1071
       18
1005
1222DF
  0
ARC
  5
1222E0
  8
OBJECT
 10
4085.7554349608722
 20
-595.99999999999955
 30
0.0
 40
43.55353926885617
 50
165.6884523007466
 51
194.3115476992534
1001
ACDBBLOCKREPETAG
1070
     1
1071
       19
1005
1222E0
  0
ARC
  5
1222E1
  8
OBJECT
 10
4200.6872746716726
 20
-542.59190058989179
 30
0.0
 40
170.6350503965856
 50
210.08050418662771
 51
222.55865540815699
1001
ACDBBLOCKREPETAG
1070
     1
1071
       20
1005
1222E1
  0
ARC
  5
1222E2
  8
OBJECT
 10
4118.8455987040506
 20
-586.11727330463452
 30
0.0
 40
78.072222021763665
 50
195.3363400228202
 51
212.5448468961377
1001
ACDBBLOCKREPETAG
1070
     1
1071
       21
1005
1222E2
  0
POINT
  5
1222E3
  8
DOTS
 10
4000.0
 20
-654.99999999999966
 30
0.0
1001
ACDBBLOCKREPETAG
1070
     1
1071
      187
1005
1222E3
  0
LINE
  5
1222E4
  8
OBJECT
 10
4114.0
 20
-488.0
 30
0.0
 11
4114.0
 21
-486.0
 31
0.0
1001
ACDBBLOCKREPETAG
1070
     1
1071
      157
1005
1222E4
  0
ARC
  5
1222E5
  8
OBJECT
 10
4155.1865574982548
 20
-506.0
 30
0.0
 40
59.0
 50
229.20276883323919
 51
270.0
1001
ACDBBLOCKREPETAG
1070
     1
1071
      158
1005
1222E5
  0
LINE
  5
1222E6
  8
OBJECT
 10
4224.0
 20
-494.5
 30
0.0
 11
4089.0
 21
-494.5
 31
0.0
1001
ACDBBLOCKREPETAG
1070
     1
1071
      159
1005
1222E6
  0
LINE
  5
1222E7
  8
OBJECT
 10
4089.0
 20
-507.5
 30
0.0
 11
4224.0
 21
-507.5
 31
0.0
1001
ACDBBLOCKREPETAG
1070
     1
1071
      160
1005
1222E7
  0
LINE
  5
1222E8
  8
OBJECT
 10
4089.0
 20
-494.5
 30
0.0
 11
4089.0
 21
-507.5
 31
0.0
1001
ACDBBLOCKREPETAG
1070
     1
1071
      161
1005
1222E8
  0
LINE
  5
1222E9
  8
OBJECT
 10
4096.0
 20
-516.5
 30
0.0
 11
4096.0
 21
-507.5
 31
0.0
1001
ACDBBLOCKREPETAG
1070
     1
1071
      162
1005
1222E9
  0
LINE
  5
1222EA
  8
OBJECT
 10
4114.0
 20
-520.0
 30
0.0
 11
4114.0
 21
-507.5
 31
0.0
1001
ACDBBLOCKREPETAG
1070
     1
1071
      163
1005
1222EA
  0
LINE
  5
1222EB
  8
OBJECT
 10
4204.0
 20
-516.5
 30
0.0
 11
4204.0
 21
-507.5
 31
0.0
1001
ACDBBLOCKREPETAG
1070
     1
1071
      164
1005
1222EB
  0
LINE
  5
1222EC
  8
OBJECT
 10
4224.0
 20
-494.5
 30
0.0
 11
4224.0
 21
-507.5
 31
0.0
1001
ACDBBLOCKREPETAG
1070
     1
1071
      165
1005
1222EC
  0
LINE
  5
1222ED
  8
OBJECT
 10
4122.0
 20
-520.0
 30
0.0
 11
4122.0
 21
-507.5
 31
0.0
1001
ACDBBLOCKREPETAG
1070
     1
1071
      166
1005
1222ED
  0
LINE
  5
1222EE
  8
OBJECT
 10
4114.0
 20
-516.5
 30
0.0
 11
4095.0
 21
-516.5
 31
0.0
1001
ACDBBLOCKREPETAG
1070
     1
1071
      167
1005
1222EE
  0
LINE
  5
1222EF
  8
OBJECT
 10
4095.0
 20
-520.0
 30
0.0
 11
4095.0
 21
-516.5
 31
0.0
1001
ACDBBLOCKREPETAG
1070
     1
1071
      168
1005
1222EF
  0
LINE
  5
1222F0
  8
OBJECT
 10
4122.0
 20
-516.5
 30
0.0
 11
4205.0
 21
-516.5
 31
0.0
1001
ACDBBLOCKREPETAG
1070
     1
1071
      169
1005
1222F0
  0
LINE
  5
1222F1
  8
OBJECT
 10
4205.0
 20
-516.5
 30
0.0
 11
4205.0
 21
-520.0
 31
0.0
1001
ACDBBLOCKREPETAG
1070
     1
1071
      170
1005
1222F1
  0
LINE
  5
1222F2
  8
OBJECT
 10
4110.4944465005347
 20
-494.5
 30
0.0
 11
4110.4944465005347
 21
-488.0
 31
0.0
1001
ACDBBLOCKREPETAG
1070
     1
1071
      171
1005
1222F2
  0
LINE
  5
1222F3
  8
OBJECT
 10
4109.0
 20
-533.0
 30
0.0
 11
4109.0
 21
-538.0
 31
0.0
1001
ACDBBLOCKREPETAG
1070
     1
1071
      172
1005
1222F3
  0
LINE
  5
1222F4
  8
OBJECT
 10
4109.0
 20
-538.0
 30
0.0
 11
4127.0
 21
-538.0
 31
0.0
1001
ACDBBLOCKREPETAG
1070
     1
1071
      173
1005
1222F4
  0
LINE
  5
1222F5
  8
OBJECT
 10
4127.0
 20
-533.0
 30
0.0
 11
4127.0
 21
-538.0
 31
0.0
1001
ACDBBLOCKREPETAG
1070
     1
1071
      174
1005
1222F5
  0
LINE
  5
1222F6
  8
OBJECT
 10
4089.0000000000032
 20
-520.0
 30
0.0
 11
4224.0
 21
-520.0
 31
0.0
1001
ACDBBLOCKREPETAG
1070
     1
1071
      175
1005
1222F6
  0
LINE
  5
1222F7
  8
OBJECT
 10
4224.0
 20
-520.0
 30
0.0
 11
4224.0
 21
-533.0
 31
0.0
1001
ACDBBLOCKREPETAG
1070
     1
1071
      176
1005
1222F7
  0
LINE
  5
1222F8
  8
OBJECT
 10
4116.6369002447618
 20
-550.6645712577473
 30
0.0
 11
4096.1702980000009
 21
-533.0
 31
0.0
1001
ACDBBLOCKREPETAG
1070
     1
1071
      177
1005
1222F8
  0
LINE
  5
1222F9
  8
OBJECT
 10
4201.0000000000036
 20
-540.65708264965724
 30
0.0
 11
4201.0000000000036
 21
-565.0
 31
0.0
1001
ACDBBLOCKREPETAG
1070
     1
1071
      178
1005
1222F9
  0
LINE
  5
1222FA
  8
OBJECT
 10
4155.1865574982548
 20
-565.0
 30
0.0
 11
4201.0000000000036
 21
-565.0
 31
0.0
1001
ACDBBLOCKREPETAG
1070
     1
1071
      179
1005
1222FA
  0
ARC
  5
1222FB
  8
OBJECT
 10
4110.5
 20
-566.5
 30
0.0
 40
84.0
 50
277.05348487097029
 51
1.023193303671255
1001
ACDBBLOCKREPETAG
1070
     1
1071
      180
1005
1222FB
  0
LINE
  5
1222FC
  8
OBJECT
 10
4086.0
 20
-654.1720031702107
 30
0.0
 11
4120.8148488128827
 21
-649.86428428270381
 31
0.0
1001
ACDBBLOCKREPETAG
1070
     1
1071
      181
1005
1222FC
  0
LINE
  5
1222FD
  8
OBJECT
 10
4086.0000000000032
 20
-655.00000000000068
 30
0.0
 11
4086.0000000000032
 21
-534.0
 31
0.0
1001
ACDBBLOCKREPETAG
1070
     1
1071
      182
1005
1222FD
  0
ARC
  5
1222FE
  8
OBJECT
 10
4083.0000000000032
 20
-655.00000000000068
 30
0.0
 40
3.0
 50
270.0
 51
0.0
1001
ACDBBLOCKREPETAG
1070
     1
1071
      183
1005
1222FE
  0
LINE
  5
1222FF
  8
OBJECT
 10
4096.1702980000009
 20
-533.0
 30
0.0
 11
4224.0
 21
-533.0
 31
0.0
1001
ACDBBLOCKREPETAG
1070
     1
1071
      184
1005
1222FF
  0
LINE
  5
122300
  8
OBJECT
 10
4105.0539138517233
 20
-540.65708264965724
 30
0.0
 11
4201.0000000000036
 21
-540.65708264965724
 31
0.0
1001
ACDBBLOCKREPETAG
1070
     1
1071
      185
1005
122300
  0
LINE
  5
122301
  8
OBJECT
 10
4205.0
 20
-535.89006764214901
 30
0.0
 11
4201.0000000000036
 21
-540.65708264965724
 31
0.0
1001
ACDBBLOCKREPETAG
1070
     1
1071
      186
1005
122301
  0
LINE
  5
122302
  8
OBJECT
 10
4089.0000000000032
 20
-520.0
 30
0.0
 11
4089.0000000000068
 21
-534.0
 31
0.0
1001
ACDBBLOCKREPETAG
1070
     1
1071
      187
1005
122302
  0
LINE
  5
122303
  8
HIDDEN
 10
4105.5
 20
-560.0
 30
0.0
 11
4194.5
 21
-560.0
 31
0.0
1001
ACDBBLOCKREPETAG
1070
     1
1071
      188
1005
122303
  0
LINE
  5
122304
  8
OBJECT
 10
4114.0
 20
-486.0
 30
0.0
 11
4122.0
 21
-486.0
 31
0.0
1001
ACDBBLOCKREPETAG
1070
     1
1071
      189
1005
122304
  0
LINE
  5
122305
  8
OBJECT
 10
4122.0
 20
-488.0
 30
0.0
 11
4122.0
 21
-486.0
 31
0.0
1001
ACDBBLOCKREPETAG
1070
     1
1071
      190
1005
122305
  0
LINE
  5
122306
  8
OBJECT
 10
4110.4944465005347
 20
-488.0
 30
0.0
 11
4125.5055534994644
 21
-488.0
 31
0.0
1001
ACDBBLOCKREPETAG
1070
     1
1071
      191
1005
122306
  0
LINE
  5
122307
  8
CENTER
 10
4150.0
 20
-579.77158855533253
 30
0.0
 11
4150.0
 21
-479.49999999999989
 31
0.0
1001
ACDBBLOCKREPETAG
1070
     1
1071
      193
1005
122307
  0
LINE
  5
122308
  8
OBJECT
 10
4080.0
 20
-658.0
 30
0.0
 11
4083.0000000000032
 21
-658.0000000000008
 31
0.0
1001
ACDBBLOCKREPETAG
1070
     1
1071
      194
1005
122308
  0
LINE
  5
122309
  8
OBJECT
 10
4080.0
 20
-534.0
 30
0.0
 11
4089.0000000000068
 21
-534.0
 31
0.0
1001
ACDBBLOCKREPETAG
1070
     1
1071
      195
1005
122309
  0
LINE
  5
12230A
  8
OBJECT
 10
4114.2471969783946
 20
-494.49998110541122
 30
0.0
 11
4114.2471969783946
 21
-487.99998110541122
 31
0.0
1001
ACDBBLOCKREPETAG
1070
     1
1071
      196
1005
12230A
  0
LINE
  5
12230B
  8
OBJECT
 10
4125.5055534994644
 20
-494.5
 30
0.0
 11
4125.5055534994644
 21
-488.0
 31
0.0
1001
ACDBBLOCKREPETAG
1070
     1
1071
      197
1005
12230B
  0
LINE
  5
12230C
  8
OBJECT
 10
4121.7528030216054
 20
-494.49998110541122
 30
0.0
 11
4121.7528030216054
 21
-487.99998110541122
 31
0.0
1001
ACDBBLOCKREPETAG
1070
     1
1071
      198
1005
12230C
  0
LINE
  5
12230D
  8
OBJECT
 10
4210.0
 20
-488.0
 30
0.0
 11
4210.0
 21
-486.0
 31
0.0
1001
ACDBBLOCKREPETAG
1070
     1
1071
      199
1005
12230D
  0
LINE
  5
12230E
  8
OBJECT
 10
4210.0
 20
-520.0
 30
0.0
 11
4210.0
 21
-507.5
 31
0.0
1001
ACDBBLOCKREPETAG
1070
     1
1071
      200
1005
12230E
  0
LINE
  5
12230F
  8
OBJECT
 10
4218.0
 20
-520.0
 30
0.0
 11
4218.0
 21
-507.5
 31
0.0
1001
ACDBBLOCKREPETAG
1070
     1
1071
      201
1005
12230F
  0
LINE
  5
122310
  8
OBJECT
 10
4206.4944465005347
 20
-494.5
 30
0.0
 11
4206.4944465005347
 21
-488.0
 31
0.0
1001
ACDBBLOCKREPETAG
1070
     1
1071
      202
1005
122310
  0
LINE
  5
122311
  8
OBJECT
 10
4205.0
 20
-533.0
 30
0.0
 11
4205.0
 21
-538.0
 31
0.0
1001
ACDBBLOCKREPETAG
1070
     1
1071
      203
1005
122311
  0
LINE
  5
122312
  8
OBJECT
 10
4205.0
 20
-538.0
 30
0.0
 11
4223.0
 21
-538.0
 31
0.0
1001
ACDBBLOCKREPETAG
1070
     1
1071
      204
1005
122312
  0
LINE
  5
122313
  8
OBJECT
 10
4223.0
 20
-533.0
 30
0.0
 11
4223.0
 21
-538.0
 31
0.0
1001
ACDBBLOCKREPETAG
1070
     1
1071
      205
1005
122313
  0
LINE
  5
122314
  8
OBJECT
 10
4210.0
 20
-486.0
 30
0.0
 11
4218.0
 21
-486.0
 31
0.0
1001
ACDBBLOCKREPETAG
1070
     1
1071
      206
1005
122314
  0
LINE
  5
122315
  8
OBJECT
 10
4218.0
 20
-488.0
 30
0.0
 11
4218.0
 21
-486.0
 31
0.0
1001
ACDBBLOCKREPETAG
1070
     1
1071
      207
1005
122315
  0
LINE
  5
122316
  8
OBJECT
 10
4206.4944465005347
 20
-488.0
 30
0.0
 11
4221.5055534994644
 21
-488.0
 31
0.0
1001
ACDBBLOCKREPETAG
1070
     1
1071
      208
1005
122316
  0
LINE
  5
122317
  8
OBJECT
 10
4210.2471969783946
 20
-494.49998110541122
 30
0.0
 11
4210.2471969783946
 21
-487.99998110541122
 31
0.0
1001
ACDBBLOCKREPETAG
1070
     1
1071
      209
1005
122317
  0
LINE
  5
122318
  8
OBJECT
 10
4221.5055534994644
 20
-494.5
 30
0.0
 11
4221.5055534994644
 21
-488.0
 31
0.0
1001
ACDBBLOCKREPETAG
1070
     1
1071
      210
1005
122318
  0
LINE
  5
122319
  8
OBJECT
 10
4217.7528030216054
 20
-494.49998110541122
 30
0.0
 11
4217.7528030216054
 21
-487.99998110541122
 31
0.0
1001
ACDBBLOCKREPETAG
1070
     1
1071
      211
1005
122319
  0
LINE
  5
12231A
  8
CENTER
 10
4080.0
 20
-199.99999999999909
 30
0.0
 11
4239.0
 21
-199.99999999999909
 31
0.0
1001
ACDBBLOCKREPETAG
1070
     1
1071
      155
1005
12231A
  0
LINE
  5
12231B
  8
OBJECT
 10
4080.0
 20
-261.99999999999909
 30
0.0
 11
4083.0
 21
-261.99999999999909
 31
0.0
1001
ACDBBLOCKREPETAG
1070
     1
1071
      156
1005
12231B
  0
ARC
  5
12231C
  8
OBJECT
 10
4083.0
 20
-258.99999999999909
 30
0.0
 40
3.0
 50
270.0
 51
0.0
1001
ACDBBLOCKREPETAG
1070
     1
1071
      157
1005
12231C
  0
LINE
  5
12231D
  8
OBJECT
 10
4080.0
 20
-138.0000000000027
 30
0.0
 11
4083.0
 21
-138.0000000000027
 31
0.0
1001
ACDBBLOCKREPETAG
1070
     1
1071
      158
1005
12231D
  0
LINE
  5
12231E
  8
OBJECT
 10
4086.0
 20
-140.99999999999909
 30
0.0
 11
4108.6547275935336
 21
-140.9999999999954
 31
0.0
1001
ACDBBLOCKREPETAG
1070
     1
1071
      159
1005
12231E
  0
LINE
  5
12231F
  8
OBJECT
 10
4086.0
 20
-259.00000000000267
 30
0.0
 11
4108.6547275935336
 21
-258.99999999999909
 31
0.0
1001
ACDBBLOCKREPETAG
1070
     1
1071
      160
1005
12231F
  0
LINE
  5
122320
  8
CENTER
 10
4150.0
 20
-123.5195984073716
 30
0.0
 11
4150.0
 21
-276.48040159262649
 31
0.0
1001
ACDBBLOCKREPETAG
1070
     1
1071
      161
1005
122320
  0
LINE
  5
122321
  8
OBJECT
 10
4086.0
 20
-141.0000000000027
 30
0.0
 11
4086.0
 21
-258.99999999999909
 31
0.0
1001
ACDBBLOCKREPETAG
1070
     1
1071
      162
1005
122321
  0
ARC
  5
122322
  8
OBJECT
 10
4083.0
 20
-141.0000000000027
 30
0.0
 40
3.0
 50
0.0
 51
90.0
1001
ACDBBLOCKREPETAG
1070
     1
1071
      163
1005
122322
  0
ARC
  5
122323
  8
OBJECT
 10
4150.0
 20
-199.99999999999909
 30
0.0
 40
61.0
 50
37.167285461274467
 51
82.832714538705744
1001
ACDBBLOCKREPETAG
1070
     1
1071
      165
1005
122323
  0
ARC
  5
122324
  8
OBJECT
 10
4150.0
 20
-199.99999999999909
 30
0.0
 40
61.0
 50
157.16728546126831
 51
202.83271453873161
1001
ACDBBLOCKREPETAG
1070
     1
1071
      166
1005
122324
  0
ARC
  5
122325
  8
OBJECT
 10
4150.0
 20
-199.99999999999909
 30
0.0
 40
61.0
 50
277.16728546129423
 51
322.83271453872419
1001
ACDBBLOCKREPETAG
1070
     1
1071
      167
1005
122325
  0
CIRCLE
  5
122326
  8
SLIM
 10
4214.0
 20
-199.99999999999909
 30
0.0
 40
4.0
1001
ACDBBLOCKREPETAG
1070
     1
1071
      168
1005
122326
  0
ARC
  5
122327
  8
OBJECT
 10
4214.0
 20
-199.99999999999909
 30
0.0
 40
10.0
 50
322.83271453872419
 51
37.167285461274467
1001
ACDBBLOCKREPETAG
1070
     1
1071
      169
1005
122327
  0
LINE
  5
122328
  8
OBJECT
 10
4198.6093749999973
 20
-163.14720279124501
 30
0.0
 11
4221.96875
 21
-193.9585578346296
 31
0.0
1001
ACDBBLOCKREPETAG
1070
     1
1071
      170
1005
122328
  0
LINE
  5
122329
  8
OBJECT
 10
4198.6093749999973
 20
-236.8527972087532
 30
0.0
 11
4221.96875
 21
-206.04144216536861
 31
0.0
1001
ACDBBLOCKREPETAG
1070
     1
1071
      171
1005
122329
  0
CIRCLE
  5
12232A
  8
SLIM
 10
4118.0
 20
-144.5743741577962
 30
0.0
 40
3.9999999999999991
1001
ACDBBLOCKREPETAG
1070
     1
1071
      172
1005
12232A
  0
ARC
  5
12232B
  8
OBJECT
 10
4118.0
 20
-144.5743741577962
 30
0.0
 40
9.9999999999999982
 50
82.832714538705744
 51
157.16728546126831
1001
ACDBBLOCKREPETAG
1070
     1
1071
      173
1005
12232B
  0
LINE
  5
12232C
  8
OBJECT
 10
4093.7798539167038
 20
-176.32944499229319
 30
0.0
 11
4108.783582609296
 21
-140.6939553040711
 31
0.0
1001
ACDBBLOCKREPETAG
1070
     1
1071
      174
1005
12232C
  0
LINE
  5
12232D
  8
OBJECT
 10
4157.6107710832966
 20
-139.47664778353919
 30
0.0
 11
4119.247667390704
 21
-134.65251313870161
 31
0.0
1001
ACDBBLOCKREPETAG
1070
     1
1071
      175
1005
12232D
  0
CIRCLE
  5
12232E
  8
SLIM
 10
4118.0
 20
-255.4256258422019
 30
0.0
 40
4.0
1001
ACDBBLOCKREPETAG
1070
     1
1071
      176
1005
12232E
  0
ARC
  5
12232F
  8
OBJECT
 10
4118.0
 20
-255.4256258422019
 30
0.0
 40
10.0
 50
202.83271453873161
 51
277.16728546129423
1001
ACDBBLOCKREPETAG
1070
     1
1071
      177
1005
12232F
  0
LINE
  5
122330
  8
OBJECT
 10
4157.6107710832966
 20
-260.52335221645899
 30
0.0
 11
4119.247667390704
 21
-265.3474868612966
 31
0.0
1001
ACDBBLOCKREPETAG
1070
     1
1071
      178
1005
122330
  0
LINE
  5
122331
  8
OBJECT
 10
4093.7798539167038
 20
-223.67055500770491
 30
0.0
 11
4108.783582609296
 21
-259.30604469592708
 31
0.0
1001
ACDBBLOCKREPETAG
1070
     1
1071
      179
1005
122331
  0
CIRCLE
  5
122332
  8
OBJECT
 10
4150.0
 20
-199.99999999999909
 30
0.0
 40
46.0
1001
ACDBBLOCKREPETAG
1070
     1
1071
      180
1005
122332
  0
POLYLINE
  5
122333
  8
SLIM
 66
     1
 10
0.0
 20
0.0
 30
0.0
 70
     1
1001
ACDBBLOCKREPETAG
1070
     1
1071
      181
1005
122333
  0
VERTEX
  5
122664
  8
SLIM
 10
4210.247223250266
 20
-193.49999999999909
 30
0.0
  0
VERTEX
  5
122665
  8
SLIM
 10
4206.4944465005347
 20
-199.99999999999909
 30
0.0
  0
VERTEX
  5
122666
  8
SLIM
 10
4210.247223250266
 20
-206.49999999999909
 30
0.0
  0
VERTEX
  5
122667
  8
SLIM
 10
4217.7527767497322
 20
-206.49999999999909
 30
0.0
  0
VERTEX
  5
122668
  8
SLIM
 10
4221.5055534994644
 20
-199.99999999999909
 30
0.0
  0
VERTEX
  5
122669
  8
SLIM
 10
4217.7527767497322
 20
-193.49999999999909
 30
0.0
  0
SEQEND
  5
12266A
  8
SLIM
  0
POLYLINE
  5
122334
  8
SLIM
 66
     1
 10
0.0
 20
0.0
 30
0.0
 70
     1
1001
ACDBBLOCKREPETAG
1070
     1
1071
      182
1005
122334
  0
VERTEX
  5
12266B
  8
SLIM
 10
4114.2472232502687
 20
-151.0743741577962
 30
0.0
  0
VERTEX
  5
12266C
  8
SLIM
 10
4121.752776749734
 20
-151.0743741577962
 30
0.0
  0
VERTEX
  5
12266D
  8
SLIM
 10
4125.5055534994644
 20
-144.5743741577962
 30
0.0
  0
VERTEX
  5
12266E
  8
SLIM
 10
4121.7527767497286
 20
-138.07437415779259
 30
0.0
  0
VERTEX
  5
12266F
  8
SLIM
 10
4114.2472232502687
 20
-138.0743741577962
 30
0.0
  0
VERTEX
  5
122670
  8
SLIM
 10
4110.4944465005347
 20
-144.57437415779259
 30
0.0
  0
SEQEND
  5
122671
  8
SLIM
  0
POLYLINE
  5
122335
  8
SLIM
 66
     1
 10
0.0
 20
0.0
 30
0.0
 70
     1
1001
ACDBBLOCKREPETAG
1070
     1
1071
      183
1005
122335
  0
VERTEX
  5
122672
  8
SLIM
 10
4125.5055534994644
 20
-255.4256258422019
 30
0.0
  0
VERTEX
  5
122673
  8
SLIM
 10
4121.7527767497286
 20
-248.9256258422019
 30
0.0
  0
VERTEX
  5
122674
  8
SLIM
 10
4114.2472232502687
 20
-248.9256258422019
 30
0.0
  0
VERTEX
  5
122675
  8
SLIM
 10
4110.4944465005347
 20
-255.42562584220559
 30
0.0
  0
VERTEX
  5
122676
  8
SLIM
 10
4114.247223250266
 20
-261.9256258422019
 30
0.0
  0
VERTEX
  5
122677
  8
SLIM
 10
4121.7527767497286
 20
-261.92562584220559
 30
0.0
  0
SEQEND
  5
122678
  8
SLIM
  0
CIRCLE
  5
122336
  8
OBJECT
 10
2000.0
 20
-199.99999999999909
 30
0.0
 40
53.5
1001
ACDBBLOCKREPETAG
1070
     1
1071
      344
1005
122336
  0
LINE
  5
122337
  8
CENTER
 10
2080.0
 20
-199.99999999999909
 30
0.0
 11
1905.0
 21
-199.99999999999909
 31
0.0
1001
ACDBBLOCKREPETAG
1070
     1
1071
       14
1005
122337
  0
LINE
  5
122338
  8
CENTER
 10
2000.0
 20
-294.99999999999892
 30
0.0
 11
2000.0
 21
-104.9999999999991
 31
0.0
1001
ACDBBLOCKREPETAG
1070
     1
1071
       15
1005
122338
  0
CIRCLE
  5
122339
  8
OBJECT
 10
2000.0
 20
-199.99999999999909
 30
0.0
 40
70.0
1001
ACDBBLOCKREPETAG
1070
     1
1071
       16
1005
122339
  0
CIRCLE
  5
12233A
  8
OBJECT
 10
2000.0
 20
-199.99999999999909
 30
0.0
 40
77.0
1001
ACDBBLOCKREPETAG
1070
     1
1071
       17
1005
12233A
  0
ARC
  5
12233B
  8
OBJECT
 10
2000.0
 20
-199.99999999999909
 30
0.0
 40
80.0
 50
50.805032573864182
 51
309.1949674261358
1001
ACDBBLOCKREPETAG
1070
     1
1071
       18
1005
12233B
  0
LINE
  5
12233C
  8
OBJECT
 10
2045.6618002273251
 20
-137.99999999999909
 30
0.0
 11
2080.0
 21
-137.99999999999909
 31
0.0
1001
ACDBBLOCKREPETAG
1070
     1
1071
       19
1005
12233C
  0
LINE
  5
12233D
  8
OBJECT
 10
2045.6618002273251
 20
-261.99999999999909
 30
0.0
 11
2080.0
 21
-261.99999999999909
 31
0.0
1001
ACDBBLOCKREPETAG
1070
     1
1071
       20
1005
12233D
  0
POINT
  5
12233E
  8
DOTS
 10
2000.0
 20
-199.99999999999909
 30
0.0
1001
ACDBBLOCKREPETAG
1070
     1
1071
       21
1005
12233E
  0
LINE
  5
12233F
  8
SLIM
 10
3914.9999999999941
 20
-659.47385309434696
 30
0.0
 11
3919.47385309434
 21
-654.99999999999966
 31
0.0
1001
ACDBBLOCKREPETAG
1070
     1
1071
        0
1005
0
1001
ACAD
1010
0.0
1020
0.0
1030
0.0
  0
LINE
  5
122340
  8
SLIM
 10
3914.9999999999941
 20
-677.43436533648492
 30
0.0
 11
3937.434365336479
 21
-654.99999999999966
 31
0.0
1001
ACAD
1010
0.0
1020
0.0
1030
0.0
1001
ACDBBLOCKREPETAG
1070
     1
1071
       14
1005
122340
  0
LINE
  5
122341
  8
SLIM
 10
3914.9999999999941
 20
-695.39487757862275
 30
0.0
 11
3955.394877578618
 21
-654.99999999999966
 31
0.0
1001
ACAD
1010
0.0
1020
0.0
1030
0.0
1001
ACDBBLOCKREPETAG
1070
     1
1071
       15
1005
122341
  0
LINE
  5
122342
  8
SLIM
 10
3914.9999999999941
 20
-713.35538982076082
 30
0.0
 11
3973.3553898207551
 21
-654.99999999999966
 31
0.0
1001
ACAD
1010
0.0
1020
0.0
1030
0.0
1001
ACDBBLOCKREPETAG
1070
     1
1071
       16
1005
122342
  0
LINE
  5
122343
  8
SLIM
 10
3914.999999999995
 20
-731.31590206289854
 30
0.0
 11
3991.3159020628941
 21
-654.99999999999966
 31
0.0
1001
ACAD
1010
0.0
1020
0.0
1030
0.0
1001
ACDBBLOCKREPETAG
1070
     1
1071
       17
1005
122343
  0
LINE
  5
122344
  8
SLIM
 10
3914.999999999995
 20
-749.27641430503661
 30
0.0
 11
4009.2764143050308
 21
-654.99999999999966
 31
0.0
1001
ACAD
1010
0.0
1020
0.0
1030
0.0
1001
ACDBBLOCKREPETAG
1070
     1
1071
       18
1005
122344
  0
LINE
  5
122345
  8
SLIM
 10
3914.999999999995
 20
-767.23692654717422
 30
0.0
 11
4027.2369265471689
 21
-654.99999999999966
 31
0.0
1001
ACAD
1010
0.0
1020
0.0
1030
0.0
1001
ACDBBLOCKREPETAG
1070
     1
1071
       19
1005
122345
  0
LINE
  5
122346
  8
SLIM
 10
3914.999999999995
 20
-785.1974387893124
 30
0.0
 11
4045.1974387893069
 21
-654.99999999999966
 31
0.0
1001
ACAD
1010
0.0
1020
0.0
1030
0.0
1001
ACDBBLOCKREPETAG
1070
     1
1071
       20
1005
122346
  0
LINE
  5
122347
  8
SLIM
 10
3914.9999999999968
 20
-803.15795103145024
 30
0.0
 11
4063.157951031445
 21
-654.99999999999966
 31
0.0
1001
ACAD
1010
0.0
1020
0.0
1030
0.0
1001
ACDBBLOCKREPETAG
1070
     1
1071
       21
1005
122347
  0
LINE
  5
122348
  8
SLIM
 10
3915.1454972543161
 20
-820.97296601926894
 30
0.0
 11
4081.1184632735849
 21
-654.99999999999966
 31
0.0
1001
ACAD
1010
0.0
1020
0.0
1030
0.0
1001
ACDBBLOCKREPETAG
1070
     1
1071
       22
1005
122348
  0
LINE
  5
122349
  8
SLIM
 10
3917.104627495245
 20
-836.97434802047871
 30
0.0
 11
4085.0000000000068
 21
-669.07897551571602
 31
0.0
1001
ACAD
1010
0.0
1020
0.0
1030
0.0
1001
ACDBBLOCKREPETAG
1070
     1
1071
       23
1005
122349
  0
LINE
  5
12234A
  8
SLIM
 10
3919.0637577361722
 20
-852.9757300216894
 30
0.0
 11
4085.0000000000068
 21
-687.03948775785454
 31
0.0
1001
ACAD
1010
0.0
1020
0.0
1030
0.0
1001
ACDBBLOCKREPETAG
1070
     1
1071
       24
1005
12234A
  0
LINE
  5
12234B
  8
SLIM
 10
3920.0
 20
-869.99999999999955
 30
0.0
 11
4085.0000000000068
 21
-704.99999999999341
 31
0.0
1001
ACAD
1010
0.0
1020
0.0
1030
0.0
1001
ACDBBLOCKREPETAG
1070
     1
1071
       25
1005
12234B
  0
LINE
  5
12234C
  8
SLIM
 10
3920.0
 20
-887.96051224213795
 30
0.0
 11
4085.0000000000059
 21
-722.96051224213215
 31
0.0
1001
ACAD
1010
0.0
1020
0.0
1030
0.0
1001
ACDBBLOCKREPETAG
1070
     1
1071
       26
1005
12234C
  0
LINE
  5
12234D
  8
SLIM
 10
3920.0
 20
-905.9210244842759
 30
0.0
 11
4085.0000000000059
 21
-740.92102448427033
 31
0.0
1001
ACAD
1010
0.0
1020
0.0
1030
0.0
1001
ACDBBLOCKREPETAG
1070
     1
1071
       27
1005
12234D
  0
LINE
  5
12234E
  8
SLIM
 10
3920.0
 20
-923.88153672641431
 30
0.0
 11
4085.000000000005
 21
-758.88153672640942
 31
0.0
1001
ACAD
1010
0.0
1020
0.0
1030
0.0
1001
ACDBBLOCKREPETAG
1070
     1
1071
       28
1005
12234E
  0
LINE
  5
12234F
  8
SLIM
 10
3920.0
 20
-941.84204896855272
 30
0.0
 11
4085.0000000000041
 21
-776.84204896854817
 31
0.0
1001
ACAD
1010
0.0
1020
0.0
1030
0.0
1001
ACDBBLOCKREPETAG
1070
     1
1071
       29
1005
12234F
  0
LINE
  5
122350
  8
SLIM
 10
3920.0
 20
-959.80256121069101
 30
0.0
 11
4085.0000000000041
 21
-794.80256121068692
 31
0.0
1001
ACAD
1010
0.0
1020
0.0
1030
0.0
1001
ACDBBLOCKREPETAG
1070
     1
1071
       30
1005
122350
  0
LINE
  5
122351
  8
SLIM
 10
3920.0
 20
-977.76307345282919
 30
0.0
 11
4085.0000000000032
 21
-812.76307345282555
 31
0.0
1001
ACAD
1010
0.0
1020
0.0
1030
0.0
1001
ACDBBLOCKREPETAG
1070
     1
1071
       31
1005
122351
  0
LINE
  5
122352
  8
SLIM
 10
3930.0
 20
-985.7235856949676
 30
0.0
 11
3930.7235856949678
 21
-984.99999999999955
 31
0.0
1001
ACAD
1010
0.0
1020
0.0
1030
0.0
1001
ACDBBLOCKREPETAG
1070
     1
1071
       32
1005
122352
  0
LINE
  5
122353
  8
SLIM
 10
3930.7235856949678
 20
-984.99999999999955
 30
0.0
 11
4083.4738280308079
 21
-832.24975766415889
 31
0.0
1001
ACAD
1010
0.0
1020
0.0
1030
0.0
1001
ACDBBLOCKREPETAG
1070
     1
1071
       33
1005
122353
  0
LINE
  5
122354
  8
SLIM
 10
3930.0
 20
-1003.684097937106
 30
0.0
 11
3948.6840979371068
 21
-984.99999999999955
 31
0.0
1001
ACAD
1010
0.0
1020
0.0
1030
0.0
1001
ACDBBLOCKREPETAG
1070
     1
1071
       34
1005
122354
  0
LINE
  5
122355
  8
SLIM
 10
3948.6840979371068
 20
-984.99999999999955
 30
0.0
 11
4080.9680345671368
 21
-852.71606336996854
 31
0.0
1001
ACAD
1010
0.0
1020
0.0
1030
0.0
1001
ACDBBLOCKREPETAG
1070
     1
1071
       35
1005
122355
  0
LINE
  5
122356
  8
SLIM
 10
3946.6446101792449
 20
-1004.999999999999
 30
0.0
 11
3966.6446101792449
 21
-984.99999999999955
 31
0.0
1001
ACAD
1010
0.0
1020
0.0
1030
0.0
1001
ACDBBLOCKREPETAG
1070
     1
1071
       36
1005
122356
  0
LINE
  5
122357
  8
SLIM
 10
3966.6446101792449
 20
-984.99999999999943
 30
0.0
 11
4080.0
 21
-871.64461017924452
 31
0.0
1001
ACAD
1010
0.0
1020
0.0
1030
0.0
1001
ACDBBLOCKREPETAG
1070
     1
1071
       37
1005
122357
  0
LINE
  5
122358
  8
SLIM
 10
3964.6051224213829
 20
-1004.999999999999
 30
0.0
 11
3984.6051224213829
 21
-984.99999999999943
 31
0.0
1001
ACAD
1010
0.0
1020
0.0
1030
0.0
1001
ACDBBLOCKREPETAG
1070
     1
1071
       38
1005
122358
  0
LINE
  5
122359
  8
SLIM
 10
3984.6051224213829
 20
-984.99999999999943
 30
0.0
 11
4080.0
 21
-889.60512242138304
 31
0.0
1001
ACAD
1010
0.0
1020
0.0
1030
0.0
1001
ACDBBLOCKREPETAG
1070
     1
1071
       39
1005
122359
  0
LINE
  5
12235A
  8
SLIM
 10
3982.565634663521
 20
-1004.999999999999
 30
0.0
 11
4002.565634663521
 21
-984.99999999999943
 31
0.0
1001
ACAD
1010
0.0
1020
0.0
1030
0.0
1001
ACDBBLOCKREPETAG
1070
     1
1071
       40
1005
12235A
  0
LINE
  5
12235B
  8
SLIM
 10
4002.565634663521
 20
-984.99999999999943
 30
0.0
 11
4079.9999999999991
 21
-907.56563466352145
 31
0.0
1001
ACAD
1010
0.0
1020
0.0
1030
0.0
1001
ACDBBLOCKREPETAG
1070
     1
1071
       41
1005
12235B
  0
LINE
  5
12235C
  8
SLIM
 10
4000.5261469056568
 20
-1004.999999999999
 30
0.0
 11
4020.52614690566
 21
-984.99999999999943
 31
0.0
1001
ACAD
1010
0.0
1020
0.0
1030
0.0
1001
ACDBBLOCKREPETAG
1070
     1
1071
       42
1005
12235C
  0
LINE
  5
12235D
  8
SLIM
 10
4020.52614690566
 20
-984.9999999999992
 30
0.0
 11
4079.9999999999991
 21
-925.5261469056602
 31
0.0
1001
ACAD
1010
0.0
1020
0.0
1030
0.0
1001
ACDBBLOCKREPETAG
1070
     1
1071
       43
1005
12235D
  0
LINE
  5
12235E
  8
SLIM
 10
4018.486659147798
 20
-1004.999999999999
 30
0.0
 11
4038.486659147798
 21
-984.9999999999992
 31
0.0
1001
ACAD
1010
0.0
1020
0.0
1030
0.0
1001
ACDBBLOCKREPETAG
1070
     1
1071
       44
1005
12235E
  0
LINE
  5
12235F
  8
SLIM
 10
4038.486659147798
 20
-984.9999999999992
 30
0.0
 11
4079.9999999999991
 21
-943.48665914779872
 31
0.0
1001
ACAD
1010
0.0
1020
0.0
1030
0.0
1001
ACDBBLOCKREPETAG
1070
     1
1071
       45
1005
12235F
  0
LINE
  5
122360
  8
SLIM
 10
4036.4471713899361
 20
-1004.999999999999
 30
0.0
 11
4056.4471713899361
 21
-984.9999999999992
 31
0.0
1001
ACAD
1010
0.0
1020
0.0
1030
0.0
1001
ACDBBLOCKREPETAG
1070
     1
1071
       46
1005
122360
  0
LINE
  5
122361
  8
SLIM
 10
4056.4471713899361
 20
-984.9999999999992
 30
0.0
 11
4079.9999999999991
 21
-961.44717138993735
 31
0.0
1001
ACAD
1010
0.0
1020
0.0
1030
0.0
1001
ACDBBLOCKREPETAG
1070
     1
1071
       47
1005
122361
  0
LINE
  5
122362
  8
SLIM
 10
4054.4076836320728
 20
-1004.999999999999
 30
0.0
 11
4070.0
 21
-989.40768363207383
 31
0.0
1001
ACAD
1010
0.0
1020
0.0
1030
0.0
1001
ACDBBLOCKREPETAG
1070
     1
1071
       48
1005
122362
  0
LINE
  5
122363
  8
SLIM
 10
4074.4076836320728
 20
-984.9999999999992
 30
0.0
 11
4079.9999999999991
 21
-979.40768363207553
 31
0.0
1001
ACAD
1010
0.0
1020
0.0
1030
0.0
1001
ACDBBLOCKREPETAG
1070
     1
1071
       49
1005
122363
  0
LINE
  5
122364
  8
OBJECT
 10
3914.9999999999941
 20
-654.99999999999966
 30
0.0
 11
3914.9999999999968
 21
-819.78460339903484
 31
0.0
1001
ACDBBLOCKREPETAG
1070
     1
1071
        1
1005
122364
  0
LINE
  5
122365
  8
OBJECT
 10
4085.0000000000068
 20
-654.99999999999966
 30
0.0
 11
4085.0000000000032
 21
-819.78460339904143
 31
0.0
1001
ACDBBLOCKREPETAG
1070
     1
1071
        2
1005
122365
  0
LINE
  5
122366
  8
OBJECT
 10
4085.0000000000068
 20
-654.99999999999966
 30
0.0
 11
3914.9999999999941
 21
-654.99999999999966
 31
0.0
1001
ACDBBLOCKREPETAG
1070
     1
1071
        3
1005
122366
  0
LINE
  5
122367
  8
OBJECT
 10
4079.9999999999991
 20
-984.9999999999992
 30
0.0
 11
3920.0
 21
-984.99999999999955
 31
0.0
1001
ACDBBLOCKREPETAG
1070
     1
1071
        4
1005
122367
  0
LINE
  5
122368
  8
OBJECT
 10
3914.9999999999968
 20
-819.78460339903484
 30
0.0
 11
3920.0
 21
-860.62257748298634
 31
0.0
1001
ACDBBLOCKREPETAG
1070
     1
1071
        6
1005
122368
  0
LINE
  5
122369
  8
OBJECT
 10
3920.0
 20
-860.62257748298634
 30
0.0
 11
3920.0
 21
-984.99999999999955
 31
0.0
1001
ACDBBLOCKREPETAG
1070
     1
1071
        7
1005
122369
  0
LINE
  5
12236A
  8
OBJECT
 10
4085.0000000000032
 20
-819.78460339904143
 30
0.0
 11
4080.0
 21
-860.62257748298634
 31
0.0
1001
ACDBBLOCKREPETAG
1070
     1
1071
        8
1005
12236A
  0
LINE
  5
12236B
  8
OBJECT
 10
4080.0
 20
-860.62257748298634
 30
0.0
 11
4079.9999999999991
 21
-984.9999999999992
 31
0.0
1001
ACDBBLOCKREPETAG
1070
     1
1071
        9
1005
12236B
  0
LINE
  5
12236C
  8
OBJECT
 10
3930.0
 20
-984.99999999999955
 30
0.0
 11
3930.0
 21
-1004.999999999999
 31
0.0
1001
ACDBBLOCKREPETAG
1070
     1
1071
       10
1005
12236C
  0
LINE
  5
12236D
  8
OBJECT
 10
3930.0
 20
-1004.999999999999
 30
0.0
 11
4070.0
 21
-1004.999999999999
 31
0.0
1001
ACDBBLOCKREPETAG
1070
     1
1071
       11
1005
12236D
  0
LINE
  5
12236E
  8
OBJECT
 10
4070.0
 20
-1004.999999999999
 30
0.0
 11
4070.0
 21
-984.9999999999992
 31
0.0
1001
ACDBBLOCKREPETAG
1070
     1
1071
       12
1005
12236E
  0
LINE
  5
12236F
  8
OBJECT
 10
1923.0
 20
-470.99999999999932
 30
0.0
 11
1923.0
 21
-449.99999999999932
 31
0.0
1001
ACDBBLOCKREPETAG
1070
     1
1071
        0
1005
12236F
  0
LINE
  5
122370
  8
OBJECT
 10
1923.0
 20
-449.99999999999932
 30
0.0
 11
2077.0
 21
-449.99999999999932
 31
0.0
1001
ACDBBLOCKREPETAG
1070
     1
1071
        1
1005
122370
  0
LINE
  5
122371
  8
HIDDEN
 10
1943.0
 20
-519.99999999999955
 30
0.0
 11
2057.0
 21
-519.99999999999955
 31
0.0
1001
ACDBBLOCKREPETAG
1070
     1
1071
        2
1005
122371
  0
LINE
  5
122372
  8
OBJECT
 10
2077.0
 20
-449.99999999999932
 30
0.0
 11
2077.0
 21
-470.99999999999932
 31
0.0
1001
ACDBBLOCKREPETAG
1070
     1
1071
        3
1005
122372
  0
LINE
  5
122373
  8
OBJECT
 10
2077.0
 20
-470.99999999999932
 30
0.0
 11
1923.0
 21
-470.99999999999932
 31
0.0
1001
ACDBBLOCKREPETAG
1070
     1
1071
        4
1005
122373
  0
LINE
  5
122374
  8
CENTER
 10
2000.0
 20
-434.99999999999949
 30
0.0
 11
2000.0
 21
-789.99999999999955
 31
0.0
1001
ACDBBLOCKREPETAG
1070
     1
1071
        5
1005
122374
  0
LINE
  5
122375
  8
OBJECT
 10
1925.0
 20
-533.99999999999955
 30
0.0
 11
1925.0
 21
-777.99999999999955
 31
0.0
1001
ACDBBLOCKREPETAG
1070
     1
1071
        6
1005
122375
  0
LINE
  5
122376
  8
OBJECT
 10
1928.0
 20
-470.99999999999932
 30
0.0
 11
1928.0
 21
-533.99999999999955
 31
0.0
1001
ACDBBLOCKREPETAG
1070
     1
1071
        7
1005
122376
  0
LINE
  5
122377
  8
OBJECT
 10
2072.0
 20
-533.99999999999955
 30
0.0
 11
2072.0
 21
-470.99999999999932
 31
0.0
1001
ACDBBLOCKREPETAG
1070
     1
1071
        8
1005
122377
  0
LINE
  5
122378
  8
OBJECT
 10
1920.0
 20
-777.99999999999955
 30
0.0
 11
2080.0
 21
-777.99999999999955
 31
0.0
1001
ACDBBLOCKREPETAG
1070
     1
1071
        9
1005
122378
  0
LINE
  5
122379
  8
OBJECT
 10
2080.0
 20
-533.99999999999955
 30
0.0
 11
1925.0
 21
-533.99999999999955
 31
0.0
1001
ACDBBLOCKREPETAG
1070
     1
1071
       10
1005
122379
  0
LINE
  5
12237A
  8
OBJECT
 10
1920.0
 20
-777.99999999999955
 30
0.0
 11
1920.0
 21
-789.99999999999955
 31
0.0
1001
ACDBBLOCKREPETAG
1070
     1
1071
       11
1005
12237A
  0
LINE
  5
12237B
  8
OBJECT
 10
1920.0
 20
-789.99999999999955
 30
0.0
 11
2080.0
 21
-789.99999999999955
 31
0.0
1001
ACDBBLOCKREPETAG
1070
     1
1071
       12
1005
12237B
  0
LINE
  5
12237C
  8
OBJECT
 10
2080.0
 20
-789.99999999999955
 30
0.0
 11
2080.0
 21
-777.99999999999955
 31
0.0
1001
ACDBBLOCKREPETAG
1070
     1
1071
       13
1005
12237C
  0
LINE
  5
12237D
  8
OBJECT
 10
2074.9999999998622
 20
-657.99999999985039
 30
0.0
 11
2075.0
 21
-777.99999999999955
 31
0.0
1001
ACDBBLOCKREPETAG
1070
     1
1071
       15
1005
12237D
  0
LINE
  5
12237E
  8
OBJECT
 10
2074.9999908029849
 20
-657.99998602702135
 30
0.0
 11
2080.0
 21
-657.99998602702135
 31
0.0
1001
ACDBBLOCKREPETAG
1070
     1
1071
       16
1005
12237E
  0
ARC
  5
12237F
  8
OBJECT
 10
2200.6872746716731
 20
-649.40809941010718
 30
0.0
 40
170.6350503965856
 50
137.44134459184301
 51
149.91949581336559
1001
ACDBBLOCKREPETAG
1070
     1
1071
       17
1005
12237F
  0
ARC
  5
122380
  8
OBJECT
 10
2118.8455987040511
 20
-605.88272669536445
 30
0.0
 40
78.072222021763665
 50
147.4551531038623
 51
164.6636599771798
1001
ACDBBLOCKREPETAG
1070
     1
1071
       18
1005
122380
  0
ARC
  5
122381
  8
OBJECT
 10
2085.7554349608731
 20
-595.99999999999955
 30
0.0
 40
43.55353926885617
 50
165.6884523007466
 51
194.3115476992534
1001
ACDBBLOCKREPETAG
1070
     1
1071
       19
1005
122381
  0
ARC
  5
122382
  8
OBJECT
 10
2200.6872746716731
 20
-542.59190058989179
 30
0.0
 40
170.6350503965856
 50
210.0805041866343
 51
222.55865540815699
1001
ACDBBLOCKREPETAG
1070
     1
1071
       20
1005
122382
  0
ARC
  5
122383
  8
OBJECT
 10
2118.8455987040511
 20
-586.11727330463452
 30
0.0
 40
78.072222021763665
 50
195.3363400228202
 51
212.5448468961377
1001
ACDBBLOCKREPETAG
1070
     1
1071
       21
1005
122383
  0
POINT
  5
122384
  8
DOTS
 10
2000.0
 20
-654.99999999999966
 30
0.0
1001
ACDBBLOCKREPETAG
1070
     1
1071
      187
1005
122384
  0
LINE
  5
122385
  8
OBJECT
 10
3930.0
 20
-1099.999999999997
 30
0.0
 11
4070.0
 21
-1099.999999999997
 31
0.0
1001
ACDBBLOCKREPETAG
1070
     1
1071
        0
1005
122385
  0
LINE
  5
122386
  8
OBJECT
 10
3930.0
 20
-1099.999999999997
 30
0.0
 11
3930.0
 21
-859.99999999999693
 31
0.0
1001
ACDBBLOCKREPETAG
1070
     1
1071
        1
1005
122386
  0
LINE
  5
122387
  8
OBJECT
 10
4070.0
 20
-1099.999999999997
 30
0.0
 11
4070.0
 21
-859.99999999999693
 31
0.0
1001
ACDBBLOCKREPETAG
1070
     1
1071
        2
1005
122387
  0
LINE
  5
122388
  8
OBJECT
 10
3930.0
 20
-859.99999999999693
 30
0.0
 11
4070.0
 21
-859.99999999999693
 31
0.0
1001
ACDBBLOCKREPETAG
1070
     1
1071
        3
1005
122388
  0
LINE
  5
122389
  8
HIDDEN
 10
3937.5
 20
-859.99999999999693
 30
0.0
 11
3937.5
 21
-1099.999999999997
 31
0.0
1001
ACDBBLOCKREPETAG
1070
     1
1071
        4
1005
122389
  0
LINE
  5
12238A
  8
HIDDEN
 10
4062.5
 20
-859.99999999999693
 30
0.0
 11
4062.5
 21
-1099.999999999997
 31
0.0
1001
ACDBBLOCKREPETAG
1070
     1
1071
        5
1005
12238A
  0
LINE
  5
12238B
  8
CENTER
 10
4000.0
 20
-789.99999999999875
 30
0.0
 11
4000.0
 21
-1114.999999999997
 31
0.0
1001
ACDBBLOCKREPETAG
1070
     1
1071
        6
1005
12238B
  0
LINE
  5
12238C
  8
OBJECT
 10
3925.0
 20
-789.99999999999875
 30
0.0
 11
3925.0
 21
-819.99999999999693
 31
0.0
1001
ACDBBLOCKREPETAG
1070
     1
1071
        7
1005
12238C
  0
LINE
  5
12238D
  8
OBJECT
 10
4075.0000000000032
 20
-789.99999999999875
 30
0.0
 11
4075.0
 21
-819.99999999999693
 31
0.0
1001
ACDBBLOCKREPETAG
1070
     1
1071
        8
1005
12238D
  0
LINE
  5
12238E
  8
OBJECT
 10
3925.0
 20
-819.99999999999693
 30
0.0
 11
4075.0
 21
-819.99999999999693
 31
0.0
1001
ACDBBLOCKREPETAG
1070
     1
1071
        9
1005
12238E
  0
LINE
  5
12238F
  8
OBJECT
 10
3925.0
 20
-819.99999999999693
 30
0.0
 11
3930.0
 21
-859.99999999999693
 31
0.0
1001
ACDBBLOCKREPETAG
1070
     1
1071
       10
1005
12238F
  0
LINE
  5
122390
  8
OBJECT
 10
4070.0
 20
-859.99999999999693
 30
0.0
 11
4075.0
 21
-819.99999999999693
 31
0.0
1001
ACDBBLOCKREPETAG
1070
     1
1071
       11
1005
122390
  0
LINE
  5
122391
  8
OBJECT
 10
1930.0
 20
-1099.999999999997
 30
0.0
 11
2070.0
 21
-1099.999999999997
 31
0.0
1001
ACDBBLOCKREPETAG
1070
     1
1071
        0
1005
122391
  0
LINE
  5
122392
  8
OBJECT
 10
1930.0
 20
-1099.999999999997
 30
0.0
 11
1930.0
 21
-859.99999999999784
 31
0.0
1001
ACDBBLOCKREPETAG
1070
     1
1071
        1
1005
122392
  0
LINE
  5
122393
  8
OBJECT
 10
2070.0
 20
-1099.999999999997
 30
0.0
 11
2070.0
 21
-859.99999999999784
 31
0.0
1001
ACDBBLOCKREPETAG
1070
     1
1071
        2
1005
122393
  0
LINE
  5
122394
  8
OBJECT
 10
1930.0
 20
-859.99999999999784
 30
0.0
 11
2070.0
 21
-859.99999999999784
 31
0.0
1001
ACDBBLOCKREPETAG
1070
     1
1071
        3
1005
122394
  0
LINE
  5
122395
  8
HIDDEN
 10
1937.5
 20
-859.99999999999784
 30
0.0
 11
1937.5
 21
-1099.999999999997
 31
0.0
1001
ACDBBLOCKREPETAG
1070
     1
1071
        4
1005
122395
  0
LINE
  5
122396
  8
HIDDEN
 10
2062.5
 20
-859.99999999999784
 30
0.0
 11
2062.5
 21
-1099.999999999997
 31
0.0
1001
ACDBBLOCKREPETAG
1070
     1
1071
        5
1005
122396
  0
LINE
  5
122397
  8
CENTER
 10
2000.0
 20
-789.99999999999955
 30
0.0
 11
2000.0
 21
-1114.999999999997
 31
0.0
1001
ACDBBLOCKREPETAG
1070
     1
1071
        6
1005
122397
  0
LINE
  5
122398
  8
OBJECT
 10
1925.0
 20
-789.99999999999955
 30
0.0
 11
1925.0
 21
-819.99999999999773
 31
0.0
1001
ACDBBLOCKREPETAG
1070
     1
1071
        7
1005
122398
  0
LINE
  5
122399
  8
OBJECT
 10
2075.0000000000041
 20
-789.99999999999955
 30
0.0
 11
2075.0
 21
-819.99999999999773
 31
0.0
1001
ACDBBLOCKREPETAG
1070
     1
1071
        8
1005
122399
  0
LINE
  5
12239A
  8
OBJECT
 10
1925.0
 20
-819.99999999999773
 30
0.0
 11
2075.0
 21
-819.99999999999773
 31
0.0
1001
ACDBBLOCKREPETAG
1070
     1
1071
        9
1005
12239A
  0
LINE
  5
12239B
  8
OBJECT
 10
1925.0
 20
-819.99999999999773
 30
0.0
 11
1930.0
 21
-859.99999999999784
 31
0.0
1001
ACDBBLOCKREPETAG
1070
     1
1071
       10
1005
12239B
  0
LINE
  5
12239C
  8
OBJECT
 10
2070.0
 20
-859.99999999999784
 30
0.0
 11
2075.0
 21
-819.99999999999773
 31
0.0
1001
ACDBBLOCKREPETAG
1070
     1
1071
       11
1005
12239C
  0
LINE
  5
12239D
  8
OBJECT
 10
2114.0
 20
-488.0
 30
0.0
 11
2114.0
 21
-486.0
 31
0.0
1001
ACDBBLOCKREPETAG
1070
     1
1071
      157
1005
12239D
  0
ARC
  5
12239E
  8
OBJECT
 10
2155.1865574982548
 20
-506.0
 30
0.0
 40
59.0
 50
229.20276883323919
 51
270.0
1001
ACDBBLOCKREPETAG
1070
     1
1071
      158
1005
12239E
  0
LINE
  5
12239F
  8
OBJECT
 10
2224.0
 20
-494.5
 30
0.0
 11
2089.0
 21
-494.5
 31
0.0
1001
ACDBBLOCKREPETAG
1070
     1
1071
      159
1005
12239F
  0
LINE
  5
1223A0
  8
OBJECT
 10
2089.0
 20
-507.5
 30
0.0
 11
2224.0
 21
-507.5
 31
0.0
1001
ACDBBLOCKREPETAG
1070
     1
1071
      160
1005
1223A0
  0
LINE
  5
1223A1
  8
OBJECT
 10
2089.0
 20
-494.5
 30
0.0
 11
2089.0
 21
-507.5
 31
0.0
1001
ACDBBLOCKREPETAG
1070
     1
1071
      161
1005
1223A1
  0
LINE
  5
1223A2
  8
OBJECT
 10
2096.0
 20
-516.5
 30
0.0
 11
2096.0
 21
-507.5
 31
0.0
1001
ACDBBLOCKREPETAG
1070
     1
1071
      162
1005
1223A2
  0
LINE
  5
1223A3
  8
OBJECT
 10
2114.0
 20
-520.0
 30
0.0
 11
2114.0
 21
-507.5
 31
0.0
1001
ACDBBLOCKREPETAG
1070
     1
1071
      163
1005
1223A3
  0
LINE
  5
1223A4
  8
OBJECT
 10
2204.0
 20
-516.5
 30
0.0
 11
2204.0
 21
-507.5
 31
0.0
1001
ACDBBLOCKREPETAG
1070
     1
1071
      164
1005
1223A4
  0
LINE
  5
1223A5
  8
OBJECT
 10
2224.0
 20
-494.5
 30
0.0
 11
2224.0
 21
-507.5
 31
0.0
1001
ACDBBLOCKREPETAG
1070
     1
1071
      165
1005
1223A5
  0
LINE
  5
1223A6
  8
OBJECT
 10
2122.0
 20
-520.0
 30
0.0
 11
2122.0
 21
-507.5
 31
0.0
1001
ACDBBLOCKREPETAG
1070
     1
1071
      166
1005
1223A6
  0
LINE
  5
1223A7
  8
OBJECT
 10
2114.0
 20
-516.5
 30
0.0
 11
2095.0
 21
-516.5
 31
0.0
1001
ACDBBLOCKREPETAG
1070
     1
1071
      167
1005
1223A7
  0
LINE
  5
1223A8
  8
OBJECT
 10
2095.0
 20
-520.0
 30
0.0
 11
2095.0
 21
-516.5
 31
0.0
1001
ACDBBLOCKREPETAG
1070
     1
1071
      168
1005
1223A8
  0
LINE
  5
1223A9
  8
OBJECT
 10
2122.0
 20
-516.5
 30
0.0
 11
2205.0
 21
-516.5
 31
0.0
1001
ACDBBLOCKREPETAG
1070
     1
1071
      169
1005
1223A9
  0
LINE
  5
1223AA
  8
OBJECT
 10
2205.0
 20
-516.5
 30
0.0
 11
2205.0
 21
-520.0
 31
0.0
1001
ACDBBLOCKREPETAG
1070
     1
1071
      170
1005
1223AA
  0
LINE
  5
1223AB
  8
OBJECT
 10
2110.494446500536
 20
-494.5
 30
0.0
 11
2110.494446500536
 21
-488.0
 31
0.0
1001
ACDBBLOCKREPETAG
1070
     1
1071
      171
1005
1223AB
  0
LINE
  5
1223AC
  8
OBJECT
 10
2109.0
 20
-533.0
 30
0.0
 11
2109.0
 21
-538.0
 31
0.0
1001
ACDBBLOCKREPETAG
1070
     1
1071
      172
1005
1223AC
  0
LINE
  5
1223AD
  8
OBJECT
 10
2109.0
 20
-538.0
 30
0.0
 11
2127.0
 21
-538.0
 31
0.0
1001
ACDBBLOCKREPETAG
1070
     1
1071
      173
1005
1223AD
  0
LINE
  5
1223AE
  8
OBJECT
 10
2127.0
 20
-533.0
 30
0.0
 11
2127.0
 21
-538.0
 31
0.0
1001
ACDBBLOCKREPETAG
1070
     1
1071
      174
1005
1223AE
  0
LINE
  5
1223AF
  8
OBJECT
 10
2089.0000000000032
 20
-520.0
 30
0.0
 11
2224.0
 21
-520.0
 31
0.0
1001
ACDBBLOCKREPETAG
1070
     1
1071
      175
1005
1223AF
  0
LINE
  5
1223B0
  8
OBJECT
 10
2224.0
 20
-520.0
 30
0.0
 11
2224.0
 21
-533.0
 31
0.0
1001
ACDBBLOCKREPETAG
1070
     1
1071
      176
1005
1223B0
  0
LINE
  5
1223B1
  8
OBJECT
 10
2116.636900244765
 20
-550.6645712577473
 30
0.0
 11
2096.170298
 21
-533.0
 31
0.0
1001
ACDBBLOCKREPETAG
1070
     1
1071
      177
1005
1223B1
  0
LINE
  5
1223B2
  8
OBJECT
 10
2201.0000000000041
 20
-540.65708264965724
 30
0.0
 11
2201.0000000000041
 21
-565.0
 31
0.0
1001
ACDBBLOCKREPETAG
1070
     1
1071
      178
1005
1223B2
  0
LINE
  5
1223B3
  8
OBJECT
 10
2155.1865574982548
 20
-565.0
 30
0.0
 11
2201.0000000000041
 21
-565.0
 31
0.0
1001
ACDBBLOCKREPETAG
1070
     1
1071
      179
1005
1223B3
  0
ARC
  5
1223B4
  8
OBJECT
 10
2110.5
 20
-566.5
 30
0.0
 40
84.0
 50
277.05348487097029
 51
1.023193303671255
1001
ACDBBLOCKREPETAG
1070
     1
1071
      180
1005
1223B4
  0
LINE
  5
1223B5
  8
OBJECT
 10
2086.0
 20
-654.1720031702107
 30
0.0
 11
2120.8148488128832
 21
-649.86428428270381
 31
0.0
1001
ACDBBLOCKREPETAG
1070
     1
1071
      181
1005
1223B5
  0
LINE
  5
1223B6
  8
OBJECT
 10
2086.0000000000041
 20
-655.00000000000068
 30
0.0
 11
2086.0000000000041
 21
-534.0
 31
0.0
1001
ACDBBLOCKREPETAG
1070
     1
1071
      182
1005
1223B6
  0
ARC
  5
1223B7
  8
OBJECT
 10
2083.0000000000041
 20
-655.00000000000068
 30
0.0
 40
3.0
 50
270.0
 51
0.0
1001
ACDBBLOCKREPETAG
1070
     1
1071
      183
1005
1223B7
  0
LINE
  5
1223B8
  8
OBJECT
 10
2096.170298
 20
-533.0
 30
0.0
 11
2224.0
 21
-533.0
 31
0.0
1001
ACDBBLOCKREPETAG
1070
     1
1071
      184
1005
1223B8
  0
LINE
  5
1223B9
  8
OBJECT
 10
2105.0539138517229
 20
-540.65708264965724
 30
0.0
 11
2201.0000000000041
 21
-540.65708264965724
 31
0.0
1001
ACDBBLOCKREPETAG
1070
     1
1071
      185
1005
1223B9
  0
LINE
  5
1223BA
  8
OBJECT
 10
2205.0
 20
-535.89006764214901
 30
0.0
 11
2201.0000000000041
 21
-540.65708264965724
 31
0.0
1001
ACDBBLOCKREPETAG
1070
     1
1071
      186
1005
1223BA
  0
LINE
  5
1223BB
  8
OBJECT
 10
2089.0000000000032
 20
-520.0
 30
0.0
 11
2089.0000000000068
 21
-534.0
 31
0.0
1001
ACDBBLOCKREPETAG
1070
     1
1071
      187
1005
1223BB
  0
LINE
  5
1223BC
  8
HIDDEN
 10
2105.5
 20
-560.0
 30
0.0
 11
2194.5
 21
-560.0
 31
0.0
1001
ACDBBLOCKREPETAG
1070
     1
1071
      188
1005
1223BC
  0
LINE
  5
1223BD
  8
OBJECT
 10
2114.0
 20
-486.0
 30
0.0
 11
2122.0
 21
-486.0
 31
0.0
1001
ACDBBLOCKREPETAG
1070
     1
1071
      189
1005
1223BD
  0
LINE
  5
1223BE
  8
OBJECT
 10
2122.0
 20
-488.0
 30
0.0
 11
2122.0
 21
-486.0
 31
0.0
1001
ACDBBLOCKREPETAG
1070
     1
1071
      190
1005
1223BE
  0
LINE
  5
1223BF
  8
OBJECT
 10
2110.494446500536
 20
-488.0
 30
0.0
 11
2125.5055534994649
 21
-488.0
 31
0.0
1001
ACDBBLOCKREPETAG
1070
     1
1071
      191
1005
1223BF
  0
LINE
  5
1223C0
  8
CENTER
 10
2150.0
 20
-579.77158855533253
 30
0.0
 11
2150.0
 21
-479.49999999999989
 31
0.0
1001
ACDBBLOCKREPETAG
1070
     1
1071
      193
1005
1223C0
  0
LINE
  5
1223C1
  8
OBJECT
 10
2080.0
 20
-658.0
 30
0.0
 11
2083.0000000000041
 21
-658.0000000000008
 31
0.0
1001
ACDBBLOCKREPETAG
1070
     1
1071
      194
1005
1223C1
  0
LINE
  5
1223C2
  8
OBJECT
 10
2080.0
 20
-534.0
 30
0.0
 11
2089.0000000000068
 21
-534.0
 31
0.0
1001
ACDBBLOCKREPETAG
1070
     1
1071
      195
1005
1223C2
  0
LINE
  5
1223C3
  8
OBJECT
 10
2114.247196978396
 20
-494.49998110541122
 30
0.0
 11
2114.247196978396
 21
-487.99998110541122
 31
0.0
1001
ACDBBLOCKREPETAG
1070
     1
1071
      196
1005
1223C3
  0
LINE
  5
1223C4
  8
OBJECT
 10
2125.5055534994649
 20
-494.5
 30
0.0
 11
2125.5055534994649
 21
-488.0
 31
0.0
1001
ACDBBLOCKREPETAG
1070
     1
1071
      197
1005
1223C4
  0
LINE
  5
1223C5
  8
OBJECT
 10
2121.7528030216049
 20
-494.49998110541122
 30
0.0
 11
2121.7528030216049
 21
-487.99998110541122
 31
0.0
1001
ACDBBLOCKREPETAG
1070
     1
1071
      198
1005
1223C5
  0
LINE
  5
1223C6
  8
OBJECT
 10
2210.0
 20
-488.0
 30
0.0
 11
2210.0
 21
-486.0
 31
0.0
1001
ACDBBLOCKREPETAG
1070
     1
1071
      199
1005
1223C6
  0
LINE
  5
1223C7
  8
OBJECT
 10
2210.0
 20
-520.0
 30
0.0
 11
2210.0
 21
-507.5
 31
0.0
1001
ACDBBLOCKREPETAG
1070
     1
1071
      200
1005
1223C7
  0
LINE
  5
1223C8
  8
OBJECT
 10
2218.0
 20
-520.0
 30
0.0
 11
2218.0
 21
-507.5
 31
0.0
1001
ACDBBLOCKREPETAG
1070
     1
1071
      201
1005
1223C8
  0
LINE
  5
1223C9
  8
OBJECT
 10
2206.494446500536
 20
-494.5
 30
0.0
 11
2206.494446500536
 21
-488.0
 31
0.0
1001
ACDBBLOCKREPETAG
1070
     1
1071
      202
1005
1223C9
  0
LINE
  5
1223CA
  8
OBJECT
 10
2205.0
 20
-533.0
 30
0.0
 11
2205.0
 21
-538.0
 31
0.0
1001
ACDBBLOCKREPETAG
1070
     1
1071
      203
1005
1223CA
  0
LINE
  5
1223CB
  8
OBJECT
 10
2205.0
 20
-538.0
 30
0.0
 11
2223.0
 21
-538.0
 31
0.0
1001
ACDBBLOCKREPETAG
1070
     1
1071
      204
1005
1223CB
  0
LINE
  5
1223CC
  8
OBJECT
 10
2223.0
 20
-533.0
 30
0.0
 11
2223.0
 21
-538.0
 31
0.0
1001
ACDBBLOCKREPETAG
1070
     1
1071
      205
1005
1223CC
  0
LINE
  5
1223CD
  8
OBJECT
 10
2210.0
 20
-486.0
 30
0.0
 11
2218.0
 21
-486.0
 31
0.0
1001
ACDBBLOCKREPETAG
1070
     1
1071
      206
1005
1223CD
  0
LINE
  5
1223CE
  8
OBJECT
 10
2218.0
 20
-488.0
 30
0.0
 11
2218.0
 21
-486.0
 31
0.0
1001
ACDBBLOCKREPETAG
1070
     1
1071
      207
1005
1223CE
  0
LINE
  5
1223CF
  8
OBJECT
 10
2206.494446500536
 20
-488.0
 30
0.0
 11
2221.505553499464
 21
-488.0
 31
0.0
1001
ACDBBLOCKREPETAG
1070
     1
1071
      208
1005
1223CF
  0
LINE
  5
1223D0
  8
OBJECT
 10
2210.247196978396
 20
-494.49998110541122
 30
0.0
 11
2210.247196978396
 21
-487.99998110541122
 31
0.0
1001
ACDBBLOCKREPETAG
1070
     1
1071
      209
1005
1223D0
  0
LINE
  5
1223D1
  8
OBJECT
 10
2221.505553499464
 20
-494.5
 30
0.0
 11
2221.505553499464
 21
-488.0
 31
0.0
1001
ACDBBLOCKREPETAG
1070
     1
1071
      210
1005
1223D1
  0
LINE
  5
1223D2
  8
OBJECT
 10
2217.7528030216049
 20
-494.49998110541122
 30
0.0
 11
2217.7528030216049
 21
-487.99998110541122
 31
0.0
1001
ACDBBLOCKREPETAG
1070
     1
1071
      211
1005
1223D2
  0
LINE
  5
1223D3
  8
CENTER
 10
2080.0
 20
-199.99999999999909
 30
0.0
 11
2239.0
 21
-199.99999999999909
 31
0.0
1001
ACDBBLOCKREPETAG
1070
     1
1071
      155
1005
1223D3
  0
LINE
  5
1223D4
  8
OBJECT
 10
2080.0
 20
-261.99999999999909
 30
0.0
 11
2083.0
 21
-261.99999999999909
 31
0.0
1001
ACDBBLOCKREPETAG
1070
     1
1071
      156
1005
1223D4
  0
ARC
  5
1223D5
  8
OBJECT
 10
2083.0
 20
-258.99999999999909
 30
0.0
 40
3.0
 50
270.0
 51
0.0
1001
ACDBBLOCKREPETAG
1070
     1
1071
      157
1005
1223D5
  0
LINE
  5
1223D6
  8
OBJECT
 10
2080.0
 20
-138.0000000000027
 30
0.0
 11
2083.0
 21
-138.0000000000027
 31
0.0
1001
ACDBBLOCKREPETAG
1070
     1
1071
      158
1005
1223D6
  0
LINE
  5
1223D7
  8
OBJECT
 10
2086.0
 20
-140.99999999999909
 30
0.0
 11
2108.6547275935341
 21
-140.9999999999954
 31
0.0
1001
ACDBBLOCKREPETAG
1070
     1
1071
      159
1005
1223D7
  0
LINE
  5
1223D8
  8
OBJECT
 10
2086.0
 20
-259.00000000000267
 30
0.0
 11
2108.6547275935341
 21
-258.99999999999909
 31
0.0
1001
ACDBBLOCKREPETAG
1070
     1
1071
      160
1005
1223D8
  0
LINE
  5
1223D9
  8
CENTER
 10
2150.0
 20
-123.5195984073716
 30
0.0
 11
2150.0
 21
-276.48040159262649
 31
0.0
1001
ACDBBLOCKREPETAG
1070
     1
1071
      161
1005
1223D9
  0
LINE
  5
1223DA
  8
OBJECT
 10
2086.0
 20
-141.0000000000027
 30
0.0
 11
2086.0
 21
-258.99999999999909
 31
0.0
1001
ACDBBLOCKREPETAG
1070
     1
1071
      162
1005
1223DA
  0
ARC
  5
1223DB
  8
OBJECT
 10
2083.0
 20
-141.0000000000027
 30
0.0
 40
3.0
 50
0.0
 51
90.0
1001
ACDBBLOCKREPETAG
1070
     1
1071
      163
1005
1223DB
  0
ARC
  5
1223DC
  8
OBJECT
 10
2150.0
 20
-199.99999999999909
 30
0.0
 40
61.0
 50
37.167285461274467
 51
82.832714538705744
1001
ACDBBLOCKREPETAG
1070
     1
1071
      165
1005
1223DC
  0
ARC
  5
1223DD
  8
OBJECT
 10
2150.0
 20
-199.99999999999909
 30
0.0
 40
61.0
 50
157.16728546126831
 51
202.83271453873161
1001
ACDBBLOCKREPETAG
1070
     1
1071
      166
1005
1223DD
  0
ARC
  5
1223DE
  8
OBJECT
 10
2150.0
 20
-199.99999999999909
 30
0.0
 40
61.0
 50
277.16728546129423
 51
322.83271453872419
1001
ACDBBLOCKREPETAG
1070
     1
1071
      167
1005
1223DE
  0
CIRCLE
  5
1223DF
  8
SLIM
 10
2214.0
 20
-199.99999999999909
 30
0.0
 40
4.0
1001
ACDBBLOCKREPETAG
1070
     1
1071
      168
1005
1223DF
  0
ARC
  5
1223E0
  8
OBJECT
 10
2214.0
 20
-199.99999999999909
 30
0.0
 40
10.0
 50
322.83271453872419
 51
37.167285461274467
1001
ACDBBLOCKREPETAG
1070
     1
1071
      169
1005
1223E0
  0
LINE
  5
1223E1
  8
OBJECT
 10
2198.6093749999959
 20
-163.14720279124501
 30
0.0
 11
2221.96875
 21
-193.9585578346296
 31
0.0
1001
ACDBBLOCKREPETAG
1070
     1
1071
      170
1005
1223E1
  0
LINE
  5
1223E2
  8
OBJECT
 10
2198.6093749999959
 20
-236.8527972087532
 30
0.0
 11
2221.96875
 21
-206.04144216536861
 31
0.0
1001
ACDBBLOCKREPETAG
1070
     1
1071
      171
1005
1223E2
  0
CIRCLE
  5
1223E3
  8
SLIM
 10
2118.0
 20
-144.5743741577962
 30
0.0
 40
3.9999999999999991
1001
ACDBBLOCKREPETAG
1070
     1
1071
      172
1005
1223E3
  0
ARC
  5
1223E4
  8
OBJECT
 10
2118.0
 20
-144.5743741577962
 30
0.0
 40
9.9999999999999982
 50
82.832714538705744
 51
157.16728546126831
1001
ACDBBLOCKREPETAG
1070
     1
1071
      173
1005
1223E4
  0
LINE
  5
1223E5
  8
OBJECT
 10
2093.7798539167052
 20
-176.32944499229319
 30
0.0
 11
2108.783582609296
 21
-140.6939553040711
 31
0.0
1001
ACDBBLOCKREPETAG
1070
     1
1071
      174
1005
1223E5
  0
LINE
  5
1223E6
  8
OBJECT
 10
2157.6107710832989
 20
-139.47664778353919
 30
0.0
 11
2119.247667390704
 21
-134.65251313870161
 31
0.0
1001
ACDBBLOCKREPETAG
1070
     1
1071
      175
1005
1223E6
  0
CIRCLE
  5
1223E7
  8
SLIM
 10
2118.0
 20
-255.4256258422019
 30
0.0
 40
4.0
1001
ACDBBLOCKREPETAG
1070
     1
1071
      176
1005
1223E7
  0
ARC
  5
1223E8
  8
OBJECT
 10
2118.0
 20
-255.4256258422019
 30
0.0
 40
10.0
 50
202.83271453873161
 51
277.16728546129423
1001
ACDBBLOCKREPETAG
1070
     1
1071
      177
1005
1223E8
  0
LINE
  5
1223E9
  8
OBJECT
 10
2157.6107710832989
 20
-260.52335221645899
 30
0.0
 11
2119.247667390704
 21
-265.3474868612966
 31
0.0
1001
ACDBBLOCKREPETAG
1070
     1
1071
      178
1005
1223E9
  0
LINE
  5
1223EA
  8
OBJECT
 10
2093.7798539167052
 20
-223.67055500770491
 30
0.0
 11
2108.783582609296
 21
-259.30604469592708
 31
0.0
1001
ACDBBLOCKREPETAG
1070
     1
1071
      179
1005
1223EA
  0
CIRCLE
  5
1223EB
  8
OBJECT
 10
2150.0
 20
-199.99999999999909
 30
0.0
 40
46.0
1001
ACDBBLOCKREPETAG
1070
     1
1071
      180
1005
1223EB
  0
POLYLINE
  5
1223EC
  8
SLIM
 66
     1
 10
0.0
 20
0.0
 30
0.0
 70
     1
1001
ACDBBLOCKREPETAG
1070
     1
1071
      181
1005
1223EC
  0
VERTEX
  5
122679
  8
SLIM
 10
2210.247223250266
 20
-193.49999999999909
 30
0.0
  0
VERTEX
  5
12267A
  8
SLIM
 10
2206.494446500536
 20
-199.99999999999909
 30
0.0
  0
VERTEX
  5
12267B
  8
SLIM
 10
2210.247223250266
 20
-206.49999999999909
 30
0.0
  0
VERTEX
  5
12267C
  8
SLIM
 10
2217.752776749734
 20
-206.49999999999909
 30
0.0
  0
VERTEX
  5
12267D
  8
SLIM
 10
2221.505553499464
 20
-199.99999999999909
 30
0.0
  0
VERTEX
  5
12267E
  8
SLIM
 10
2217.752776749734
 20
-193.49999999999909
 30
0.0
  0
SEQEND
  5
12267F
  8
SLIM
  0
POLYLINE
  5
1223ED
  8
SLIM
 66
     1
 10
0.0
 20
0.0
 30
0.0
 70
     1
1001
ACDBBLOCKREPETAG
1070
     1
1071
      182
1005
1223ED
  0
VERTEX
  5
122680
  8
SLIM
 10
2114.2472232502701
 20
-151.0743741577962
 30
0.0
  0
VERTEX
  5
122681
  8
SLIM
 10
2121.752776749734
 20
-151.0743741577962
 30
0.0
  0
VERTEX
  5
122682
  8
SLIM
 10
2125.5055534994649
 20
-144.5743741577962
 30
0.0
  0
VERTEX
  5
122683
  8
SLIM
 10
2121.7527767497309
 20
-138.07437415779259
 30
0.0
  0
VERTEX
  5
122684
  8
SLIM
 10
2114.2472232502701
 20
-138.0743741577962
 30
0.0
  0
VERTEX
  5
122685
  8
SLIM
 10
2110.494446500536
 20
-144.57437415779259
 30
0.0
  0
SEQEND
  5
122686
  8
SLIM
  0
POLYLINE
  5
1223EE
  8
SLIM
 66
     1
 10
0.0
 20
0.0
 30
0.0
 70
     1
1001
ACDBBLOCKREPETAG
1070
     1
1071
      183
1005
1223EE
  0
VERTEX
  5
122687
  8
SLIM
 10
2125.5055534994649
 20
-255.4256258422019
 30
0.0
  0
VERTEX
  5
122688
  8
SLIM
 10
2121.7527767497309
 20
-248.9256258422019
 30
0.0
  0
VERTEX
  5
122689
  8
SLIM
 10
2114.2472232502701
 20
-248.9256258422019
 30
0.0
  0
VERTEX
  5
12268A
  8
SLIM
 10
2110.494446500536
 20
-255.42562584220559
 30
0.0
  0
VERTEX
  5
12268B
  8
SLIM
 10
2114.247223250266
 20
-261.9256258422019
 30
0.0
  0
VERTEX
  5
12268C
  8
SLIM
 10
2121.7527767497309
 20
-261.92562584220559
 30
0.0
  0
SEQEND
  5
12268D
  8
SLIM
  0
TEXT
  5
1223EF
  8
SLIM
 10
3824.5999999999999
 20
-1428.999999999997
 30
0.0
 40
28.0
  1
※ 対応スラブ厚　180～320
 41
0.75
  0
TEXT
  5
1223F0
  8
SLIM
 10
3611.5
 20
-1522.3333333333301
 30
0.0
 40
28.0
  1
国土交通大臣認定・（財）日本消防設備安全センター性能評定取得品
 41
0.75
  0
TEXT
  5
1223F1
  8
SLIM
 10
3631.1000000000022
 20
-1568.999999999997
 30
0.0
 40
28.0
  1
注）ご採用にあたり、認定書及び評定書の内容をご確認ください。
 41
0.75
  0
TEXT
  5
1223F2
  8
SLIM
 10
3741.6250000000009
 20
-1367.499999999997
 30
0.0
 40
35.0
  1
片受けスタイル（S）＋シンドカット
 41
0.75
  0
TEXT
  5
1223F3
  8
SLIM
 10
1856.25
 20
-1367.499999999998
 30
0.0
 40
35.0
  1
片受けスタイル（S）
 41
0.75
  0
TEXT
  5
1223F4
  8
SLIM
 10
0.0
 20
369.99999999999989
 30
0.0
 40
100.0
  1
4SRT-U7-S
 41
0.75
  0
VIEWPORT
  5
F6BA7
 67
     1
  8
0
 10
145.33033752441401
 20
101.8328354358673
 30
0.0
 40
334.0025019414623
 41
222.19657968139651
 68
     1
 69
     1
1001
ACAD
1000
MVIEW
1002
{
1070
    16
1010
0.0
1020
0.0
1030
0.0
1010
0.0
1020
0.0
1030
1.0
1040
0.0
1040
222.19657968139651
1040
145.33033752441401
1040
101.8328354358673
1040
50.0
1040
0.0
1040
0.0
1070
     0
1070
     0
1070
     1
1070
     1
1070
     0
1070
     0
1070
     0
1070
     0
1040
0.0
1040
0.0
1040
0.0
1040
10.0
1040
10.0
1040
10.0
1040
10.0
1070
     0
1002
{
1002
}
1002
}
  0
VIEWPORT
  5
F6BA9
 67
     1
  8
OBJECT
 10
145.3303314447403
 20
101.8328338861465
 30
0.0
 40
232.5285303115844
 41
162.93253421783439
 68
     2
 69
     2
1001
ACAD
1000
MVIEW
1002
{
1070
    16
1010
0.0
1020
0.0
1030
0.0
1010
0.0
1020
0.0
1030
1.0
1040
0.0
1040
25942.55904403147
1040
2377.604457077377
1040
-7591.5176687056619
1040
50.0
1040
0.0
1040
0.0
1070
     0
1070
   600
1070
     1
1070
     1
1070
     0
1070
     0
1070
     0
1070
     0
1040
0.0
1040
0.0
1040
0.0
1040
1.0
1040
1.0
1040
0.0
1040
0.0
1070
     0
1002
{
1002
}
1002
}
  0
ENDSEC
  0
EOF
