  0
SECTION
  2
HEADER
  9
$ACADVER
  1
AC1009
  9
$INSBASE
 10
0.0
 20
0.0
 30
0.0
  9
$EXTMIN
 10
0.0
 20
-1668.999999999997
 30
0.0
  9
$EXTMAX
 10
4387.0999999999931
 20
470.0
 30
0.0
  9
$LIMMIN
 10
0.0
 20
0.0
  9
$LIMMAX
 10
210.0
 20
297.0
  9
$ORTHOMODE
 70
     0
  9
$REGENMODE
 70
     1
  9
$FILLMODE
 70
     1
  9
$QTEXTMODE
 70
     0
  9
$MIRRTEXT
 70
     0
  9
$DRAGMODE
 70
     2
  9
$LTSCALE
 40
1.0
  9
$OSMODE
 70
   109
  9
$ATTMODE
 70
     1
  9
$TEXTSIZE
 40
4.0
  9
$TRACEWID
 40
0.05
  9
$TEXTSTYLE
  7
STANDARD
  9
$CLAYER
  8
OBJECT
  9
$CELTYPE
  6
BYLAYER
  9
$CECOLOR
 62
   256
  9
$DIMSCALE
 40
10.0
  9
$DIMASZ
 40
2.0
  9
$DIMEXO
 40
1.0
  9
$DIMDLI
 40
10.0
  9
$DIMRND
 40
0.0
  9
$DIMDLE
 40
0.0
  9
$DIMEXE
 40
1.0
  9
$DIMTP
 40
0.0
  9
$DIMTM
 40
0.0
  9
$DIMTXT
 40
3.2000000000000002
  9
$DIMCEN
 40
0.0
  9
$DIMTSZ
 40
0.0
  9
$DIMTOL
 70
     0
  9
$DIMLIM
 70
     0
  9
$DIMTIH
 70
     0
  9
$DIMTOH
 70
     0
  9
$DIMSE1
 70
     0
  9
$DIMSE2
 70
     0
  9
$DIMTAD
 70
     1
  9
$DIMZIN
 70
     8
  9
$DIMBLK
  1
OPEN30
  9
$DIMASO
 70
     1
  9
$DIMSHO
 70
     1
  9
$DIMPOST
  1

  9
$DIMAPOST
  1

  9
$DIMALT
 70
     0
  9
$DIMALTD
 70
     2
  9
$DIMALTF
 40
25.399999999999999
  9
$DIMLFAC
 40
1.0
  9
$DIMTOFL
 70
     1
  9
$DIMTVP
 40
0.0
  9
$DIMTIX
 70
     0
  9
$DIMSOXD
 70
     0
  9
$DIMSAH
 70
     0
  9
$DIMBLK1
  1

  9
$DIMBLK2
  1

  9
$DIMSTYLE
  2
S10
  9
$DIMCLRD
 70
   256
  9
$DIMCLRE
 70
   256
  9
$DIMCLRT
 70
   256
  9
$DIMTFAC
 40
1.0
  9
$DIMGAP
 40
0.9
  9
$LUNITS
 70
     2
  9
$LUPREC
 70
     2
  9
$SKETCHINC
 40
0.1
  9
$FILLETRAD
 40
0.0
  9
$AUNITS
 70
     0
  9
$AUPREC
 70
     2
  9
$MENU
  1
ACAD
  9
$ELEVATION
 40
0.0
  9
$PELEVATION
 40
0.0
  9
$THICKNESS
 40
0.0
  9
$LIMCHECK
 70
     0
  9
$BLIPMODE
 70
     0
  9
$CHAMFERA
 40
2.0
  9
$CHAMFERB
 40
2.0
  9
$SKPOLY
 70
     0
  9
$TDCREATE
 40
2453095.4929404748
  9
$TDUPDATE
 40
2456744.7517113201
  9
$TDINDWG
 40
18.3480550116
  9
$TDUSRTIMER
 40
18.348054467600001
  9
$USRTIMER
 70
     1
  9
$ANGBASE
 50
0.0
  9
$ANGDIR
 70
     0
  9
$PDMODE
 70
    35
  9
$PDSIZE
 40
2.0
  9
$PLINEWID
 40
0.0
  9
$COORDS
 70
     1
  9
$SPLFRAME
 70
     0
  9
$SPLINETYPE
 70
     6
  9
$SPLINESEGS
 70
     8
  9
$ATTDIA
 70
     0
  9
$ATTREQ
 70
     1
  9
$HANDLING
 70
     1
  9
$HANDSEED
  5
12F131
  9
$SURFTAB1
 70
     6
  9
$SURFTAB2
 70
     6
  9
$SURFTYPE
 70
     6
  9
$SURFU
 70
     6
  9
$SURFV
 70
     6
  9
$UCSNAME
  2

  9
$UCSORG
 10
0.0
 20
0.0
 30
0.0
  9
$UCSXDIR
 10
1.0
 20
0.0
 30
0.0
  9
$UCSYDIR
 10
0.0
 20
1.0
 30
0.0
  9
$PUCSNAME
  2

  9
$PUCSORG
 10
0.0
 20
0.0
 30
0.0
  9
$PUCSXDIR
 10
1.0
 20
0.0
 30
0.0
  9
$PUCSYDIR
 10
0.0
 20
1.0
 30
0.0
  9
$USERI1
 70
     0
  9
$USERI2
 70
     0
  9
$USERI3
 70
     0
  9
$USERI4
 70
     0
  9
$USERI5
 70
     0
  9
$USERR1
 40
0.0
  9
$USERR2
 40
0.0
  9
$USERR3
 40
0.0
  9
$USERR4
 40
0.0
  9
$USERR5
 40
0.0
  9
$WORLDVIEW
 70
     1
  9
$SHADEDGE
 70
     3
  9
$SHADEDIF
 70
    70
  9
$TILEMODE
 70
     1
  9
$MAXACTVP
 70
    64
  9
$PLIMCHECK
 70
     0
  9
$PEXTMIN
 10
29.066066288948051
 20
20.366566777229309
 30
0.0
  9
$PEXTMAX
 10
261.5945966005325
 20
183.29910099506381
 30
0.0
  9
$PLIMMIN
 10
-3.17498779296875
 20
-3.1749999523162842
  9
$PLIMMAX
 10
293.83566284179687
 20
206.8406708240509
  9
$UNITMODE
 70
     0
  9
$VISRETAIN
 70
     1
  9
$PLINEGEN
 70
     0
  9
$PSLTSCALE
 70
     1
  0
ENDSEC
  0
SECTION
  2
TABLES
  0
TABLE
  2
VPORT
 70
     1
  0
VPORT
  2
*ACTIVE
 70
     0
 10
0.0
 20
0.0
 11
1.0
 21
1.0
 12
3377.948554012462
 22
-863.4744116534747
 13
0.0
 23
0.0
 14
1.0
 24
1.0
 15
0.0
 25
0.0
 16
0.0
 26
0.0
 36
1.0
 17
0.0
 27
0.0
 37
0.0
 40
10748.75122323353
 41
1.677807486631016
 42
50.0
 43
0.0
 44
0.0
 50
0.0
 51
0.0
 71
     0
 72
   600
 73
     1
 74
     1
 75
     0
 76
     0
 77
     0
 78
     0
  0
ENDTAB
  0
TABLE
  2
LTYPE
 70
     4
  0
LTYPE
  2
CONTINUOUS
 70
     0
  3
Solid line
 72
    65
 73
     0
 40
0.0
  0
LTYPE
  2
PHANTOM2
 70
     0
  3
___ _ _ ___ _ _ ___ _ _ ___ _ _
 72
    65
 73
     6
 40
1.25
 49
0.625
 49
-0.125
 49
0.125
 49
-0.125
 49
0.125
 49
-0.125
  0
LTYPE
  2
ACAD_ISO08W100
 70
     0
  3
ISO long-dash short-dash ____ __ ____ __ ____ _
 72
    65
 73
     4
 40
36.0
 49
24.0
 49
-3.0
 49
6.0
 49
-3.0
  0
LTYPE
  2
ACAD_ISO02W100
 70
     0
  3
ISO dash __ __ __ __ __ __ __ __ __ __ __ __ __
 72
    65
 73
     2
 40
15.0
 49
12.0
 49
-3.0
  0
ENDTAB
  0
TABLE
  2
LAYER
 70
     7
  0
LAYER
  2
0
 70
     0
 62
     7
  6
CONTINUOUS
  0
LAYER
  2
OBJECT
 70
     0
 62
     4
  6
CONTINUOUS
  0
LAYER
  2
DEFPOINTS
 70
     0
 62
     7
  6
CONTINUOUS
  0
LAYER
  2
HIDDEN
 70
     0
 62
     2
  6
ACAD_ISO02W100
  0
LAYER
  2
CENTER
 70
     0
 62
     2
  6
ACAD_ISO08W100
  0
LAYER
  2
DOTS
 70
     0
 62
     1
  6
CONTINUOUS
  0
LAYER
  2
SLIM
 70
     0
 62
     2
  6
CONTINUOUS
  0
ENDTAB
  0
TABLE
  2
STYLE
 70
     2
  0
STYLE
  2
STANDARD
 70
     0
 40
0.0
 41
0.75
 50
0.0
 71
     0
 42
4.0
  3
simplex.shx
  4
bigfont.shx
  0
ENDTAB
  0
TABLE
  2
VIEW
 70
     0
  0
ENDTAB
  0
TABLE
  2
UCS
 70
     0
  0
ENDTAB
  0
TABLE
  2
APPID
 70
    18
  0
APPID
  2
ACAD
 70
     0
  0
APPID
  2
ACADANNOTATIVE
 70
     0
  0
APPID
  2
ACAD_PSEXT
 70
     0
  0
APPID
  2
ACAD_EXEMPT_FROM_CAD_STANDARDS
 70
     0
  0
APPID
  2
ACAECLAYERSTANDARD
 70
     0
  0
APPID
  2
ACAUTHENVIRON
 70
     0
  0
APPID
  2
ACDBDYNAMICBLOCKTRUENAME
 70
     0
  0
APPID
  2
ACDBDYNAMICBLOCKGUID
 70
     0
  0
APPID
  2
ACDBBLOCKREPETAG
 70
     0
  0
APPID
  2
ACDBBLOCKREPBTAG
 70
     0
  0
APPID
  2
ACAD_NAV_VCDISPLAY
 70
     0
  0
APPID
  2
ACAD_DSTYLE_DIMRADIAL_EXTENSION
 70
     0
  0
APPID
  2
ACAD_DSTYLE_DIMJAG
 70
     0
  0
APPID
  2
ACAD_DSTYLE_DIMTALN
 70
     0
  0
APPID
  2
ACADANNOPO
 70
     0
  0
APPID
  2
GRADIENTCOLOR1ACI
 70
     0
  0
APPID
  2
GRADIENTCOLOR2ACI
 70
     0
  0
APPID
  2
ACAD_MLEADERVER
 70
     0
  0
ENDTAB
  0
TABLE
  2
DIMSTYLE
 70
     3
  0
DIMSTYLE
  2
STANDARD
 70
     0
  3

  4

  5

  6

  7

 40
1.0
 41
0.18
 42
0.0625
 43
0.38
 44
0.18
 45
0.0
 46
0.0
 47
0.0
 48
0.0
140
0.18
141
0.09
142
0.0
143
25.399999999999999
144
1.0
145
0.0
146
1.0
147
0.09
 71
     0
 72
     0
 73
     1
 74
     1
 75
     0
 76
     0
 77
     0
 78
     0
170
     0
171
     2
172
     0
173
     0
174
     0
175
     0
176
     0
177
     0
178
     0
  0
DIMSTYLE
  2
S10
 70
     0
  3

  4

  5

  6

  7

 40
10.0
 41
2.0
 42
1.0
 43
10.0
 44
1.0
 45
0.0
 46
0.0
 47
0.0
 48
0.0
140
3.2000000000000002
141
0.0
142
0.0
143
25.399999999999999
144
1.0
145
0.0
146
1.0
147
0.9
 71
     0
 72
     0
 73
     0
 74
     0
 75
     0
 76
     0
 77
     1
 78
     8
170
     0
171
     2
172
     1
173
     0
174
     0
175
     0
176
   256
177
   256
178
   256
  0
ENDTAB
  0
ENDSEC
  0
SECTION
  2
BLOCKS
  0
BLOCK
  8
0
  2
$MODEL_SPACE
 70
     0
 10
0.0
 20
0.0
 30
0.0
  3
$MODEL_SPACE
  1

  0
ENDBLK
  5
12EEC8
  8
0
  0
BLOCK
 67
     1
  8
0
  2
$PAPER_SPACE
 70
     0
 10
0.0
 20
0.0
 30
0.0
  3
$PAPER_SPACE
  1

  0
ENDBLK
  5
12EEC4
 67
     1
  8
0
  0
BLOCK
  8
0
  2
_OPEN30
 70
     0
 10
0.0
 20
0.0
 30
0.0
  3
_OPEN30
  1

  0
LINE
  5
202
  8
0
  6
BYBLOCK
 62
     0
 10
-1.0
 20
0.26794919
 30
0.0
 11
0.0
 21
0.0
 31
0.0
  0
LINE
  5
203
  8
0
  6
BYBLOCK
 62
     0
 10
0.0
 20
0.0
 30
0.0
 11
-1.0
 21
-0.26794919
 31
0.0
  0
LINE
  5
204
  8
0
  6
BYBLOCK
 62
     0
 10
0.0
 20
0.0
 30
0.0
 11
-1.0
 21
0.0
 31
0.0
  0
ENDBLK
  5
206
  8
0
  0
ENDSEC
  0
SECTION
  2
ENTITIES
  0
LINE
  5
12E7CD
  8
SLIM
 10
3945.2566704261012
 20
-137.99999999999909
 30
0.0
 11
3955.9548403695781
 21
-127.30183005652231
 31
0.0
1001
GRADIENTCOLOR1ACI
1070
     5
1001
GRADIENTCOLOR2ACI
1070
     2
1001
ACAD
1010
0.0
1020
0.0
1030
0.0
1001
ACDBBLOCKREPETAG
1070
     1
1071
      422
1005
12E7CD
  0
LINE
  5
12E7CE
  8
SLIM
 10
3954.2369265471712
 20
-137.99999999999909
 30
0.0
 11
3972.7507744763329
 21
-119.4861520708364
 31
0.0
1001
GRADIENTCOLOR1ACI
1070
     5
1001
GRADIENTCOLOR2ACI
1070
     2
1001
ACAD
1010
0.0
1020
0.0
1030
0.0
1001
ACDBBLOCKREPETAG
1070
     1
1071
      423
1005
12E7CE
  0
LINE
  5
12E7CF
  8
SLIM
 10
3973.521224312457
 20
-127.6959583557812
 30
0.0
 11
3984.8575146748631
 21
-116.359667993377
 31
0.0
1001
GRADIENTCOLOR1ACI
1070
     5
1001
GRADIENTCOLOR2ACI
1070
     2
1001
ACAD
1010
0.0
1020
0.0
1030
0.0
1001
ACDBBLOCKREPETAG
1070
     1
1071
      424
1005
12E7CF
  0
LINE
  5
12E7D0
  8
SLIM
 10
3985.8944171461271
 20
-124.30302164318159
 30
0.0
 11
3995.0533812002559
 21
-115.1440575890517
 31
0.0
1001
GRADIENTCOLOR1ACI
1070
     5
1001
GRADIENTCOLOR2ACI
1070
     2
1001
ACAD
1010
0.0
1020
0.0
1030
0.0
1001
ACDBBLOCKREPETAG
1070
     1
1071
      425
1005
12E7D0
  0
LINE
  5
12E7D1
  8
SLIM
 10
3996.0777327492078
 20
-123.0999621611699
 30
0.0
 11
4000.0
 21
-119.1776949103767
 31
0.0
1001
GRADIENTCOLOR1ACI
1070
     5
1001
GRADIENTCOLOR2ACI
1070
     2
1001
ACAD
1010
0.0
1020
0.0
1030
0.0
1001
ACDBBLOCKREPETAG
1070
     1
1071
      426
1005
12E7D1
  0
LINE
  5
12E7D2
  8
SLIM
 10
4000.0
 20
-119.1776949103767
 30
0.0
 11
4004.0797313529042
 21
-115.0979635574724
 31
0.0
1001
GRADIENTCOLOR1ACI
1070
     5
1001
GRADIENTCOLOR2ACI
1070
     2
1001
ACAD
1010
0.0
1020
0.0
1030
0.0
1001
ACDBBLOCKREPETAG
1070
     1
1071
      427
1005
12E7D2
  0
LINE
  5
12E7D3
  8
SLIM
 10
4004.9957202542769
 20
-123.1622307771683
 30
0.0
 11
4012.2679784105749
 21
-115.88997262087101
 31
0.0
1001
GRADIENTCOLOR1ACI
1070
     5
1001
GRADIENTCOLOR2ACI
1070
     2
1001
ACAD
1010
0.0
1020
0.0
1030
0.0
1001
ACDBBLOCKREPETAG
1070
     1
1071
      428
1005
12E7D3
  0
LINE
  5
12E7D4
  8
SLIM
 10
4013.028059366964
 20
-124.1101477855505
 30
0.0
 11
4019.799941457361
 21
-117.3382656951526
 31
0.0
1001
GRADIENTCOLOR1ACI
1070
     5
1001
GRADIENTCOLOR2ACI
1070
     2
1001
ACAD
1010
0.0
1020
0.0
1030
0.0
1001
ACDBBLOCKREPETAG
1070
     1
1071
      429
1005
12E7D4
  0
LINE
  5
12E7D5
  8
SLIM
 10
4020.3740813142458
 20
-125.7443819593383
 30
0.0
 11
4026.7872038672799
 21
-119.3312594063044
 31
0.0
1001
GRADIENTCOLOR1ACI
1070
     5
1001
GRADIENTCOLOR2ACI
1070
     2
1001
ACAD
1010
0.0
1020
0.0
1030
0.0
1001
ACDBBLOCKREPETAG
1070
     1
1071
      430
1005
12E7D5
  0
LINE
  5
12E7D6
  8
SLIM
 10
4027.1524719988752
 20
-127.946247395778
 30
0.0
 11
4033.3030030760328
 21
-121.7957163186195
 31
0.0
1001
GRADIENTCOLOR1ACI
1070
     5
1001
GRADIENTCOLOR2ACI
1070
     2
1001
ACAD
1010
0.0
1020
0.0
1030
0.0
1001
ACDBBLOCKREPETAG
1070
     1
1071
      431
1005
12E7D6
  0
LINE
  5
12E7D7
  8
SLIM
 10
4033.4390986513308
 20
-130.63987686439191
 30
0.0
 11
4039.3973119843781
 21
-124.6816635313439
 31
0.0
1001
GRADIENTCOLOR1ACI
1070
     5
1001
GRADIENTCOLOR2ACI
1070
     2
1001
ACAD
1010
0.0
1020
0.0
1030
0.0
1001
ACDBBLOCKREPETAG
1070
     1
1071
      432
1005
12E7D7
  0
LINE
  5
12E7D8
  8
SLIM
 10
4039.284224621797
 20
-133.77500701499321
 30
0.0
 11
4045.1047705343681
 21
-127.95446110242381
 31
0.0
1001
GRADIENTCOLOR1ACI
1070
     5
1001
GRADIENTCOLOR2ACI
1070
     2
1001
ACAD
1010
0.0
1020
0.0
1030
0.0
1001
ACDBBLOCKREPETAG
1070
     1
1071
      433
1005
12E7D8
  0
LINE
  5
12E7D9
  8
SLIM
 10
4044.7212801698038
 20
-137.31820758805651
 30
0.0
 11
4050.4491557891961
 21
-131.59033196866449
 31
0.0
1001
GRADIENTCOLOR1ACI
1070
     5
1001
GRADIENTCOLOR2ACI
1070
     2
1001
ACAD
1010
0.0
1020
0.0
1030
0.0
1001
ACDBBLOCKREPETAG
1070
     1
1071
      434
1005
12E7D9
  0
LINE
  5
12E7DA
  8
SLIM
 10
4053.0197438789291
 20
-137.99999999999909
 30
0.0
 11
4055.4459941864038
 21
-135.57374969252561
 31
0.0
1001
GRADIENTCOLOR1ACI
1070
     5
1001
GRADIENTCOLOR2ACI
1070
     2
1001
ACAD
1010
0.0
1020
0.0
1030
0.0
1001
ACDBBLOCKREPETAG
1070
     1
1071
      435
1005
12E7DA
  0
LINE
  5
12E7DB
  8
CENTER
 10
4000.0
 20
-279.99999999999909
 30
0.0
 11
4000.0
 21
-99.999999999999091
 31
0.0
1001
ACDBBLOCKREPETAG
1070
     1
1071
      160
1005
12E7DB
  0
CIRCLE
  5
12E7DC
  8
OBJECT
 10
4000.0
 20
-199.99999999999909
 30
0.0
 40
70.0
1001
ACDBBLOCKREPETAG
1070
     1
1071
      161
1005
12E7DC
  0
CIRCLE
  5
12E7DD
  8
OBJECT
 10
4000.0
 20
-199.99999999999909
 30
0.0
 40
77.0
1001
ACDBBLOCKREPETAG
1070
     1
1071
      162
1005
12E7DD
  0
LINE
  5
12E7DE
  8
OBJECT
 10
4045.661800227324
 20
-137.99999999999909
 30
0.0
 11
4080.0
 21
-137.99999999999909
 31
0.0
1001
ACDBBLOCKREPETAG
1070
     1
1071
      164
1005
12E7DE
  0
LINE
  5
12E7DF
  8
OBJECT
 10
4062.0
 20
-261.99999999999909
 30
0.0
 11
4080.0
 21
-261.99999999999909
 31
0.0
1001
ACDBBLOCKREPETAG
1070
     1
1071
      165
1005
12E7DF
  0
LINE
  5
12E7E0
  8
OBJECT
 10
4062.0
 20
-261.99999999999909
 30
0.0
 11
4062.0
 21
-279.99999999999909
 31
0.0
1001
ACDBBLOCKREPETAG
1070
     1
1071
      167
1005
12E7E0
  0
LINE
  5
12E7E1
  8
OBJECT
 10
3938.0
 20
-261.99999999999909
 30
0.0
 11
3938.0
 21
-279.99999999999909
 31
0.0
1001
ACDBBLOCKREPETAG
1070
     1
1071
      168
1005
12E7E1
  0
LINE
  5
12E7E2
  8
OBJECT
 10
3938.0
 20
-261.99999999999909
 30
0.0
 11
3920.0
 21
-261.99999999999909
 31
0.0
1001
ACDBBLOCKREPETAG
1070
     1
1071
      170
1005
12E7E2
  0
LINE
  5
12E7E3
  8
OBJECT
 10
3954.338199772676
 20
-137.99999999999909
 30
0.0
 11
3920.0
 21
-137.99999999999909
 31
0.0
1001
ACDBBLOCKREPETAG
1070
     1
1071
      171
1005
12E7E3
  0
LINE
  5
12E7E4
  8
OBJECT
 10
3945.5527778486362
 20
-254.44722215136329
 30
0.0
 11
3938.0
 21
-261.99999999999909
 31
0.0
1001
ACDBBLOCKREPETAG
1070
     1
1071
      180
1005
12E7E4
  0
LINE
  5
12E7E5
  8
OBJECT
 10
4054.4472221513638
 20
-254.44722215136329
 30
0.0
 11
4062.0
 21
-261.99999999999909
 31
0.0
1001
ACDBBLOCKREPETAG
1070
     1
1071
      181
1005
12E7E5
  0
POINT
  5
12E7E6
  8
DOTS
 10
4000.0
 20
-199.99999999999909
 30
0.0
 50
270.0
1001
ACDBBLOCKREPETAG
1070
     1
1071
      182
1005
12E7E6
  0
ARC
  5
12E7E7
  8
OBJECT
 10
4000.0
 20
-199.99999999999909
 30
0.0
 40
85.0
 50
46.837102859806208
 51
133.16289714019371
1001
ACDBBLOCKREPETAG
1070
     1
1071
      183
1005
12E7E7
  0
CIRCLE
  5
12E7E8
  8
OBJECT
 10
4000.0
 20
-199.99999999999909
 30
0.0
 40
53.5
1001
ACDBBLOCKREPETAG
1070
     1
1071
      352
1005
12E7E8
  0
LINE
  5
12E7E9
  8
CENTER
 10
4080.0
 20
-199.99999999999909
 30
0.0
 11
3920.0
 21
-199.99999999999909
 31
0.0
1001
ACDBBLOCKREPETAG
1070
     1
1071
      158
1005
12E7E9
  0
LINE
  5
12E7EA
  8
CENTER
 10
3920.0
 20
-199.99999999999909
 30
0.0
 11
3761.0
 21
-199.99999999999909
 31
0.0
1001
ACDBBLOCKREPETAG
1070
     1
1071
      155
1005
12E7EA
  0
LINE
  5
12E7EB
  8
OBJECT
 10
3920.0
 20
-261.99999999999909
 30
0.0
 11
3917.0
 21
-261.99999999999909
 31
0.0
1001
ACDBBLOCKREPETAG
1070
     1
1071
      156
1005
12E7EB
  0
ARC
  5
12E7EC
  8
OBJECT
 10
3917.0
 20
-258.99999999999909
 30
0.0
 40
3.0
 50
180.0
 51
270.0
1001
ACDBBLOCKREPETAG
1070
     1
1071
      157
1005
12E7EC
  0
LINE
  5
12E7ED
  8
OBJECT
 10
3920.0
 20
-138.0000000000027
 30
0.0
 11
3917.0
 21
-138.0000000000027
 31
0.0
1001
ACDBBLOCKREPETAG
1070
     1
1071
      158
1005
12E7ED
  0
LINE
  5
12E7EE
  8
OBJECT
 10
3914.0
 20
-140.99999999999909
 30
0.0
 11
3891.3452724064659
 21
-140.9999999999954
 31
0.0
1001
ACDBBLOCKREPETAG
1070
     1
1071
      159
1005
12E7EE
  0
LINE
  5
12E7EF
  8
OBJECT
 10
3914.0
 20
-259.00000000000267
 30
0.0
 11
3891.3452724064659
 21
-258.99999999999909
 31
0.0
1001
ACDBBLOCKREPETAG
1070
     1
1071
      160
1005
12E7EF
  0
LINE
  5
12E7F0
  8
CENTER
 10
3850.0
 20
-123.5195984073716
 30
0.0
 11
3850.0
 21
-276.48040159262649
 31
0.0
1001
ACDBBLOCKREPETAG
1070
     1
1071
      161
1005
12E7F0
  0
LINE
  5
12E7F1
  8
OBJECT
 10
3914.0
 20
-141.0000000000027
 30
0.0
 11
3914.0
 21
-258.99999999999909
 31
0.0
1001
ACDBBLOCKREPETAG
1070
     1
1071
      162
1005
12E7F1
  0
ARC
  5
12E7F2
  8
OBJECT
 10
3917.0
 20
-141.0000000000027
 30
0.0
 40
3.0
 50
90.0
 51
180.0
1001
ACDBBLOCKREPETAG
1070
     1
1071
      163
1005
12E7F2
  0
ARC
  5
12E7F3
  8
OBJECT
 10
3850.0
 20
-199.99999999999909
 30
0.0
 40
61.0
 50
97.16728546129427
 51
142.83271453872419
1001
ACDBBLOCKREPETAG
1070
     1
1071
      165
1005
12E7F3
  0
ARC
  5
12E7F4
  8
OBJECT
 10
3850.0
 20
-199.99999999999909
 30
0.0
 40
61.0
 50
337.16728546124438
 51
22.832714538755649
1001
ACDBBLOCKREPETAG
1070
     1
1071
      166
1005
12E7F4
  0
ARC
  5
12E7F5
  8
OBJECT
 10
3850.0
 20
-199.99999999999909
 30
0.0
 40
61.0
 50
217.16728546127581
 51
262.83271453870572
1001
ACDBBLOCKREPETAG
1070
     1
1071
      167
1005
12E7F5
  0
CIRCLE
  5
12E7F6
  8
SLIM
 10
3786.0
 20
-199.99999999999909
 30
0.0
 40
4.0
1001
ACDBBLOCKREPETAG
1070
     1
1071
      168
1005
12E7F6
  0
ARC
  5
12E7F7
  8
OBJECT
 10
3786.0
 20
-199.99999999999909
 30
0.0
 40
10.0
 50
142.83271453872419
 51
217.16728546127581
1001
ACDBBLOCKREPETAG
1070
     1
1071
      169
1005
12E7F7
  0
LINE
  5
12E7F8
  8
OBJECT
 10
3801.3906250000041
 20
-163.14720279124501
 30
0.0
 11
3778.03125
 21
-193.9585578346296
 31
0.0
1001
ACDBBLOCKREPETAG
1070
     1
1071
      170
1005
12E7F8
  0
LINE
  5
12E7F9
  8
OBJECT
 10
3801.3906250000041
 20
-236.8527972087532
 30
0.0
 11
3778.03125
 21
-206.04144216536861
 31
0.0
1001
ACDBBLOCKREPETAG
1070
     1
1071
      171
1005
12E7F9
  0
CIRCLE
  5
12E7FA
  8
SLIM
 10
3882.0
 20
-144.5743741577962
 30
0.0
 40
3.9999999999999991
1001
ACDBBLOCKREPETAG
1070
     1
1071
      172
1005
12E7FA
  0
ARC
  5
12E7FB
  8
OBJECT
 10
3882.0
 20
-144.5743741577962
 30
0.0
 40
9.9999999999999982
 50
22.832714538755649
 51
97.16728546129427
1001
ACDBBLOCKREPETAG
1070
     1
1071
      173
1005
12E7FB
  0
LINE
  5
12E7FC
  8
OBJECT
 10
3906.2201460832948
 20
-176.32944499229319
 30
0.0
 11
3891.2164173907049
 21
-140.6939553040711
 31
0.0
1001
ACDBBLOCKREPETAG
1070
     1
1071
      174
1005
12E7FC
  0
LINE
  5
12E7FD
  8
OBJECT
 10
3842.3892289167011
 20
-139.47664778353919
 30
0.0
 11
3880.752332609296
 21
-134.65251313870161
 31
0.0
1001
ACDBBLOCKREPETAG
1070
     1
1071
      175
1005
12E7FD
  0
CIRCLE
  5
12E7FE
  8
SLIM
 10
3882.0
 20
-255.4256258422019
 30
0.0
 40
4.0
1001
ACDBBLOCKREPETAG
1070
     1
1071
      176
1005
12E7FE
  0
ARC
  5
12E7FF
  8
OBJECT
 10
3882.0
 20
-255.4256258422019
 30
0.0
 40
10.0
 50
262.83271453870572
 51
337.16728546124438
1001
ACDBBLOCKREPETAG
1070
     1
1071
      177
1005
12E7FF
  0
LINE
  5
12E800
  8
OBJECT
 10
3842.3892289167011
 20
-260.52335221645899
 30
0.0
 11
3880.752332609296
 21
-265.3474868612966
 31
0.0
1001
ACDBBLOCKREPETAG
1070
     1
1071
      178
1005
12E800
  0
LINE
  5
12E801
  8
OBJECT
 10
3906.2201460832948
 20
-223.67055500770491
 30
0.0
 11
3891.2164173907049
 21
-259.30604469592708
 31
0.0
1001
ACDBBLOCKREPETAG
1070
     1
1071
      179
1005
12E801
  0
CIRCLE
  5
12E802
  8
OBJECT
 10
3850.0
 20
-199.99999999999909
 30
0.0
 40
46.0
1001
ACDBBLOCKREPETAG
1070
     1
1071
      180
1005
12E802
  0
POLYLINE
  5
12E803
  8
SLIM
 66
     1
 10
0.0
 20
0.0
 30
0.0
 70
     1
1001
ACDBBLOCKREPETAG
1070
     1
1071
      181
1005
12E803
  0
VERTEX
  5
12F0A1
  8
SLIM
 10
3789.7527767497349
 20
-193.49999999999909
 30
0.0
  0
VERTEX
  5
12F0A2
  8
SLIM
 10
3793.5055534994649
 20
-199.99999999999909
 30
0.0
  0
VERTEX
  5
12F0A3
  8
SLIM
 10
3789.7527767497349
 20
-206.49999999999909
 30
0.0
  0
VERTEX
  5
12F0A4
  8
SLIM
 10
3782.247223250266
 20
-206.49999999999909
 30
0.0
  0
VERTEX
  5
12F0A5
  8
SLIM
 10
3778.494446500536
 20
-199.99999999999909
 30
0.0
  0
VERTEX
  5
12F0A6
  8
SLIM
 10
3782.247223250266
 20
-193.49999999999909
 30
0.0
  0
SEQEND
  5
12F0A7
  8
SLIM
  0
POLYLINE
  5
12E804
  8
SLIM
 66
     1
 10
0.0
 20
0.0
 30
0.0
 70
     1
1001
ACDBBLOCKREPETAG
1070
     1
1071
      182
1005
12E804
  0
VERTEX
  5
12F0A8
  8
SLIM
 10
3885.752776749729
 20
-151.0743741577962
 30
0.0
  0
VERTEX
  5
12F0A9
  8
SLIM
 10
3878.247223250266
 20
-151.0743741577962
 30
0.0
  0
VERTEX
  5
12F0AA
  8
SLIM
 10
3874.494446500536
 20
-144.5743741577962
 30
0.0
  0
VERTEX
  5
12F0AB
  8
SLIM
 10
3878.247223250271
 20
-138.07437415779259
 30
0.0
  0
VERTEX
  5
12F0AC
  8
SLIM
 10
3885.752776749729
 20
-138.0743741577962
 30
0.0
  0
VERTEX
  5
12F0AD
  8
SLIM
 10
3889.5055534994649
 20
-144.57437415779259
 30
0.0
  0
SEQEND
  5
12F0AE
  8
SLIM
  0
POLYLINE
  5
12E805
  8
SLIM
 66
     1
 10
0.0
 20
0.0
 30
0.0
 70
     1
1001
ACDBBLOCKREPETAG
1070
     1
1071
      183
1005
12E805
  0
VERTEX
  5
12F0AF
  8
SLIM
 10
3874.494446500536
 20
-255.4256258422019
 30
0.0
  0
VERTEX
  5
12F0B0
  8
SLIM
 10
3878.247223250271
 20
-248.9256258422019
 30
0.0
  0
VERTEX
  5
12F0B1
  8
SLIM
 10
3885.752776749729
 20
-248.9256258422019
 30
0.0
  0
VERTEX
  5
12F0B2
  8
SLIM
 10
3889.5055534994649
 20
-255.42562584220559
 30
0.0
  0
VERTEX
  5
12F0B3
  8
SLIM
 10
3885.752776749734
 20
-261.9256258422019
 30
0.0
  0
VERTEX
  5
12F0B4
  8
SLIM
 10
3878.247223250271
 20
-261.92562584220559
 30
0.0
  0
SEQEND
  5
12F0B5
  8
SLIM
  0
LINE
  5
12E806
  8
CENTER
 10
4000.0
 20
-300.99999999999898
 30
0.0
 11
4000.0
 21
-279.99999999999909
 31
0.0
1001
ACDBBLOCKREPETAG
1070
     1
1071
        0
1005
12E806
  0
LINE
  5
12E807
  8
OBJECT
 10
4062.0
 20
-283.0
 30
0.0
 11
4062.0
 21
-279.99999999999909
 31
0.0
1001
ACDBBLOCKREPETAG
1070
     1
1071
        1
1005
12E807
  0
ARC
  5
12E808
  8
OBJECT
 10
4059.0
 20
-283.0
 30
0.0
 40
3.0
 50
270.0
 51
0.0
1001
ACDBBLOCKREPETAG
1070
     1
1071
        2
1005
12E808
  0
LINE
  5
12E809
  8
OBJECT
 10
3938.0
 20
-279.99999999999909
 30
0.0
 11
3938.0
 21
-282.99999999999818
 31
0.0
1001
ACDBBLOCKREPETAG
1070
     1
1071
        3
1005
12E809
  0
ARC
  5
12E80A
  8
OBJECT
 10
3941.0
 20
-282.99999999999818
 30
0.0
 40
3.0
 50
180.0
 51
270.0
1001
ACDBBLOCKREPETAG
1070
     1
1071
        4
1005
12E80A
  0
LINE
  5
12E80B
  8
OBJECT
 10
3941.0
 20
-285.99999999999818
 30
0.0
 11
4059.0
 21
-286.0
 31
0.0
1001
ACDBBLOCKREPETAG
1070
     1
1071
        5
1005
12E80B
  0
LINE
  5
12E80C
  8
CENTER
 10
4080.0
 20
-199.99999999999909
 30
0.0
 11
4239.0
 21
-199.99999999999909
 31
0.0
1001
ACDBBLOCKREPETAG
1070
     1
1071
      155
1005
12E80C
  0
LINE
  5
12E80D
  8
OBJECT
 10
4080.0
 20
-261.99999999999909
 30
0.0
 11
4083.0
 21
-261.99999999999909
 31
0.0
1001
ACDBBLOCKREPETAG
1070
     1
1071
      156
1005
12E80D
  0
ARC
  5
12E80E
  8
OBJECT
 10
4083.0
 20
-258.99999999999909
 30
0.0
 40
3.0
 50
270.0
 51
0.0
1001
ACDBBLOCKREPETAG
1070
     1
1071
      157
1005
12E80E
  0
LINE
  5
12E80F
  8
OBJECT
 10
4080.0
 20
-138.0000000000027
 30
0.0
 11
4083.0
 21
-138.0000000000027
 31
0.0
1001
ACDBBLOCKREPETAG
1070
     1
1071
      158
1005
12E80F
  0
LINE
  5
12E810
  8
OBJECT
 10
4086.0
 20
-140.99999999999909
 30
0.0
 11
4108.6547275935336
 21
-140.9999999999954
 31
0.0
1001
ACDBBLOCKREPETAG
1070
     1
1071
      159
1005
12E810
  0
LINE
  5
12E811
  8
OBJECT
 10
4086.0
 20
-259.00000000000267
 30
0.0
 11
4108.6547275935336
 21
-258.99999999999909
 31
0.0
1001
ACDBBLOCKREPETAG
1070
     1
1071
      160
1005
12E811
  0
LINE
  5
12E812
  8
CENTER
 10
4150.0
 20
-123.5195984073716
 30
0.0
 11
4150.0
 21
-276.48040159262649
 31
0.0
1001
ACDBBLOCKREPETAG
1070
     1
1071
      161
1005
12E812
  0
LINE
  5
12E813
  8
OBJECT
 10
4086.0
 20
-141.0000000000027
 30
0.0
 11
4086.0
 21
-258.99999999999909
 31
0.0
1001
ACDBBLOCKREPETAG
1070
     1
1071
      162
1005
12E813
  0
ARC
  5
12E814
  8
OBJECT
 10
4083.0
 20
-141.0000000000027
 30
0.0
 40
3.0
 50
0.0
 51
90.0
1001
ACDBBLOCKREPETAG
1070
     1
1071
      163
1005
12E814
  0
ARC
  5
12E815
  8
OBJECT
 10
4150.0
 20
-199.99999999999909
 30
0.0
 40
61.0
 50
37.167285461274467
 51
82.832714538705744
1001
ACDBBLOCKREPETAG
1070
     1
1071
      165
1005
12E815
  0
ARC
  5
12E816
  8
OBJECT
 10
4150.0
 20
-199.99999999999909
 30
0.0
 40
61.0
 50
157.16728546126831
 51
202.83271453873161
1001
ACDBBLOCKREPETAG
1070
     1
1071
      166
1005
12E816
  0
ARC
  5
12E817
  8
OBJECT
 10
4150.0
 20
-199.99999999999909
 30
0.0
 40
61.0
 50
277.16728546129423
 51
322.83271453872419
1001
ACDBBLOCKREPETAG
1070
     1
1071
      167
1005
12E817
  0
CIRCLE
  5
12E818
  8
SLIM
 10
4214.0
 20
-199.99999999999909
 30
0.0
 40
4.0
1001
ACDBBLOCKREPETAG
1070
     1
1071
      168
1005
12E818
  0
ARC
  5
12E819
  8
OBJECT
 10
4214.0
 20
-199.99999999999909
 30
0.0
 40
10.0
 50
322.83271453872419
 51
37.167285461274467
1001
ACDBBLOCKREPETAG
1070
     1
1071
      169
1005
12E819
  0
LINE
  5
12E81A
  8
OBJECT
 10
4198.6093749999973
 20
-163.14720279124501
 30
0.0
 11
4221.96875
 21
-193.9585578346296
 31
0.0
1001
ACDBBLOCKREPETAG
1070
     1
1071
      170
1005
12E81A
  0
LINE
  5
12E81B
  8
OBJECT
 10
4198.6093749999973
 20
-236.8527972087532
 30
0.0
 11
4221.96875
 21
-206.04144216536861
 31
0.0
1001
ACDBBLOCKREPETAG
1070
     1
1071
      171
1005
12E81B
  0
CIRCLE
  5
12E81C
  8
SLIM
 10
4118.0
 20
-144.5743741577962
 30
0.0
 40
3.9999999999999991
1001
ACDBBLOCKREPETAG
1070
     1
1071
      172
1005
12E81C
  0
ARC
  5
12E81D
  8
OBJECT
 10
4118.0
 20
-144.5743741577962
 30
0.0
 40
9.9999999999999982
 50
82.832714538705744
 51
157.16728546126831
1001
ACDBBLOCKREPETAG
1070
     1
1071
      173
1005
12E81D
  0
LINE
  5
12E81E
  8
OBJECT
 10
4093.7798539167038
 20
-176.32944499229319
 30
0.0
 11
4108.783582609296
 21
-140.6939553040711
 31
0.0
1001
ACDBBLOCKREPETAG
1070
     1
1071
      174
1005
12E81E
  0
LINE
  5
12E81F
  8
OBJECT
 10
4157.6107710832966
 20
-139.47664778353919
 30
0.0
 11
4119.247667390704
 21
-134.65251313870161
 31
0.0
1001
ACDBBLOCKREPETAG
1070
     1
1071
      175
1005
12E81F
  0
CIRCLE
  5
12E820
  8
SLIM
 10
4118.0
 20
-255.4256258422019
 30
0.0
 40
4.0
1001
ACDBBLOCKREPETAG
1070
     1
1071
      176
1005
12E820
  0
ARC
  5
12E821
  8
OBJECT
 10
4118.0
 20
-255.4256258422019
 30
0.0
 40
10.0
 50
202.83271453873161
 51
277.16728546129423
1001
ACDBBLOCKREPETAG
1070
     1
1071
      177
1005
12E821
  0
LINE
  5
12E822
  8
OBJECT
 10
4157.6107710832966
 20
-260.52335221645899
 30
0.0
 11
4119.247667390704
 21
-265.3474868612966
 31
0.0
1001
ACDBBLOCKREPETAG
1070
     1
1071
      178
1005
12E822
  0
LINE
  5
12E823
  8
OBJECT
 10
4093.7798539167038
 20
-223.67055500770491
 30
0.0
 11
4108.783582609296
 21
-259.30604469592708
 31
0.0
1001
ACDBBLOCKREPETAG
1070
     1
1071
      179
1005
12E823
  0
CIRCLE
  5
12E824
  8
OBJECT
 10
4150.0
 20
-199.99999999999909
 30
0.0
 40
46.0
1001
ACDBBLOCKREPETAG
1070
     1
1071
      180
1005
12E824
  0
POLYLINE
  5
12E825
  8
SLIM
 66
     1
 10
0.0
 20
0.0
 30
0.0
 70
     1
1001
ACDBBLOCKREPETAG
1070
     1
1071
      181
1005
12E825
  0
VERTEX
  5
12F0B6
  8
SLIM
 10
4210.247223250266
 20
-193.49999999999909
 30
0.0
  0
VERTEX
  5
12F0B7
  8
SLIM
 10
4206.4944465005347
 20
-199.99999999999909
 30
0.0
  0
VERTEX
  5
12F0B8
  8
SLIM
 10
4210.247223250266
 20
-206.49999999999909
 30
0.0
  0
VERTEX
  5
12F0B9
  8
SLIM
 10
4217.7527767497322
 20
-206.49999999999909
 30
0.0
  0
VERTEX
  5
12F0BA
  8
SLIM
 10
4221.5055534994644
 20
-199.99999999999909
 30
0.0
  0
VERTEX
  5
12F0BB
  8
SLIM
 10
4217.7527767497322
 20
-193.49999999999909
 30
0.0
  0
SEQEND
  5
12F0BC
  8
SLIM
  0
POLYLINE
  5
12E826
  8
SLIM
 66
     1
 10
0.0
 20
0.0
 30
0.0
 70
     1
1001
ACDBBLOCKREPETAG
1070
     1
1071
      182
1005
12E826
  0
VERTEX
  5
12F0BD
  8
SLIM
 10
4114.2472232502687
 20
-151.0743741577962
 30
0.0
  0
VERTEX
  5
12F0BE
  8
SLIM
 10
4121.752776749734
 20
-151.0743741577962
 30
0.0
  0
VERTEX
  5
12F0BF
  8
SLIM
 10
4125.5055534994644
 20
-144.5743741577962
 30
0.0
  0
VERTEX
  5
12F0C0
  8
SLIM
 10
4121.7527767497286
 20
-138.07437415779259
 30
0.0
  0
VERTEX
  5
12F0C1
  8
SLIM
 10
4114.2472232502687
 20
-138.0743741577962
 30
0.0
  0
VERTEX
  5
12F0C2
  8
SLIM
 10
4110.4944465005347
 20
-144.57437415779259
 30
0.0
  0
SEQEND
  5
12F0C3
  8
SLIM
  0
POLYLINE
  5
12E827
  8
SLIM
 66
     1
 10
0.0
 20
0.0
 30
0.0
 70
     1
1001
ACDBBLOCKREPETAG
1070
     1
1071
      183
1005
12E827
  0
VERTEX
  5
12F0C4
  8
SLIM
 10
4125.5055534994644
 20
-255.4256258422019
 30
0.0
  0
VERTEX
  5
12F0C5
  8
SLIM
 10
4121.7527767497286
 20
-248.9256258422019
 30
0.0
  0
VERTEX
  5
12F0C6
  8
SLIM
 10
4114.2472232502687
 20
-248.9256258422019
 30
0.0
  0
VERTEX
  5
12F0C7
  8
SLIM
 10
4110.4944465005347
 20
-255.42562584220559
 30
0.0
  0
VERTEX
  5
12F0C8
  8
SLIM
 10
4114.247223250266
 20
-261.9256258422019
 30
0.0
  0
VERTEX
  5
12F0C9
  8
SLIM
 10
4121.7527767497286
 20
-261.92562584220559
 30
0.0
  0
SEQEND
  5
12F0CA
  8
SLIM
  0
LINE
  5
12E828
  8
OBJECT
 10
3886.0
 20
-588.0
 30
0.0
 11
3886.0
 21
-586.0
 31
0.0
1001
ACDBBLOCKREPETAG
1070
     1
1071
      157
1005
12E828
  0
ARC
  5
12E829
  8
OBJECT
 10
3844.8134425017452
 20
-606.0
 30
0.0
 40
59.0
 50
270.0
 51
310.7972311667607
1001
ACDBBLOCKREPETAG
1070
     1
1071
      158
1005
12E829
  0
LINE
  5
12E82A
  8
OBJECT
 10
3776.0
 20
-594.5
 30
0.0
 11
3911.0
 21
-594.5
 31
0.0
1001
ACDBBLOCKREPETAG
1070
     1
1071
      159
1005
12E82A
  0
LINE
  5
12E82B
  8
OBJECT
 10
3911.0
 20
-607.5
 30
0.0
 11
3776.0
 21
-607.5
 31
0.0
1001
ACDBBLOCKREPETAG
1070
     1
1071
      160
1005
12E82B
  0
LINE
  5
12E82C
  8
OBJECT
 10
3911.0
 20
-594.5
 30
0.0
 11
3911.0
 21
-607.5
 31
0.0
1001
ACDBBLOCKREPETAG
1070
     1
1071
      161
1005
12E82C
  0
LINE
  5
12E82D
  8
OBJECT
 10
3904.0
 20
-616.5
 30
0.0
 11
3904.0
 21
-607.5
 31
0.0
1001
ACDBBLOCKREPETAG
1070
     1
1071
      162
1005
12E82D
  0
LINE
  5
12E82E
  8
OBJECT
 10
3886.0
 20
-620.0
 30
0.0
 11
3886.0
 21
-607.5
 31
0.0
1001
ACDBBLOCKREPETAG
1070
     1
1071
      163
1005
12E82E
  0
LINE
  5
12E82F
  8
OBJECT
 10
3796.0
 20
-616.5
 30
0.0
 11
3796.0
 21
-607.5
 31
0.0
1001
ACDBBLOCKREPETAG
1070
     1
1071
      164
1005
12E82F
  0
LINE
  5
12E830
  8
OBJECT
 10
3776.0
 20
-594.5
 30
0.0
 11
3776.0
 21
-607.5
 31
0.0
1001
ACDBBLOCKREPETAG
1070
     1
1071
      165
1005
12E830
  0
LINE
  5
12E831
  8
OBJECT
 10
3878.0
 20
-620.0
 30
0.0
 11
3878.0
 21
-607.5
 31
0.0
1001
ACDBBLOCKREPETAG
1070
     1
1071
      166
1005
12E831
  0
LINE
  5
12E832
  8
OBJECT
 10
3886.0
 20
-616.5
 30
0.0
 11
3905.0
 21
-616.5
 31
0.0
1001
ACDBBLOCKREPETAG
1070
     1
1071
      167
1005
12E832
  0
LINE
  5
12E833
  8
OBJECT
 10
3905.0
 20
-620.0
 30
0.0
 11
3905.0
 21
-616.5
 31
0.0
1001
ACDBBLOCKREPETAG
1070
     1
1071
      168
1005
12E833
  0
LINE
  5
12E834
  8
OBJECT
 10
3878.0
 20
-616.5
 30
0.0
 11
3795.0
 21
-616.5
 31
0.0
1001
ACDBBLOCKREPETAG
1070
     1
1071
      169
1005
12E834
  0
LINE
  5
12E835
  8
OBJECT
 10
3795.0
 20
-616.5
 30
0.0
 11
3795.0
 21
-620.0
 31
0.0
1001
ACDBBLOCKREPETAG
1070
     1
1071
      170
1005
12E835
  0
LINE
  5
12E836
  8
OBJECT
 10
3889.5055534994649
 20
-594.5
 30
0.0
 11
3889.5055534994649
 21
-588.0
 31
0.0
1001
ACDBBLOCKREPETAG
1070
     1
1071
      171
1005
12E836
  0
LINE
  5
12E837
  8
OBJECT
 10
3891.0
 20
-633.0
 30
0.0
 11
3891.0
 21
-638.0
 31
0.0
1001
ACDBBLOCKREPETAG
1070
     1
1071
      172
1005
12E837
  0
LINE
  5
12E838
  8
OBJECT
 10
3891.0
 20
-638.0
 30
0.0
 11
3873.0
 21
-638.0
 31
0.0
1001
ACDBBLOCKREPETAG
1070
     1
1071
      173
1005
12E838
  0
LINE
  5
12E839
  8
OBJECT
 10
3873.0
 20
-633.0
 30
0.0
 11
3873.0
 21
-638.0
 31
0.0
1001
ACDBBLOCKREPETAG
1070
     1
1071
      174
1005
12E839
  0
LINE
  5
12E83A
  8
OBJECT
 10
3910.9999999999959
 20
-620.0
 30
0.0
 11
3776.0
 21
-620.0
 31
0.0
1001
ACDBBLOCKREPETAG
1070
     1
1071
      175
1005
12E83A
  0
LINE
  5
12E83B
  8
OBJECT
 10
3776.0
 20
-620.0
 30
0.0
 11
3776.0
 21
-633.0
 31
0.0
1001
ACDBBLOCKREPETAG
1070
     1
1071
      176
1005
12E83B
  0
LINE
  5
12E83C
  8
OBJECT
 10
3883.3630997552359
 20
-650.6645712577473
 30
0.0
 11
3903.8297019999991
 21
-633.0
 31
0.0
1001
ACDBBLOCKREPETAG
1070
     1
1071
      177
1005
12E83C
  0
LINE
  5
12E83D
  8
OBJECT
 10
3798.9999999999968
 20
-640.65708264965724
 30
0.0
 11
3798.9999999999968
 21
-665.0
 31
0.0
1001
ACDBBLOCKREPETAG
1070
     1
1071
      178
1005
12E83D
  0
LINE
  5
12E83E
  8
OBJECT
 10
3844.8134425017452
 20
-665.0
 30
0.0
 11
3798.9999999999968
 21
-665.0
 31
0.0
1001
ACDBBLOCKREPETAG
1070
     1
1071
      179
1005
12E83E
  0
ARC
  5
12E83F
  8
OBJECT
 10
3889.5
 20
-666.5
 30
0.0
 40
84.0
 50
178.97680669632871
 51
262.94651512902959
1001
ACDBBLOCKREPETAG
1070
     1
1071
      180
1005
12E83F
  0
LINE
  5
12E840
  8
OBJECT
 10
3914.0
 20
-754.1720031702107
 30
0.0
 11
3879.1851511871168
 21
-749.86428428270381
 31
0.0
1001
ACDBBLOCKREPETAG
1070
     1
1071
      181
1005
12E840
  0
LINE
  5
12E841
  8
OBJECT
 10
3913.9999999999968
 20
-755.00000000000102
 30
0.0
 11
3913.9999999999968
 21
-634.0
 31
0.0
1001
ACDBBLOCKREPETAG
1070
     1
1071
      182
1005
12E841
  0
ARC
  5
12E842
  8
OBJECT
 10
3916.9999999999968
 20
-755.00000000000102
 30
0.0
 40
3.0
 50
180.0
 51
270.0
1001
ACDBBLOCKREPETAG
1070
     1
1071
      183
1005
12E842
  0
LINE
  5
12E843
  8
OBJECT
 10
3903.8297019999991
 20
-633.0
 30
0.0
 11
3776.0
 21
-633.0
 31
0.0
1001
ACDBBLOCKREPETAG
1070
     1
1071
      184
1005
12E843
  0
LINE
  5
12E844
  8
OBJECT
 10
3894.9460861482771
 20
-640.65708264965724
 30
0.0
 11
3798.9999999999968
 21
-640.65708264965724
 31
0.0
1001
ACDBBLOCKREPETAG
1070
     1
1071
      185
1005
12E844
  0
LINE
  5
12E845
  8
OBJECT
 10
3795.0
 20
-635.89006764214901
 30
0.0
 11
3798.9999999999968
 21
-640.65708264965724
 31
0.0
1001
ACDBBLOCKREPETAG
1070
     1
1071
      186
1005
12E845
  0
LINE
  5
12E846
  8
OBJECT
 10
3910.9999999999959
 20
-620.0
 30
0.0
 11
3910.9999999999941
 21
-634.0
 31
0.0
1001
ACDBBLOCKREPETAG
1070
     1
1071
      187
1005
12E846
  0
LINE
  5
12E847
  8
HIDDEN
 10
3894.5
 20
-660.0
 30
0.0
 11
3805.5
 21
-660.0
 31
0.0
1001
ACDBBLOCKREPETAG
1070
     1
1071
      188
1005
12E847
  0
LINE
  5
12E848
  8
OBJECT
 10
3886.0
 20
-586.0
 30
0.0
 11
3878.0
 21
-586.0
 31
0.0
1001
ACDBBLOCKREPETAG
1070
     1
1071
      189
1005
12E848
  0
LINE
  5
12E849
  8
OBJECT
 10
3878.0
 20
-588.0
 30
0.0
 11
3878.0
 21
-586.0
 31
0.0
1001
ACDBBLOCKREPETAG
1070
     1
1071
      190
1005
12E849
  0
LINE
  5
12E84A
  8
OBJECT
 10
3889.5055534994649
 20
-588.0
 30
0.0
 11
3874.494446500536
 21
-588.0
 31
0.0
1001
ACDBBLOCKREPETAG
1070
     1
1071
      191
1005
12E84A
  0
LINE
  5
12E84B
  8
CENTER
 10
3850.0
 20
-679.77158855533253
 30
0.0
 11
3850.0
 21
-579.49999999999989
 31
0.0
1001
ACDBBLOCKREPETAG
1070
     1
1071
      193
1005
12E84B
  0
LINE
  5
12E84C
  8
OBJECT
 10
3920.0
 20
-758.0
 30
0.0
 11
3916.9999999999968
 21
-758.0000000000008
 31
0.0
1001
ACDBBLOCKREPETAG
1070
     1
1071
      194
1005
12E84C
  0
LINE
  5
12E84D
  8
OBJECT
 10
3920.0
 20
-634.0
 30
0.0
 11
3910.9999999999941
 21
-634.0
 31
0.0
1001
ACDBBLOCKREPETAG
1070
     1
1071
      195
1005
12E84D
  0
LINE
  5
12E84E
  8
OBJECT
 10
3885.7528030216049
 20
-594.49998110541117
 30
0.0
 11
3885.7528030216049
 21
-587.99998110541117
 31
0.0
1001
ACDBBLOCKREPETAG
1070
     1
1071
      196
1005
12E84E
  0
LINE
  5
12E84F
  8
OBJECT
 10
3874.494446500536
 20
-594.5
 30
0.0
 11
3874.494446500536
 21
-588.0
 31
0.0
1001
ACDBBLOCKREPETAG
1070
     1
1071
      197
1005
12E84F
  0
LINE
  5
12E850
  8
OBJECT
 10
3878.2471969783951
 20
-594.49998110541117
 30
0.0
 11
3878.2471969783951
 21
-587.99998110541117
 31
0.0
1001
ACDBBLOCKREPETAG
1070
     1
1071
      198
1005
12E850
  0
LINE
  5
12E851
  8
OBJECT
 10
3790.0
 20
-588.0
 30
0.0
 11
3790.0
 21
-586.0
 31
0.0
1001
ACDBBLOCKREPETAG
1070
     1
1071
      199
1005
12E851
  0
LINE
  5
12E852
  8
OBJECT
 10
3790.0
 20
-620.0
 30
0.0
 11
3790.0
 21
-607.5
 31
0.0
1001
ACDBBLOCKREPETAG
1070
     1
1071
      200
1005
12E852
  0
LINE
  5
12E853
  8
OBJECT
 10
3782.0
 20
-620.0
 30
0.0
 11
3782.0
 21
-607.5
 31
0.0
1001
ACDBBLOCKREPETAG
1070
     1
1071
      201
1005
12E853
  0
LINE
  5
12E854
  8
OBJECT
 10
3793.5055534994649
 20
-594.5
 30
0.0
 11
3793.5055534994649
 21
-588.0
 31
0.0
1001
ACDBBLOCKREPETAG
1070
     1
1071
      202
1005
12E854
  0
LINE
  5
12E855
  8
OBJECT
 10
3795.0
 20
-633.0
 30
0.0
 11
3795.0
 21
-638.0
 31
0.0
1001
ACDBBLOCKREPETAG
1070
     1
1071
      203
1005
12E855
  0
LINE
  5
12E856
  8
OBJECT
 10
3795.0
 20
-638.0
 30
0.0
 11
3777.0
 21
-638.0
 31
0.0
1001
ACDBBLOCKREPETAG
1070
     1
1071
      204
1005
12E856
  0
LINE
  5
12E857
  8
OBJECT
 10
3777.0
 20
-633.0
 30
0.0
 11
3777.0
 21
-638.0
 31
0.0
1001
ACDBBLOCKREPETAG
1070
     1
1071
      205
1005
12E857
  0
LINE
  5
12E858
  8
OBJECT
 10
3790.0
 20
-586.0
 30
0.0
 11
3782.0
 21
-586.0
 31
0.0
1001
ACDBBLOCKREPETAG
1070
     1
1071
      206
1005
12E858
  0
LINE
  5
12E859
  8
OBJECT
 10
3782.0
 20
-588.0
 30
0.0
 11
3782.0
 21
-586.0
 31
0.0
1001
ACDBBLOCKREPETAG
1070
     1
1071
      207
1005
12E859
  0
LINE
  5
12E85A
  8
OBJECT
 10
3793.5055534994649
 20
-588.0
 30
0.0
 11
3778.494446500536
 21
-588.0
 31
0.0
1001
ACDBBLOCKREPETAG
1070
     1
1071
      208
1005
12E85A
  0
LINE
  5
12E85B
  8
OBJECT
 10
3789.7528030216049
 20
-594.49998110541117
 30
0.0
 11
3789.7528030216049
 21
-587.99998110541117
 31
0.0
1001
ACDBBLOCKREPETAG
1070
     1
1071
      209
1005
12E85B
  0
LINE
  5
12E85C
  8
OBJECT
 10
3778.494446500536
 20
-594.5
 30
0.0
 11
3778.494446500536
 21
-588.0
 31
0.0
1001
ACDBBLOCKREPETAG
1070
     1
1071
      210
1005
12E85C
  0
LINE
  5
12E85D
  8
OBJECT
 10
3782.2471969783951
 20
-594.49998110541117
 30
0.0
 11
3782.2471969783951
 21
-587.99998110541117
 31
0.0
1001
ACDBBLOCKREPETAG
1070
     1
1071
      211
1005
12E85D
  0
CIRCLE
  5
12E85E
  8
OBJECT
 10
4000.0
 20
-696.0
 30
0.0
 40
62.0
1001
ACDBBLOCKREPETAG
1070
     1
1071
        0
1005
12E85E
  0
LINE
  5
12E85F
  8
OBJECT
 10
4114.0
 20
-588.0
 30
0.0
 11
4114.0
 21
-586.0
 31
0.0
1001
ACDBBLOCKREPETAG
1070
     1
1071
      157
1005
12E85F
  0
ARC
  5
12E860
  8
OBJECT
 10
4155.1865574982548
 20
-606.0
 30
0.0
 40
59.0
 50
229.20276883323919
 51
270.0
1001
ACDBBLOCKREPETAG
1070
     1
1071
      158
1005
12E860
  0
LINE
  5
12E861
  8
OBJECT
 10
4224.0
 20
-594.5
 30
0.0
 11
4089.0
 21
-594.5
 31
0.0
1001
ACDBBLOCKREPETAG
1070
     1
1071
      159
1005
12E861
  0
LINE
  5
12E862
  8
OBJECT
 10
4089.0
 20
-607.5
 30
0.0
 11
4224.0
 21
-607.5
 31
0.0
1001
ACDBBLOCKREPETAG
1070
     1
1071
      160
1005
12E862
  0
LINE
  5
12E863
  8
OBJECT
 10
4089.0
 20
-594.5
 30
0.0
 11
4089.0
 21
-607.5
 31
0.0
1001
ACDBBLOCKREPETAG
1070
     1
1071
      161
1005
12E863
  0
LINE
  5
12E864
  8
OBJECT
 10
4096.0
 20
-616.5
 30
0.0
 11
4096.0
 21
-607.5
 31
0.0
1001
ACDBBLOCKREPETAG
1070
     1
1071
      162
1005
12E864
  0
LINE
  5
12E865
  8
OBJECT
 10
4114.0
 20
-620.0
 30
0.0
 11
4114.0
 21
-607.5
 31
0.0
1001
ACDBBLOCKREPETAG
1070
     1
1071
      163
1005
12E865
  0
LINE
  5
12E866
  8
OBJECT
 10
4204.0
 20
-616.5
 30
0.0
 11
4204.0
 21
-607.5
 31
0.0
1001
ACDBBLOCKREPETAG
1070
     1
1071
      164
1005
12E866
  0
LINE
  5
12E867
  8
OBJECT
 10
4224.0
 20
-594.5
 30
0.0
 11
4224.0
 21
-607.5
 31
0.0
1001
ACDBBLOCKREPETAG
1070
     1
1071
      165
1005
12E867
  0
LINE
  5
12E868
  8
OBJECT
 10
4122.0
 20
-620.0
 30
0.0
 11
4122.0
 21
-607.5
 31
0.0
1001
ACDBBLOCKREPETAG
1070
     1
1071
      166
1005
12E868
  0
LINE
  5
12E869
  8
OBJECT
 10
4114.0
 20
-616.5
 30
0.0
 11
4095.0
 21
-616.5
 31
0.0
1001
ACDBBLOCKREPETAG
1070
     1
1071
      167
1005
12E869
  0
LINE
  5
12E86A
  8
OBJECT
 10
4095.0
 20
-620.0
 30
0.0
 11
4095.0
 21
-616.5
 31
0.0
1001
ACDBBLOCKREPETAG
1070
     1
1071
      168
1005
12E86A
  0
LINE
  5
12E86B
  8
OBJECT
 10
4122.0
 20
-616.5
 30
0.0
 11
4205.0
 21
-616.5
 31
0.0
1001
ACDBBLOCKREPETAG
1070
     1
1071
      169
1005
12E86B
  0
LINE
  5
12E86C
  8
OBJECT
 10
4205.0
 20
-616.5
 30
0.0
 11
4205.0
 21
-620.0
 31
0.0
1001
ACDBBLOCKREPETAG
1070
     1
1071
      170
1005
12E86C
  0
LINE
  5
12E86D
  8
OBJECT
 10
4110.4944465005347
 20
-594.5
 30
0.0
 11
4110.4944465005347
 21
-588.0
 31
0.0
1001
ACDBBLOCKREPETAG
1070
     1
1071
      171
1005
12E86D
  0
LINE
  5
12E86E
  8
OBJECT
 10
4109.0
 20
-633.0
 30
0.0
 11
4109.0
 21
-638.0
 31
0.0
1001
ACDBBLOCKREPETAG
1070
     1
1071
      172
1005
12E86E
  0
LINE
  5
12E86F
  8
OBJECT
 10
4109.0
 20
-638.0
 30
0.0
 11
4127.0
 21
-638.0
 31
0.0
1001
ACDBBLOCKREPETAG
1070
     1
1071
      173
1005
12E86F
  0
LINE
  5
12E870
  8
OBJECT
 10
4127.0
 20
-633.0
 30
0.0
 11
4127.0
 21
-638.0
 31
0.0
1001
ACDBBLOCKREPETAG
1070
     1
1071
      174
1005
12E870
  0
LINE
  5
12E871
  8
OBJECT
 10
4089.0000000000032
 20
-620.0
 30
0.0
 11
4224.0
 21
-620.0
 31
0.0
1001
ACDBBLOCKREPETAG
1070
     1
1071
      175
1005
12E871
  0
LINE
  5
12E872
  8
OBJECT
 10
4224.0
 20
-620.0
 30
0.0
 11
4224.0
 21
-633.0
 31
0.0
1001
ACDBBLOCKREPETAG
1070
     1
1071
      176
1005
12E872
  0
LINE
  5
12E873
  8
OBJECT
 10
4116.6369002447627
 20
-650.6645712577473
 30
0.0
 11
4096.1702980000009
 21
-633.0
 31
0.0
1001
ACDBBLOCKREPETAG
1070
     1
1071
      177
1005
12E873
  0
LINE
  5
12E874
  8
OBJECT
 10
4201.0000000000036
 20
-640.65708264965724
 30
0.0
 11
4201.0000000000036
 21
-665.0
 31
0.0
1001
ACDBBLOCKREPETAG
1070
     1
1071
      178
1005
12E874
  0
LINE
  5
12E875
  8
OBJECT
 10
4155.1865574982548
 20
-665.0
 30
0.0
 11
4201.0000000000036
 21
-665.0
 31
0.0
1001
ACDBBLOCKREPETAG
1070
     1
1071
      179
1005
12E875
  0
ARC
  5
12E876
  8
OBJECT
 10
4110.5
 20
-666.5
 30
0.0
 40
84.0
 50
277.05348487097029
 51
1.023193303671255
1001
ACDBBLOCKREPETAG
1070
     1
1071
      180
1005
12E876
  0
LINE
  5
12E877
  8
OBJECT
 10
4086.0
 20
-754.1720031702107
 30
0.0
 11
4120.8148488128827
 21
-749.86428428270381
 31
0.0
1001
ACDBBLOCKREPETAG
1070
     1
1071
      181
1005
12E877
  0
LINE
  5
12E878
  8
OBJECT
 10
4086.0000000000032
 20
-755.00000000000102
 30
0.0
 11
4086.0000000000032
 21
-634.0
 31
0.0
1001
ACDBBLOCKREPETAG
1070
     1
1071
      182
1005
12E878
  0
ARC
  5
12E879
  8
OBJECT
 10
4083.0000000000032
 20
-755.00000000000102
 30
0.0
 40
3.0
 50
270.0
 51
0.0
1001
ACDBBLOCKREPETAG
1070
     1
1071
      183
1005
12E879
  0
LINE
  5
12E87A
  8
OBJECT
 10
4096.1702980000009
 20
-633.0
 30
0.0
 11
4224.0
 21
-633.0
 31
0.0
1001
ACDBBLOCKREPETAG
1070
     1
1071
      184
1005
12E87A
  0
LINE
  5
12E87B
  8
OBJECT
 10
4105.0539138517233
 20
-640.65708264965724
 30
0.0
 11
4201.0000000000036
 21
-640.65708264965724
 31
0.0
1001
ACDBBLOCKREPETAG
1070
     1
1071
      185
1005
12E87B
  0
LINE
  5
12E87C
  8
OBJECT
 10
4205.0
 20
-635.89006764214901
 30
0.0
 11
4201.0000000000036
 21
-640.65708264965724
 31
0.0
1001
ACDBBLOCKREPETAG
1070
     1
1071
      186
1005
12E87C
  0
LINE
  5
12E87D
  8
OBJECT
 10
4089.0000000000032
 20
-620.0
 30
0.0
 11
4089.0000000000068
 21
-634.0
 31
0.0
1001
ACDBBLOCKREPETAG
1070
     1
1071
      187
1005
12E87D
  0
LINE
  5
12E87E
  8
HIDDEN
 10
4105.5
 20
-660.0
 30
0.0
 11
4194.5
 21
-660.0
 31
0.0
1001
ACDBBLOCKREPETAG
1070
     1
1071
      188
1005
12E87E
  0
LINE
  5
12E87F
  8
OBJECT
 10
4114.0
 20
-586.0
 30
0.0
 11
4122.0
 21
-586.0
 31
0.0
1001
ACDBBLOCKREPETAG
1070
     1
1071
      189
1005
12E87F
  0
LINE
  5
12E880
  8
OBJECT
 10
4122.0
 20
-588.0
 30
0.0
 11
4122.0
 21
-586.0
 31
0.0
1001
ACDBBLOCKREPETAG
1070
     1
1071
      190
1005
12E880
  0
LINE
  5
12E881
  8
OBJECT
 10
4110.4944465005347
 20
-588.0
 30
0.0
 11
4125.5055534994644
 21
-588.0
 31
0.0
1001
ACDBBLOCKREPETAG
1070
     1
1071
      191
1005
12E881
  0
LINE
  5
12E882
  8
CENTER
 10
4150.0
 20
-679.77158855533253
 30
0.0
 11
4150.0
 21
-579.49999999999989
 31
0.0
1001
ACDBBLOCKREPETAG
1070
     1
1071
      193
1005
12E882
  0
LINE
  5
12E883
  8
OBJECT
 10
4080.0
 20
-758.0
 30
0.0
 11
4083.0000000000032
 21
-758.0000000000008
 31
0.0
1001
ACDBBLOCKREPETAG
1070
     1
1071
      194
1005
12E883
  0
LINE
  5
12E884
  8
OBJECT
 10
4080.0
 20
-634.0
 30
0.0
 11
4089.0000000000068
 21
-634.0
 31
0.0
1001
ACDBBLOCKREPETAG
1070
     1
1071
      195
1005
12E884
  0
LINE
  5
12E885
  8
OBJECT
 10
4114.2471969783946
 20
-594.49998110541117
 30
0.0
 11
4114.2471969783946
 21
-587.99998110541117
 31
0.0
1001
ACDBBLOCKREPETAG
1070
     1
1071
      196
1005
12E885
  0
LINE
  5
12E886
  8
OBJECT
 10
4125.5055534994644
 20
-594.5
 30
0.0
 11
4125.5055534994644
 21
-588.0
 31
0.0
1001
ACDBBLOCKREPETAG
1070
     1
1071
      197
1005
12E886
  0
LINE
  5
12E887
  8
OBJECT
 10
4121.7528030216054
 20
-594.49998110541117
 30
0.0
 11
4121.7528030216054
 21
-587.99998110541117
 31
0.0
1001
ACDBBLOCKREPETAG
1070
     1
1071
      198
1005
12E887
  0
LINE
  5
12E888
  8
OBJECT
 10
4210.0
 20
-588.0
 30
0.0
 11
4210.0
 21
-586.0
 31
0.0
1001
ACDBBLOCKREPETAG
1070
     1
1071
      199
1005
12E888
  0
LINE
  5
12E889
  8
OBJECT
 10
4210.0
 20
-620.0
 30
0.0
 11
4210.0
 21
-607.5
 31
0.0
1001
ACDBBLOCKREPETAG
1070
     1
1071
      200
1005
12E889
  0
LINE
  5
12E88A
  8
OBJECT
 10
4218.0
 20
-620.0
 30
0.0
 11
4218.0
 21
-607.5
 31
0.0
1001
ACDBBLOCKREPETAG
1070
     1
1071
      201
1005
12E88A
  0
LINE
  5
12E88B
  8
OBJECT
 10
4206.4944465005347
 20
-594.5
 30
0.0
 11
4206.4944465005347
 21
-588.0
 31
0.0
1001
ACDBBLOCKREPETAG
1070
     1
1071
      202
1005
12E88B
  0
LINE
  5
12E88C
  8
OBJECT
 10
4205.0
 20
-633.0
 30
0.0
 11
4205.0
 21
-638.0
 31
0.0
1001
ACDBBLOCKREPETAG
1070
     1
1071
      203
1005
12E88C
  0
LINE
  5
12E88D
  8
OBJECT
 10
4205.0
 20
-638.0
 30
0.0
 11
4223.0
 21
-638.0
 31
0.0
1001
ACDBBLOCKREPETAG
1070
     1
1071
      204
1005
12E88D
  0
LINE
  5
12E88E
  8
OBJECT
 10
4223.0
 20
-633.0
 30
0.0
 11
4223.0
 21
-638.0
 31
0.0
1001
ACDBBLOCKREPETAG
1070
     1
1071
      205
1005
12E88E
  0
LINE
  5
12E88F
  8
OBJECT
 10
4210.0
 20
-586.0
 30
0.0
 11
4218.0
 21
-586.0
 31
0.0
1001
ACDBBLOCKREPETAG
1070
     1
1071
      206
1005
12E88F
  0
LINE
  5
12E890
  8
OBJECT
 10
4218.0
 20
-588.0
 30
0.0
 11
4218.0
 21
-586.0
 31
0.0
1001
ACDBBLOCKREPETAG
1070
     1
1071
      207
1005
12E890
  0
LINE
  5
12E891
  8
OBJECT
 10
4206.4944465005347
 20
-588.0
 30
0.0
 11
4221.5055534994644
 21
-588.0
 31
0.0
1001
ACDBBLOCKREPETAG
1070
     1
1071
      208
1005
12E891
  0
LINE
  5
12E892
  8
OBJECT
 10
4210.2471969783946
 20
-594.49998110541117
 30
0.0
 11
4210.2471969783946
 21
-587.99998110541117
 31
0.0
1001
ACDBBLOCKREPETAG
1070
     1
1071
      209
1005
12E892
  0
LINE
  5
12E893
  8
OBJECT
 10
4221.5055534994644
 20
-594.5
 30
0.0
 11
4221.5055534994644
 21
-588.0
 31
0.0
1001
ACDBBLOCKREPETAG
1070
     1
1071
      210
1005
12E893
  0
LINE
  5
12E894
  8
OBJECT
 10
4217.7528030216054
 20
-594.49998110541117
 30
0.0
 11
4217.7528030216054
 21
-587.99998110541117
 31
0.0
1001
ACDBBLOCKREPETAG
1070
     1
1071
      211
1005
12E894
  0
LINE
  5
12E895
  8
OBJECT
 10
3923.0
 20
-570.99999999999955
 30
0.0
 11
3923.0
 21
-549.99999999999955
 31
0.0
1001
ACDBBLOCKREPETAG
1070
     1
1071
       38
1005
12E895
  0
LINE
  5
12E896
  8
OBJECT
 10
3923.0
 20
-549.99999999999955
 30
0.0
 11
4077.0
 21
-549.99999999999955
 31
0.0
1001
ACDBBLOCKREPETAG
1070
     1
1071
       39
1005
12E896
  0
LINE
  5
12E897
  8
HIDDEN
 10
3943.0
 20
-619.99999999999955
 30
0.0
 11
4057.0
 21
-619.99999999999955
 31
0.0
1001
ACDBBLOCKREPETAG
1070
     1
1071
       40
1005
12E897
  0
LINE
  5
12E898
  8
OBJECT
 10
4077.0
 20
-549.99999999999955
 30
0.0
 11
4077.0
 21
-570.99999999999955
 31
0.0
1001
ACDBBLOCKREPETAG
1070
     1
1071
       41
1005
12E898
  0
LINE
  5
12E899
  8
OBJECT
 10
4077.0
 20
-570.99999999999955
 30
0.0
 11
3923.0
 21
-570.99999999999955
 31
0.0
1001
ACDBBLOCKREPETAG
1070
     1
1071
       42
1005
12E899
  0
LINE
  5
12E89A
  8
CENTER
 10
4000.0
 20
-534.99999999999955
 30
0.0
 11
4000.0
 21
-889.99999999999955
 31
0.0
1001
ACDBBLOCKREPETAG
1070
     1
1071
       43
1005
12E89A
  0
LINE
  5
12E89B
  8
OBJECT
 10
3928.0
 20
-570.99999999999955
 30
0.0
 11
3928.0
 21
-633.99999999999955
 31
0.0
1001
ACDBBLOCKREPETAG
1070
     1
1071
       44
1005
12E89B
  0
LINE
  5
12E89C
  8
OBJECT
 10
4072.0
 20
-633.99999999999955
 30
0.0
 11
4072.0
 21
-570.99999999999955
 31
0.0
1001
ACDBBLOCKREPETAG
1070
     1
1071
       45
1005
12E89C
  0
LINE
  5
12E89D
  8
OBJECT
 10
3920.0
 20
-877.99999999999955
 30
0.0
 11
4080.0
 21
-877.99999999999955
 31
0.0
1001
ACDBBLOCKREPETAG
1070
     1
1071
       46
1005
12E89D
  0
LINE
  5
12E89E
  8
OBJECT
 10
4080.0
 20
-633.99999999999955
 30
0.0
 11
3920.0
 21
-633.99999999999955
 31
0.0
1001
ACDBBLOCKREPETAG
1070
     1
1071
       47
1005
12E89E
  0
LINE
  5
12E89F
  8
OBJECT
 10
3920.0
 20
-877.99999999999955
 30
0.0
 11
3920.0
 21
-889.99999999999955
 31
0.0
1001
ACDBBLOCKREPETAG
1070
     1
1071
       48
1005
12E89F
  0
LINE
  5
12E8A0
  8
OBJECT
 10
3920.0
 20
-889.99999999999955
 30
0.0
 11
4080.0
 21
-889.99999999999955
 31
0.0
1001
ACDBBLOCKREPETAG
1070
     1
1071
       49
1005
12E8A0
  0
LINE
  5
12E8A1
  8
OBJECT
 10
4080.0
 20
-889.99999999999955
 30
0.0
 11
4080.0
 21
-877.99999999999955
 31
0.0
1001
ACDBBLOCKREPETAG
1070
     1
1071
       50
1005
12E8A1
  0
LINE
  5
12E8A2
  8
OBJECT
 10
4074.9999999998631
 20
-757.99999999985016
 30
0.0
 11
4075.0
 21
-877.99999999999955
 31
0.0
1001
ACDBBLOCKREPETAG
1070
     1
1071
       54
1005
12E8A2
  0
LINE
  5
12E8A3
  8
OBJECT
 10
4074.9999908029849
 20
-757.99998602702112
 30
0.0
 11
4080.0
 21
-757.99998602702112
 31
0.0
1001
ACDBBLOCKREPETAG
1070
     1
1071
       55
1005
12E8A3
  0
LINE
  5
12E8A4
  8
OBJECT
 10
3925.0000000001392
 20
-757.99999999985016
 30
0.0
 11
3925.0
 21
-877.99999999999955
 31
0.0
1001
ACDBBLOCKREPETAG
1070
     1
1071
       56
1005
12E8A4
  0
LINE
  5
12E8A5
  8
OBJECT
 10
3925.0000091970151
 20
-757.99998602702112
 30
0.0
 11
3920.0
 21
-757.99998602702112
 31
0.0
1001
ACDBBLOCKREPETAG
1070
     1
1071
       57
1005
12E8A5
  0
ARC
  5
12E8A6
  8
OBJECT
 10
4200.6872746716726
 20
-749.40809941010718
 30
0.0
 40
170.6350503965856
 50
137.44134459184301
 51
149.91949581337221
1001
ACDBBLOCKREPETAG
1070
     1
1071
       58
1005
12E8A6
  0
ARC
  5
12E8A7
  8
OBJECT
 10
4200.6872746716726
 20
-642.59190058989179
 30
0.0
 40
170.6350503965856
 50
210.08050418662771
 51
222.55865540815699
1001
ACDBBLOCKREPETAG
1070
     1
1071
       59
1005
12E8A7
  0
ARC
  5
12E8A8
  8
OBJECT
 10
3799.3127253283278
 20
-749.40809941010718
 30
0.0
 40
170.6350503965856
 50
30.080504186774089
 51
42.558655408382641
1001
ACDBBLOCKREPETAG
1070
     1
1071
       60
1005
12E8A8
  0
ARC
  5
12E8A9
  8
OBJECT
 10
3799.3127253283278
 20
-642.59190058989179
 30
0.0
 40
170.6350503965856
 50
317.44134459161722
 51
329.91949581322592
1001
ACDBBLOCKREPETAG
1070
     1
1071
       61
1005
12E8A9
  0
POINT
  5
12E8AA
  8
DOTS
 10
4000.0
 20
-754.99999999999955
 30
0.0
1001
ACDBBLOCKREPETAG
1070
     1
1071
      185
1005
12E8AA
  0
CIRCLE
  5
12E8AB
  8
OBJECT
 10
2000.0
 20
-199.99999999999909
 30
0.0
 40
53.5
1001
ACDBBLOCKREPETAG
1070
     1
1071
      340
1005
12E8AB
  0
LINE
  5
12E8AC
  8
CENTER
 10
2080.0
 20
-199.99999999999909
 30
0.0
 11
1920.0
 21
-199.99999999999909
 31
0.0
1001
ACDBBLOCKREPETAG
1070
     1
1071
       49
1005
12E8AC
  0
LINE
  5
12E8AD
  8
CENTER
 10
2000.0
 20
-279.99999999999909
 30
0.0
 11
2000.0
 21
-104.9999999999991
 31
0.0
1001
ACDBBLOCKREPETAG
1070
     1
1071
       50
1005
12E8AD
  0
CIRCLE
  5
12E8AE
  8
OBJECT
 10
2000.0
 20
-199.99999999999909
 30
0.0
 40
70.0
1001
ACDBBLOCKREPETAG
1070
     1
1071
       51
1005
12E8AE
  0
CIRCLE
  5
12E8AF
  8
OBJECT
 10
2000.0
 20
-199.99999999999909
 30
0.0
 40
77.0
1001
ACDBBLOCKREPETAG
1070
     1
1071
       52
1005
12E8AF
  0
ARC
  5
12E8B0
  8
OBJECT
 10
2000.0
 20
-199.99999999999909
 30
0.0
 40
80.0
 50
50.805032573864182
 51
129.1949674261358
1001
ACDBBLOCKREPETAG
1070
     1
1071
       53
1005
12E8B0
  0
LINE
  5
12E8B1
  8
OBJECT
 10
2045.6618002273251
 20
-137.99999999999909
 30
0.0
 11
2080.0
 21
-137.99999999999909
 31
0.0
1001
ACDBBLOCKREPETAG
1070
     1
1071
       54
1005
12E8B1
  0
LINE
  5
12E8B2
  8
OBJECT
 10
2062.0
 20
-261.99999999999909
 30
0.0
 11
2080.0
 21
-261.99999999999909
 31
0.0
1001
ACDBBLOCKREPETAG
1070
     1
1071
       55
1005
12E8B2
  0
LINE
  5
12E8B3
  8
OBJECT
 10
2062.0
 20
-261.99999999999909
 30
0.0
 11
2062.0
 21
-279.99999999999909
 31
0.0
1001
ACDBBLOCKREPETAG
1070
     1
1071
       57
1005
12E8B3
  0
LINE
  5
12E8B4
  8
OBJECT
 10
1938.0
 20
-261.99999999999909
 30
0.0
 11
1938.0
 21
-279.99999999999909
 31
0.0
1001
ACDBBLOCKREPETAG
1070
     1
1071
       58
1005
12E8B4
  0
POINT
  5
12E8B5
  8
DOTS
 10
2000.0
 20
-199.99999999999909
 30
0.0
 50
90.0
1001
ACDBBLOCKREPETAG
1070
     1
1071
       59
1005
12E8B5
  0
LINE
  5
12E8B6
  8
OBJECT
 10
1938.0
 20
-261.99999999999909
 30
0.0
 11
1920.0
 21
-261.99999999999909
 31
0.0
1001
ACDBBLOCKREPETAG
1070
     1
1071
       60
1005
12E8B6
  0
LINE
  5
12E8B7
  8
OBJECT
 10
1954.3381997726749
 20
-137.99999999999909
 30
0.0
 11
1920.0
 21
-137.99999999999909
 31
0.0
1001
ACDBBLOCKREPETAG
1070
     1
1071
       61
1005
12E8B7
  0
LINE
  5
12E8B8
  8
OBJECT
 10
1945.5527778486351
 20
-254.44722215136329
 30
0.0
 11
1938.0
 21
-261.99999999999909
 31
0.0
1001
ACDBBLOCKREPETAG
1070
     1
1071
       42
1005
12E8B8
  0
LINE
  5
12E8B9
  8
OBJECT
 10
2054.4472221513638
 20
-254.44722215136329
 30
0.0
 11
2062.0
 21
-261.99999999999909
 31
0.0
1001
ACDBBLOCKREPETAG
1070
     1
1071
       43
1005
12E8B9
  0
LINE
  5
12E8BA
  8
CENTER
 10
1920.0
 20
-199.99999999999909
 30
0.0
 11
1761.0
 21
-199.99999999999909
 31
0.0
1001
ACDBBLOCKREPETAG
1070
     1
1071
      155
1005
12E8BA
  0
LINE
  5
12E8BB
  8
OBJECT
 10
1920.0
 20
-261.99999999999909
 30
0.0
 11
1917.0
 21
-261.99999999999909
 31
0.0
1001
ACDBBLOCKREPETAG
1070
     1
1071
      156
1005
12E8BB
  0
ARC
  5
12E8BC
  8
OBJECT
 10
1917.0
 20
-258.99999999999909
 30
0.0
 40
3.0
 50
180.0
 51
270.0
1001
ACDBBLOCKREPETAG
1070
     1
1071
      157
1005
12E8BC
  0
LINE
  5
12E8BD
  8
OBJECT
 10
1920.0
 20
-138.0000000000027
 30
0.0
 11
1917.0
 21
-138.0000000000027
 31
0.0
1001
ACDBBLOCKREPETAG
1070
     1
1071
      158
1005
12E8BD
  0
LINE
  5
12E8BE
  8
OBJECT
 10
1914.0
 20
-140.99999999999909
 30
0.0
 11
1891.345272406465
 21
-140.9999999999954
 31
0.0
1001
ACDBBLOCKREPETAG
1070
     1
1071
      159
1005
12E8BE
  0
LINE
  5
12E8BF
  8
OBJECT
 10
1914.0
 20
-259.00000000000267
 30
0.0
 11
1891.345272406465
 21
-258.99999999999909
 31
0.0
1001
ACDBBLOCKREPETAG
1070
     1
1071
      160
1005
12E8BF
  0
LINE
  5
12E8C0
  8
CENTER
 10
1850.0
 20
-123.5195984073716
 30
0.0
 11
1850.0
 21
-276.48040159262649
 31
0.0
1001
ACDBBLOCKREPETAG
1070
     1
1071
      161
1005
12E8C0
  0
LINE
  5
12E8C1
  8
OBJECT
 10
1914.0
 20
-141.0000000000027
 30
0.0
 11
1914.0
 21
-258.99999999999909
 31
0.0
1001
ACDBBLOCKREPETAG
1070
     1
1071
      162
1005
12E8C1
  0
ARC
  5
12E8C2
  8
OBJECT
 10
1917.0
 20
-141.0000000000027
 30
0.0
 40
3.0
 50
90.0
 51
180.0
1001
ACDBBLOCKREPETAG
1070
     1
1071
      163
1005
12E8C2
  0
ARC
  5
12E8C3
  8
OBJECT
 10
1850.0
 20
-199.99999999999909
 30
0.0
 40
61.0
 50
97.16728546129427
 51
142.83271453872419
1001
ACDBBLOCKREPETAG
1070
     1
1071
      165
1005
12E8C3
  0
ARC
  5
12E8C4
  8
OBJECT
 10
1850.0
 20
-199.99999999999909
 30
0.0
 40
61.0
 50
337.16728546124438
 51
22.832714538755649
1001
ACDBBLOCKREPETAG
1070
     1
1071
      166
1005
12E8C4
  0
ARC
  5
12E8C5
  8
OBJECT
 10
1850.0
 20
-199.99999999999909
 30
0.0
 40
61.0
 50
217.16728546127581
 51
262.83271453870572
1001
ACDBBLOCKREPETAG
1070
     1
1071
      167
1005
12E8C5
  0
CIRCLE
  5
12E8C6
  8
SLIM
 10
1786.0
 20
-199.99999999999909
 30
0.0
 40
4.0
1001
ACDBBLOCKREPETAG
1070
     1
1071
      168
1005
12E8C6
  0
ARC
  5
12E8C7
  8
OBJECT
 10
1786.0
 20
-199.99999999999909
 30
0.0
 40
10.0
 50
142.83271453872419
 51
217.16728546127581
1001
ACDBBLOCKREPETAG
1070
     1
1071
      169
1005
12E8C7
  0
LINE
  5
12E8C8
  8
OBJECT
 10
1801.3906250000041
 20
-163.14720279124501
 30
0.0
 11
1778.03125
 21
-193.9585578346296
 31
0.0
1001
ACDBBLOCKREPETAG
1070
     1
1071
      170
1005
12E8C8
  0
LINE
  5
12E8C9
  8
OBJECT
 10
1801.3906250000041
 20
-236.8527972087532
 30
0.0
 11
1778.03125
 21
-206.04144216536861
 31
0.0
1001
ACDBBLOCKREPETAG
1070
     1
1071
      171
1005
12E8C9
  0
CIRCLE
  5
12E8CA
  8
SLIM
 10
1882.0
 20
-144.5743741577962
 30
0.0
 40
3.9999999999999991
1001
ACDBBLOCKREPETAG
1070
     1
1071
      172
1005
12E8CA
  0
ARC
  5
12E8CB
  8
OBJECT
 10
1882.0
 20
-144.5743741577962
 30
0.0
 40
9.9999999999999982
 50
22.832714538755649
 51
97.16728546129427
1001
ACDBBLOCKREPETAG
1070
     1
1071
      173
1005
12E8CB
  0
LINE
  5
12E8CC
  8
OBJECT
 10
1906.220146083295
 20
-176.32944499229319
 30
0.0
 11
1891.216417390704
 21
-140.6939553040711
 31
0.0
1001
ACDBBLOCKREPETAG
1070
     1
1071
      174
1005
12E8CC
  0
LINE
  5
12E8CD
  8
OBJECT
 10
1842.3892289167011
 20
-139.47664778353919
 30
0.0
 11
1880.752332609296
 21
-134.65251313870161
 31
0.0
1001
ACDBBLOCKREPETAG
1070
     1
1071
      175
1005
12E8CD
  0
CIRCLE
  5
12E8CE
  8
SLIM
 10
1882.0
 20
-255.4256258422019
 30
0.0
 40
4.0
1001
ACDBBLOCKREPETAG
1070
     1
1071
      176
1005
12E8CE
  0
ARC
  5
12E8CF
  8
OBJECT
 10
1882.0
 20
-255.4256258422019
 30
0.0
 40
10.0
 50
262.83271453870572
 51
337.16728546124438
1001
ACDBBLOCKREPETAG
1070
     1
1071
      177
1005
12E8CF
  0
LINE
  5
12E8D0
  8
OBJECT
 10
1842.3892289167011
 20
-260.52335221645899
 30
0.0
 11
1880.752332609296
 21
-265.3474868612966
 31
0.0
1001
ACDBBLOCKREPETAG
1070
     1
1071
      178
1005
12E8D0
  0
LINE
  5
12E8D1
  8
OBJECT
 10
1906.220146083295
 20
-223.67055500770491
 30
0.0
 11
1891.216417390704
 21
-259.30604469592708
 31
0.0
1001
ACDBBLOCKREPETAG
1070
     1
1071
      179
1005
12E8D1
  0
CIRCLE
  5
12E8D2
  8
OBJECT
 10
1850.0
 20
-199.99999999999909
 30
0.0
 40
46.0
1001
ACDBBLOCKREPETAG
1070
     1
1071
      180
1005
12E8D2
  0
POLYLINE
  5
12E8D3
  8
SLIM
 66
     1
 10
0.0
 20
0.0
 30
0.0
 70
     1
1001
ACDBBLOCKREPETAG
1070
     1
1071
      181
1005
12E8D3
  0
VERTEX
  5
12F0CB
  8
SLIM
 10
1789.752776749734
 20
-193.49999999999909
 30
0.0
  0
VERTEX
  5
12F0CC
  8
SLIM
 10
1793.505553499464
 20
-199.99999999999909
 30
0.0
  0
VERTEX
  5
12F0CD
  8
SLIM
 10
1789.752776749734
 20
-206.49999999999909
 30
0.0
  0
VERTEX
  5
12F0CE
  8
SLIM
 10
1782.247223250266
 20
-206.49999999999909
 30
0.0
  0
VERTEX
  5
12F0CF
  8
SLIM
 10
1778.4944465005351
 20
-199.99999999999909
 30
0.0
  0
VERTEX
  5
12F0D0
  8
SLIM
 10
1782.247223250266
 20
-193.49999999999909
 30
0.0
  0
SEQEND
  5
12F0D1
  8
SLIM
  0
POLYLINE
  5
12E8D4
  8
SLIM
 66
     1
 10
0.0
 20
0.0
 30
0.0
 70
     1
1001
ACDBBLOCKREPETAG
1070
     1
1071
      182
1005
12E8D4
  0
VERTEX
  5
12F0D2
  8
SLIM
 10
1885.7527767497299
 20
-151.0743741577962
 30
0.0
  0
VERTEX
  5
12F0D3
  8
SLIM
 10
1878.247223250266
 20
-151.0743741577962
 30
0.0
  0
VERTEX
  5
12F0D4
  8
SLIM
 10
1874.494446500536
 20
-144.5743741577962
 30
0.0
  0
VERTEX
  5
12F0D5
  8
SLIM
 10
1878.2472232502689
 20
-138.07437415779259
 30
0.0
  0
VERTEX
  5
12F0D6
  8
SLIM
 10
1885.7527767497299
 20
-138.0743741577962
 30
0.0
  0
VERTEX
  5
12F0D7
  8
SLIM
 10
1889.505553499464
 20
-144.57437415779259
 30
0.0
  0
SEQEND
  5
12F0D8
  8
SLIM
  0
POLYLINE
  5
12E8D5
  8
SLIM
 66
     1
 10
0.0
 20
0.0
 30
0.0
 70
     1
1001
ACDBBLOCKREPETAG
1070
     1
1071
      183
1005
12E8D5
  0
VERTEX
  5
12F0D9
  8
SLIM
 10
1874.494446500536
 20
-255.4256258422019
 30
0.0
  0
VERTEX
  5
12F0DA
  8
SLIM
 10
1878.2472232502689
 20
-248.9256258422019
 30
0.0
  0
VERTEX
  5
12F0DB
  8
SLIM
 10
1885.7527767497299
 20
-248.9256258422019
 30
0.0
  0
VERTEX
  5
12F0DC
  8
SLIM
 10
1889.505553499464
 20
-255.42562584220559
 30
0.0
  0
VERTEX
  5
12F0DD
  8
SLIM
 10
1885.752776749734
 20
-261.9256258422019
 30
0.0
  0
VERTEX
  5
12F0DE
  8
SLIM
 10
1878.2472232502689
 20
-261.92562584220559
 30
0.0
  0
SEQEND
  5
12F0DF
  8
SLIM
  0
LINE
  5
12E8D6
  8
CENTER
 10
2000.0
 20
-300.99999999999898
 30
0.0
 11
2000.0
 21
-279.99999999999909
 31
0.0
1001
ACDBBLOCKREPETAG
1070
     1
1071
        0
1005
12E8D6
  0
LINE
  5
12E8D7
  8
OBJECT
 10
2062.0
 20
-283.0
 30
0.0
 11
2062.0
 21
-279.99999999999909
 31
0.0
1001
ACDBBLOCKREPETAG
1070
     1
1071
        1
1005
12E8D7
  0
ARC
  5
12E8D8
  8
OBJECT
 10
2059.0
 20
-283.0
 30
0.0
 40
3.0
 50
270.0
 51
0.0
1001
ACDBBLOCKREPETAG
1070
     1
1071
        2
1005
12E8D8
  0
LINE
  5
12E8D9
  8
OBJECT
 10
1938.0
 20
-279.99999999999909
 30
0.0
 11
1938.0
 21
-282.99999999999818
 31
0.0
1001
ACDBBLOCKREPETAG
1070
     1
1071
        3
1005
12E8D9
  0
ARC
  5
12E8DA
  8
OBJECT
 10
1941.0
 20
-282.99999999999818
 30
0.0
 40
3.0
 50
180.0
 51
270.0
1001
ACDBBLOCKREPETAG
1070
     1
1071
        4
1005
12E8DA
  0
LINE
  5
12E8DB
  8
OBJECT
 10
1941.0
 20
-285.99999999999818
 30
0.0
 11
2059.0
 21
-286.0
 31
0.0
1001
ACDBBLOCKREPETAG
1070
     1
1071
        5
1005
12E8DB
  0
LINE
  5
12E8DC
  8
CENTER
 10
2080.0
 20
-199.99999999999909
 30
0.0
 11
2239.0
 21
-199.99999999999909
 31
0.0
1001
ACDBBLOCKREPETAG
1070
     1
1071
      155
1005
12E8DC
  0
LINE
  5
12E8DD
  8
OBJECT
 10
2080.0
 20
-261.99999999999909
 30
0.0
 11
2083.0
 21
-261.99999999999909
 31
0.0
1001
ACDBBLOCKREPETAG
1070
     1
1071
      156
1005
12E8DD
  0
ARC
  5
12E8DE
  8
OBJECT
 10
2083.0
 20
-258.99999999999909
 30
0.0
 40
3.0
 50
270.0
 51
0.0
1001
ACDBBLOCKREPETAG
1070
     1
1071
      157
1005
12E8DE
  0
LINE
  5
12E8DF
  8
OBJECT
 10
2080.0
 20
-138.0000000000027
 30
0.0
 11
2083.0
 21
-138.0000000000027
 31
0.0
1001
ACDBBLOCKREPETAG
1070
     1
1071
      158
1005
12E8DF
  0
LINE
  5
12E8E0
  8
OBJECT
 10
2086.0
 20
-140.99999999999909
 30
0.0
 11
2108.6547275935341
 21
-140.9999999999954
 31
0.0
1001
ACDBBLOCKREPETAG
1070
     1
1071
      159
1005
12E8E0
  0
LINE
  5
12E8E1
  8
OBJECT
 10
2086.0
 20
-259.00000000000267
 30
0.0
 11
2108.6547275935341
 21
-258.99999999999909
 31
0.0
1001
ACDBBLOCKREPETAG
1070
     1
1071
      160
1005
12E8E1
  0
LINE
  5
12E8E2
  8
CENTER
 10
2150.0
 20
-123.5195984073716
 30
0.0
 11
2150.0
 21
-276.48040159262649
 31
0.0
1001
ACDBBLOCKREPETAG
1070
     1
1071
      161
1005
12E8E2
  0
LINE
  5
12E8E3
  8
OBJECT
 10
2086.0
 20
-141.0000000000027
 30
0.0
 11
2086.0
 21
-258.99999999999909
 31
0.0
1001
ACDBBLOCKREPETAG
1070
     1
1071
      162
1005
12E8E3
  0
ARC
  5
12E8E4
  8
OBJECT
 10
2083.0
 20
-141.0000000000027
 30
0.0
 40
3.0
 50
0.0
 51
90.0
1001
ACDBBLOCKREPETAG
1070
     1
1071
      163
1005
12E8E4
  0
ARC
  5
12E8E5
  8
OBJECT
 10
2150.0
 20
-199.99999999999909
 30
0.0
 40
61.0
 50
37.167285461274467
 51
82.832714538705744
1001
ACDBBLOCKREPETAG
1070
     1
1071
      165
1005
12E8E5
  0
ARC
  5
12E8E6
  8
OBJECT
 10
2150.0
 20
-199.99999999999909
 30
0.0
 40
61.0
 50
157.16728546126831
 51
202.83271453873161
1001
ACDBBLOCKREPETAG
1070
     1
1071
      166
1005
12E8E6
  0
ARC
  5
12E8E7
  8
OBJECT
 10
2150.0
 20
-199.99999999999909
 30
0.0
 40
61.0
 50
277.16728546129423
 51
322.83271453872419
1001
ACDBBLOCKREPETAG
1070
     1
1071
      167
1005
12E8E7
  0
CIRCLE
  5
12E8E8
  8
SLIM
 10
2214.0
 20
-199.99999999999909
 30
0.0
 40
4.0
1001
ACDBBLOCKREPETAG
1070
     1
1071
      168
1005
12E8E8
  0
ARC
  5
12E8E9
  8
OBJECT
 10
2214.0
 20
-199.99999999999909
 30
0.0
 40
10.0
 50
322.83271453872419
 51
37.167285461274467
1001
ACDBBLOCKREPETAG
1070
     1
1071
      169
1005
12E8E9
  0
LINE
  5
12E8EA
  8
OBJECT
 10
2198.6093749999959
 20
-163.14720279124501
 30
0.0
 11
2221.96875
 21
-193.9585578346296
 31
0.0
1001
ACDBBLOCKREPETAG
1070
     1
1071
      170
1005
12E8EA
  0
LINE
  5
12E8EB
  8
OBJECT
 10
2198.6093749999959
 20
-236.8527972087532
 30
0.0
 11
2221.96875
 21
-206.04144216536861
 31
0.0
1001
ACDBBLOCKREPETAG
1070
     1
1071
      171
1005
12E8EB
  0
CIRCLE
  5
12E8EC
  8
SLIM
 10
2118.0
 20
-144.5743741577962
 30
0.0
 40
3.9999999999999991
1001
ACDBBLOCKREPETAG
1070
     1
1071
      172
1005
12E8EC
  0
ARC
  5
12E8ED
  8
OBJECT
 10
2118.0
 20
-144.5743741577962
 30
0.0
 40
9.9999999999999982
 50
82.832714538705744
 51
157.16728546126831
1001
ACDBBLOCKREPETAG
1070
     1
1071
      173
1005
12E8ED
  0
LINE
  5
12E8EE
  8
OBJECT
 10
2093.7798539167052
 20
-176.32944499229319
 30
0.0
 11
2108.783582609296
 21
-140.6939553040711
 31
0.0
1001
ACDBBLOCKREPETAG
1070
     1
1071
      174
1005
12E8EE
  0
LINE
  5
12E8EF
  8
OBJECT
 10
2157.6107710832989
 20
-139.47664778353919
 30
0.0
 11
2119.247667390704
 21
-134.65251313870161
 31
0.0
1001
ACDBBLOCKREPETAG
1070
     1
1071
      175
1005
12E8EF
  0
CIRCLE
  5
12E8F0
  8
SLIM
 10
2118.0
 20
-255.4256258422019
 30
0.0
 40
4.0
1001
ACDBBLOCKREPETAG
1070
     1
1071
      176
1005
12E8F0
  0
ARC
  5
12E8F1
  8
OBJECT
 10
2118.0
 20
-255.4256258422019
 30
0.0
 40
10.0
 50
202.83271453873161
 51
277.16728546129423
1001
ACDBBLOCKREPETAG
1070
     1
1071
      177
1005
12E8F1
  0
LINE
  5
12E8F2
  8
OBJECT
 10
2157.6107710832989
 20
-260.52335221645899
 30
0.0
 11
2119.247667390704
 21
-265.3474868612966
 31
0.0
1001
ACDBBLOCKREPETAG
1070
     1
1071
      178
1005
12E8F2
  0
LINE
  5
12E8F3
  8
OBJECT
 10
2093.7798539167052
 20
-223.67055500770491
 30
0.0
 11
2108.783582609296
 21
-259.30604469592708
 31
0.0
1001
ACDBBLOCKREPETAG
1070
     1
1071
      179
1005
12E8F3
  0
CIRCLE
  5
12E8F4
  8
OBJECT
 10
2150.0
 20
-199.99999999999909
 30
0.0
 40
46.0
1001
ACDBBLOCKREPETAG
1070
     1
1071
      180
1005
12E8F4
  0
POLYLINE
  5
12E8F5
  8
SLIM
 66
     1
 10
0.0
 20
0.0
 30
0.0
 70
     1
1001
ACDBBLOCKREPETAG
1070
     1
1071
      181
1005
12E8F5
  0
VERTEX
  5
12F0E0
  8
SLIM
 10
2210.247223250266
 20
-193.49999999999909
 30
0.0
  0
VERTEX
  5
12F0E1
  8
SLIM
 10
2206.494446500536
 20
-199.99999999999909
 30
0.0
  0
VERTEX
  5
12F0E2
  8
SLIM
 10
2210.247223250266
 20
-206.49999999999909
 30
0.0
  0
VERTEX
  5
12F0E3
  8
SLIM
 10
2217.752776749734
 20
-206.49999999999909
 30
0.0
  0
VERTEX
  5
12F0E4
  8
SLIM
 10
2221.505553499464
 20
-199.99999999999909
 30
0.0
  0
VERTEX
  5
12F0E5
  8
SLIM
 10
2217.752776749734
 20
-193.49999999999909
 30
0.0
  0
SEQEND
  5
12F0E6
  8
SLIM
  0
POLYLINE
  5
12E8F6
  8
SLIM
 66
     1
 10
0.0
 20
0.0
 30
0.0
 70
     1
1001
ACDBBLOCKREPETAG
1070
     1
1071
      182
1005
12E8F6
  0
VERTEX
  5
12F0E7
  8
SLIM
 10
2114.2472232502701
 20
-151.0743741577962
 30
0.0
  0
VERTEX
  5
12F0E8
  8
SLIM
 10
2121.752776749734
 20
-151.0743741577962
 30
0.0
  0
VERTEX
  5
12F0E9
  8
SLIM
 10
2125.5055534994649
 20
-144.5743741577962
 30
0.0
  0
VERTEX
  5
12F0EA
  8
SLIM
 10
2121.7527767497309
 20
-138.07437415779259
 30
0.0
  0
VERTEX
  5
12F0EB
  8
SLIM
 10
2114.2472232502701
 20
-138.0743741577962
 30
0.0
  0
VERTEX
  5
12F0EC
  8
SLIM
 10
2110.494446500536
 20
-144.57437415779259
 30
0.0
  0
SEQEND
  5
12F0ED
  8
SLIM
  0
POLYLINE
  5
12E8F7
  8
SLIM
 66
     1
 10
0.0
 20
0.0
 30
0.0
 70
     1
1001
ACDBBLOCKREPETAG
1070
     1
1071
      183
1005
12E8F7
  0
VERTEX
  5
12F0EE
  8
SLIM
 10
2125.5055534994649
 20
-255.4256258422019
 30
0.0
  0
VERTEX
  5
12F0EF
  8
SLIM
 10
2121.7527767497309
 20
-248.9256258422019
 30
0.0
  0
VERTEX
  5
12F0F0
  8
SLIM
 10
2114.2472232502701
 20
-248.9256258422019
 30
0.0
  0
VERTEX
  5
12F0F1
  8
SLIM
 10
2110.494446500536
 20
-255.42562584220559
 30
0.0
  0
VERTEX
  5
12F0F2
  8
SLIM
 10
2114.247223250266
 20
-261.9256258422019
 30
0.0
  0
VERTEX
  5
12F0F3
  8
SLIM
 10
2121.7527767497309
 20
-261.92562584220559
 30
0.0
  0
SEQEND
  5
12F0F4
  8
SLIM
  0
LINE
  5
12E8F8
  8
OBJECT
 10
1886.0
 20
-588.0
 30
0.0
 11
1886.0
 21
-586.0
 31
0.0
1001
ACDBBLOCKREPETAG
1070
     1
1071
      157
1005
12E8F8
  0
ARC
  5
12E8F9
  8
OBJECT
 10
1844.8134425017449
 20
-606.0
 30
0.0
 40
59.0
 50
270.0
 51
310.7972311667607
1001
ACDBBLOCKREPETAG
1070
     1
1071
      158
1005
12E8F9
  0
LINE
  5
12E8FA
  8
OBJECT
 10
1776.0
 20
-594.5
 30
0.0
 11
1911.0
 21
-594.5
 31
0.0
1001
ACDBBLOCKREPETAG
1070
     1
1071
      159
1005
12E8FA
  0
LINE
  5
12E8FB
  8
OBJECT
 10
1911.0
 20
-607.5
 30
0.0
 11
1776.0
 21
-607.5
 31
0.0
1001
ACDBBLOCKREPETAG
1070
     1
1071
      160
1005
12E8FB
  0
LINE
  5
12E8FC
  8
OBJECT
 10
1911.0
 20
-594.5
 30
0.0
 11
1911.0
 21
-607.5
 31
0.0
1001
ACDBBLOCKREPETAG
1070
     1
1071
      161
1005
12E8FC
  0
LINE
  5
12E8FD
  8
OBJECT
 10
1904.0
 20
-616.5
 30
0.0
 11
1904.0
 21
-607.5
 31
0.0
1001
ACDBBLOCKREPETAG
1070
     1
1071
      162
1005
12E8FD
  0
LINE
  5
12E8FE
  8
OBJECT
 10
1886.0
 20
-620.0
 30
0.0
 11
1886.0
 21
-607.5
 31
0.0
1001
ACDBBLOCKREPETAG
1070
     1
1071
      163
1005
12E8FE
  0
LINE
  5
12E8FF
  8
OBJECT
 10
1796.0
 20
-616.5
 30
0.0
 11
1796.0
 21
-607.5
 31
0.0
1001
ACDBBLOCKREPETAG
1070
     1
1071
      164
1005
12E8FF
  0
LINE
  5
12E900
  8
OBJECT
 10
1776.0
 20
-594.5
 30
0.0
 11
1776.0
 21
-607.5
 31
0.0
1001
ACDBBLOCKREPETAG
1070
     1
1071
      165
1005
12E900
  0
LINE
  5
12E901
  8
OBJECT
 10
1878.0
 20
-620.0
 30
0.0
 11
1878.0
 21
-607.5
 31
0.0
1001
ACDBBLOCKREPETAG
1070
     1
1071
      166
1005
12E901
  0
LINE
  5
12E902
  8
OBJECT
 10
1886.0
 20
-616.5
 30
0.0
 11
1905.0
 21
-616.5
 31
0.0
1001
ACDBBLOCKREPETAG
1070
     1
1071
      167
1005
12E902
  0
LINE
  5
12E903
  8
OBJECT
 10
1905.0
 20
-620.0
 30
0.0
 11
1905.0
 21
-616.5
 31
0.0
1001
ACDBBLOCKREPETAG
1070
     1
1071
      168
1005
12E903
  0
LINE
  5
12E904
  8
OBJECT
 10
1878.0
 20
-616.5
 30
0.0
 11
1795.0
 21
-616.5
 31
0.0
1001
ACDBBLOCKREPETAG
1070
     1
1071
      169
1005
12E904
  0
LINE
  5
12E905
  8
OBJECT
 10
1795.0
 20
-616.5
 30
0.0
 11
1795.0
 21
-620.0
 31
0.0
1001
ACDBBLOCKREPETAG
1070
     1
1071
      170
1005
12E905
  0
LINE
  5
12E906
  8
OBJECT
 10
1889.505553499464
 20
-594.5
 30
0.0
 11
1889.505553499464
 21
-588.0
 31
0.0
1001
ACDBBLOCKREPETAG
1070
     1
1071
      171
1005
12E906
  0
LINE
  5
12E907
  8
OBJECT
 10
1891.0
 20
-633.0
 30
0.0
 11
1891.0
 21
-638.0
 31
0.0
1001
ACDBBLOCKREPETAG
1070
     1
1071
      172
1005
12E907
  0
LINE
  5
12E908
  8
OBJECT
 10
1891.0
 20
-638.0
 30
0.0
 11
1873.0
 21
-638.0
 31
0.0
1001
ACDBBLOCKREPETAG
1070
     1
1071
      173
1005
12E908
  0
LINE
  5
12E909
  8
OBJECT
 10
1873.0
 20
-633.0
 30
0.0
 11
1873.0
 21
-638.0
 31
0.0
1001
ACDBBLOCKREPETAG
1070
     1
1071
      174
1005
12E909
  0
LINE
  5
12E90A
  8
OBJECT
 10
1910.9999999999959
 20
-620.0
 30
0.0
 11
1776.0
 21
-620.0
 31
0.0
1001
ACDBBLOCKREPETAG
1070
     1
1071
      175
1005
12E90A
  0
LINE
  5
12E90B
  8
OBJECT
 10
1776.0
 20
-620.0
 30
0.0
 11
1776.0
 21
-633.0
 31
0.0
1001
ACDBBLOCKREPETAG
1070
     1
1071
      176
1005
12E90B
  0
LINE
  5
12E90C
  8
OBJECT
 10
1883.363099755235
 20
-650.6645712577473
 30
0.0
 11
1903.8297019999991
 21
-633.0
 31
0.0
1001
ACDBBLOCKREPETAG
1070
     1
1071
      177
1005
12E90C
  0
LINE
  5
12E90D
  8
OBJECT
 10
1798.9999999999959
 20
-640.65708264965724
 30
0.0
 11
1798.9999999999959
 21
-665.0
 31
0.0
1001
ACDBBLOCKREPETAG
1070
     1
1071
      178
1005
12E90D
  0
LINE
  5
12E90E
  8
OBJECT
 10
1844.8134425017449
 20
-665.0
 30
0.0
 11
1798.9999999999959
 21
-665.0
 31
0.0
1001
ACDBBLOCKREPETAG
1070
     1
1071
      179
1005
12E90E
  0
ARC
  5
12E90F
  8
OBJECT
 10
1889.5
 20
-666.5
 30
0.0
 40
84.0
 50
178.97680669632871
 51
262.94651512902959
1001
ACDBBLOCKREPETAG
1070
     1
1071
      180
1005
12E90F
  0
LINE
  5
12E910
  8
OBJECT
 10
1914.0
 20
-754.1720031702107
 30
0.0
 11
1879.1851511871159
 21
-749.86428428270381
 31
0.0
1001
ACDBBLOCKREPETAG
1070
     1
1071
      181
1005
12E910
  0
LINE
  5
12E911
  8
OBJECT
 10
1913.9999999999959
 20
-755.00000000000102
 30
0.0
 11
1913.9999999999959
 21
-634.0
 31
0.0
1001
ACDBBLOCKREPETAG
1070
     1
1071
      182
1005
12E911
  0
ARC
  5
12E912
  8
OBJECT
 10
1916.9999999999959
 20
-755.00000000000102
 30
0.0
 40
3.0
 50
180.0
 51
270.0
1001
ACDBBLOCKREPETAG
1070
     1
1071
      183
1005
12E912
  0
LINE
  5
12E913
  8
OBJECT
 10
1903.8297019999991
 20
-633.0
 30
0.0
 11
1776.0
 21
-633.0
 31
0.0
1001
ACDBBLOCKREPETAG
1070
     1
1071
      184
1005
12E913
  0
LINE
  5
12E914
  8
OBJECT
 10
1894.946086148276
 20
-640.65708264965724
 30
0.0
 11
1798.9999999999959
 21
-640.65708264965724
 31
0.0
1001
ACDBBLOCKREPETAG
1070
     1
1071
      185
1005
12E914
  0
LINE
  5
12E915
  8
OBJECT
 10
1795.0
 20
-635.89006764214901
 30
0.0
 11
1798.9999999999959
 21
-640.65708264965724
 31
0.0
1001
ACDBBLOCKREPETAG
1070
     1
1071
      186
1005
12E915
  0
LINE
  5
12E916
  8
OBJECT
 10
1910.9999999999959
 20
-620.0
 30
0.0
 11
1910.999999999993
 21
-634.0
 31
0.0
1001
ACDBBLOCKREPETAG
1070
     1
1071
      187
1005
12E916
  0
LINE
  5
12E917
  8
HIDDEN
 10
1894.5
 20
-660.0
 30
0.0
 11
1805.5
 21
-660.0
 31
0.0
1001
ACDBBLOCKREPETAG
1070
     1
1071
      188
1005
12E917
  0
LINE
  5
12E918
  8
OBJECT
 10
1886.0
 20
-586.0
 30
0.0
 11
1878.0
 21
-586.0
 31
0.0
1001
ACDBBLOCKREPETAG
1070
     1
1071
      189
1005
12E918
  0
LINE
  5
12E919
  8
OBJECT
 10
1878.0
 20
-588.0
 30
0.0
 11
1878.0
 21
-586.0
 31
0.0
1001
ACDBBLOCKREPETAG
1070
     1
1071
      190
1005
12E919
  0
LINE
  5
12E91A
  8
OBJECT
 10
1889.505553499464
 20
-588.0
 30
0.0
 11
1874.494446500536
 21
-588.0
 31
0.0
1001
ACDBBLOCKREPETAG
1070
     1
1071
      191
1005
12E91A
  0
LINE
  5
12E91B
  8
CENTER
 10
1850.0
 20
-679.77158855533253
 30
0.0
 11
1850.0
 21
-579.49999999999989
 31
0.0
1001
ACDBBLOCKREPETAG
1070
     1
1071
      193
1005
12E91B
  0
LINE
  5
12E91C
  8
OBJECT
 10
1920.0
 20
-758.0
 30
0.0
 11
1916.9999999999959
 21
-758.0000000000008
 31
0.0
1001
ACDBBLOCKREPETAG
1070
     1
1071
      194
1005
12E91C
  0
LINE
  5
12E91D
  8
OBJECT
 10
1920.0
 20
-634.0
 30
0.0
 11
1910.999999999993
 21
-634.0
 31
0.0
1001
ACDBBLOCKREPETAG
1070
     1
1071
      195
1005
12E91D
  0
LINE
  5
12E91E
  8
OBJECT
 10
1885.7528030216049
 20
-594.49998110541117
 30
0.0
 11
1885.7528030216049
 21
-587.99998110541117
 31
0.0
1001
ACDBBLOCKREPETAG
1070
     1
1071
      196
1005
12E91E
  0
LINE
  5
12E91F
  8
OBJECT
 10
1874.494446500536
 20
-594.5
 30
0.0
 11
1874.494446500536
 21
-588.0
 31
0.0
1001
ACDBBLOCKREPETAG
1070
     1
1071
      197
1005
12E91F
  0
LINE
  5
12E920
  8
OBJECT
 10
1878.2471969783951
 20
-594.49998110541117
 30
0.0
 11
1878.2471969783951
 21
-587.99998110541117
 31
0.0
1001
ACDBBLOCKREPETAG
1070
     1
1071
      198
1005
12E920
  0
LINE
  5
12E921
  8
OBJECT
 10
1790.0
 20
-588.0
 30
0.0
 11
1790.0
 21
-586.0
 31
0.0
1001
ACDBBLOCKREPETAG
1070
     1
1071
      199
1005
12E921
  0
LINE
  5
12E922
  8
OBJECT
 10
1790.0
 20
-620.0
 30
0.0
 11
1790.0
 21
-607.5
 31
0.0
1001
ACDBBLOCKREPETAG
1070
     1
1071
      200
1005
12E922
  0
LINE
  5
12E923
  8
OBJECT
 10
1782.0
 20
-620.0
 30
0.0
 11
1782.0
 21
-607.5
 31
0.0
1001
ACDBBLOCKREPETAG
1070
     1
1071
      201
1005
12E923
  0
LINE
  5
12E924
  8
OBJECT
 10
1793.505553499464
 20
-594.5
 30
0.0
 11
1793.505553499464
 21
-588.0
 31
0.0
1001
ACDBBLOCKREPETAG
1070
     1
1071
      202
1005
12E924
  0
LINE
  5
12E925
  8
OBJECT
 10
1795.0
 20
-633.0
 30
0.0
 11
1795.0
 21
-638.0
 31
0.0
1001
ACDBBLOCKREPETAG
1070
     1
1071
      203
1005
12E925
  0
LINE
  5
12E926
  8
OBJECT
 10
1795.0
 20
-638.0
 30
0.0
 11
1777.0
 21
-638.0
 31
0.0
1001
ACDBBLOCKREPETAG
1070
     1
1071
      204
1005
12E926
  0
LINE
  5
12E927
  8
OBJECT
 10
1777.0
 20
-633.0
 30
0.0
 11
1777.0
 21
-638.0
 31
0.0
1001
ACDBBLOCKREPETAG
1070
     1
1071
      205
1005
12E927
  0
LINE
  5
12E928
  8
OBJECT
 10
1790.0
 20
-586.0
 30
0.0
 11
1782.0
 21
-586.0
 31
0.0
1001
ACDBBLOCKREPETAG
1070
     1
1071
      206
1005
12E928
  0
LINE
  5
12E929
  8
OBJECT
 10
1782.0
 20
-588.0
 30
0.0
 11
1782.0
 21
-586.0
 31
0.0
1001
ACDBBLOCKREPETAG
1070
     1
1071
      207
1005
12E929
  0
LINE
  5
12E92A
  8
OBJECT
 10
1793.505553499464
 20
-588.0
 30
0.0
 11
1778.4944465005351
 21
-588.0
 31
0.0
1001
ACDBBLOCKREPETAG
1070
     1
1071
      208
1005
12E92A
  0
LINE
  5
12E92B
  8
OBJECT
 10
1789.752803021604
 20
-594.49998110541117
 30
0.0
 11
1789.752803021604
 21
-587.99998110541117
 31
0.0
1001
ACDBBLOCKREPETAG
1070
     1
1071
      209
1005
12E92B
  0
LINE
  5
12E92C
  8
OBJECT
 10
1778.4944465005351
 20
-594.5
 30
0.0
 11
1778.4944465005351
 21
-588.0
 31
0.0
1001
ACDBBLOCKREPETAG
1070
     1
1071
      210
1005
12E92C
  0
LINE
  5
12E92D
  8
OBJECT
 10
1782.2471969783951
 20
-594.49998110541117
 30
0.0
 11
1782.2471969783951
 21
-587.99998110541117
 31
0.0
1001
ACDBBLOCKREPETAG
1070
     1
1071
      211
1005
12E92D
  0
CIRCLE
  5
12E92E
  8
OBJECT
 10
2000.0
 20
-696.0
 30
0.0
 40
62.0
1001
ACDBBLOCKREPETAG
1070
     1
1071
        0
1005
12E92E
  0
LINE
  5
12E92F
  8
OBJECT
 10
2114.0
 20
-588.0
 30
0.0
 11
2114.0
 21
-586.0
 31
0.0
1001
ACDBBLOCKREPETAG
1070
     1
1071
      157
1005
12E92F
  0
ARC
  5
12E930
  8
OBJECT
 10
2155.1865574982548
 20
-606.0
 30
0.0
 40
59.0
 50
229.20276883323919
 51
270.0
1001
ACDBBLOCKREPETAG
1070
     1
1071
      158
1005
12E930
  0
LINE
  5
12E931
  8
OBJECT
 10
2224.0
 20
-594.5
 30
0.0
 11
2089.0
 21
-594.5
 31
0.0
1001
ACDBBLOCKREPETAG
1070
     1
1071
      159
1005
12E931
  0
LINE
  5
12E932
  8
OBJECT
 10
2089.0
 20
-607.5
 30
0.0
 11
2224.0
 21
-607.5
 31
0.0
1001
ACDBBLOCKREPETAG
1070
     1
1071
      160
1005
12E932
  0
LINE
  5
12E933
  8
OBJECT
 10
2089.0
 20
-594.5
 30
0.0
 11
2089.0
 21
-607.5
 31
0.0
1001
ACDBBLOCKREPETAG
1070
     1
1071
      161
1005
12E933
  0
LINE
  5
12E934
  8
OBJECT
 10
2096.0
 20
-616.5
 30
0.0
 11
2096.0
 21
-607.5
 31
0.0
1001
ACDBBLOCKREPETAG
1070
     1
1071
      162
1005
12E934
  0
LINE
  5
12E935
  8
OBJECT
 10
2114.0
 20
-620.0
 30
0.0
 11
2114.0
 21
-607.5
 31
0.0
1001
ACDBBLOCKREPETAG
1070
     1
1071
      163
1005
12E935
  0
LINE
  5
12E936
  8
OBJECT
 10
2204.0
 20
-616.5
 30
0.0
 11
2204.0
 21
-607.5
 31
0.0
1001
ACDBBLOCKREPETAG
1070
     1
1071
      164
1005
12E936
  0
LINE
  5
12E937
  8
OBJECT
 10
2224.0
 20
-594.5
 30
0.0
 11
2224.0
 21
-607.5
 31
0.0
1001
ACDBBLOCKREPETAG
1070
     1
1071
      165
1005
12E937
  0
LINE
  5
12E938
  8
OBJECT
 10
2122.0
 20
-620.0
 30
0.0
 11
2122.0
 21
-607.5
 31
0.0
1001
ACDBBLOCKREPETAG
1070
     1
1071
      166
1005
12E938
  0
LINE
  5
12E939
  8
OBJECT
 10
2114.0
 20
-616.5
 30
0.0
 11
2095.0
 21
-616.5
 31
0.0
1001
ACDBBLOCKREPETAG
1070
     1
1071
      167
1005
12E939
  0
LINE
  5
12E93A
  8
OBJECT
 10
2095.0
 20
-620.0
 30
0.0
 11
2095.0
 21
-616.5
 31
0.0
1001
ACDBBLOCKREPETAG
1070
     1
1071
      168
1005
12E93A
  0
LINE
  5
12E93B
  8
OBJECT
 10
2122.0
 20
-616.5
 30
0.0
 11
2205.0
 21
-616.5
 31
0.0
1001
ACDBBLOCKREPETAG
1070
     1
1071
      169
1005
12E93B
  0
LINE
  5
12E93C
  8
OBJECT
 10
2205.0
 20
-616.5
 30
0.0
 11
2205.0
 21
-620.0
 31
0.0
1001
ACDBBLOCKREPETAG
1070
     1
1071
      170
1005
12E93C
  0
LINE
  5
12E93D
  8
OBJECT
 10
2110.494446500536
 20
-594.5
 30
0.0
 11
2110.494446500536
 21
-588.0
 31
0.0
1001
ACDBBLOCKREPETAG
1070
     1
1071
      171
1005
12E93D
  0
LINE
  5
12E93E
  8
OBJECT
 10
2109.0
 20
-633.0
 30
0.0
 11
2109.0
 21
-638.0
 31
0.0
1001
ACDBBLOCKREPETAG
1070
     1
1071
      172
1005
12E93E
  0
LINE
  5
12E93F
  8
OBJECT
 10
2109.0
 20
-638.0
 30
0.0
 11
2127.0
 21
-638.0
 31
0.0
1001
ACDBBLOCKREPETAG
1070
     1
1071
      173
1005
12E93F
  0
LINE
  5
12E940
  8
OBJECT
 10
2127.0
 20
-633.0
 30
0.0
 11
2127.0
 21
-638.0
 31
0.0
1001
ACDBBLOCKREPETAG
1070
     1
1071
      174
1005
12E940
  0
LINE
  5
12E941
  8
OBJECT
 10
2089.0000000000032
 20
-620.0
 30
0.0
 11
2224.0
 21
-620.0
 31
0.0
1001
ACDBBLOCKREPETAG
1070
     1
1071
      175
1005
12E941
  0
LINE
  5
12E942
  8
OBJECT
 10
2224.0
 20
-620.0
 30
0.0
 11
2224.0
 21
-633.0
 31
0.0
1001
ACDBBLOCKREPETAG
1070
     1
1071
      176
1005
12E942
  0
LINE
  5
12E943
  8
OBJECT
 10
2116.636900244765
 20
-650.6645712577473
 30
0.0
 11
2096.170298
 21
-633.0
 31
0.0
1001
ACDBBLOCKREPETAG
1070
     1
1071
      177
1005
12E943
  0
LINE
  5
12E944
  8
OBJECT
 10
2201.0000000000041
 20
-640.65708264965724
 30
0.0
 11
2201.0000000000041
 21
-665.0
 31
0.0
1001
ACDBBLOCKREPETAG
1070
     1
1071
      178
1005
12E944
  0
LINE
  5
12E945
  8
OBJECT
 10
2155.1865574982548
 20
-665.0
 30
0.0
 11
2201.0000000000041
 21
-665.0
 31
0.0
1001
ACDBBLOCKREPETAG
1070
     1
1071
      179
1005
12E945
  0
ARC
  5
12E946
  8
OBJECT
 10
2110.5
 20
-666.5
 30
0.0
 40
84.0
 50
277.05348487097029
 51
1.023193303671255
1001
ACDBBLOCKREPETAG
1070
     1
1071
      180
1005
12E946
  0
LINE
  5
12E947
  8
OBJECT
 10
2086.0
 20
-754.1720031702107
 30
0.0
 11
2120.8148488128832
 21
-749.86428428270381
 31
0.0
1001
ACDBBLOCKREPETAG
1070
     1
1071
      181
1005
12E947
  0
LINE
  5
12E948
  8
OBJECT
 10
2086.0000000000041
 20
-755.00000000000102
 30
0.0
 11
2086.0000000000041
 21
-634.0
 31
0.0
1001
ACDBBLOCKREPETAG
1070
     1
1071
      182
1005
12E948
  0
ARC
  5
12E949
  8
OBJECT
 10
2083.0000000000041
 20
-755.00000000000102
 30
0.0
 40
3.0
 50
270.0
 51
0.0
1001
ACDBBLOCKREPETAG
1070
     1
1071
      183
1005
12E949
  0
LINE
  5
12E94A
  8
OBJECT
 10
2096.170298
 20
-633.0
 30
0.0
 11
2224.0
 21
-633.0
 31
0.0
1001
ACDBBLOCKREPETAG
1070
     1
1071
      184
1005
12E94A
  0
LINE
  5
12E94B
  8
OBJECT
 10
2105.0539138517229
 20
-640.65708264965724
 30
0.0
 11
2201.0000000000041
 21
-640.65708264965724
 31
0.0
1001
ACDBBLOCKREPETAG
1070
     1
1071
      185
1005
12E94B
  0
LINE
  5
12E94C
  8
OBJECT
 10
2205.0
 20
-635.89006764214901
 30
0.0
 11
2201.0000000000041
 21
-640.65708264965724
 31
0.0
1001
ACDBBLOCKREPETAG
1070
     1
1071
      186
1005
12E94C
  0
LINE
  5
12E94D
  8
OBJECT
 10
2089.0000000000032
 20
-620.0
 30
0.0
 11
2089.0000000000068
 21
-634.0
 31
0.0
1001
ACDBBLOCKREPETAG
1070
     1
1071
      187
1005
12E94D
  0
LINE
  5
12E94E
  8
HIDDEN
 10
2105.5
 20
-660.0
 30
0.0
 11
2194.5
 21
-660.0
 31
0.0
1001
ACDBBLOCKREPETAG
1070
     1
1071
      188
1005
12E94E
  0
LINE
  5
12E94F
  8
OBJECT
 10
2114.0
 20
-586.0
 30
0.0
 11
2122.0
 21
-586.0
 31
0.0
1001
ACDBBLOCKREPETAG
1070
     1
1071
      189
1005
12E94F
  0
LINE
  5
12E950
  8
OBJECT
 10
2122.0
 20
-588.0
 30
0.0
 11
2122.0
 21
-586.0
 31
0.0
1001
ACDBBLOCKREPETAG
1070
     1
1071
      190
1005
12E950
  0
LINE
  5
12E951
  8
OBJECT
 10
2110.494446500536
 20
-588.0
 30
0.0
 11
2125.5055534994649
 21
-588.0
 31
0.0
1001
ACDBBLOCKREPETAG
1070
     1
1071
      191
1005
12E951
  0
LINE
  5
12E952
  8
CENTER
 10
2150.0
 20
-679.77158855533253
 30
0.0
 11
2150.0
 21
-579.49999999999989
 31
0.0
1001
ACDBBLOCKREPETAG
1070
     1
1071
      193
1005
12E952
  0
LINE
  5
12E953
  8
OBJECT
 10
2080.0
 20
-758.0
 30
0.0
 11
2083.0000000000041
 21
-758.0000000000008
 31
0.0
1001
ACDBBLOCKREPETAG
1070
     1
1071
      194
1005
12E953
  0
LINE
  5
12E954
  8
OBJECT
 10
2080.0
 20
-634.0
 30
0.0
 11
2089.0000000000068
 21
-634.0
 31
0.0
1001
ACDBBLOCKREPETAG
1070
     1
1071
      195
1005
12E954
  0
LINE
  5
12E955
  8
OBJECT
 10
2114.247196978396
 20
-594.49998110541117
 30
0.0
 11
2114.247196978396
 21
-587.99998110541117
 31
0.0
1001
ACDBBLOCKREPETAG
1070
     1
1071
      196
1005
12E955
  0
LINE
  5
12E956
  8
OBJECT
 10
2125.5055534994649
 20
-594.5
 30
0.0
 11
2125.5055534994649
 21
-588.0
 31
0.0
1001
ACDBBLOCKREPETAG
1070
     1
1071
      197
1005
12E956
  0
LINE
  5
12E957
  8
OBJECT
 10
2121.7528030216049
 20
-594.49998110541117
 30
0.0
 11
2121.7528030216049
 21
-587.99998110541117
 31
0.0
1001
ACDBBLOCKREPETAG
1070
     1
1071
      198
1005
12E957
  0
LINE
  5
12E958
  8
OBJECT
 10
2210.0
 20
-588.0
 30
0.0
 11
2210.0
 21
-586.0
 31
0.0
1001
ACDBBLOCKREPETAG
1070
     1
1071
      199
1005
12E958
  0
LINE
  5
12E959
  8
OBJECT
 10
2210.0
 20
-620.0
 30
0.0
 11
2210.0
 21
-607.5
 31
0.0
1001
ACDBBLOCKREPETAG
1070
     1
1071
      200
1005
12E959
  0
LINE
  5
12E95A
  8
OBJECT
 10
2218.0
 20
-620.0
 30
0.0
 11
2218.0
 21
-607.5
 31
0.0
1001
ACDBBLOCKREPETAG
1070
     1
1071
      201
1005
12E95A
  0
LINE
  5
12E95B
  8
OBJECT
 10
2206.494446500536
 20
-594.5
 30
0.0
 11
2206.494446500536
 21
-588.0
 31
0.0
1001
ACDBBLOCKREPETAG
1070
     1
1071
      202
1005
12E95B
  0
LINE
  5
12E95C
  8
OBJECT
 10
2205.0
 20
-633.0
 30
0.0
 11
2205.0
 21
-638.0
 31
0.0
1001
ACDBBLOCKREPETAG
1070
     1
1071
      203
1005
12E95C
  0
LINE
  5
12E95D
  8
OBJECT
 10
2205.0
 20
-638.0
 30
0.0
 11
2223.0
 21
-638.0
 31
0.0
1001
ACDBBLOCKREPETAG
1070
     1
1071
      204
1005
12E95D
  0
LINE
  5
12E95E
  8
OBJECT
 10
2223.0
 20
-633.0
 30
0.0
 11
2223.0
 21
-638.0
 31
0.0
1001
ACDBBLOCKREPETAG
1070
     1
1071
      205
1005
12E95E
  0
LINE
  5
12E95F
  8
OBJECT
 10
2210.0
 20
-586.0
 30
0.0
 11
2218.0
 21
-586.0
 31
0.0
1001
ACDBBLOCKREPETAG
1070
     1
1071
      206
1005
12E95F
  0
LINE
  5
12E960
  8
OBJECT
 10
2218.0
 20
-588.0
 30
0.0
 11
2218.0
 21
-586.0
 31
0.0
1001
ACDBBLOCKREPETAG
1070
     1
1071
      207
1005
12E960
  0
LINE
  5
12E961
  8
OBJECT
 10
2206.494446500536
 20
-588.0
 30
0.0
 11
2221.505553499464
 21
-588.0
 31
0.0
1001
ACDBBLOCKREPETAG
1070
     1
1071
      208
1005
12E961
  0
LINE
  5
12E962
  8
OBJECT
 10
2210.247196978396
 20
-594.49998110541117
 30
0.0
 11
2210.247196978396
 21
-587.99998110541117
 31
0.0
1001
ACDBBLOCKREPETAG
1070
     1
1071
      209
1005
12E962
  0
LINE
  5
12E963
  8
OBJECT
 10
2221.505553499464
 20
-594.5
 30
0.0
 11
2221.505553499464
 21
-588.0
 31
0.0
1001
ACDBBLOCKREPETAG
1070
     1
1071
      210
1005
12E963
  0
LINE
  5
12E964
  8
OBJECT
 10
2217.7528030216049
 20
-594.49998110541117
 30
0.0
 11
2217.7528030216049
 21
-587.99998110541117
 31
0.0
1001
ACDBBLOCKREPETAG
1070
     1
1071
      211
1005
12E964
  0
TEXT
  5
12E965
  8
SLIM
 10
0.0
 20
369.99999999999989
 30
0.0
 40
100.0
  1
4SRT-U707-S
 41
0.75
  0
LINE
  5
12E966
  8
SLIM
 10
3914.9999999999941
 20
-759.47385309434696
 30
0.0
 11
3919.47385309434
 21
-754.99999999999955
 31
0.0
1001
ACDBBLOCKREPETAG
1070
     1
1071
        0
1005
0
1001
ACAD
1010
0.0
1020
0.0
1030
0.0
  0
LINE
  5
12E967
  8
SLIM
 10
3914.9999999999941
 20
-777.43436533648503
 30
0.0
 11
3937.434365336479
 21
-754.99999999999955
 31
0.0
1001
ACAD
1010
0.0
1020
0.0
1030
0.0
1001
ACDBBLOCKREPETAG
1070
     1
1071
       14
1005
12E967
  0
LINE
  5
12E968
  8
SLIM
 10
3914.9999999999941
 20
-795.39487757862275
 30
0.0
 11
3955.394877578618
 21
-754.99999999999955
 31
0.0
1001
ACAD
1010
0.0
1020
0.0
1030
0.0
1001
ACDBBLOCKREPETAG
1070
     1
1071
       15
1005
12E968
  0
LINE
  5
12E969
  8
SLIM
 10
3914.9999999999941
 20
-813.35538982076082
 30
0.0
 11
3973.3553898207551
 21
-754.99999999999955
 31
0.0
1001
ACAD
1010
0.0
1020
0.0
1030
0.0
1001
ACDBBLOCKREPETAG
1070
     1
1071
       16
1005
12E969
  0
LINE
  5
12E96A
  8
SLIM
 10
3914.999999999995
 20
-831.31590206289854
 30
0.0
 11
3991.3159020628941
 21
-754.99999999999955
 31
0.0
1001
ACAD
1010
0.0
1020
0.0
1030
0.0
1001
ACDBBLOCKREPETAG
1070
     1
1071
       17
1005
12E96A
  0
LINE
  5
12E96B
  8
SLIM
 10
3914.999999999995
 20
-849.2764143050365
 30
0.0
 11
4009.2764143050308
 21
-754.99999999999955
 31
0.0
1001
ACAD
1010
0.0
1020
0.0
1030
0.0
1001
ACDBBLOCKREPETAG
1070
     1
1071
       18
1005
12E96B
  0
LINE
  5
12E96C
  8
SLIM
 10
3914.999999999995
 20
-867.23692654717422
 30
0.0
 11
4027.2369265471689
 21
-754.99999999999955
 31
0.0
1001
ACAD
1010
0.0
1020
0.0
1030
0.0
1001
ACDBBLOCKREPETAG
1070
     1
1071
       19
1005
12E96C
  0
LINE
  5
12E96D
  8
SLIM
 10
3914.999999999995
 20
-885.1974387893124
 30
0.0
 11
4045.1974387893069
 21
-754.99999999999955
 31
0.0
1001
ACAD
1010
0.0
1020
0.0
1030
0.0
1001
ACDBBLOCKREPETAG
1070
     1
1071
       20
1005
12E96D
  0
LINE
  5
12E96E
  8
SLIM
 10
3914.9999999999968
 20
-903.15795103145035
 30
0.0
 11
4063.157951031445
 21
-754.99999999999955
 31
0.0
1001
ACAD
1010
0.0
1020
0.0
1030
0.0
1001
ACDBBLOCKREPETAG
1070
     1
1071
       21
1005
12E96E
  0
LINE
  5
12E96F
  8
SLIM
 10
3915.1454972543161
 20
-920.97296601926894
 30
0.0
 11
4081.1184632735849
 21
-754.99999999999955
 31
0.0
1001
ACAD
1010
0.0
1020
0.0
1030
0.0
1001
ACDBBLOCKREPETAG
1070
     1
1071
       22
1005
12E96F
  0
LINE
  5
12E970
  8
SLIM
 10
3917.104627495245
 20
-936.97434802047894
 30
0.0
 11
4085.0000000000068
 21
-769.07897551571591
 31
0.0
1001
ACAD
1010
0.0
1020
0.0
1030
0.0
1001
ACDBBLOCKREPETAG
1070
     1
1071
       23
1005
12E970
  0
LINE
  5
12E971
  8
SLIM
 10
3919.0637577361722
 20
-952.97573002168929
 30
0.0
 11
4085.0000000000068
 21
-787.03948775785443
 31
0.0
1001
ACAD
1010
0.0
1020
0.0
1030
0.0
1001
ACDBBLOCKREPETAG
1070
     1
1071
       24
1005
12E971
  0
LINE
  5
12E972
  8
SLIM
 10
3920.0
 20
-969.99999999999966
 30
0.0
 11
4085.0000000000068
 21
-804.99999999999341
 31
0.0
1001
ACAD
1010
0.0
1020
0.0
1030
0.0
1001
ACDBBLOCKREPETAG
1070
     1
1071
       25
1005
12E972
  0
LINE
  5
12E973
  8
SLIM
 10
3920.0
 20
-987.96051224213795
 30
0.0
 11
4085.0000000000059
 21
-822.96051224213215
 31
0.0
1001
ACAD
1010
0.0
1020
0.0
1030
0.0
1001
ACDBBLOCKREPETAG
1070
     1
1071
       26
1005
12E973
  0
LINE
  5
12E974
  8
SLIM
 10
3920.0
 20
-1005.921024484276
 30
0.0
 11
4085.0000000000059
 21
-840.92102448427045
 31
0.0
1001
ACAD
1010
0.0
1020
0.0
1030
0.0
1001
ACDBBLOCKREPETAG
1070
     1
1071
       27
1005
12E974
  0
LINE
  5
12E975
  8
SLIM
 10
3920.0
 20
-1023.881536726414
 30
0.0
 11
4085.000000000005
 21
-858.88153672640954
 31
0.0
1001
ACAD
1010
0.0
1020
0.0
1030
0.0
1001
ACDBBLOCKREPETAG
1070
     1
1071
       28
1005
12E975
  0
LINE
  5
12E976
  8
SLIM
 10
3920.0
 20
-1041.842048968552
 30
0.0
 11
4085.0000000000041
 21
-876.84204896854817
 31
0.0
1001
ACAD
1010
0.0
1020
0.0
1030
0.0
1001
ACDBBLOCKREPETAG
1070
     1
1071
       29
1005
12E976
  0
LINE
  5
12E977
  8
SLIM
 10
3920.0
 20
-1059.802561210691
 30
0.0
 11
4085.0000000000041
 21
-894.80256121068692
 31
0.0
1001
ACAD
1010
0.0
1020
0.0
1030
0.0
1001
ACDBBLOCKREPETAG
1070
     1
1071
       30
1005
12E977
  0
LINE
  5
12E978
  8
SLIM
 10
3920.0
 20
-1077.7630734528291
 30
0.0
 11
4085.0000000000032
 21
-912.76307345282555
 31
0.0
1001
ACAD
1010
0.0
1020
0.0
1030
0.0
1001
ACDBBLOCKREPETAG
1070
     1
1071
       31
1005
12E978
  0
LINE
  5
12E979
  8
SLIM
 10
3930.0
 20
-1085.723585694966
 30
0.0
 11
3930.7235856949678
 21
-1084.9999999999991
 31
0.0
1001
ACAD
1010
0.0
1020
0.0
1030
0.0
1001
ACDBBLOCKREPETAG
1070
     1
1071
       32
1005
12E979
  0
LINE
  5
12E97A
  8
SLIM
 10
3930.7235856949678
 20
-1084.9999999999991
 30
0.0
 11
4083.4738280308079
 21
-932.24975766415935
 31
0.0
1001
ACAD
1010
0.0
1020
0.0
1030
0.0
1001
ACDBBLOCKREPETAG
1070
     1
1071
       33
1005
12E97A
  0
LINE
  5
12E97B
  8
SLIM
 10
3930.0
 20
-1103.6840979371059
 30
0.0
 11
3948.6840979371068
 21
-1084.9999999999991
 31
0.0
1001
ACAD
1010
0.0
1020
0.0
1030
0.0
1001
ACDBBLOCKREPETAG
1070
     1
1071
       34
1005
12E97B
  0
LINE
  5
12E97C
  8
SLIM
 10
3948.6840979371068
 20
-1084.9999999999991
 30
0.0
 11
4080.9680345671368
 21
-952.71606336996854
 31
0.0
1001
ACAD
1010
0.0
1020
0.0
1030
0.0
1001
ACDBBLOCKREPETAG
1070
     1
1071
       35
1005
12E97C
  0
LINE
  5
12E97D
  8
SLIM
 10
3946.6446101792449
 20
-1104.9999999999991
 30
0.0
 11
3966.6446101792449
 21
-1084.9999999999991
 31
0.0
1001
ACAD
1010
0.0
1020
0.0
1030
0.0
1001
ACDBBLOCKREPETAG
1070
     1
1071
       36
1005
12E97D
  0
LINE
  5
12E97E
  8
SLIM
 10
3966.6446101792449
 20
-1084.9999999999991
 30
0.0
 11
4080.0
 21
-971.64461017924452
 31
0.0
1001
ACAD
1010
0.0
1020
0.0
1030
0.0
1001
ACDBBLOCKREPETAG
1070
     1
1071
       37
1005
12E97E
  0
LINE
  5
12E97F
  8
SLIM
 10
3964.6051224213829
 20
-1104.9999999999991
 30
0.0
 11
3984.6051224213829
 21
-1084.9999999999991
 31
0.0
1001
ACAD
1010
0.0
1020
0.0
1030
0.0
1001
ACDBBLOCKREPETAG
1070
     1
1071
       38
1005
12E97F
  0
LINE
  5
12E980
  8
SLIM
 10
3984.6051224213829
 20
-1084.9999999999991
 30
0.0
 11
4080.0
 21
-989.60512242138304
 31
0.0
1001
ACAD
1010
0.0
1020
0.0
1030
0.0
1001
ACDBBLOCKREPETAG
1070
     1
1071
       39
1005
12E980
  0
LINE
  5
12E981
  8
SLIM
 10
3982.565634663521
 20
-1104.9999999999991
 30
0.0
 11
4002.565634663521
 21
-1084.9999999999991
 31
0.0
1001
ACAD
1010
0.0
1020
0.0
1030
0.0
1001
ACDBBLOCKREPETAG
1070
     1
1071
       40
1005
12E981
  0
LINE
  5
12E982
  8
SLIM
 10
4002.565634663521
 20
-1084.9999999999991
 30
0.0
 11
4079.9999999999991
 21
-1007.565634663521
 31
0.0
1001
ACAD
1010
0.0
1020
0.0
1030
0.0
1001
ACDBBLOCKREPETAG
1070
     1
1071
       41
1005
12E982
  0
LINE
  5
12E983
  8
SLIM
 10
4000.5261469056582
 20
-1104.9999999999991
 30
0.0
 11
4020.52614690566
 21
-1084.9999999999991
 31
0.0
1001
ACAD
1010
0.0
1020
0.0
1030
0.0
1001
ACDBBLOCKREPETAG
1070
     1
1071
       42
1005
12E983
  0
LINE
  5
12E984
  8
SLIM
 10
4020.52614690566
 20
-1084.9999999999991
 30
0.0
 11
4079.9999999999991
 21
-1025.52614690566
 31
0.0
1001
ACAD
1010
0.0
1020
0.0
1030
0.0
1001
ACDBBLOCKREPETAG
1070
     1
1071
       43
1005
12E984
  0
LINE
  5
12E985
  8
SLIM
 10
4018.486659147798
 20
-1104.9999999999991
 30
0.0
 11
4038.486659147798
 21
-1084.9999999999991
 31
0.0
1001
ACAD
1010
0.0
1020
0.0
1030
0.0
1001
ACDBBLOCKREPETAG
1070
     1
1071
       44
1005
12E985
  0
LINE
  5
12E986
  8
SLIM
 10
4038.486659147798
 20
-1084.9999999999991
 30
0.0
 11
4079.9999999999991
 21
-1043.4866591477989
 31
0.0
1001
ACAD
1010
0.0
1020
0.0
1030
0.0
1001
ACDBBLOCKREPETAG
1070
     1
1071
       45
1005
12E986
  0
LINE
  5
12E987
  8
SLIM
 10
4036.4471713899361
 20
-1104.9999999999991
 30
0.0
 11
4056.4471713899361
 21
-1084.9999999999991
 31
0.0
1001
ACAD
1010
0.0
1020
0.0
1030
0.0
1001
ACDBBLOCKREPETAG
1070
     1
1071
       46
1005
12E987
  0
LINE
  5
12E988
  8
SLIM
 10
4056.4471713899361
 20
-1084.9999999999991
 30
0.0
 11
4079.9999999999991
 21
-1061.447171389937
 31
0.0
1001
ACAD
1010
0.0
1020
0.0
1030
0.0
1001
ACDBBLOCKREPETAG
1070
     1
1071
       47
1005
12E988
  0
LINE
  5
12E989
  8
SLIM
 10
4054.4076836320728
 20
-1104.9999999999991
 30
0.0
 11
4070.0
 21
-1089.4076836320739
 31
0.0
1001
ACAD
1010
0.0
1020
0.0
1030
0.0
1001
ACDBBLOCKREPETAG
1070
     1
1071
       48
1005
12E989
  0
LINE
  5
12E98A
  8
SLIM
 10
4074.4076836320728
 20
-1084.9999999999991
 30
0.0
 11
4079.9999999999991
 21
-1079.407683632076
 31
0.0
1001
ACAD
1010
0.0
1020
0.0
1030
0.0
1001
ACDBBLOCKREPETAG
1070
     1
1071
       49
1005
12E98A
  0
LINE
  5
12E98B
  8
OBJECT
 10
3914.9999999999941
 20
-754.99999999999955
 30
0.0
 11
3914.9999999999968
 21
-919.78460339903484
 31
0.0
1001
ACDBBLOCKREPETAG
1070
     1
1071
        1
1005
12E98B
  0
LINE
  5
12E98C
  8
OBJECT
 10
4085.0000000000068
 20
-754.99999999999955
 30
0.0
 11
4085.0000000000032
 21
-919.78460339904154
 31
0.0
1001
ACDBBLOCKREPETAG
1070
     1
1071
        2
1005
12E98C
  0
LINE
  5
12E98D
  8
OBJECT
 10
4085.0000000000068
 20
-754.99999999999955
 30
0.0
 11
3914.9999999999941
 21
-754.99999999999955
 31
0.0
1001
ACDBBLOCKREPETAG
1070
     1
1071
        3
1005
12E98D
  0
LINE
  5
12E98E
  8
OBJECT
 10
4079.9999999999991
 20
-1084.9999999999991
 30
0.0
 11
3920.0
 21
-1084.9999999999991
 31
0.0
1001
ACDBBLOCKREPETAG
1070
     1
1071
        4
1005
12E98E
  0
LINE
  5
12E98F
  8
OBJECT
 10
3914.9999999999968
 20
-919.78460339903484
 30
0.0
 11
3920.0
 21
-960.62257748298634
 31
0.0
1001
ACDBBLOCKREPETAG
1070
     1
1071
        6
1005
12E98F
  0
LINE
  5
12E990
  8
OBJECT
 10
3920.0
 20
-960.62257748298634
 30
0.0
 11
3920.0
 21
-1084.9999999999991
 31
0.0
1001
ACDBBLOCKREPETAG
1070
     1
1071
        7
1005
12E990
  0
LINE
  5
12E991
  8
OBJECT
 10
4085.0000000000032
 20
-919.78460339904154
 30
0.0
 11
4080.0
 21
-960.62257748298634
 31
0.0
1001
ACDBBLOCKREPETAG
1070
     1
1071
        8
1005
12E991
  0
LINE
  5
12E992
  8
OBJECT
 10
4080.0
 20
-960.62257748298634
 30
0.0
 11
4079.9999999999991
 21
-1084.9999999999991
 31
0.0
1001
ACDBBLOCKREPETAG
1070
     1
1071
        9
1005
12E992
  0
LINE
  5
12E993
  8
OBJECT
 10
3930.0
 20
-1084.9999999999991
 30
0.0
 11
3930.0
 21
-1104.9999999999991
 31
0.0
1001
ACDBBLOCKREPETAG
1070
     1
1071
       10
1005
12E993
  0
LINE
  5
12E994
  8
OBJECT
 10
3930.0
 20
-1104.9999999999991
 30
0.0
 11
4070.0
 21
-1104.9999999999991
 31
0.0
1001
ACDBBLOCKREPETAG
1070
     1
1071
       11
1005
12E994
  0
LINE
  5
12E995
  8
OBJECT
 10
4070.0
 20
-1104.9999999999991
 30
0.0
 11
4070.0
 21
-1084.9999999999991
 31
0.0
1001
ACDBBLOCKREPETAG
1070
     1
1071
       12
1005
12E995
  0
LINE
  5
12E996
  8
OBJECT
 10
1923.0
 20
-570.99999999999955
 30
0.0
 11
1923.0
 21
-549.99999999999955
 31
0.0
1001
ACDBBLOCKREPETAG
1070
     1
1071
       38
1005
12E996
  0
LINE
  5
12E997
  8
OBJECT
 10
1923.0
 20
-549.99999999999955
 30
0.0
 11
2077.0
 21
-549.99999999999955
 31
0.0
1001
ACDBBLOCKREPETAG
1070
     1
1071
       39
1005
12E997
  0
LINE
  5
12E998
  8
HIDDEN
 10
1943.0
 20
-619.99999999999955
 30
0.0
 11
2057.0
 21
-619.99999999999955
 31
0.0
1001
ACDBBLOCKREPETAG
1070
     1
1071
       40
1005
12E998
  0
LINE
  5
12E999
  8
OBJECT
 10
2077.0
 20
-549.99999999999955
 30
0.0
 11
2077.0
 21
-570.99999999999955
 31
0.0
1001
ACDBBLOCKREPETAG
1070
     1
1071
       41
1005
12E999
  0
LINE
  5
12E99A
  8
OBJECT
 10
2077.0
 20
-570.99999999999955
 30
0.0
 11
1923.0
 21
-570.99999999999955
 31
0.0
1001
ACDBBLOCKREPETAG
1070
     1
1071
       42
1005
12E99A
  0
LINE
  5
12E99B
  8
CENTER
 10
2000.0
 20
-534.99999999999955
 30
0.0
 11
2000.0
 21
-889.99999999999955
 31
0.0
1001
ACDBBLOCKREPETAG
1070
     1
1071
       43
1005
12E99B
  0
LINE
  5
12E99C
  8
OBJECT
 10
1928.0
 20
-570.99999999999955
 30
0.0
 11
1928.0
 21
-633.99999999999955
 31
0.0
1001
ACDBBLOCKREPETAG
1070
     1
1071
       44
1005
12E99C
  0
LINE
  5
12E99D
  8
OBJECT
 10
2072.0
 20
-633.99999999999955
 30
0.0
 11
2072.0
 21
-570.99999999999955
 31
0.0
1001
ACDBBLOCKREPETAG
1070
     1
1071
       45
1005
12E99D
  0
LINE
  5
12E99E
  8
OBJECT
 10
1920.0
 20
-877.99999999999955
 30
0.0
 11
2080.0
 21
-877.99999999999955
 31
0.0
1001
ACDBBLOCKREPETAG
1070
     1
1071
       46
1005
12E99E
  0
LINE
  5
12E99F
  8
OBJECT
 10
2080.0
 20
-633.99999999999955
 30
0.0
 11
1920.0
 21
-633.99999999999955
 31
0.0
1001
ACDBBLOCKREPETAG
1070
     1
1071
       47
1005
12E99F
  0
LINE
  5
12E9A0
  8
OBJECT
 10
1920.0
 20
-877.99999999999955
 30
0.0
 11
1920.0
 21
-889.99999999999955
 31
0.0
1001
ACDBBLOCKREPETAG
1070
     1
1071
       48
1005
12E9A0
  0
LINE
  5
12E9A1
  8
OBJECT
 10
1920.0
 20
-889.99999999999955
 30
0.0
 11
2080.0
 21
-889.99999999999955
 31
0.0
1001
ACDBBLOCKREPETAG
1070
     1
1071
       49
1005
12E9A1
  0
LINE
  5
12E9A2
  8
OBJECT
 10
2080.0
 20
-889.99999999999955
 30
0.0
 11
2080.0
 21
-877.99999999999955
 31
0.0
1001
ACDBBLOCKREPETAG
1070
     1
1071
       50
1005
12E9A2
  0
LINE
  5
12E9A3
  8
OBJECT
 10
2074.9999999998622
 20
-757.99999999985016
 30
0.0
 11
2075.0
 21
-877.99999999999955
 31
0.0
1001
ACDBBLOCKREPETAG
1070
     1
1071
       54
1005
12E9A3
  0
LINE
  5
12E9A4
  8
OBJECT
 10
2074.9999908029849
 20
-757.99998602702112
 30
0.0
 11
2080.0
 21
-757.99998602702112
 31
0.0
1001
ACDBBLOCKREPETAG
1070
     1
1071
       55
1005
12E9A4
  0
LINE
  5
12E9A5
  8
OBJECT
 10
1925.000000000138
 20
-757.99999999985016
 30
0.0
 11
1925.0
 21
-877.99999999999955
 31
0.0
1001
ACDBBLOCKREPETAG
1070
     1
1071
       56
1005
12E9A5
  0
LINE
  5
12E9A6
  8
OBJECT
 10
1925.000009197013
 20
-757.99998602702112
 30
0.0
 11
1920.0
 21
-757.99998602702112
 31
0.0
1001
ACDBBLOCKREPETAG
1070
     1
1071
       57
1005
12E9A6
  0
ARC
  5
12E9A7
  8
OBJECT
 10
2200.6872746716731
 20
-749.40809941010718
 30
0.0
 40
170.6350503965856
 50
137.44134459184301
 51
149.91949581336559
1001
ACDBBLOCKREPETAG
1070
     1
1071
       58
1005
12E9A7
  0
ARC
  5
12E9A8
  8
OBJECT
 10
2200.6872746716731
 20
-642.59190058989179
 30
0.0
 40
170.6350503965856
 50
210.0805041866343
 51
222.55865540815699
1001
ACDBBLOCKREPETAG
1070
     1
1071
       59
1005
12E9A8
  0
ARC
  5
12E9A9
  8
OBJECT
 10
1799.312725328326
 20
-749.40809941010718
 30
0.0
 40
170.6350503965856
 50
30.080504186774089
 51
42.558655408382641
1001
ACDBBLOCKREPETAG
1070
     1
1071
       60
1005
12E9A9
  0
ARC
  5
12E9AA
  8
OBJECT
 10
1799.312725328326
 20
-642.59190058989179
 30
0.0
 40
170.6350503965856
 50
317.44134459161722
 51
329.91949581322592
1001
ACDBBLOCKREPETAG
1070
     1
1071
       61
1005
12E9AA
  0
POINT
  5
12E9AB
  8
DOTS
 10
2000.0
 20
-754.99999999999955
 30
0.0
1001
ACDBBLOCKREPETAG
1070
     1
1071
      185
1005
12E9AB
  0
LINE
  5
12E9AC
  8
OBJECT
 10
3930.0
 20
-1199.999999999997
 30
0.0
 11
4070.0
 21
-1199.999999999997
 31
0.0
1001
ACDBBLOCKREPETAG
1070
     1
1071
        0
1005
12E9AC
  0
LINE
  5
12E9AD
  8
OBJECT
 10
3930.0
 20
-1199.999999999997
 30
0.0
 11
3930.0
 21
-959.99999999999693
 31
0.0
1001
ACDBBLOCKREPETAG
1070
     1
1071
        1
1005
12E9AD
  0
LINE
  5
12E9AE
  8
OBJECT
 10
4070.0
 20
-1199.999999999997
 30
0.0
 11
4070.0
 21
-959.99999999999693
 31
0.0
1001
ACDBBLOCKREPETAG
1070
     1
1071
        2
1005
12E9AE
  0
LINE
  5
12E9AF
  8
OBJECT
 10
3930.0
 20
-959.99999999999693
 30
0.0
 11
4070.0
 21
-959.99999999999693
 31
0.0
1001
ACDBBLOCKREPETAG
1070
     1
1071
        3
1005
12E9AF
  0
LINE
  5
12E9B0
  8
HIDDEN
 10
3937.5
 20
-959.99999999999693
 30
0.0
 11
3937.5
 21
-1199.999999999997
 31
0.0
1001
ACDBBLOCKREPETAG
1070
     1
1071
        4
1005
12E9B0
  0
LINE
  5
12E9B1
  8
HIDDEN
 10
4062.5
 20
-959.99999999999693
 30
0.0
 11
4062.5
 21
-1199.999999999997
 31
0.0
1001
ACDBBLOCKREPETAG
1070
     1
1071
        5
1005
12E9B1
  0
LINE
  5
12E9B2
  8
CENTER
 10
4000.0
 20
-889.99999999999875
 30
0.0
 11
4000.0
 21
-1214.999999999997
 31
0.0
1001
ACDBBLOCKREPETAG
1070
     1
1071
        6
1005
12E9B2
  0
LINE
  5
12E9B3
  8
OBJECT
 10
3925.0
 20
-889.99999999999875
 30
0.0
 11
3925.0
 21
-919.99999999999693
 31
0.0
1001
ACDBBLOCKREPETAG
1070
     1
1071
        7
1005
12E9B3
  0
LINE
  5
12E9B4
  8
OBJECT
 10
4075.0000000000032
 20
-889.99999999999875
 30
0.0
 11
4075.0
 21
-919.99999999999693
 31
0.0
1001
ACDBBLOCKREPETAG
1070
     1
1071
        8
1005
12E9B4
  0
LINE
  5
12E9B5
  8
OBJECT
 10
3925.0
 20
-919.99999999999693
 30
0.0
 11
4075.0
 21
-919.99999999999693
 31
0.0
1001
ACDBBLOCKREPETAG
1070
     1
1071
        9
1005
12E9B5
  0
LINE
  5
12E9B6
  8
OBJECT
 10
3925.0
 20
-919.99999999999693
 30
0.0
 11
3930.0
 21
-959.99999999999693
 31
0.0
1001
ACDBBLOCKREPETAG
1070
     1
1071
       10
1005
12E9B6
  0
LINE
  5
12E9B7
  8
OBJECT
 10
4070.0
 20
-959.99999999999693
 30
0.0
 11
4075.0
 21
-919.99999999999693
 31
0.0
1001
ACDBBLOCKREPETAG
1070
     1
1071
       11
1005
12E9B7
  0
LINE
  5
12E9B8
  8
OBJECT
 10
1930.0
 20
-1199.999999999997
 30
0.0
 11
2070.0
 21
-1199.999999999997
 31
0.0
1001
ACDBBLOCKREPETAG
1070
     1
1071
        0
1005
12E9B8
  0
LINE
  5
12E9B9
  8
OBJECT
 10
1930.0
 20
-1199.999999999997
 30
0.0
 11
1930.0
 21
-959.99999999999784
 31
0.0
1001
ACDBBLOCKREPETAG
1070
     1
1071
        1
1005
12E9B9
  0
LINE
  5
12E9BA
  8
OBJECT
 10
2070.0
 20
-1199.999999999997
 30
0.0
 11
2070.0
 21
-959.99999999999784
 31
0.0
1001
ACDBBLOCKREPETAG
1070
     1
1071
        2
1005
12E9BA
  0
LINE
  5
12E9BB
  8
OBJECT
 10
1930.0
 20
-959.99999999999784
 30
0.0
 11
2070.0
 21
-959.99999999999784
 31
0.0
1001
ACDBBLOCKREPETAG
1070
     1
1071
        3
1005
12E9BB
  0
LINE
  5
12E9BC
  8
HIDDEN
 10
1937.5
 20
-959.99999999999784
 30
0.0
 11
1937.5
 21
-1199.999999999997
 31
0.0
1001
ACDBBLOCKREPETAG
1070
     1
1071
        4
1005
12E9BC
  0
LINE
  5
12E9BD
  8
HIDDEN
 10
2062.5
 20
-959.99999999999784
 30
0.0
 11
2062.5
 21
-1199.999999999997
 31
0.0
1001
ACDBBLOCKREPETAG
1070
     1
1071
        5
1005
12E9BD
  0
LINE
  5
12E9BE
  8
CENTER
 10
2000.0
 20
-889.99999999999955
 30
0.0
 11
2000.0
 21
-1214.999999999998
 31
0.0
1001
ACDBBLOCKREPETAG
1070
     1
1071
        6
1005
12E9BE
  0
LINE
  5
12E9BF
  8
OBJECT
 10
1925.0
 20
-889.99999999999955
 30
0.0
 11
1925.0
 21
-919.99999999999761
 31
0.0
1001
ACDBBLOCKREPETAG
1070
     1
1071
        7
1005
12E9BF
  0
LINE
  5
12E9C0
  8
OBJECT
 10
2075.0000000000041
 20
-889.99999999999955
 30
0.0
 11
2075.0
 21
-919.99999999999761
 31
0.0
1001
ACDBBLOCKREPETAG
1070
     1
1071
        8
1005
12E9C0
  0
LINE
  5
12E9C1
  8
OBJECT
 10
1925.0
 20
-919.99999999999761
 30
0.0
 11
2075.0
 21
-919.99999999999761
 31
0.0
1001
ACDBBLOCKREPETAG
1070
     1
1071
        9
1005
12E9C1
  0
LINE
  5
12E9C2
  8
OBJECT
 10
1925.0
 20
-919.99999999999761
 30
0.0
 11
1930.0
 21
-959.99999999999784
 31
0.0
1001
ACDBBLOCKREPETAG
1070
     1
1071
       10
1005
12E9C2
  0
LINE
  5
12E9C3
  8
OBJECT
 10
2070.0
 20
-959.99999999999784
 30
0.0
 11
2075.0
 21
-919.99999999999761
 31
0.0
1001
ACDBBLOCKREPETAG
1070
     1
1071
       11
1005
12E9C3
  0
TEXT
  5
12E9C4
  8
SLIM
 10
3824.5999999999999
 20
-1528.999999999997
 30
0.0
 40
28.0
  1
※ 対応スラブ厚　180～320
 41
0.75
  0
TEXT
  5
12E9C5
  8
SLIM
 10
3611.5
 20
-1622.3333333333301
 30
0.0
 40
28.0
  1
国土交通大臣認定・（財）日本消防設備安全センター性能評定取得品
 41
0.75
  0
TEXT
  5
12E9C6
  8
SLIM
 10
3631.1000000000022
 20
-1668.999999999997
 30
0.0
 40
28.0
  1
注）ご採用にあたり、認定書及び評定書の内容をご確認ください。
 41
0.75
  0
TEXT
  5
12E9C7
  8
SLIM
 10
3741.6250000000009
 20
-1467.499999999997
 30
0.0
 40
35.0
  1
片受けスタイル（S）＋シンドカット
 41
0.75
  0
TEXT
  5
12E9C8
  8
SLIM
 10
1856.25
 20
-1467.499999999998
 30
0.0
 40
35.0
  1
片受けスタイル（S）
 41
0.75
  0
VIEWPORT
  5
F6BA7
 67
     1
  8
0
 10
145.33033752441401
 20
101.8328354358673
 30
0.0
 40
334.0025019414623
 41
222.19657968139651
 68
     1
 69
     1
1001
ACAD
1000
MVIEW
1002
{
1070
    16
1010
0.0
1020
0.0
1030
0.0
1010
0.0
1020
0.0
1030
1.0
1040
0.0
1040
222.19657968139651
1040
145.33033752441401
1040
101.8328354358673
1040
50.0
1040
0.0
1040
0.0
1070
     0
1070
     0
1070
     1
1070
     1
1070
     0
1070
     0
1070
     0
1070
     0
1040
0.0
1040
0.0
1040
0.0
1040
10.0
1040
10.0
1040
10.0
1040
10.0
1070
     0
1002
{
1002
}
1002
}
  0
VIEWPORT
  5
F6BA9
 67
     1
  8
OBJECT
 10
145.3303314447403
 20
101.8328338861465
 30
0.0
 40
232.5285303115844
 41
162.93253421783439
 68
     2
 69
     2
1001
ACAD
1000
MVIEW
1002
{
1070
    16
1010
0.0
1020
0.0
1030
0.0
1010
0.0
1020
0.0
1030
1.0
1040
0.0
1040
25942.55904403147
1040
2377.604457077377
1040
-7591.5176687056619
1040
50.0
1040
0.0
1040
0.0
1070
     0
1070
   600
1070
     1
1070
     1
1070
     0
1070
     0
1070
     0
1070
     0
1040
0.0
1040
0.0
1040
0.0
1040
1.0
1040
1.0
1040
0.0
1040
0.0
1070
     0
1002
{
1002
}
1002
}
  0
ENDSEC
  0
EOF
