  0
SECTION
  2
HEADER
  9
$ACADVER
  1
AC1009
  9
$INSBASE
 10
0.0
 20
0.0
 30
0.0
  9
$EXTMIN
 10
-0.0000000000002274
 20
-3817.4999999999959
 30
0.0
  9
$EXTMAX
 10
5085.0000000000073
 20
769.99999999999989
 30
0.0
  9
$LIMMIN
 10
0.0
 20
0.0
  9
$LIMMAX
 10
210.0
 20
297.0
  9
$ORTHOMODE
 70
     0
  9
$REGENMODE
 70
     1
  9
$FILLMODE
 70
     1
  9
$QTEXTMODE
 70
     0
  9
$MIRRTEXT
 70
     0
  9
$DRAGMODE
 70
     2
  9
$LTSCALE
 40
1.0
  9
$OSMODE
 70
  2557
  9
$ATTMODE
 70
     1
  9
$TEXTSIZE
 40
4.0
  9
$TRACEWID
 40
0.05
  9
$TEXTSTYLE
  7
STANDARD
  9
$CLAYER
  8
OBJECT
  9
$CELTYPE
  6
BYLAYER
  9
$CECOLOR
 62
   256
  9
$DIMSCALE
 40
10.0
  9
$DIMASZ
 40
2.0
  9
$DIMEXO
 40
1.0
  9
$DIMDLI
 40
10.0
  9
$DIMRND
 40
0.0
  9
$DIMDLE
 40
0.0
  9
$DIMEXE
 40
1.0
  9
$DIMTP
 40
0.0
  9
$DIMTM
 40
0.0
  9
$DIMTXT
 40
3.2000000000000002
  9
$DIMCEN
 40
0.0
  9
$DIMTSZ
 40
0.0
  9
$DIMTOL
 70
     0
  9
$DIMLIM
 70
     0
  9
$DIMTIH
 70
     0
  9
$DIMTOH
 70
     0
  9
$DIMSE1
 70
     0
  9
$DIMSE2
 70
     0
  9
$DIMTAD
 70
     1
  9
$DIMZIN
 70
     8
  9
$DIMBLK
  1
OPEN30
  9
$DIMASO
 70
     1
  9
$DIMSHO
 70
     1
  9
$DIMPOST
  1

  9
$DIMAPOST
  1

  9
$DIMALT
 70
     0
  9
$DIMALTD
 70
     2
  9
$DIMALTF
 40
25.399999999999999
  9
$DIMLFAC
 40
1.0
  9
$DIMTOFL
 70
     1
  9
$DIMTVP
 40
0.0
  9
$DIMTIX
 70
     0
  9
$DIMSOXD
 70
     0
  9
$DIMSAH
 70
     0
  9
$DIMBLK1
  1

  9
$DIMBLK2
  1

  9
$DIMSTYLE
  2
S10
  9
$DIMCLRD
 70
   256
  9
$DIMCLRE
 70
   256
  9
$DIMCLRT
 70
   256
  9
$DIMTFAC
 40
1.0
  9
$DIMGAP
 40
0.9
  9
$LUNITS
 70
     2
  9
$LUPREC
 70
     2
  9
$SKETCHINC
 40
0.1
  9
$FILLETRAD
 40
0.0
  9
$AUNITS
 70
     0
  9
$AUPREC
 70
     2
  9
$MENU
  1
ACAD
  9
$ELEVATION
 40
0.0
  9
$PELEVATION
 40
0.0
  9
$THICKNESS
 40
0.0
  9
$LIMCHECK
 70
     0
  9
$BLIPMODE
 70
     0
  9
$CHAMFERA
 40
2.0
  9
$CHAMFERB
 40
2.0
  9
$SKPOLY
 70
     0
  9
$TDCREATE
 40
2453095.4929404748
  9
$TDUPDATE
 40
2456581.5494475458
  9
$TDINDWG
 40
19.9391130787
  9
$TDUSRTIMER
 40
19.9391121759
  9
$USRTIMER
 70
     1
  9
$ANGBASE
 50
0.0
  9
$ANGDIR
 70
     0
  9
$PDMODE
 70
    35
  9
$PDSIZE
 40
2.0
  9
$PLINEWID
 40
0.0
  9
$COORDS
 70
     1
  9
$SPLFRAME
 70
     0
  9
$SPLINETYPE
 70
     6
  9
$SPLINESEGS
 70
     8
  9
$ATTDIA
 70
     1
  9
$ATTREQ
 70
     1
  9
$HANDLING
 70
     1
  9
$HANDSEED
  5
12813F
  9
$SURFTAB1
 70
     6
  9
$SURFTAB2
 70
     6
  9
$SURFTYPE
 70
     6
  9
$SURFU
 70
     6
  9
$SURFV
 70
     6
  9
$UCSNAME
  2

  9
$UCSORG
 10
0.0
 20
0.0
 30
0.0
  9
$UCSXDIR
 10
1.0
 20
0.0
 30
0.0
  9
$UCSYDIR
 10
0.0
 20
1.0
 30
0.0
  9
$PUCSNAME
  2

  9
$PUCSORG
 10
0.0
 20
0.0
 30
0.0
  9
$PUCSXDIR
 10
1.0
 20
0.0
 30
0.0
  9
$PUCSYDIR
 10
0.0
 20
1.0
 30
0.0
  9
$USERI1
 70
     0
  9
$USERI2
 70
     0
  9
$USERI3
 70
     0
  9
$USERI4
 70
     0
  9
$USERI5
 70
     0
  9
$USERR1
 40
0.0
  9
$USERR2
 40
0.0
  9
$USERR3
 40
0.0
  9
$USERR4
 40
0.0
  9
$USERR5
 40
0.0
  9
$WORLDVIEW
 70
     1
  9
$SHADEDGE
 70
     3
  9
$SHADEDIF
 70
    70
  9
$TILEMODE
 70
     1
  9
$MAXACTVP
 70
    64
  9
$PLIMCHECK
 70
     0
  9
$PEXTMIN
 10
29.066066288948051
 20
20.366566777229309
 30
0.0
  9
$PEXTMAX
 10
261.5945966005325
 20
183.29910099506381
 30
0.0
  9
$PLIMMIN
 10
-3.17498779296875
 20
-3.1749999523162842
  9
$PLIMMAX
 10
293.83566284179687
 20
206.8406708240509
  9
$UNITMODE
 70
     0
  9
$VISRETAIN
 70
     1
  9
$PLINEGEN
 70
     0
  9
$PSLTSCALE
 70
     1
  0
ENDSEC
  0
SECTION
  2
TABLES
  0
TABLE
  2
VPORT
 70
     1
  0
VPORT
  2
*ACTIVE
 70
     0
 10
0.0
 20
0.0
 11
1.0
 21
1.0
 12
5054.1981413138328
 22
-1822.50892136423
 13
0.0
 23
0.0
 14
1.0
 24
1.0
 15
0.0
 25
0.0
 16
0.0
 26
0.0
 36
1.0
 17
0.0
 27
0.0
 37
0.0
 40
7807.1404006971634
 41
1.964560862865947
 42
50.0
 43
0.0
 44
0.0
 50
0.0
 51
0.0
 71
     0
 72
   600
 73
     1
 74
     1
 75
     0
 76
     0
 77
     0
 78
     0
  0
ENDTAB
  0
TABLE
  2
LTYPE
 70
     3
  0
LTYPE
  2
CONTINUOUS
 70
     0
  3
Solid line
 72
    65
 73
     0
 40
0.0
  0
LTYPE
  2
ACAD_ISO08W100
 70
     0
  3
ISO long-dash short-dash ____ __ ____ __ ____ _
 72
    65
 73
     4
 40
36.0
 49
24.0
 49
-3.0
 49
6.0
 49
-3.0
  0
LTYPE
  2
ACAD_ISO02W100
 70
     0
  3
ISO dash __ __ __ __ __ __ __ __ __ __ __ __ __
 72
    65
 73
     2
 40
15.0
 49
12.0
 49
-3.0
  0
ENDTAB
  0
TABLE
  2
LAYER
 70
     8
  0
LAYER
  2
0
 70
     0
 62
     7
  6
CONTINUOUS
  0
LAYER
  2
OBJECT
 70
     0
 62
     4
  6
CONTINUOUS
  0
LAYER
  2
DEFPOINTS
 70
     0
 62
     7
  6
CONTINUOUS
  0
LAYER
  2
DIM
 70
     0
 62
     7
  6
CONTINUOUS
  0
LAYER
  2
HIDDEN
 70
     0
 62
     2
  6
ACAD_ISO02W100
  0
LAYER
  2
CENTER
 70
     0
 62
     2
  6
ACAD_ISO08W100
  0
LAYER
  2
DOTS
 70
     0
 62
     1
  6
CONTINUOUS
  0
LAYER
  2
SLIM
 70
     0
 62
     2
  6
CONTINUOUS
  0
ENDTAB
  0
TABLE
  2
STYLE
 70
     2
  0
STYLE
  2
STANDARD
 70
     0
 40
0.0
 41
0.75
 50
0.0
 71
     0
 42
4.0
  3
simplex.shx
  4
bigfont.shx
  0
ENDTAB
  0
TABLE
  2
VIEW
 70
     0
  0
ENDTAB
  0
TABLE
  2
UCS
 70
     0
  0
ENDTAB
  0
TABLE
  2
APPID
 70
    20
  0
APPID
  2
ACAD
 70
     0
  0
APPID
  2
ACADANNOTATIVE
 70
     0
  0
APPID
  2
ACAD_PSEXT
 70
     0
  0
APPID
  2
ACAD_EXEMPT_FROM_CAD_STANDARDS
 70
     0
  0
APPID
  2
ACAECLAYERSTANDARD
 70
     0
  0
APPID
  2
ACAUTHENVIRON
 70
     0
  0
APPID
  2
ACDBDYNAMICBLOCKTRUENAME
 70
     0
  0
APPID
  2
ACDBDYNAMICBLOCKGUID
 70
     0
  0
APPID
  2
ACDBBLOCKREPETAG
 70
     0
  0
APPID
  2
ACDBBLOCKREPBTAG
 70
     0
  0
APPID
  2
ACAD_NAV_VCDISPLAY
 70
     0
  0
APPID
  2
ACAD_DSTYLE_DIMRADIAL_EXTENSION
 70
     0
  0
APPID
  2
ACAD_DSTYLE_DIMJAG
 70
     0
  0
APPID
  2
ACAD_DSTYLE_DIMTALN
 70
     0
  0
APPID
  2
ACADANNOPO
 70
     0
  0
APPID
  2
GRADIENTCOLOR1ACI
 70
     0
  0
APPID
  2
GRADIENTCOLOR2ACI
 70
     0
  0
APPID
  2
ACADANNOMONITORALERTICONDI
 70
     0
  0
APPID
  2
CONTENTBLOCKICON
 70
     0
  0
APPID
  2
ACAD_MLEADERVER
 70
     0
  0
ENDTAB
  0
TABLE
  2
DIMSTYLE
 70
     3
  0
DIMSTYLE
  2
STANDARD
 70
     0
  3

  4

  5

  6

  7

 40
1.0
 41
0.18
 42
0.0625
 43
0.38
 44
0.18
 45
0.0
 46
0.0
 47
0.0
 48
0.0
140
0.18
141
0.09
142
0.0
143
25.399999999999999
144
1.0
145
0.0
146
1.0
147
0.09
 71
     0
 72
     0
 73
     1
 74
     1
 75
     0
 76
     0
 77
     0
 78
     0
170
     0
171
     2
172
     0
173
     0
174
     0
175
     0
176
     0
177
     0
178
     0
  0
DIMSTYLE
  2
S10
 70
     0
  3

  4

  5

  6

  7

 40
10.0
 41
2.0
 42
1.0
 43
10.0
 44
1.0
 45
0.0
 46
0.0
 47
0.0
 48
0.0
140
3.2000000000000002
141
0.0
142
0.0
143
25.399999999999999
144
1.0
145
0.0
146
1.0
147
0.9
 71
     0
 72
     0
 73
     0
 74
     0
 75
     0
 76
     0
 77
     1
 78
     8
170
     0
171
     2
172
     1
173
     0
174
     0
175
     0
176
   256
177
   256
178
   256
  0
ENDTAB
  0
ENDSEC
  0
SECTION
  2
BLOCKS
  0
BLOCK
  8
0
  2
$MODEL_SPACE
 70
     0
 10
0.0
 20
0.0
 30
0.0
  3
$MODEL_SPACE
  1

  0
ENDBLK
  5
12808B
  8
0
  0
BLOCK
 67
     1
  8
0
  2
$PAPER_SPACE
 70
     0
 10
0.0
 20
0.0
 30
0.0
  3
$PAPER_SPACE
  1

  0
ENDBLK
  5
128087
 67
     1
  8
0
  0
BLOCK
  8
0
  2
_OPEN30
 70
     0
 10
0.0
 20
0.0
 30
0.0
  3
_OPEN30
  1

  0
LINE
  5
202
  8
0
  6
BYBLOCK
 62
     0
 10
-1.0
 20
0.26794919
 30
0.0
 11
0.0
 21
0.0
 31
0.0
  0
LINE
  5
203
  8
0
  6
BYBLOCK
 62
     0
 10
0.0
 20
0.0
 30
0.0
 11
-1.0
 21
-0.26794919
 31
0.0
  0
LINE
  5
204
  8
0
  6
BYBLOCK
 62
     0
 10
0.0
 20
0.0
 30
0.0
 11
-1.0
 21
0.0
 31
0.0
  0
ENDBLK
  5
206
  8
0
  0
BLOCK
  8
0
  2
*U3
 70
     1
 10
0.0
 20
0.0
 30
0.0
  3
*U3
  1

  0
TEXT
  5
127EAC
  8
SLIM
 10
257.9999999999996
 20
-1438.952380952222
 30
0.0
 40
26.0
  1
75
 50
270.0
  0
ENDBLK
  5
127EAE
  8
0
  0
BLOCK
  8
0
  2
*U4
 70
     1
 10
0.0
 20
0.0
 30
0.0
  3
*U4
  1

  0
TEXT
  5
127EB0
  8
SLIM
 10
617.99999999987756
 20
-974.95238095238005
 30
0.0
 40
26.0
  1
65
 50
270.0
  0
ENDBLK
  5
127EB2
  8
0
  0
BLOCK
  8
0
  2
*U5
 70
     1
 10
0.0
 20
0.0
 30
0.0
  3
*U5
  1

  0
TEXT
  5
127EB4
  8
SLIM
 10
257.99999999999972
 20
-974.95238095238062
 30
0.0
 40
26.0
  1
50
 50
270.0
  0
ENDBLK
  5
127EB6
  8
0
  0
BLOCK
  8
0
  2
*U6
 70
     1
 10
0.0
 20
0.0
 30
0.0
  3
*U6
  1

  0
TEXT
  5
127EB8
  8
DIM
 10
4334.1164560757752
 20
-1132.7428571428511
 30
0.0
 40
32.0
  1
390-P（シンドカット）
 50
90.0
 41
0.75
  0
ENDBLK
  5
127EBA
  8
0
  0
BLOCK
  8
0
  2
*U7
 70
     1
 10
0.0
 20
0.0
 30
0.0
  3
*U7
  1

  0
TEXT
  5
127EBC
  8
DIM
 10
4700.4245816727553
 20
-779.00000000000239
 30
0.0
 40
32.0
  1
P
 50
90.0
 41
0.75
  0
ENDBLK
  5
127EBE
  8
0
  0
BLOCK
  8
0
  2
*U8
 70
     1
 10
0.0
 20
0.0
 30
0.0
  3
*U8
  1

  0
TEXT
  5
127EC0
  8
DIM
 10
2700.4245816727562
 20
-778.99999999999682
 30
0.0
 40
32.0
  1
P
 50
90.0
 41
0.75
  0
ENDBLK
  5
127EC2
  8
0
  0
BLOCK
  8
0
  2
*U9
 70
     1
 10
0.0
 20
0.0
 30
0.0
  3
*U9
  1

  0
TEXT
  5
127EC4
  8
DIM
 10
2709.4796205944631
 20
-3304.1428571428528
 30
0.0
 40
32.0
  1
A
 50
90.0
 41
0.75
  0
ENDBLK
  5
127EC6
  8
0
  0
BLOCK
  8
0
  2
*U10
 70
     1
 10
0.0
 20
0.0
 30
0.0
  3
*U10
  1

  0
TEXT
  5
127EC8
  8
DIM
 10
2707.8409284037348
 20
-3685.9999999999968
 30
0.0
 40
32.0
  1
B
 50
90.0
 41
0.75
  0
ENDBLK
  5
127ECA
  8
0
  0
BLOCK
  8
0
  2
*U11
 70
     1
 10
0.0
 20
0.0
 30
0.0
  3
*U11
  1

  0
TEXT
  5
127ECC
  8
DIM
 10
2561.428571428572
 20
-3158.208121984444
 30
0.0
 40
32.0
  1
C
 41
0.75
  0
ENDBLK
  5
127ECE
  8
0
  0
BLOCK
  8
0
  2
*U12
 70
     1
 10
0.0
 20
0.0
 30
0.0
  3
*U12
  1

  0
TEXT
  5
127EE4
  8
SLIM
 10
158.9523809524228
 20
-130.00000000017181
 30
0.0
 40
26.0
  1
75
  0
ENDBLK
  5
127EE6
  8
0
  0
ENDSEC
  0
SECTION
  2
ENTITIES
  0
LINE
  5
12250A
  8
OBJECT
 10
2555.0
 20
-332.9999999999992
 30
0.0
 11
2555.0
 21
-339.99999999999909
 31
0.0
1001
ACDBBLOCKREPETAG
1070
     1
1071
       20
1005
12250A
  0
LINE
  5
12250B
  8
OBJECT
 10
2555.0
 20
-339.99999999999909
 30
0.0
 11
2445.0
 21
-339.99999999999909
 31
0.0
1001
ACDBBLOCKREPETAG
1070
     1
1071
       21
1005
12250B
  0
LINE
  5
12250C
  8
OBJECT
 10
2445.0
 20
-339.99999999999909
 30
0.0
 11
2445.0
 21
-332.99999999999892
 31
0.0
1001
ACDBBLOCKREPETAG
1070
     1
1071
       22
1005
12250C
  0
LINE
  5
12250D
  8
OBJECT
 10
2445.0
 20
-332.99999999999892
 30
0.0
 11
2555.0
 21
-332.9999999999992
 31
0.0
1001
ACDBBLOCKREPETAG
1070
     1
1071
       23
1005
12250D
  0
LINE
  5
12250E
  8
CENTER
 10
2500.0
 20
-354.99999999999909
 30
0.0
 11
2500.0
 21
-279.99999999999909
 31
0.0
1001
ACDBBLOCKREPETAG
1070
     1
1071
       24
1005
12250E
  0
LINE
  5
12250F
  8
OBJECT
 10
2552.0
 20
-332.9999999999992
 30
0.0
 11
2552.0
 21
-296.99999999999892
 31
0.0
1001
ACDBBLOCKREPETAG
1070
     1
1071
       25
1005
12250F
  0
LINE
  5
122510
  8
OBJECT
 10
2552.0
 20
-296.99999999999892
 30
0.0
 11
2448.0
 21
-296.99999999999892
 31
0.0
1001
ACDBBLOCKREPETAG
1070
     1
1071
       26
1005
122510
  0
LINE
  5
122511
  8
OBJECT
 10
2448.0
 20
-296.99999999999892
 30
0.0
 11
2448.0
 21
-332.99999999999892
 31
0.0
1001
ACDBBLOCKREPETAG
1070
     1
1071
       27
1005
122511
  0
LINE
  5
122512
  8
OBJECT
 10
2547.5
 20
-292.9999999999992
 30
0.0
 11
2547.5
 21
-284.49999999999892
 31
0.0
1001
ACDBBLOCKREPETAG
1070
     1
1071
       28
1005
122512
  0
LINE
  5
122513
  8
OBJECT
 10
2452.5000000000009
 20
-284.49999999999892
 30
0.0
 11
2452.5000000000009
 21
-292.99999999999892
 31
0.0
1001
ACDBBLOCKREPETAG
1070
     1
1071
       29
1005
122513
  0
LINE
  5
122514
  8
OBJECT
 10
2452.5000000000009
 20
-292.99999999999892
 30
0.0
 11
2547.5
 21
-292.9999999999992
 31
0.0
1001
ACDBBLOCKREPETAG
1070
     1
1071
       30
1005
122514
  0
LINE
  5
122515
  8
OBJECT
 10
2552.0
 20
-296.99999999999892
 30
0.0
 11
2547.5
 21
-292.9999999999992
 31
0.0
1001
ACDBBLOCKREPETAG
1070
     1
1071
       31
1005
122515
  0
LINE
  5
122516
  8
OBJECT
 10
2448.0
 20
-296.99999999999892
 30
0.0
 11
2452.5000000000009
 21
-292.99999999999892
 31
0.0
1001
ACDBBLOCKREPETAG
1070
     1
1071
       32
1005
122516
  0
LINE
  5
122517
  8
OBJECT
 10
2450.5
 20
-284.49999999999733
 30
0.0
 11
2549.5
 21
-284.49999999999892
 31
0.0
1001
ACDBBLOCKREPETAG
1070
     1
1071
       33
1005
122517
  0
LINE
  5
122518
  8
HIDDEN
 10
2538.0
 20
-287.99999999999909
 30
0.0
 11
2462.0
 21
-287.99999999999909
 31
0.0
1001
ACDBBLOCKREPETAG
1070
     1
1071
       34
1005
122518
  0
LINE
  5
122519
  8
OBJECT
 10
2549.5
 20
-284.49999999999892
 30
0.0
 11
2549.5
 21
-261.99999999999909
 31
0.0
1001
ACDBBLOCKREPETAG
1070
     1
1071
       35
1005
122519
  0
LINE
  5
12251A
  8
OBJECT
 10
2450.5
 20
-284.49999999999733
 30
0.0
 11
2450.5
 21
-258.98092912119893
 31
0.0
1001
ACDBBLOCKREPETAG
1070
     1
1071
       36
1005
12251A
  0
CIRCLE
  5
122542
  8
OBJECT
 10
2500.0
 20
-199.99999999999909
 30
0.0
 40
53.5
1001
ACDBBLOCKREPETAG
1070
     1
1071
      344
1005
122542
  0
POINT
  5
122543
  8
DOTS
 10
2500.0
 20
-199.99999999999909
 30
0.0
 50
270.0
1001
ACDBBLOCKREPETAG
1070
     1
1071
      362
1005
122543
  0
LINE
  5
122545
  8
CENTER
 10
2580.0
 20
-199.99999999999909
 30
0.0
 11
2405.0
 21
-199.99999999999909
 31
0.0
1001
ACDBBLOCKREPETAG
1070
     1
1071
       14
1005
122545
  0
LINE
  5
122546
  8
CENTER
 10
2500.0
 20
-294.99999999999892
 30
0.0
 11
2500.0
 21
-104.9999999999991
 31
0.0
1001
ACDBBLOCKREPETAG
1070
     1
1071
       15
1005
122546
  0
CIRCLE
  5
122547
  8
OBJECT
 10
2500.0
 20
-199.99999999999909
 30
0.0
 40
70.0
1001
ACDBBLOCKREPETAG
1070
     1
1071
       16
1005
122547
  0
CIRCLE
  5
122548
  8
OBJECT
 10
2500.0
 20
-199.99999999999909
 30
0.0
 40
77.0
1001
ACDBBLOCKREPETAG
1070
     1
1071
       17
1005
122548
  0
ARC
  5
122549
  8
OBJECT
 10
2500.0
 20
-199.99999999999909
 30
0.0
 40
80.0
 50
50.805032573864523
 51
231.77508979844799
1001
ACDBBLOCKREPETAG
1070
     1
1071
       18
1005
122549
  0
LINE
  5
12254A
  8
OBJECT
 10
2545.6618002273249
 20
-137.99999999999909
 30
0.0
 11
2580.0
 21
-137.99999999999909
 31
0.0
1001
ACDBBLOCKREPETAG
1070
     1
1071
       19
1005
12254A
  0
LINE
  5
12254B
  8
OBJECT
 10
2545.6618002273249
 20
-261.99999999999909
 30
0.0
 11
2580.0
 21
-261.99999999999909
 31
0.0
1001
ACDBBLOCKREPETAG
1070
     1
1071
       20
1005
12254B
  0
ARC
  5
12254C
  8
OBJECT
 10
2500.0
 20
-199.99999999999909
 30
0.0
 40
80.0
 50
308.22491020155201
 51
309.19496742613529
1001
ACDBBLOCKREPETAG
1070
     1
1071
       18
1005
122549
  0
LINE
  5
1251AE
  8
OBJECT
 10
2325.0000000000009
 20
-3699.9999999999968
 30
0.0
 11
5075.0000000000009
 21
-3699.9999999999968
 31
0.0
  0
LINE
  5
1251B0
  8
SLIM
 10
3256.0
 20
-2757.50001604727
 30
0.0
 11
3256.0
 21
-3087.50001604727
 31
0.0
  0
LINE
  5
1251B1
  8
SLIM
 10
3380.0000000000009
 20
-2757.50001604727
 30
0.0
 11
3380.0000000000009
 21
-3087.50001604727
 31
0.0
  0
LINE
  5
1251B2
  8
SLIM
 10
3510.0000000000018
 20
-2817.5000160472709
 30
0.0
 11
3510.0000000000018
 21
-3087.50001604727
 31
0.0
  0
LINE
  5
1251B3
  8
SLIM
 10
3640.0000000000009
 20
-2817.5000160472709
 30
0.0
 11
3640.0000000000009
 21
-3087.50001604727
 31
0.0
  0
LINE
  5
1251B4
  8
SLIM
 10
3770.0
 20
-3087.50001604727
 30
0.0
 11
3770.0
 21
-2757.50001604727
 31
0.0
  0
LINE
  5
1251B5
  8
SLIM
 10
3770.0
 20
-2757.50001604727
 30
0.0
 11
3256.0
 21
-2757.50001604727
 31
0.0
  0
LINE
  5
1251B6
  8
SLIM
 10
3770.0
 20
-2817.5000160472709
 30
0.0
 11
3380.0000000000009
 21
-2817.5000160472709
 31
0.0
  0
LINE
  5
1251B7
  8
SLIM
 10
3770.0
 20
-2877.5000160472709
 30
0.0
 11
3256.0
 21
-2877.5000160472709
 31
0.0
  0
LINE
  5
1251B8
  8
SLIM
 10
3770.0
 20
-2947.5000160472709
 30
0.0
 11
3256.0
 21
-2947.5000160472709
 31
0.0
  0
LINE
  5
1251B9
  8
SLIM
 10
3770.0
 20
-3017.5000160472709
 30
0.0
 11
3256.0
 21
-3017.5000160472709
 31
0.0
  0
LINE
  5
1251BA
  8
SLIM
 10
3770.0
 20
-3087.50001604727
 30
0.0
 11
3256.0
 21
-3087.50001604727
 31
0.0
  0
LINE
  5
1251CB
  8
SLIM
 10
3380.0000000000009
 20
-2877.5000160472709
 30
0.0
 11
3255.9999722746579
 21
-2757.5000000000018
 31
0.0
  0
LINE
  5
1251CF
  8
CENTER
 10
2580.0
 20
-3294.9999999999968
 30
0.0
 11
2410.0
 21
-3294.9999999999968
 31
0.0
1001
ACDBBLOCKREPETAG
1070
     1
1071
       14
1005
0
  0
LINE
  5
1251D0
  8
CENTER
 10
2500.0
 20
-3384.9999999999968
 30
0.0
 11
2500.0
 21
-3204.9999999999959
 31
0.0
1001
ACDBBLOCKREPETAG
1070
     1
1071
       15
1005
0
  0
CIRCLE
  5
1251D1
  8
OBJECT
 10
2500.0
 20
-3294.9999999999968
 30
0.0
 40
70.0
1001
ACDBBLOCKREPETAG
1070
     1
1071
       16
1005
0
  0
CIRCLE
  5
1251D2
  8
OBJECT
 10
2500.0
 20
-3294.9999999999968
 30
0.0
 40
75.0
1001
ACDBBLOCKREPETAG
1070
     1
1071
       17
1005
0
  0
LINE
  5
1251DA
  8
CENTER
 10
2500.0
 20
-3479.9999999999991
 30
0.0
 11
2500.0
 21
-3726.9999999999991
 31
0.0
1001
ACDBBLOCKREPETAG
1070
     1
1071
       25
1005
1251DA
  0
LINE
  5
1251DB
  8
OBJECT
 10
2425.0000000000009
 20
-3494.9999999999968
 30
0.0
 11
2425.0000000000009
 21
-3714.9999999999968
 31
0.0
1001
ACDBBLOCKREPETAG
1070
     1
1071
       26
1005
1251DB
  0
LINE
  5
1251DC
  8
OBJECT
 10
2575.0000000000009
 20
-3494.9999999999968
 30
0.0
 11
2575.0000000000009
 21
-3591.5000000000618
 31
0.0
1001
ACDBBLOCKREPETAG
1070
     1
1071
       34
1005
1251DC
  0
LINE
  5
1251E4
  8
OBJECT
 10
2575.0000000000009
 20
-3697.4999999999991
 30
0.0
 11
2575.0000000000009
 21
-3714.9999999999968
 31
0.0
1001
ACDBBLOCKREPETAG
1070
     1
1071
       34
1005
1251DC
  0
LINE
  5
1251E5
  8
CENTER
 10
2900.0
 20
-3479.9999999999991
 30
0.0
 11
2900.0
 21
-3726.9999999999991
 31
0.0
1001
ACDBBLOCKREPETAG
1070
     1
1071
       25
1005
1251DA
  0
LINE
  5
1251E6
  8
OBJECT
 10
2825.0000000000009
 20
-3494.9999999999968
 30
0.0
 11
2825.0000000000009
 21
-3714.9999999999968
 31
0.0
1001
ACDBBLOCKREPETAG
1070
     1
1071
       26
1005
1251DB
  0
LINE
  5
1251E7
  8
OBJECT
 10
2975.0000000000009
 20
-3494.9999999999968
 30
0.0
 11
2975.0
 21
-3714.9999999999982
 31
0.0
1001
ACDBBLOCKREPETAG
1070
     1
1071
       34
1005
1251DC
  0
LINE
  5
1251EF
  8
CENTER
 10
3580.0
 20
-3294.9999999999968
 30
0.0
 11
3410.0
 21
-3294.9999999999968
 31
0.0
1001
ACDBBLOCKREPETAG
1070
     1
1071
       14
1005
0
  0
LINE
  5
1251F0
  8
CENTER
 10
3500.0
 20
-3384.9999999999968
 30
0.0
 11
3500.0
 21
-3204.9999999999959
 31
0.0
1001
ACDBBLOCKREPETAG
1070
     1
1071
       15
1005
0
  0
CIRCLE
  5
1251F1
  8
OBJECT
 10
3500.0
 20
-3294.9999999999968
 30
0.0
 40
70.0
1001
ACDBBLOCKREPETAG
1070
     1
1071
       16
1005
0
  0
CIRCLE
  5
1251F2
  8
OBJECT
 10
3500.0
 20
-3294.9999999999968
 30
0.0
 40
75.0
1001
ACDBBLOCKREPETAG
1070
     1
1071
       17
1005
0
  0
LINE
  5
1251FA
  8
CENTER
 10
3500.0000000000018
 20
-3479.9999999999991
 30
0.0
 11
3500.0000000000018
 21
-3726.9999999999991
 31
0.0
1001
ACDBBLOCKREPETAG
1070
     1
1071
       25
1005
1251DA
  0
LINE
  5
1251FB
  8
OBJECT
 10
3425.0000000000018
 20
-3494.9999999999968
 30
0.0
 11
3425.0000000000018
 21
-3714.9999999999968
 31
0.0
1001
ACDBBLOCKREPETAG
1070
     1
1071
       26
1005
1251DB
  0
LINE
  5
1251FC
  8
OBJECT
 10
3575.0000000000009
 20
-3494.9999999999968
 30
0.0
 11
3575.0000000000009
 21
-3591.5000000000618
 31
0.0
1001
ACDBBLOCKREPETAG
1070
     1
1071
       34
1005
1251DC
  0
LINE
  5
1251FD
  8
OBJECT
 10
3575.0000000000009
 20
-3697.4999999999991
 30
0.0
 11
3575.0000000000009
 21
-3714.9999999999968
 31
0.0
1001
ACDBBLOCKREPETAG
1070
     1
1071
       34
1005
1251DC
  0
LINE
  5
125205
  8
CENTER
 10
3900.0000000000018
 20
-3479.9999999999991
 30
0.0
 11
3900.0000000000018
 21
-3726.9999999999991
 31
0.0
1001
ACDBBLOCKREPETAG
1070
     1
1071
       25
1005
1251DA
  0
LINE
  5
125206
  8
OBJECT
 10
3825.0000000000009
 20
-3494.9999999999968
 30
0.0
 11
3825.0000000000009
 21
-3714.9999999999968
 31
0.0
1001
ACDBBLOCKREPETAG
1070
     1
1071
       26
1005
1251DB
  0
LINE
  5
125207
  8
OBJECT
 10
3975.0000000000009
 20
-3494.9999999999968
 30
0.0
 11
3975.0
 21
-3714.9999999999982
 31
0.0
1001
ACDBBLOCKREPETAG
1070
     1
1071
       34
1005
1251DC
  0
LINE
  5
12520F
  8
CENTER
 10
4580.0
 20
-3294.9999999999968
 30
0.0
 11
4410.0
 21
-3294.9999999999968
 31
0.0
1001
ACDBBLOCKREPETAG
1070
     1
1071
       14
1005
0
  0
LINE
  5
125210
  8
CENTER
 10
4500.0
 20
-3384.9999999999968
 30
0.0
 11
4500.0
 21
-3204.9999999999959
 31
0.0
1001
ACDBBLOCKREPETAG
1070
     1
1071
       15
1005
0
  0
CIRCLE
  5
125211
  8
OBJECT
 10
4500.0
 20
-3294.9999999999968
 30
0.0
 40
70.0
1001
ACDBBLOCKREPETAG
1070
     1
1071
       16
1005
0
  0
CIRCLE
  5
125212
  8
OBJECT
 10
4500.0
 20
-3294.9999999999968
 30
0.0
 40
75.0
1001
ACDBBLOCKREPETAG
1070
     1
1071
       17
1005
0
  0
LINE
  5
12521A
  8
CENTER
 10
4500.0
 20
-3479.9999999999991
 30
0.0
 11
4500.0
 21
-3726.9999999999991
 31
0.0
1001
ACDBBLOCKREPETAG
1070
     1
1071
       25
1005
1251DA
  0
LINE
  5
12521B
  8
OBJECT
 10
4425.0
 20
-3494.9999999999968
 30
0.0
 11
4425.0
 21
-3714.9999999999968
 31
0.0
1001
ACDBBLOCKREPETAG
1070
     1
1071
       26
1005
1251DB
  0
LINE
  5
12521C
  8
OBJECT
 10
4575.0000000000009
 20
-3494.9999999999968
 30
0.0
 11
4575.0000000000009
 21
-3591.5000000000618
 31
0.0
1001
ACDBBLOCKREPETAG
1070
     1
1071
       34
1005
1251DC
  0
LINE
  5
12521D
  8
OBJECT
 10
4575.0000000000009
 20
-3697.4999999999991
 30
0.0
 11
4575.0000000000009
 21
-3714.9999999999968
 31
0.0
1001
ACDBBLOCKREPETAG
1070
     1
1071
       34
1005
1251DC
  0
LINE
  5
125225
  8
CENTER
 10
4900.0000000000009
 20
-3479.9999999999991
 30
0.0
 11
4900.0000000000009
 21
-3726.9999999999991
 31
0.0
1001
ACDBBLOCKREPETAG
1070
     1
1071
       25
1005
1251DA
  0
LINE
  5
125226
  8
OBJECT
 10
4825.0000000000009
 20
-3494.9999999999968
 30
0.0
 11
4825.0000000000009
 21
-3714.9999999999968
 31
0.0
1001
ACDBBLOCKREPETAG
1070
     1
1071
       26
1005
1251DB
  0
LINE
  5
125227
  8
OBJECT
 10
4975.0000000000009
 20
-3494.9999999999968
 30
0.0
 11
4975.0
 21
-3714.9999999999982
 31
0.0
1001
ACDBBLOCKREPETAG
1070
     1
1071
       34
1005
1251DC
  0
POINT
  5
12522F
  8
DOTS
 10
2500.0
 20
-3294.9999999999968
 30
0.0
  0
POINT
  5
125230
  8
DOTS
 10
2500.0
 20
-3699.9999999999968
 30
0.0
  0
POINT
  5
125231
  8
DOTS
 10
3500.0000000000018
 20
-3699.9999999999968
 30
0.0
  0
POINT
  5
125232
  8
DOTS
 10
3500.0
 20
-3294.9999999999968
 30
0.0
  0
POINT
  5
125233
  8
DOTS
 10
4500.0
 20
-3294.9999999999968
 30
0.0
  0
POINT
  5
125234
  8
DOTS
 10
4500.0
 20
-3699.9999999999968
 30
0.0
  0
LINE
  5
126686
  8
CENTER
 10
4580.0
 20
-199.99999999999909
 30
0.0
 11
4400.0
 21
-199.99999999999909
 31
0.0
1001
ACDBBLOCKREPETAG
1070
     1
1071
       14
1005
0
  0
LINE
  5
126687
  8
CENTER
 10
4500.0
 20
-294.99999999999892
 30
0.0
 11
4500.0
 21
-99.999999999999091
 31
0.0
1001
ACDBBLOCKREPETAG
1070
     1
1071
       15
1005
0
  0
CIRCLE
  5
126688
  8
OBJECT
 10
4500.0
 20
-199.99999999999909
 30
0.0
 40
53.5
1001
ACDBBLOCKREPETAG
1070
     1
1071
      344
1005
0
  0
POINT
  5
126689
  8
DOTS
 10
4500.0
 20
-199.99999999999909
 30
0.0
 50
270.0
1001
ACDBBLOCKREPETAG
1070
     1
1071
      362
1005
0
  0
CIRCLE
  5
12668A
  8
OBJECT
 10
4500.0
 20
-199.99999999999909
 30
0.0
 40
70.0
1001
ACDBBLOCKREPETAG
1070
     1
1071
       16
1005
0
  0
CIRCLE
  5
12668C
  8
OBJECT
 10
4500.0
 20
-199.99999999999909
 30
0.0
 40
77.0
1001
ACDBBLOCKREPETAG
1070
     1
1071
       17
1005
0
  0
LINE
  5
12668D
  8
OBJECT
 10
4545.6618002273244
 20
-261.99999999999909
 30
0.0
 11
4580.0
 21
-261.99999999999909
 31
0.0
1001
ACDBBLOCKREPETAG
1070
     1
1071
       20
1005
0
  0
LINE
  5
12668E
  8
OBJECT
 10
4545.6618002273244
 20
-137.99999999999909
 30
0.0
 11
4580.0
 21
-137.99999999999909
 31
0.0
1001
ACDBBLOCKREPETAG
1070
     1
1071
       19
1005
0
  0
LINE
  5
12668F
  8
OBJECT
 10
4555.0
 20
-332.99999999999892
 30
0.0
 11
4555.0
 21
-339.99999999999909
 31
0.0
1001
ACDBBLOCKREPETAG
1070
     1
1071
       20
1005
0
  0
LINE
  5
126690
  8
OBJECT
 10
4555.0
 20
-339.99999999999909
 30
0.0
 11
4445.0
 21
-339.99999999999909
 31
0.0
1001
ACDBBLOCKREPETAG
1070
     1
1071
       21
1005
0
  0
LINE
  5
126691
  8
OBJECT
 10
4445.0
 20
-339.99999999999909
 30
0.0
 11
4445.0
 21
-332.99999999999892
 31
0.0
1001
ACDBBLOCKREPETAG
1070
     1
1071
       22
1005
0
  0
LINE
  5
126692
  8
OBJECT
 10
4445.0
 20
-332.99999999999892
 30
0.0
 11
4555.0
 21
-332.99999999999892
 31
0.0
1001
ACDBBLOCKREPETAG
1070
     1
1071
       23
1005
0
  0
LINE
  5
126693
  8
CENTER
 10
4500.0
 20
-354.99999999999909
 30
0.0
 11
4500.0
 21
-279.99999999999909
 31
0.0
1001
ACDBBLOCKREPETAG
1070
     1
1071
       24
1005
0
  0
LINE
  5
126694
  8
OBJECT
 10
4552.0
 20
-332.99999999999892
 30
0.0
 11
4552.0
 21
-296.99999999999892
 31
0.0
1001
ACDBBLOCKREPETAG
1070
     1
1071
       25
1005
0
  0
LINE
  5
126695
  8
OBJECT
 10
4552.0
 20
-296.99999999999892
 30
0.0
 11
4448.0
 21
-296.99999999999892
 31
0.0
1001
ACDBBLOCKREPETAG
1070
     1
1071
       26
1005
0
  0
LINE
  5
126696
  8
OBJECT
 10
4448.0
 20
-296.99999999999892
 30
0.0
 11
4448.0
 21
-332.99999999999892
 31
0.0
1001
ACDBBLOCKREPETAG
1070
     1
1071
       27
1005
0
  0
LINE
  5
126697
  8
OBJECT
 10
4547.5
 20
-292.99999999999892
 30
0.0
 11
4547.5
 21
-284.49999999999892
 31
0.0
1001
ACDBBLOCKREPETAG
1070
     1
1071
       28
1005
0
  0
LINE
  5
126698
  8
OBJECT
 10
4452.4999999999991
 20
-284.49999999999892
 30
0.0
 11
4452.4999999999991
 21
-292.99999999999892
 31
0.0
1001
ACDBBLOCKREPETAG
1070
     1
1071
       29
1005
0
  0
LINE
  5
126699
  8
OBJECT
 10
4452.4999999999991
 20
-292.99999999999892
 30
0.0
 11
4547.5
 21
-292.99999999999892
 31
0.0
1001
ACDBBLOCKREPETAG
1070
     1
1071
       30
1005
0
  0
LINE
  5
12669A
  8
OBJECT
 10
4552.0
 20
-296.99999999999892
 30
0.0
 11
4547.5
 21
-292.99999999999892
 31
0.0
1001
ACDBBLOCKREPETAG
1070
     1
1071
       31
1005
0
  0
LINE
  5
12669B
  8
OBJECT
 10
4448.0
 20
-296.99999999999892
 30
0.0
 11
4452.4999999999991
 21
-292.99999999999892
 31
0.0
1001
ACDBBLOCKREPETAG
1070
     1
1071
       32
1005
0
  0
LINE
  5
12669C
  8
OBJECT
 10
4450.5
 20
-284.49999999999733
 30
0.0
 11
4549.5
 21
-284.49999999999892
 31
0.0
1001
ACDBBLOCKREPETAG
1070
     1
1071
       33
1005
0
  0
LINE
  5
12669D
  8
HIDDEN
 10
4538.0
 20
-287.99999999999909
 30
0.0
 11
4462.0
 21
-287.99999999999909
 31
0.0
1001
ACDBBLOCKREPETAG
1070
     1
1071
       34
1005
0
  0
LINE
  5
12669E
  8
OBJECT
 10
4549.5
 20
-284.49999999999892
 30
0.0
 11
4549.5
 21
-261.99999999999909
 31
0.0
1001
ACDBBLOCKREPETAG
1070
     1
1071
       35
1005
0
  0
LINE
  5
12669F
  8
OBJECT
 10
4450.5
 20
-284.49999999999733
 30
0.0
 11
4450.5
 21
-258.98092912119893
 31
0.0
1001
ACDBBLOCKREPETAG
1070
     1
1071
       36
1005
0
  0
ARC
  5
1266A0
  8
OBJECT
 10
4500.0
 20
-199.99999999999909
 30
0.0
 40
85.0
 50
46.837102859699002
 51
234.38379327149801
1001
ACDBBLOCKREPETAG
1070
     1
1071
       18
1005
0
  0
ARC
  5
1266A1
  8
OBJECT
 10
4500.0
 20
-199.99999999999909
 30
0.0
 40
85.0
 50
305.61620672850188
 51
313.16289714030108
1001
ACDBBLOCKREPETAG
1070
     1
1071
       18
1005
0
  0
LINE
  5
12775A
  8
SLIM
 10
4914.9999999999918
 20
-849.27641430503331
 30
0.0
 11
4918.2764143050317
 21
-845.99999999999443
 31
0.0
1001
ACDBBLOCKREPETAG
1070
     1
1071
        0
1005
127701
1001
ACAD
1010
0.0
1020
0.0
1030
0.0
  0
LINE
  5
12775B
  8
SLIM
 10
4914.9999999999927
 20
-867.23692654717058
 30
0.0
 11
4936.2369265471698
 21
-845.99999999999443
 31
0.0
1001
ACDBBLOCKREPETAG
1070
     1
1071
        0
1005
127701
1001
ACAD
1010
0.0
1020
0.0
1030
0.0
  0
LINE
  5
12775C
  8
SLIM
 10
4914.9999999999955
 20
-885.19743878930808
 30
0.0
 11
4954.1974387893088
 21
-845.99999999999443
 31
0.0
1001
ACDBBLOCKREPETAG
1070
     1
1071
        0
1005
127701
1001
ACAD
1010
0.0
1020
0.0
1030
0.0
  0
LINE
  5
12775D
  8
SLIM
 10
4914.9999999999955
 20
-903.1579510314458
 30
0.0
 11
4972.1579510314468
 21
-845.99999999999443
 31
0.0
1001
ACDBBLOCKREPETAG
1070
     1
1071
        0
1005
127701
1001
ACAD
1010
0.0
1020
0.0
1030
0.0
  0
LINE
  5
12775E
  8
SLIM
 10
4915.1454972543161
 20
-920.97296601926325
 30
0.0
 11
4990.1184632735849
 21
-845.99999999999443
 31
0.0
1001
ACDBBLOCKREPETAG
1070
     1
1071
        0
1005
127701
1001
ACAD
1010
0.0
1020
0.0
1030
0.0
  0
LINE
  5
12775F
  8
SLIM
 10
4917.104627495245
 20
-936.97434802047394
 30
0.0
 11
5008.078975515723
 21
-845.99999999999443
 31
0.0
1001
ACDBBLOCKREPETAG
1070
     1
1071
        0
1005
127701
1001
ACAD
1010
0.0
1020
0.0
1030
0.0
  0
LINE
  5
127760
  8
SLIM
 10
4919.0637577361713
 20
-952.97573002168394
 30
0.0
 11
5026.0394877578619
 21
-845.99999999999443
 31
0.0
1001
ACDBBLOCKREPETAG
1070
     1
1071
        0
1005
127701
1001
ACAD
1010
0.0
1020
0.0
1030
0.0
  0
LINE
  5
127761
  8
SLIM
 10
4920.0
 20
-969.99999999999443
 30
0.0
 11
5044.0
 21
-845.99999999999443
 31
0.0
1001
ACDBBLOCKREPETAG
1070
     1
1071
        0
1005
127701
1001
ACAD
1010
0.0
1020
0.0
1030
0.0
  0
LINE
  5
127762
  8
SLIM
 10
4920.0
 20
-987.96051224213261
 30
0.0
 11
5061.9605122421381
 21
-845.99999999999443
 31
0.0
1001
ACDBBLOCKREPETAG
1070
     1
1071
        0
1005
127701
1001
ACAD
1010
0.0
1020
0.0
1030
0.0
  0
LINE
  5
127763
  8
SLIM
 10
4920.0
 20
-1005.921024484271
 30
0.0
 11
5079.9210244842761
 21
-845.99999999999443
 31
0.0
1001
ACDBBLOCKREPETAG
1070
     1
1071
        0
1005
127701
1001
ACAD
1010
0.0
1020
0.0
1030
0.0
  0
LINE
  5
127764
  8
SLIM
 10
4920.0
 20
-1023.881536726409
 30
0.0
 11
5085.0000000000073
 21
-858.88153672640249
 31
0.0
1001
ACDBBLOCKREPETAG
1070
     1
1071
        0
1005
127701
1001
ACAD
1010
0.0
1020
0.0
1030
0.0
  0
LINE
  5
127765
  8
SLIM
 10
4920.0
 20
-1041.842048968547
 30
0.0
 11
5085.0000000000073
 21
-876.84204896854158
 31
0.0
1001
ACDBBLOCKREPETAG
1070
     1
1071
        0
1005
127701
1001
ACAD
1010
0.0
1020
0.0
1030
0.0
  0
LINE
  5
127766
  8
SLIM
 10
4920.0
 20
-1059.802561210686
 30
0.0
 11
5085.0000000000036
 21
-894.80256121068101
 31
0.0
1001
ACDBBLOCKREPETAG
1070
     1
1071
        0
1005
127701
1001
ACAD
1010
0.0
1020
0.0
1030
0.0
  0
LINE
  5
127767
  8
SLIM
 10
4920.0
 20
-1077.7630734528241
 30
0.0
 11
5085.0000000000036
 21
-912.76307345282009
 31
0.0
1001
ACDBBLOCKREPETAG
1070
     1
1071
        0
1005
127701
1001
ACAD
1010
0.0
1020
0.0
1030
0.0
  0
LINE
  5
127768
  8
SLIM
 10
4929.7235856949692
 20
-1085.9999999999941
 30
0.0
 11
5083.4738280308084
 21
-932.249757664154
 31
0.0
1001
ACDBBLOCKREPETAG
1070
     1
1071
        0
1005
127701
1001
ACAD
1010
0.0
1020
0.0
1030
0.0
  0
LINE
  5
127769
  8
SLIM
 10
4930.0
 20
-1103.6840979371
 30
0.0
 11
4947.6840979371063
 21
-1085.9999999999941
 31
0.0
1001
ACDBBLOCKREPETAG
1070
     1
1071
        0
1005
127701
1001
ACAD
1010
0.0
1020
0.0
1030
0.0
  0
LINE
  5
12776A
  8
SLIM
 10
4947.6840979371063
 20
-1085.9999999999941
 30
0.0
 11
5080.9680345671377
 21
-952.71606336996354
 31
0.0
1001
ACDBBLOCKREPETAG
1070
     1
1071
        0
1005
127701
1001
ACAD
1010
0.0
1020
0.0
1030
0.0
  0
LINE
  5
12776B
  8
SLIM
 10
4946.6446101792453
 20
-1104.9999999999941
 30
0.0
 11
4965.6446101792453
 21
-1085.9999999999941
 31
0.0
1001
ACDBBLOCKREPETAG
1070
     1
1071
        0
1005
127701
1001
ACAD
1010
0.0
1020
0.0
1030
0.0
  0
LINE
  5
12776C
  8
SLIM
 10
4965.6446101792453
 20
-1085.9999999999941
 30
0.0
 11
5080.0
 21
-971.64461017923918
 31
0.0
1001
ACDBBLOCKREPETAG
1070
     1
1071
        0
1005
127701
1001
ACAD
1010
0.0
1020
0.0
1030
0.0
  0
LINE
  5
12776D
  8
SLIM
 10
4964.6051224213843
 20
-1104.9999999999941
 30
0.0
 11
4983.6051224213843
 21
-1085.9999999999941
 31
0.0
1001
ACDBBLOCKREPETAG
1070
     1
1071
        0
1005
127701
1001
ACAD
1010
0.0
1020
0.0
1030
0.0
  0
LINE
  5
12776E
  8
SLIM
 10
4983.6051224213843
 20
-1085.9999999999941
 30
0.0
 11
5080.0
 21
-989.60512242137759
 31
0.0
1001
ACDBBLOCKREPETAG
1070
     1
1071
        0
1005
127701
1001
ACAD
1010
0.0
1020
0.0
1030
0.0
  0
LINE
  5
12776F
  8
SLIM
 10
4982.5656346635215
 20
-1104.9999999999941
 30
0.0
 11
5001.5656346635215
 21
-1085.9999999999941
 31
0.0
1001
ACDBBLOCKREPETAG
1070
     1
1071
        0
1005
127701
1001
ACAD
1010
0.0
1020
0.0
1030
0.0
  0
LINE
  5
127770
  8
SLIM
 10
5001.5656346635215
 20
-1085.9999999999941
 30
0.0
 11
5079.9999999999991
 21
-1007.565634663516
 31
0.0
1001
ACDBBLOCKREPETAG
1070
     1
1071
        0
1005
127701
1001
ACAD
1010
0.0
1020
0.0
1030
0.0
  0
LINE
  5
127771
  8
SLIM
 10
5000.5261469056577
 20
-1104.9999999999941
 30
0.0
 11
5019.5261469056613
 21
-1085.9999999999941
 31
0.0
1001
ACDBBLOCKREPETAG
1070
     1
1071
        0
1005
127701
1001
ACAD
1010
0.0
1020
0.0
1030
0.0
  0
LINE
  5
127772
  8
SLIM
 10
5019.5261469056613
 20
-1085.9999999999941
 30
0.0
 11
5079.9999999999991
 21
-1025.526146905655
 31
0.0
1001
ACDBBLOCKREPETAG
1070
     1
1071
        0
1005
127701
1001
ACAD
1010
0.0
1020
0.0
1030
0.0
  0
LINE
  5
127773
  8
SLIM
 10
5018.4866591477967
 20
-1104.9999999999941
 30
0.0
 11
5037.4866591477976
 21
-1085.9999999999941
 31
0.0
1001
ACDBBLOCKREPETAG
1070
     1
1071
        0
1005
127701
1001
ACAD
1010
0.0
1020
0.0
1030
0.0
  0
LINE
  5
127774
  8
SLIM
 10
5037.4866591477976
 20
-1085.9999999999941
 30
0.0
 11
5079.9999999999991
 21
-1043.486659147793
 31
0.0
1001
ACDBBLOCKREPETAG
1070
     1
1071
        0
1005
127701
1001
ACAD
1010
0.0
1020
0.0
1030
0.0
  0
LINE
  5
127775
  8
SLIM
 10
5036.4471713899366
 20
-1104.9999999999941
 30
0.0
 11
5055.4471713899356
 21
-1085.9999999999941
 31
0.0
1001
ACDBBLOCKREPETAG
1070
     1
1071
        0
1005
127701
1001
ACAD
1010
0.0
1020
0.0
1030
0.0
  0
LINE
  5
127776
  8
SLIM
 10
5055.4471713899356
 20
-1085.9999999999941
 30
0.0
 11
5079.9999999999982
 21
-1061.447171389932
 31
0.0
1001
ACDBBLOCKREPETAG
1070
     1
1071
        0
1005
127701
1001
ACAD
1010
0.0
1020
0.0
1030
0.0
  0
LINE
  5
127777
  8
SLIM
 10
5054.4076836320737
 20
-1104.9999999999941
 30
0.0
 11
5070.0
 21
-1089.407683632068
 31
0.0
1001
ACDBBLOCKREPETAG
1070
     1
1071
        0
1005
127701
1001
ACAD
1010
0.0
1020
0.0
1030
0.0
  0
LINE
  5
127778
  8
SLIM
 10
5073.4076836320737
 20
-1085.9999999999941
 30
0.0
 11
5079.9999999999982
 21
-1079.4076836320701
 31
0.0
1001
ACDBBLOCKREPETAG
1070
     1
1071
        0
1005
127701
1001
ACAD
1010
0.0
1020
0.0
1030
0.0
  0
LINE
  5
127779
  8
OBJECT
 10
4914.9999999999918
 20
-845.99999999999443
 30
0.0
 11
4914.9999999999991
 21
-919.78460339902881
 31
0.0
1001
ACDBBLOCKREPETAG
1070
     1
1071
        1
1005
127779
  0
LINE
  5
12777A
  8
OBJECT
 10
5085.0000000000073
 20
-845.99999999999443
 30
0.0
 11
5085.0000000000036
 21
-919.7846033990362
 31
0.0
1001
ACDBBLOCKREPETAG
1070
     1
1071
        2
1005
12777A
  0
LINE
  5
12777B
  8
OBJECT
 10
5085.0000000000073
 20
-845.99999999999443
 30
0.0
 11
4914.9999999999918
 21
-845.99999999999443
 31
0.0
1001
ACDBBLOCKREPETAG
1070
     1
1071
        3
1005
12777B
  0
LINE
  5
12777C
  8
OBJECT
 10
5079.9999999999982
 20
-1085.9999999999941
 30
0.0
 11
4920.0
 21
-1085.9999999999941
 31
0.0
1001
ACDBBLOCKREPETAG
1070
     1
1071
        4
1005
12777C
  0
LINE
  5
12777D
  8
OBJECT
 10
4914.9999999999991
 20
-919.78460339902961
 30
0.0
 11
4920.0
 21
-960.62257748298111
 31
0.0
1001
ACDBBLOCKREPETAG
1070
     1
1071
        6
1005
12777D
  0
LINE
  5
12777E
  8
OBJECT
 10
4920.0
 20
-960.62257748298111
 30
0.0
 11
4920.0
 21
-1085.9999999999941
 31
0.0
1001
ACDBBLOCKREPETAG
1070
     1
1071
        7
1005
12777E
  0
LINE
  5
12777F
  8
OBJECT
 10
5085.0000000000036
 20
-919.7846033990362
 30
0.0
 11
5080.0
 21
-960.62257748298111
 31
0.0
1001
ACDBBLOCKREPETAG
1070
     1
1071
        8
1005
12777F
  0
LINE
  5
127780
  8
OBJECT
 10
5080.0
 20
-960.62257748298111
 30
0.0
 11
5079.9999999999982
 21
-1085.9999999999941
 31
0.0
1001
ACDBBLOCKREPETAG
1070
     1
1071
        9
1005
127780
  0
LINE
  5
127781
  8
OBJECT
 10
4930.0
 20
-1085.9999999999941
 30
0.0
 11
4930.0
 21
-1104.9999999999941
 31
0.0
1001
ACDBBLOCKREPETAG
1070
     1
1071
       10
1005
127781
  0
LINE
  5
127782
  8
OBJECT
 10
4930.0
 20
-1104.9999999999941
 30
0.0
 11
5070.0
 21
-1104.9999999999941
 31
0.0
1001
ACDBBLOCKREPETAG
1070
     1
1071
       11
1005
127782
  0
LINE
  5
127783
  8
OBJECT
 10
5070.0
 20
-1104.9999999999941
 30
0.0
 11
5070.0
 21
-1085.9999999999941
 31
0.0
1001
ACDBBLOCKREPETAG
1070
     1
1071
       12
1005
127783
  0
LINE
  5
127784
  8
SLIM
 10
4414.9999999999918
 20
-849.27641430503331
 30
0.0
 11
4418.2764143050317
 21
-845.99999999999443
 31
0.0
1001
ACDBBLOCKREPETAG
1070
     1
1071
        0
1005
127701
1001
ACAD
1010
0.0
1020
0.0
1030
0.0
  0
LINE
  5
127785
  8
SLIM
 10
4414.9999999999927
 20
-867.23692654717058
 30
0.0
 11
4436.2369265471689
 21
-845.99999999999443
 31
0.0
1001
ACDBBLOCKREPETAG
1070
     1
1071
        0
1005
127701
1001
ACAD
1010
0.0
1020
0.0
1030
0.0
  0
LINE
  5
127786
  8
SLIM
 10
4414.9999999999927
 20
-885.19743878930808
 30
0.0
 11
4454.1974387893088
 21
-845.99999999999443
 31
0.0
1001
ACDBBLOCKREPETAG
1070
     1
1071
        0
1005
127701
1001
ACAD
1010
0.0
1020
0.0
1030
0.0
  0
LINE
  5
127787
  8
SLIM
 10
4414.9999999999955
 20
-903.1579510314458
 30
0.0
 11
4472.1579510314468
 21
-845.99999999999443
 31
0.0
1001
ACDBBLOCKREPETAG
1070
     1
1071
        0
1005
127701
1001
ACAD
1010
0.0
1020
0.0
1030
0.0
  0
LINE
  5
127788
  8
SLIM
 10
4415.1454972543161
 20
-920.97296601926325
 30
0.0
 11
4490.118463273584
 21
-845.99999999999443
 31
0.0
1001
ACDBBLOCKREPETAG
1070
     1
1071
        0
1005
127701
1001
ACAD
1010
0.0
1020
0.0
1030
0.0
  0
LINE
  5
127789
  8
SLIM
 10
4417.1046274952441
 20
-936.97434802047394
 30
0.0
 11
4508.078975515723
 21
-845.99999999999443
 31
0.0
1001
ACDBBLOCKREPETAG
1070
     1
1071
        0
1005
127701
1001
ACAD
1010
0.0
1020
0.0
1030
0.0
  0
LINE
  5
12778A
  8
SLIM
 10
4419.0637577361713
 20
-952.97573002168394
 30
0.0
 11
4526.0394877578619
 21
-845.99999999999443
 31
0.0
1001
ACDBBLOCKREPETAG
1070
     1
1071
        0
1005
127701
1001
ACAD
1010
0.0
1020
0.0
1030
0.0
  0
LINE
  5
12778B
  8
SLIM
 10
4420.0
 20
-969.99999999999443
 30
0.0
 11
4544.0
 21
-845.99999999999443
 31
0.0
1001
ACDBBLOCKREPETAG
1070
     1
1071
        0
1005
127701
1001
ACAD
1010
0.0
1020
0.0
1030
0.0
  0
LINE
  5
12778C
  8
SLIM
 10
4420.0
 20
-987.96051224213261
 30
0.0
 11
4561.9605122421381
 21
-845.99999999999443
 31
0.0
1001
ACDBBLOCKREPETAG
1070
     1
1071
        0
1005
127701
1001
ACAD
1010
0.0
1020
0.0
1030
0.0
  0
LINE
  5
12778D
  8
SLIM
 10
4420.0
 20
-1005.921024484271
 30
0.0
 11
4579.9210244842761
 21
-845.99999999999443
 31
0.0
1001
ACDBBLOCKREPETAG
1070
     1
1071
        0
1005
127701
1001
ACAD
1010
0.0
1020
0.0
1030
0.0
  0
LINE
  5
12778E
  8
SLIM
 10
4420.0
 20
-1023.881536726409
 30
0.0
 11
4585.0000000000073
 21
-858.88153672640249
 31
0.0
1001
ACDBBLOCKREPETAG
1070
     1
1071
        0
1005
127701
1001
ACAD
1010
0.0
1020
0.0
1030
0.0
  0
LINE
  5
12778F
  8
SLIM
 10
4420.0
 20
-1041.842048968547
 30
0.0
 11
4585.0000000000073
 21
-876.84204896854158
 31
0.0
1001
ACDBBLOCKREPETAG
1070
     1
1071
        0
1005
127701
1001
ACAD
1010
0.0
1020
0.0
1030
0.0
  0
LINE
  5
127790
  8
SLIM
 10
4420.0
 20
-1059.802561210686
 30
0.0
 11
4585.0000000000036
 21
-894.80256121068101
 31
0.0
1001
ACDBBLOCKREPETAG
1070
     1
1071
        0
1005
127701
1001
ACAD
1010
0.0
1020
0.0
1030
0.0
  0
LINE
  5
127791
  8
SLIM
 10
4420.0
 20
-1077.7630734528241
 30
0.0
 11
4585.0
 21
-912.76307345282009
 31
0.0
1001
ACDBBLOCKREPETAG
1070
     1
1071
        0
1005
127701
1001
ACAD
1010
0.0
1020
0.0
1030
0.0
  0
LINE
  5
127792
  8
SLIM
 10
4429.7235856949683
 20
-1085.9999999999941
 30
0.0
 11
4583.4738280308084
 21
-932.249757664154
 31
0.0
1001
ACDBBLOCKREPETAG
1070
     1
1071
        0
1005
127701
1001
ACAD
1010
0.0
1020
0.0
1030
0.0
  0
LINE
  5
127793
  8
SLIM
 10
4430.0
 20
-1103.6840979371
 30
0.0
 11
4447.6840979371054
 21
-1085.9999999999941
 31
0.0
1001
ACDBBLOCKREPETAG
1070
     1
1071
        0
1005
127701
1001
ACAD
1010
0.0
1020
0.0
1030
0.0
  0
LINE
  5
127794
  8
SLIM
 10
4447.6840979371054
 20
-1085.9999999999941
 30
0.0
 11
4580.9680345671368
 21
-952.71606336996354
 31
0.0
1001
ACDBBLOCKREPETAG
1070
     1
1071
        0
1005
127701
1001
ACAD
1010
0.0
1020
0.0
1030
0.0
  0
LINE
  5
127795
  8
SLIM
 10
4446.6446101792453
 20
-1104.9999999999941
 30
0.0
 11
4465.6446101792453
 21
-1085.9999999999941
 31
0.0
1001
ACDBBLOCKREPETAG
1070
     1
1071
        0
1005
127701
1001
ACAD
1010
0.0
1020
0.0
1030
0.0
  0
LINE
  5
127796
  8
SLIM
 10
4465.6446101792453
 20
-1085.9999999999941
 30
0.0
 11
4580.0
 21
-971.64461017923918
 31
0.0
1001
ACDBBLOCKREPETAG
1070
     1
1071
        0
1005
127701
1001
ACAD
1010
0.0
1020
0.0
1030
0.0
  0
LINE
  5
127797
  8
SLIM
 10
4464.6051224213843
 20
-1104.9999999999941
 30
0.0
 11
4483.6051224213843
 21
-1085.9999999999941
 31
0.0
1001
ACDBBLOCKREPETAG
1070
     1
1071
        0
1005
127701
1001
ACAD
1010
0.0
1020
0.0
1030
0.0
  0
LINE
  5
127798
  8
SLIM
 10
4483.6051224213843
 20
-1085.9999999999941
 30
0.0
 11
4580.0
 21
-989.60512242137759
 31
0.0
1001
ACDBBLOCKREPETAG
1070
     1
1071
        0
1005
127701
1001
ACAD
1010
0.0
1020
0.0
1030
0.0
  0
LINE
  5
127799
  8
SLIM
 10
4482.5656346635215
 20
-1104.9999999999941
 30
0.0
 11
4501.5656346635215
 21
-1085.9999999999941
 31
0.0
1001
ACDBBLOCKREPETAG
1070
     1
1071
        0
1005
127701
1001
ACAD
1010
0.0
1020
0.0
1030
0.0
  0
LINE
  5
12779A
  8
SLIM
 10
4501.5656346635215
 20
-1085.9999999999941
 30
0.0
 11
4579.9999999999991
 21
-1007.565634663516
 31
0.0
1001
ACDBBLOCKREPETAG
1070
     1
1071
        0
1005
127701
1001
ACAD
1010
0.0
1020
0.0
1030
0.0
  0
LINE
  5
12779B
  8
SLIM
 10
4500.5261469056577
 20
-1104.9999999999941
 30
0.0
 11
4519.5261469056604
 21
-1085.9999999999941
 31
0.0
1001
ACDBBLOCKREPETAG
1070
     1
1071
        0
1005
127701
1001
ACAD
1010
0.0
1020
0.0
1030
0.0
  0
LINE
  5
12779C
  8
SLIM
 10
4519.5261469056604
 20
-1085.9999999999941
 30
0.0
 11
4579.9999999999991
 21
-1025.526146905655
 31
0.0
1001
ACDBBLOCKREPETAG
1070
     1
1071
        0
1005
127701
1001
ACAD
1010
0.0
1020
0.0
1030
0.0
  0
LINE
  5
12779D
  8
SLIM
 10
4518.4866591477967
 20
-1104.9999999999941
 30
0.0
 11
4537.4866591477976
 21
-1085.9999999999941
 31
0.0
1001
ACDBBLOCKREPETAG
1070
     1
1071
        0
1005
127701
1001
ACAD
1010
0.0
1020
0.0
1030
0.0
  0
LINE
  5
12779E
  8
SLIM
 10
4537.4866591477976
 20
-1085.9999999999941
 30
0.0
 11
4579.9999999999991
 21
-1043.486659147793
 31
0.0
1001
ACDBBLOCKREPETAG
1070
     1
1071
        0
1005
127701
1001
ACAD
1010
0.0
1020
0.0
1030
0.0
  0
LINE
  5
12779F
  8
SLIM
 10
4536.4471713899347
 20
-1104.9999999999941
 30
0.0
 11
4555.4471713899356
 21
-1085.9999999999941
 31
0.0
1001
ACDBBLOCKREPETAG
1070
     1
1071
        0
1005
127701
1001
ACAD
1010
0.0
1020
0.0
1030
0.0
  0
LINE
  5
1277A0
  8
SLIM
 10
4555.4471713899356
 20
-1085.9999999999941
 30
0.0
 11
4579.9999999999982
 21
-1061.447171389932
 31
0.0
1001
ACDBBLOCKREPETAG
1070
     1
1071
        0
1005
127701
1001
ACAD
1010
0.0
1020
0.0
1030
0.0
  0
LINE
  5
1277A1
  8
SLIM
 10
4554.4076836320728
 20
-1104.9999999999941
 30
0.0
 11
4570.0
 21
-1089.407683632068
 31
0.0
1001
ACDBBLOCKREPETAG
1070
     1
1071
        0
1005
127701
1001
ACAD
1010
0.0
1020
0.0
1030
0.0
  0
LINE
  5
1277A2
  8
SLIM
 10
4573.4076836320737
 20
-1085.9999999999941
 30
0.0
 11
4579.9999999999982
 21
-1079.4076836320701
 31
0.0
1001
ACDBBLOCKREPETAG
1070
     1
1071
        0
1005
127701
1001
ACAD
1010
0.0
1020
0.0
1030
0.0
  0
LINE
  5
1277A3
  8
OBJECT
 10
4414.9999999999918
 20
-845.99999999999443
 30
0.0
 11
4414.9999999999973
 21
-919.78460339902881
 31
0.0
1001
ACDBBLOCKREPETAG
1070
     1
1071
        1
1005
1277A3
  0
LINE
  5
1277A4
  8
OBJECT
 10
4585.0000000000073
 20
-845.99999999999443
 30
0.0
 11
4585.0
 21
-919.7846033990362
 31
0.0
1001
ACDBBLOCKREPETAG
1070
     1
1071
        2
1005
1277A4
  0
LINE
  5
1277A5
  8
OBJECT
 10
4585.0000000000073
 20
-845.99999999999443
 30
0.0
 11
4414.9999999999918
 21
-845.99999999999443
 31
0.0
1001
ACDBBLOCKREPETAG
1070
     1
1071
        3
1005
1277A5
  0
LINE
  5
1277A6
  8
OBJECT
 10
4579.9999999999982
 20
-1085.9999999999941
 30
0.0
 11
4420.0
 21
-1085.9999999999941
 31
0.0
1001
ACDBBLOCKREPETAG
1070
     1
1071
        4
1005
1277A6
  0
LINE
  5
1277A7
  8
OBJECT
 10
4414.9999999999973
 20
-919.78460339902961
 30
0.0
 11
4420.0
 21
-960.62257748298111
 31
0.0
1001
ACDBBLOCKREPETAG
1070
     1
1071
        6
1005
1277A7
  0
LINE
  5
1277A8
  8
OBJECT
 10
4420.0
 20
-960.62257748298111
 30
0.0
 11
4420.0
 21
-1085.9999999999941
 31
0.0
1001
ACDBBLOCKREPETAG
1070
     1
1071
        7
1005
1277A8
  0
LINE
  5
1277A9
  8
OBJECT
 10
4585.0
 20
-919.7846033990362
 30
0.0
 11
4580.0
 21
-960.62257748298111
 31
0.0
1001
ACDBBLOCKREPETAG
1070
     1
1071
        8
1005
1277A9
  0
LINE
  5
1277AA
  8
OBJECT
 10
4580.0
 20
-960.62257748298111
 30
0.0
 11
4579.9999999999982
 21
-1085.9999999999941
 31
0.0
1001
ACDBBLOCKREPETAG
1070
     1
1071
        9
1005
1277AA
  0
LINE
  5
1277AB
  8
OBJECT
 10
4430.0
 20
-1085.9999999999941
 30
0.0
 11
4430.0
 21
-1104.9999999999941
 31
0.0
1001
ACDBBLOCKREPETAG
1070
     1
1071
       10
1005
1277AB
  0
LINE
  5
1277AC
  8
OBJECT
 10
4430.0
 20
-1104.9999999999941
 30
0.0
 11
4570.0
 21
-1104.9999999999941
 31
0.0
1001
ACDBBLOCKREPETAG
1070
     1
1071
       11
1005
1277AC
  0
LINE
  5
1277AD
  8
OBJECT
 10
4570.0
 20
-1104.9999999999941
 30
0.0
 11
4570.0
 21
-1085.9999999999941
 31
0.0
1001
ACDBBLOCKREPETAG
1070
     1
1071
       12
1005
1277AD
  0
LINE
  5
1277AE
  8
OBJECT
 10
4930.0
 20
-1199.999999999992
 30
0.0
 11
5070.0
 21
-1199.999999999992
 31
0.0
1001
ACDBBLOCKREPETAG
1070
     1
1071
        0
1005
1277AE
  0
LINE
  5
1277AF
  8
OBJECT
 10
4930.0
 20
-1199.999999999992
 30
0.0
 11
4930.0
 21
-959.99999999999261
 31
0.0
1001
ACDBBLOCKREPETAG
1070
     1
1071
        1
1005
1277AF
  0
LINE
  5
1277B0
  8
OBJECT
 10
5070.0
 20
-1199.999999999992
 30
0.0
 11
5070.0
 21
-959.99999999999261
 31
0.0
1001
ACDBBLOCKREPETAG
1070
     1
1071
        2
1005
1277B0
  0
LINE
  5
1277B1
  8
OBJECT
 10
4930.0
 20
-959.99999999999261
 30
0.0
 11
5070.0
 21
-959.99999999999261
 31
0.0
1001
ACDBBLOCKREPETAG
1070
     1
1071
        3
1005
1277B1
  0
LINE
  5
1277B2
  8
HIDDEN
 10
4937.5
 20
-959.99999999999261
 30
0.0
 11
4937.5
 21
-1199.999999999992
 31
0.0
1001
ACDBBLOCKREPETAG
1070
     1
1071
        4
1005
1277B2
  0
LINE
  5
1277B3
  8
HIDDEN
 10
5062.5
 20
-959.99999999999261
 30
0.0
 11
5062.5
 21
-1199.999999999992
 31
0.0
1001
ACDBBLOCKREPETAG
1070
     1
1071
        5
1005
1277B3
  0
LINE
  5
1277B4
  8
CENTER
 10
5000.0
 20
-889.99999999999409
 30
0.0
 11
5000.0
 21
-1214.999999999992
 31
0.0
1001
ACDBBLOCKREPETAG
1070
     1
1071
        6
1005
1277B4
  0
LINE
  5
1277B5
  8
OBJECT
 10
4925.0
 20
-889.99999999999409
 30
0.0
 11
4925.0
 21
-919.99999999999238
 31
0.0
1001
ACDBBLOCKREPETAG
1070
     1
1071
        7
1005
1277B5
  0
LINE
  5
1277B6
  8
OBJECT
 10
5075.0000000000018
 20
-889.99999999999409
 30
0.0
 11
5075.0
 21
-919.99999999999238
 31
0.0
1001
ACDBBLOCKREPETAG
1070
     1
1071
        8
1005
1277B6
  0
LINE
  5
1277B7
  8
OBJECT
 10
4925.0
 20
-919.99999999999238
 30
0.0
 11
5075.0
 21
-919.99999999999238
 31
0.0
1001
ACDBBLOCKREPETAG
1070
     1
1071
        9
1005
1277B7
  0
LINE
  5
1277B8
  8
OBJECT
 10
4925.0
 20
-919.99999999999238
 30
0.0
 11
4930.0
 21
-959.99999999999261
 31
0.0
1001
ACDBBLOCKREPETAG
1070
     1
1071
       10
1005
1277B8
  0
LINE
  5
1277B9
  8
OBJECT
 10
5070.0
 20
-959.99999999999261
 30
0.0
 11
5075.0
 21
-919.99999999999238
 31
0.0
1001
ACDBBLOCKREPETAG
1070
     1
1071
       11
1005
1277B9
  0
LINE
  5
1277BA
  8
OBJECT
 10
4430.0
 20
-1199.999999999992
 30
0.0
 11
4570.0
 21
-1199.999999999992
 31
0.0
1001
ACDBBLOCKREPETAG
1070
     1
1071
        0
1005
1277BA
  0
LINE
  5
1277BB
  8
OBJECT
 10
4430.0
 20
-1199.999999999992
 30
0.0
 11
4430.0
 21
-959.99999999999261
 31
0.0
1001
ACDBBLOCKREPETAG
1070
     1
1071
        1
1005
1277BB
  0
LINE
  5
1277BC
  8
OBJECT
 10
4570.0
 20
-1199.999999999992
 30
0.0
 11
4570.0
 21
-959.99999999999261
 31
0.0
1001
ACDBBLOCKREPETAG
1070
     1
1071
        2
1005
1277BC
  0
LINE
  5
1277BD
  8
OBJECT
 10
4430.0
 20
-959.99999999999261
 30
0.0
 11
4570.0
 21
-959.99999999999261
 31
0.0
1001
ACDBBLOCKREPETAG
1070
     1
1071
        3
1005
1277BD
  0
LINE
  5
1277BE
  8
HIDDEN
 10
4437.5
 20
-959.99999999999261
 30
0.0
 11
4437.5
 21
-1199.999999999992
 31
0.0
1001
ACDBBLOCKREPETAG
1070
     1
1071
        4
1005
1277BE
  0
LINE
  5
1277BF
  8
HIDDEN
 10
4562.5
 20
-959.99999999999261
 30
0.0
 11
4562.5
 21
-1199.999999999992
 31
0.0
1001
ACDBBLOCKREPETAG
1070
     1
1071
        5
1005
1277BF
  0
LINE
  5
1277C0
  8
CENTER
 10
4500.0
 20
-889.99999999999409
 30
0.0
 11
4500.0
 21
-1214.999999999992
 31
0.0
1001
ACDBBLOCKREPETAG
1070
     1
1071
        6
1005
1277C0
  0
LINE
  5
1277C1
  8
OBJECT
 10
4425.0
 20
-889.99999999999409
 30
0.0
 11
4425.0
 21
-919.99999999999238
 31
0.0
1001
ACDBBLOCKREPETAG
1070
     1
1071
        7
1005
1277C1
  0
LINE
  5
1277C2
  8
OBJECT
 10
4575.0000000000009
 20
-889.99999999999409
 30
0.0
 11
4575.0
 21
-919.99999999999238
 31
0.0
1001
ACDBBLOCKREPETAG
1070
     1
1071
        8
1005
1277C2
  0
LINE
  5
1277C3
  8
OBJECT
 10
4425.0
 20
-919.99999999999238
 30
0.0
 11
4575.0
 21
-919.99999999999238
 31
0.0
1001
ACDBBLOCKREPETAG
1070
     1
1071
        9
1005
1277C3
  0
LINE
  5
1277C4
  8
OBJECT
 10
4425.0
 20
-919.99999999999238
 30
0.0
 11
4430.0
 21
-959.99999999999261
 31
0.0
1001
ACDBBLOCKREPETAG
1070
     1
1071
       10
1005
1277C4
  0
LINE
  5
1277C5
  8
OBJECT
 10
4570.0
 20
-959.99999999999261
 30
0.0
 11
4575.0
 21
-919.99999999999238
 31
0.0
1001
ACDBBLOCKREPETAG
1070
     1
1071
       11
1005
1277C5
  0
LINE
  5
1277C6
  8
OBJECT
 10
2930.0
 20
-1199.999999999992
 30
0.0
 11
3070.0
 21
-1199.999999999992
 31
0.0
1001
ACDBBLOCKREPETAG
1070
     1
1071
        0
1005
1277C6
  0
LINE
  5
1277C7
  8
OBJECT
 10
2930.0
 20
-1199.999999999992
 30
0.0
 11
2930.0
 21
-959.99999999999261
 31
0.0
1001
ACDBBLOCKREPETAG
1070
     1
1071
        1
1005
1277C7
  0
LINE
  5
1277C8
  8
OBJECT
 10
3070.0
 20
-1199.999999999992
 30
0.0
 11
3070.0
 21
-959.99999999999261
 31
0.0
1001
ACDBBLOCKREPETAG
1070
     1
1071
        2
1005
1277C8
  0
LINE
  5
1277C9
  8
OBJECT
 10
2930.0
 20
-959.99999999999261
 30
0.0
 11
3070.0
 21
-959.99999999999261
 31
0.0
1001
ACDBBLOCKREPETAG
1070
     1
1071
        3
1005
1277C9
  0
LINE
  5
1277CA
  8
HIDDEN
 10
2937.5
 20
-959.99999999999261
 30
0.0
 11
2937.5
 21
-1199.999999999992
 31
0.0
1001
ACDBBLOCKREPETAG
1070
     1
1071
        4
1005
1277CA
  0
LINE
  5
1277CB
  8
HIDDEN
 10
3062.5
 20
-959.99999999999261
 30
0.0
 11
3062.5
 21
-1199.999999999992
 31
0.0
1001
ACDBBLOCKREPETAG
1070
     1
1071
        5
1005
1277CB
  0
LINE
  5
1277CC
  8
CENTER
 10
3000.0
 20
-889.99999999999409
 30
0.0
 11
3000.0
 21
-1214.999999999992
 31
0.0
1001
ACDBBLOCKREPETAG
1070
     1
1071
        6
1005
1277CC
  0
LINE
  5
1277CD
  8
OBJECT
 10
2925.0
 20
-889.99999999999409
 30
0.0
 11
2925.0
 21
-919.99999999999238
 31
0.0
1001
ACDBBLOCKREPETAG
1070
     1
1071
        7
1005
1277CD
  0
LINE
  5
1277CE
  8
OBJECT
 10
3075.000000000005
 20
-889.99999999999409
 30
0.0
 11
3075.0
 21
-919.99999999999238
 31
0.0
1001
ACDBBLOCKREPETAG
1070
     1
1071
        8
1005
1277CE
  0
LINE
  5
1277CF
  8
OBJECT
 10
2925.0
 20
-919.99999999999238
 30
0.0
 11
3075.0
 21
-919.99999999999238
 31
0.0
1001
ACDBBLOCKREPETAG
1070
     1
1071
        9
1005
1277CF
  0
LINE
  5
1277D0
  8
OBJECT
 10
2925.0
 20
-919.99999999999238
 30
0.0
 11
2930.0
 21
-959.99999999999261
 31
0.0
1001
ACDBBLOCKREPETAG
1070
     1
1071
       10
1005
1277D0
  0
LINE
  5
1277D1
  8
OBJECT
 10
3070.0
 20
-959.99999999999261
 30
0.0
 11
3075.0
 21
-919.99999999999238
 31
0.0
1001
ACDBBLOCKREPETAG
1070
     1
1071
       11
1005
1277D1
  0
LINE
  5
1277D2
  8
OBJECT
 10
2430.0
 20
-1199.999999999992
 30
0.0
 11
2570.0
 21
-1199.999999999992
 31
0.0
1001
ACDBBLOCKREPETAG
1070
     1
1071
        0
1005
1277D2
  0
LINE
  5
1277D3
  8
OBJECT
 10
2430.0
 20
-1199.999999999992
 30
0.0
 11
2430.0
 21
-959.99999999999261
 31
0.0
1001
ACDBBLOCKREPETAG
1070
     1
1071
        1
1005
1277D3
  0
LINE
  5
1277D4
  8
OBJECT
 10
2570.0
 20
-1199.999999999992
 30
0.0
 11
2570.0
 21
-959.99999999999261
 31
0.0
1001
ACDBBLOCKREPETAG
1070
     1
1071
        2
1005
1277D4
  0
LINE
  5
1277D5
  8
OBJECT
 10
2430.0
 20
-959.99999999999261
 30
0.0
 11
2570.0
 21
-959.99999999999261
 31
0.0
1001
ACDBBLOCKREPETAG
1070
     1
1071
        3
1005
1277D5
  0
LINE
  5
1277D6
  8
HIDDEN
 10
2437.5
 20
-959.99999999999261
 30
0.0
 11
2437.5
 21
-1199.999999999992
 31
0.0
1001
ACDBBLOCKREPETAG
1070
     1
1071
        4
1005
1277D6
  0
LINE
  5
1277D7
  8
HIDDEN
 10
2562.5
 20
-959.99999999999261
 30
0.0
 11
2562.5
 21
-1199.999999999992
 31
0.0
1001
ACDBBLOCKREPETAG
1070
     1
1071
        5
1005
1277D7
  0
LINE
  5
1277D8
  8
CENTER
 10
2500.0
 20
-889.99999999999409
 30
0.0
 11
2500.0
 21
-1214.999999999992
 31
0.0
1001
ACDBBLOCKREPETAG
1070
     1
1071
        6
1005
1277D8
  0
LINE
  5
1277D9
  8
OBJECT
 10
2425.0
 20
-889.99999999999409
 30
0.0
 11
2425.0
 21
-919.99999999999238
 31
0.0
1001
ACDBBLOCKREPETAG
1070
     1
1071
        7
1005
1277D9
  0
LINE
  5
1277DA
  8
OBJECT
 10
2575.000000000005
 20
-889.99999999999409
 30
0.0
 11
2575.0
 21
-919.99999999999238
 31
0.0
1001
ACDBBLOCKREPETAG
1070
     1
1071
        8
1005
1277DA
  0
LINE
  5
1277DB
  8
OBJECT
 10
2425.0
 20
-919.99999999999238
 30
0.0
 11
2575.0
 21
-919.99999999999238
 31
0.0
1001
ACDBBLOCKREPETAG
1070
     1
1071
        9
1005
1277DB
  0
LINE
  5
1277DC
  8
OBJECT
 10
2425.0
 20
-919.99999999999238
 30
0.0
 11
2430.0
 21
-959.99999999999261
 31
0.0
1001
ACDBBLOCKREPETAG
1070
     1
1071
       10
1005
1277DC
  0
LINE
  5
1277DD
  8
OBJECT
 10
2570.0
 20
-959.99999999999261
 30
0.0
 11
2575.0
 21
-919.99999999999238
 31
0.0
1001
ACDBBLOCKREPETAG
1070
     1
1071
       11
1005
1277DD
  0
TEXT
  5
1277DE
  8
SLIM
 10
4243.7000000000025
 20
-1531.333359999998
 30
0.0
 40
28.0
  1
※ 対応P寸法　　90～150（10mm単位）
 41
0.75
  0
TEXT
  5
1277DF
  8
SLIM
 10
4243.2998000000034
 20
-1578.000026666665
 30
0.0
 40
28.0
  1
※ 対応スラブ厚　180～（380-P）
 41
0.75
  0
TEXT
  5
1277E0
  8
SLIM
 10
4111.5000000000027
 20
-1649.999973333332
 30
0.0
 40
28.0
  1
国土交通大臣認定・（財）日本消防設備安全センター性能評定取得品
 41
0.75
  0
TEXT
  5
1277E1
  8
SLIM
 10
4131.1000000000013
 20
-1696.666639999999
 30
0.0
 40
28.0
  1
注）ご採用にあたり、認定書及び評定書の内容をご確認ください。
 41
0.75
  0
TEXT
  5
1277E2
  8
SLIM
 10
2256.3000000000002
 20
-1543.999999999998
 30
0.0
 40
28.0
  1
※ 対応P寸法　90～180（10mm単位）
 41
0.75
  0
LINE
  5
1277E3
  8
SLIM
 10
4424.8586105144159
 20
-160.26624122769411
 30
0.0
 11
4460.2662412276968
 21
-124.858610514414
 31
0.0
1001
GRADIENTCOLOR1ACI
1070
     5
1001
GRADIENTCOLOR2ACI
1070
     2
1001
ACAD
1010
0.0
1020
0.0
1030
0.0
  0
LINE
  5
1277E4
  8
SLIM
 10
4418.6084340676744
 20
-175.4966737955055
 30
0.0
 11
4434.3612988780997
 21
-159.7438089850811
 31
0.0
1001
GRADIENTCOLOR1ACI
1070
     5
1001
GRADIENTCOLOR2ACI
1070
     2
1001
ACAD
1010
0.0
1020
0.0
1030
0.0
  0
LINE
  5
1277E5
  8
SLIM
 10
4459.7438089850821
 20
-134.36129887809781
 30
0.0
 11
4475.4966737955074
 21
-118.6084340676734
 31
0.0
1001
GRADIENTCOLOR1ACI
1070
     5
1001
GRADIENTCOLOR2ACI
1070
     2
1001
ACAD
1010
0.0
1020
0.0
1030
0.0
  0
LINE
  5
1277E6
  8
SLIM
 10
4415.9844434040897
 20
-187.1009205801592
 30
0.0
 11
4426.7155127720243
 21
-176.36985121222639
 31
0.0
1001
GRADIENTCOLOR1ACI
1070
     5
1001
GRADIENTCOLOR2ACI
1070
     2
1001
ACAD
1010
0.0
1020
0.0
1030
0.0
  0
LINE
  5
1277E7
  8
SLIM
 10
4476.3698512122273
 20
-126.71551277202251
 30
0.0
 11
4487.1009205801611
 21
-115.98444340408869
 31
0.0
1001
GRADIENTCOLOR1ACI
1070
     5
1001
GRADIENTCOLOR2ACI
1070
     2
1001
ACAD
1010
0.0
1020
0.0
1030
0.0
  0
LINE
  5
1277E8
  8
SLIM
 10
4415.0524951669204
 20
-197.01312493839851
 30
0.0
 11
4416.0656201053189
 21
-196.0
 31
0.0
1001
GRADIENTCOLOR1ACI
1070
     5
1001
GRADIENTCOLOR2ACI
1070
     2
1001
ACAD
1010
0.0
1020
0.0
1030
0.0
  0
LINE
  5
1277E9
  8
SLIM
 10
4488.1480121870763
 20
-123.9176079182425
 30
0.0
 11
4497.0131249384003
 21
-115.0524951669185
 31
0.0
1001
GRADIENTCOLOR1ACI
1070
     5
1001
GRADIENTCOLOR2ACI
1070
     2
1001
ACAD
1010
0.0
1020
0.0
1030
0.0
  0
LINE
  5
1277EA
  8
SLIM
 10
4416.0656201053189
 20
-196.0
 30
0.0
 11
4423.9176079182453
 21
-188.1480121870745
 31
0.0
1001
GRADIENTCOLOR1ACI
1070
     5
1001
GRADIENTCOLOR2ACI
1070
     2
1001
ACAD
1010
0.0
1020
0.0
1030
0.0
  0
LINE
  5
1277EB
  8
SLIM
 10
4415.2011819161371
 20
-205.844694310249
 30
0.0
 11
4421.0458762263879
 21
-200.0
 31
0.0
1001
GRADIENTCOLOR1ACI
1070
     5
1001
GRADIENTCOLOR2ACI
1070
     2
1001
ACAD
1010
0.0
1020
0.0
1030
0.0
  0
LINE
  5
1277EC
  8
SLIM
 10
4499.9999999999991
 20
-121.0458762263879
 30
0.0
 11
4505.844694310249
 21
-115.20118191613891
 31
0.0
1001
GRADIENTCOLOR1ACI
1070
     5
1001
GRADIENTCOLOR2ACI
1070
     2
1001
ACAD
1010
0.0
1020
0.0
1030
0.0
  0
LINE
  5
1277ED
  8
SLIM
 10
4421.0458762263879
 20
-200.0
 30
0.0
 11
4423.0254504002114
 21
-198.02042582617551
 31
0.0
1001
GRADIENTCOLOR1ACI
1070
     5
1001
GRADIENTCOLOR2ACI
1070
     2
1001
ACAD
1010
0.0
1020
0.0
1030
0.0
  0
LINE
  5
1277EE
  8
SLIM
 10
4498.0204258261756
 20
-123.0254504002114
 30
0.0
 11
4499.9999999999991
 21
-121.0458762263879
 31
0.0
1001
GRADIENTCOLOR1ACI
1070
     5
1001
GRADIENTCOLOR2ACI
1070
     2
1001
ACAD
1010
0.0
1020
0.0
1030
0.0
  0
LINE
  5
1277EF
  8
SLIM
 10
4416.141658771895
 20
-213.88447357556291
 30
0.0
 11
4423.2947912640902
 21
-206.73134108336581
 31
0.0
1001
GRADIENTCOLOR1ACI
1070
     5
1001
GRADIENTCOLOR2ACI
1070
     2
1001
ACAD
1010
0.0
1020
0.0
1030
0.0
  0
LINE
  5
1277F0
  8
SLIM
 10
4506.7313410833667
 20
-123.29479126409019
 30
0.0
 11
4513.8844735755602
 21
-116.14165877189311
 31
0.0
1001
GRADIENTCOLOR1ACI
1070
     5
1001
GRADIENTCOLOR2ACI
1070
     2
1001
ACAD
1010
0.0
1020
0.0
1030
0.0
  0
LINE
  5
1277F1
  8
SLIM
 10
4417.710870111021
 20
-221.2955183575032
 30
0.0
 11
4419.006388468526
 21
-220.0
 31
0.0
1001
GRADIENTCOLOR1ACI
1070
     5
1001
GRADIENTCOLOR2ACI
1070
     2
1001
ACAD
1010
0.0
1020
0.0
1030
0.0
  0
LINE
  5
1277F2
  8
SLIM
 10
4514.6080147980001
 20
-124.3983736705258
 30
0.0
 11
4521.2955183575032
 21
-117.71087011102099
 31
0.0
1001
GRADIENTCOLOR1ACI
1070
     5
1001
GRADIENTCOLOR2ACI
1070
     2
1001
ACAD
1010
0.0
1020
0.0
1030
0.0
  0
LINE
  5
1277F3
  8
SLIM
 10
4419.006388468526
 20
-220.0
 30
0.0
 11
4424.3983736705259
 21
-214.60801479800011
 31
0.0
1001
GRADIENTCOLOR1ACI
1070
     5
1001
GRADIENTCOLOR2ACI
1070
     2
1001
ACAD
1010
0.0
1020
0.0
1030
0.0
  0
LINE
  5
1277F4
  8
SLIM
 10
4419.8070443755887
 20
-228.17960021400589
 30
0.0
 11
4426.1586830180358
 21
-221.8279615715565
 31
0.0
1001
GRADIENTCOLOR1ACI
1070
     5
1001
GRADIENTCOLOR2ACI
1070
     2
1001
ACAD
1010
0.0
1020
0.0
1030
0.0
  0
LINE
  5
1277F5
  8
SLIM
 10
4521.8279615715574
 20
-126.1586830180367
 30
0.0
 11
4528.1796002140054
 21
-119.8070443755887
 31
0.0
1001
GRADIENTCOLOR1ACI
1070
     5
1001
GRADIENTCOLOR2ACI
1070
     2
1001
ACAD
1010
0.0
1020
0.0
1030
0.0
  0
LINE
  5
1277F6
  8
SLIM
 10
4422.3627047135597
 20
-234.6041959971044
 30
0.0
 11
4424.9669007106631
 21
-232.00000000000091
 31
0.0
1001
GRADIENTCOLOR1ACI
1070
     5
1001
GRADIENTCOLOR2ACI
1070
     2
1001
ACAD
1010
0.0
1020
0.0
1030
0.0
  0
LINE
  5
1277F7
  8
SLIM
 10
4528.4988289042203
 20
-128.4680718064437
 30
0.0
 11
4534.6041959971053
 21
-122.3627047135587
 31
0.0
1001
GRADIENTCOLOR1ACI
1070
     5
1001
GRADIENTCOLOR2ACI
1070
     2
1001
ACAD
1010
0.0
1020
0.0
1030
0.0
  0
LINE
  5
1277F8
  8
SLIM
 10
4424.9669007106631
 20
-232.00000000000091
 30
0.0
 11
4428.4680718064419
 21
-228.4988289042185
 31
0.0
1001
GRADIENTCOLOR1ACI
1070
     5
1001
GRADIENTCOLOR2ACI
1070
     2
1001
ACAD
1010
0.0
1020
0.0
1030
0.0
  0
LINE
  5
1277F9
  8
SLIM
 10
4425.3315714414439
 20
-240.61558539028869
 30
0.0
 11
4431.257033983361
 21
-234.69012284837211
 31
0.0
1001
GRADIENTCOLOR1ACI
1070
     5
1001
GRADIENTCOLOR2ACI
1070
     2
1001
ACAD
1010
0.0
1020
0.0
1030
0.0
  0
LINE
  5
1277FA
  8
SLIM
 10
4534.6901228483721
 20
-131.25703398336009
 30
0.0
 11
4540.6155853902883
 21
-125.3315714414439
 31
0.0
1001
GRADIENTCOLOR1ACI
1070
     5
1001
GRADIENTCOLOR2ACI
1070
     2
1001
ACAD
1010
0.0
1020
0.0
1030
0.0
  0
LINE
  5
1277FB
  8
SLIM
 10
4428.681554893712
 20
-246.24585805908961
 30
0.0
 11
4434.4793564785941
 21
-240.44805647420799
 31
0.0
1001
GRADIENTCOLOR1ACI
1070
     5
1001
GRADIENTCOLOR2ACI
1070
     2
1001
ACAD
1010
0.0
1020
0.0
1030
0.0
  0
LINE
  5
1277FC
  8
SLIM
 10
4540.448056474208
 20
-134.47935647859231
 30
0.0
 11
4546.2458580590901
 21
-128.68155489371199
 31
0.0
1001
GRADIENTCOLOR1ACI
1070
     5
1001
GRADIENTCOLOR2ACI
1070
     2
1001
ACAD
1010
0.0
1020
0.0
1030
0.0
  0
LINE
  5
1277FD
  8
SLIM
 10
4432.3907652629223
 20
-251.51690381094889
 30
0.0
 11
4438.1044220857211
 21
-245.80324698814911
 31
0.0
1001
GRADIENTCOLOR1ACI
1070
     5
1001
GRADIENTCOLOR2ACI
1070
     2
1001
ACAD
1010
0.0
1020
0.0
1030
0.0
  0
LINE
  5
1277FE
  8
SLIM
 10
4545.9076690738721
 20
-137.99999999999821
 30
0.0
 11
4551.5169038109489
 21
-132.39076526292121
 31
0.0
1001
GRADIENTCOLOR1ACI
1070
     5
1001
GRADIENTCOLOR2ACI
1070
     2
1001
ACAD
1010
0.0
1020
0.0
1030
0.0
  0
LINE
  5
1277FF
  8
SLIM
 10
4436.4451742931069
 20
-256.44275090183328
 30
0.0
 11
4442.1129898655927
 21
-250.7749353293452
 31
0.0
1001
GRADIENTCOLOR1ACI
1070
     5
1001
GRADIENTCOLOR2ACI
1070
     2
1001
ACAD
1010
0.0
1020
0.0
1030
0.0
  0
LINE
  5
127800
  8
SLIM
 10
4554.887925194942
 20
-137.9999999999973
 30
0.0
 11
4556.4427509018342
 21
-136.44517429310599
 31
0.0
1001
GRADIENTCOLOR1ACI
1070
     5
1001
GRADIENTCOLOR2ACI
1070
     2
1001
ACAD
1010
0.0
1020
0.0
1030
0.0
  0
LINE
  5
127801
  8
SLIM
 10
4440.8372731495638
 20
-261.03090816644323
 30
0.0
 11
4446.4948816754841
 21
-255.3732996405256
 31
0.0
1001
GRADIENTCOLOR1ACI
1070
     5
1001
GRADIENTCOLOR2ACI
1070
     2
1001
ACAD
1010
0.0
1020
0.0
1030
0.0
  0
LINE
  5
127802
  8
SLIM
 10
4445.5654027321416
 20
-265.2830347049366
 30
0.0
 11
4450.5
 21
-260.3484374370787
 31
0.0
1001
GRADIENTCOLOR1ACI
1070
     5
1001
GRADIENTCOLOR2ACI
1070
     2
1001
ACAD
1010
0.0
1020
0.0
1030
0.0
  0
LINE
  5
127803
  8
SLIM
 10
4549.5421817599126
 20
-269.06932912999582
 30
0.0
 11
4556.6115108899112
 21
-261.99999999999909
 31
0.0
1001
GRADIENTCOLOR1ACI
1070
     5
1001
GRADIENTCOLOR2ACI
1070
     2
1001
ACAD
1010
0.0
1020
0.0
1030
0.0
  0
LINE
  5
127804
  8
OBJECT
 10
4633.0
 20
-137.99999999999909
 30
0.0
 11
4640.0
 21
-137.99999999999909
 31
0.0
1001
ACDBBLOCKREPETAG
1070
     1
1071
       47
1005
127804
  0
LINE
  5
127805
  8
OBJECT
 10
4640.0
 20
-137.99999999999909
 30
0.0
 11
4640.0
 21
-261.99999999999909
 31
0.0
1001
ACDBBLOCKREPETAG
1070
     1
1071
       48
1005
127805
  0
LINE
  5
127806
  8
OBJECT
 10
4640.0
 20
-261.99999999999909
 30
0.0
 11
4633.0
 21
-261.99999999999909
 31
0.0
1001
ACDBBLOCKREPETAG
1070
     1
1071
       49
1005
127806
  0
LINE
  5
127807
  8
OBJECT
 10
4633.0
 20
-261.99999999999909
 30
0.0
 11
4633.0
 21
-137.99999999999909
 31
0.0
1001
ACDBBLOCKREPETAG
1070
     1
1071
       50
1005
127807
  0
LINE
  5
127808
  8
CENTER
 10
4655.0
 20
-199.99999999999909
 30
0.0
 11
4580.0
 21
-199.99999999999909
 31
0.0
1001
ACDBBLOCKREPETAG
1070
     1
1071
       51
1005
127808
  0
LINE
  5
127809
  8
OBJECT
 10
4633.0
 20
-140.99999999999909
 30
0.0
 11
4597.0
 21
-140.99999999999909
 31
0.0
1001
ACDBBLOCKREPETAG
1070
     1
1071
       52
1005
127809
  0
LINE
  5
12780A
  8
OBJECT
 10
4597.0
 20
-140.99999999999909
 30
0.0
 11
4597.0
 21
-258.99999999999909
 31
0.0
1001
ACDBBLOCKREPETAG
1070
     1
1071
       53
1005
12780A
  0
LINE
  5
12780B
  8
OBJECT
 10
4597.0
 20
-258.99999999999909
 30
0.0
 11
4633.0
 21
-258.99999999999909
 31
0.0
1001
ACDBBLOCKREPETAG
1070
     1
1071
       54
1005
12780B
  0
LINE
  5
12780C
  8
OBJECT
 10
4593.0
 20
-145.49999999999909
 30
0.0
 11
4586.0
 21
-145.49999999999909
 31
0.0
1001
ACDBBLOCKREPETAG
1070
     1
1071
       55
1005
12780C
  0
LINE
  5
12780D
  8
OBJECT
 10
4586.0
 20
-254.49999999999909
 30
0.0
 11
4593.0
 21
-254.49999999999909
 31
0.0
1001
ACDBBLOCKREPETAG
1070
     1
1071
       56
1005
12780D
  0
LINE
  5
12780E
  8
OBJECT
 10
4593.0
 20
-254.49999999999909
 30
0.0
 11
4593.0
 21
-145.49999999999909
 31
0.0
1001
ACDBBLOCKREPETAG
1070
     1
1071
       57
1005
12780E
  0
LINE
  5
12780F
  8
OBJECT
 10
4597.0
 20
-140.99999999999909
 30
0.0
 11
4593.0
 21
-145.49999999999909
 31
0.0
1001
ACDBBLOCKREPETAG
1070
     1
1071
       58
1005
12780F
  0
LINE
  5
127810
  8
OBJECT
 10
4597.0
 20
-258.99999999999909
 30
0.0
 11
4593.0
 21
-254.49999999999909
 31
0.0
1001
ACDBBLOCKREPETAG
1070
     1
1071
       59
1005
127810
  0
LINE
  5
127811
  8
OBJECT
 10
4583.0
 20
-137.99999999999909
 30
0.0
 11
4580.0
 21
-137.99999999999909
 31
0.0
1001
ACDBBLOCKREPETAG
1070
     1
1071
       60
1005
127811
  0
ARC
  5
127812
  8
OBJECT
 10
4583.0
 20
-140.99999999999909
 30
0.0
 40
3.0
 50
0.0
 51
90.0
1001
ACDBBLOCKREPETAG
1070
     1
1071
       61
1005
127812
  0
LINE
  5
127813
  8
OBJECT
 10
4580.0
 20
-261.99999999999909
 30
0.0
 11
4583.0
 21
-261.99999999999909
 31
0.0
1001
ACDBBLOCKREPETAG
1070
     1
1071
       62
1005
127813
  0
ARC
  5
127814
  8
OBJECT
 10
4583.0
 20
-258.99999999999909
 30
0.0
 40
3.0
 50
270.0
 51
0.0
1001
ACDBBLOCKREPETAG
1070
     1
1071
       63
1005
127814
  0
LINE
  5
127815
  8
OBJECT
 10
4586.0
 20
-258.99999999999909
 30
0.0
 11
4586.0
 21
-140.99999999999909
 31
0.0
1001
ACDBBLOCKREPETAG
1070
     1
1071
       64
1005
127815
  0
LINE
  5
127816
  8
HIDDEN
 10
4588.0
 20
-155.49999999999909
 30
0.0
 11
4588.0
 21
-244.49999999999909
 31
0.0
1001
ACDBBLOCKREPETAG
1070
     1
1071
       65
1005
127816
  0
LINE
  5
127817
  8
OBJECT
 10
288.9999999999996
 20
-1397.9999999998411
 30
0.0
 11
295.99999999999949
 21
-1397.9999999998411
 31
0.0
1001
ACDBBLOCKREPETAG
1070
     1
1071
       34
1005
127817
  0
LINE
  5
127818
  8
OBJECT
 10
295.99999999999949
 20
-1397.9999999998411
 30
0.0
 11
295.99999999999949
 21
-1521.9999999998411
 31
0.0
1001
ACDBBLOCKREPETAG
1070
     1
1071
       35
1005
127818
  0
LINE
  5
127819
  8
OBJECT
 10
295.99999999999949
 20
-1521.9999999998411
 30
0.0
 11
288.9999999999996
 21
-1521.9999999998411
 31
0.0
1001
ACDBBLOCKREPETAG
1070
     1
1071
       36
1005
127819
  0
LINE
  5
12781A
  8
OBJECT
 10
288.9999999999996
 20
-1521.9999999998411
 30
0.0
 11
288.9999999999996
 21
-1397.9999999998411
 31
0.0
1001
ACDBBLOCKREPETAG
1070
     1
1071
       37
1005
12781A
  0
LINE
  5
12781B
  8
OBJECT
 10
288.9999999999996
 20
-1400.9999999998399
 30
0.0
 11
252.9999999999994
 21
-1400.9999999998399
 31
0.0
1001
ACDBBLOCKREPETAG
1070
     1
1071
       38
1005
12781B
  0
LINE
  5
12781C
  8
OBJECT
 10
252.9999999999994
 20
-1400.9999999998399
 30
0.0
 11
252.9999999999994
 21
-1518.9999999998411
 31
0.0
1001
ACDBBLOCKREPETAG
1070
     1
1071
       39
1005
12781C
  0
LINE
  5
12781D
  8
OBJECT
 10
252.9999999999994
 20
-1518.9999999998411
 30
0.0
 11
288.9999999999996
 21
-1518.9999999998411
 31
0.0
1001
ACDBBLOCKREPETAG
1070
     1
1071
       40
1005
12781D
  0
LINE
  5
12781E
  8
OBJECT
 10
248.9999999999994
 20
-1405.4999999998411
 30
0.0
 11
238.4999999999994
 21
-1405.4999999998411
 31
0.0
1001
ACDBBLOCKREPETAG
1070
     1
1071
       41
1005
12781E
  0
LINE
  5
12781F
  8
OBJECT
 10
238.4999999999994
 20
-1514.4999999998411
 30
0.0
 11
248.9999999999994
 21
-1514.4999999998411
 31
0.0
1001
ACDBBLOCKREPETAG
1070
     1
1071
       42
1005
12781F
  0
LINE
  5
127820
  8
OBJECT
 10
248.9999999999994
 20
-1514.4999999998411
 30
0.0
 11
248.9999999999994
 21
-1405.4999999998411
 31
0.0
1001
ACDBBLOCKREPETAG
1070
     1
1071
       43
1005
127820
  0
LINE
  5
127821
  8
OBJECT
 10
252.9999999999994
 20
-1400.9999999998399
 30
0.0
 11
248.9999999999994
 21
-1405.4999999998411
 31
0.0
1001
ACDBBLOCKREPETAG
1070
     1
1071
       44
1005
127821
  0
LINE
  5
127822
  8
OBJECT
 10
252.9999999999994
 20
-1518.9999999998411
 30
0.0
 11
248.9999999999994
 21
-1514.4999999998411
 31
0.0
1001
ACDBBLOCKREPETAG
1070
     1
1071
       45
1005
127822
  0
LINE
  5
127823
  8
OBJECT
 10
233.49999999999949
 20
-1410.4999999998411
 30
0.0
 11
212.34491991297821
 21
-1410.4999999998411
 31
0.0
1001
ACDBBLOCKREPETAG
1070
     1
1071
       46
1005
127823
  0
LINE
  5
127824
  8
OBJECT
 10
233.49999999999949
 20
-1509.4999999998411
 30
0.0
 11
212.3449199129773
 21
-1509.4999999998411
 31
0.0
1001
ACDBBLOCKREPETAG
1070
     1
1071
       47
1005
127824
  0
LINE
  5
127825
  8
OBJECT
 10
238.4999999999994
 20
-1405.4999999998411
 30
0.0
 11
238.4999999999994
 21
-1514.4999999998411
 31
0.0
1001
ACDBBLOCKREPETAG
1070
     1
1071
       48
1005
127825
  0
LINE
  5
127826
  8
OBJECT
 10
233.49999999999949
 20
-1410.4999999998411
 30
0.0
 11
233.49999999999949
 21
-1509.4999999998411
 31
0.0
1001
ACDBBLOCKREPETAG
1070
     1
1071
       49
1005
127826
  0
LINE
  5
127827
  8
OBJECT
 10
238.4999999999994
 20
-1405.4999999998411
 30
0.0
 11
233.49999999999949
 21
-1410.4999999998411
 31
0.0
1001
ACDBBLOCKREPETAG
1070
     1
1071
       50
1005
127827
  0
LINE
  5
127828
  8
OBJECT
 10
233.49999999999949
 20
-1509.4999999998411
 30
0.0
 11
238.4999999999994
 21
-1514.499999999837
 31
0.0
1001
ACDBBLOCKREPETAG
1070
     1
1071
       51
1005
127828
  0
INSERT
  5
127829
  8
OBJECT
  2
*U3
 10
0.0
 20
0.0
 30
0.0
  0
LINE
  5
12782A
  8
HIDDEN
 10
243.9999999999996
 20
-1415.4999999998411
 30
0.0
 11
243.99999999999949
 21
-1504.4999999998411
 31
0.0
1001
ACDBBLOCKREPETAG
1070
     1
1071
       65
1005
12782A
  0
LINE
  5
12782B
  8
OBJECT
 10
648.99999999987767
 20
-940.99999999999932
 30
0.0
 11
655.99999999987756
 21
-940.99999999999932
 31
0.0
1001
ACDBBLOCKREPETAG
1070
     1
1071
       18
1005
12782B
  0
LINE
  5
12782C
  8
OBJECT
 10
655.99999999987756
 20
-940.99999999999932
 30
0.0
 11
655.99999999987756
 21
-1050.9999999999991
 31
0.0
1001
ACDBBLOCKREPETAG
1070
     1
1071
       19
1005
12782C
  0
LINE
  5
12782D
  8
OBJECT
 10
655.99999999987756
 20
-1050.9999999999991
 30
0.0
 11
648.99999999987767
 21
-1050.9999999999991
 31
0.0
1001
ACDBBLOCKREPETAG
1070
     1
1071
       20
1005
12782D
  0
LINE
  5
12782E
  8
OBJECT
 10
648.99999999987767
 20
-1050.9999999999991
 30
0.0
 11
648.99999999987767
 21
-940.99999999999932
 31
0.0
1001
ACDBBLOCKREPETAG
1070
     1
1071
       21
1005
12782E
  0
LINE
  5
12782F
  8
OBJECT
 10
648.99999999987767
 20
-943.99999999999875
 30
0.0
 11
612.99999999987756
 21
-943.99999999999875
 31
0.0
1001
ACDBBLOCKREPETAG
1070
     1
1071
       22
1005
12782F
  0
LINE
  5
127830
  8
OBJECT
 10
612.99999999987756
 20
-943.99999999999875
 30
0.0
 11
612.99999999987756
 21
-1047.9999999999991
 31
0.0
1001
ACDBBLOCKREPETAG
1070
     1
1071
       23
1005
127830
  0
LINE
  5
127831
  8
OBJECT
 10
612.99999999987756
 20
-1047.9999999999991
 30
0.0
 11
648.99999999987767
 21
-1047.9999999999991
 31
0.0
1001
ACDBBLOCKREPETAG
1070
     1
1071
       24
1005
127831
  0
LINE
  5
127832
  8
OBJECT
 10
608.99999999987756
 20
-948.49999999999852
 30
0.0
 11
600.49999999987813
 21
-948.49999999999852
 31
0.0
1001
ACDBBLOCKREPETAG
1070
     1
1071
       25
1005
127832
  0
LINE
  5
127833
  8
OBJECT
 10
600.49999999987722
 20
-1043.4999999999991
 30
0.0
 11
608.99999999987756
 21
-1043.4999999999991
 31
0.0
1001
ACDBBLOCKREPETAG
1070
     1
1071
       26
1005
127833
  0
LINE
  5
127834
  8
OBJECT
 10
608.99999999987756
 20
-1043.4999999999991
 30
0.0
 11
608.99999999987756
 21
-948.49999999999852
 31
0.0
1001
ACDBBLOCKREPETAG
1070
     1
1071
       27
1005
127834
  0
LINE
  5
127835
  8
OBJECT
 10
612.99999999987756
 20
-943.99999999999875
 30
0.0
 11
608.99999999987756
 21
-948.49999999999852
 31
0.0
1001
ACDBBLOCKREPETAG
1070
     1
1071
       28
1005
127835
  0
LINE
  5
127836
  8
OBJECT
 10
612.99999999987756
 20
-1047.9999999999991
 30
0.0
 11
608.99999999987756
 21
-1043.4999999999991
 31
0.0
1001
ACDBBLOCKREPETAG
1070
     1
1071
       29
1005
127836
  0
LINE
  5
127837
  8
OBJECT
 10
600.49999999987642
 20
-1045.4999999999991
 30
0.0
 11
600.49999999987813
 21
-946.49999999999875
 31
0.0
1001
ACDBBLOCKREPETAG
1070
     1
1071
       30
1005
127837
  0
LINE
  5
127838
  8
OBJECT
 10
600.49999999987813
 20
-946.49999999999875
 30
0.0
 11
572.34491991285734
 21
-946.49999999999989
 31
0.0
1001
ACDBBLOCKREPETAG
1070
     1
1071
       31
1005
127838
  0
LINE
  5
127839
  8
OBJECT
 10
600.49999999987642
 20
-1045.4999999999991
 30
0.0
 11
572.34491991285608
 21
-1045.5
 31
0.0
1001
ACDBBLOCKREPETAG
1070
     1
1071
       32
1005
127839
  0
INSERT
  5
12783A
  8
OBJECT
  2
*U4
 10
0.0
 20
0.0
 30
0.0
  0
LINE
  5
12783B
  8
HIDDEN
 10
603.99999999987767
 20
-957.9999999999992
 30
0.0
 11
603.99999999987767
 21
-1033.9999999999991
 31
0.0
1001
ACDBBLOCKREPETAG
1070
     1
1071
       57
1005
12783B
  0
LINE
  5
12783C
  8
OBJECT
 10
288.99999999999972
 20
-949.0
 30
0.0
 11
295.99999999999972
 21
-949.0
 31
0.0
1001
ACDBBLOCKREPETAG
1070
     1
1071
        0
1005
12783C
  0
LINE
  5
12783D
  8
OBJECT
 10
295.99999999999972
 20
-949.0
 30
0.0
 11
295.99999999999972
 21
-1043.0
 31
0.0
1001
ACDBBLOCKREPETAG
1070
     1
1071
        1
1005
12783D
  0
LINE
  5
12783E
  8
OBJECT
 10
295.99999999999972
 20
-1043.0
 30
0.0
 11
288.99999999999972
 21
-1043.0
 31
0.0
1001
ACDBBLOCKREPETAG
1070
     1
1071
        2
1005
12783E
  0
LINE
  5
12783F
  8
OBJECT
 10
288.99999999999972
 20
-1043.0
 30
0.0
 11
288.99999999999972
 21
-949.0
 31
0.0
1001
ACDBBLOCKREPETAG
1070
     1
1071
        3
1005
12783F
  0
LINE
  5
127840
  8
OBJECT
 10
288.99999999999972
 20
-952.0
 30
0.0
 11
252.9999999999998
 21
-952.0
 31
0.0
1001
ACDBBLOCKREPETAG
1070
     1
1071
        4
1005
127840
  0
LINE
  5
127841
  8
OBJECT
 10
252.9999999999998
 20
-952.0
 30
0.0
 11
252.9999999999998
 21
-1040.0
 31
0.0
1001
ACDBBLOCKREPETAG
1070
     1
1071
        5
1005
127841
  0
LINE
  5
127842
  8
OBJECT
 10
252.9999999999998
 20
-1040.0
 30
0.0
 11
288.99999999999972
 21
-1040.0
 31
0.0
1001
ACDBBLOCKREPETAG
1070
     1
1071
        6
1005
127842
  0
LINE
  5
127843
  8
OBJECT
 10
248.9999999999998
 20
-956.49999999999989
 30
0.0
 11
240.5000000000002
 21
-956.49999999999989
 31
0.0
1001
ACDBBLOCKREPETAG
1070
     1
1071
        7
1005
127843
  0
LINE
  5
127844
  8
OBJECT
 10
240.49999999999929
 20
-1035.5
 30
0.0
 11
248.9999999999998
 21
-1035.5
 31
0.0
1001
ACDBBLOCKREPETAG
1070
     1
1071
        8
1005
127844
  0
LINE
  5
127845
  8
OBJECT
 10
248.9999999999998
 20
-1035.5
 30
0.0
 11
248.9999999999998
 21
-956.49999999999989
 31
0.0
1001
ACDBBLOCKREPETAG
1070
     1
1071
        9
1005
127845
  0
LINE
  5
127846
  8
OBJECT
 10
252.9999999999998
 20
-952.0
 30
0.0
 11
248.9999999999998
 21
-956.49999999999989
 31
0.0
1001
ACDBBLOCKREPETAG
1070
     1
1071
       10
1005
127846
  0
LINE
  5
127847
  8
OBJECT
 10
252.9999999999998
 20
-1040.0
 30
0.0
 11
248.9999999999998
 21
-1035.5
 31
0.0
1001
ACDBBLOCKREPETAG
1070
     1
1071
       11
1005
127847
  0
LINE
  5
127848
  8
OBJECT
 10
240.49999999999889
 20
-1042.5
 30
0.0
 11
240.5000000000002
 21
-949.5
 31
0.0
1001
ACDBBLOCKREPETAG
1070
     1
1071
       12
1005
127848
  0
ARC
  5
127849
  8
OBJECT
 10
237.5000000000002
 20
-949.5
 30
0.0
 40
3.0
 50
0.0
 51
90.0
1001
ACDBBLOCKREPETAG
1070
     1
1071
       13
1005
127849
  0
LINE
  5
12784A
  8
OBJECT
 10
237.5000000000002
 20
-946.49999999999989
 30
0.0
 11
212.34491991297821
 21
-946.49999999999875
 31
0.0
1001
ACDBBLOCKREPETAG
1070
     1
1071
       15
1005
12784A
  0
LINE
  5
12784B
  8
OBJECT
 10
237.49999999999889
 20
-1045.5
 30
0.0
 11
212.34491991297909
 21
-1045.4999999999991
 31
0.0
1001
ACDBBLOCKREPETAG
1070
     1
1071
       16
1005
12784B
  0
ARC
  5
12784C
  8
OBJECT
 10
237.49999999999889
 20
-1042.5
 30
0.0
 40
3.0
 50
270.0
 51
0.0
1001
ACDBBLOCKREPETAG
1070
     1
1071
       17
1005
12784C
  0
INSERT
  5
12784D
  8
OBJECT
  2
*U5
 10
0.0
 20
0.0
 30
0.0
  0
LINE
  5
12784E
  8
HIDDEN
 10
243.9999999999998
 20
-966.0
 30
0.0
 11
243.9999999999998
 21
-1026.0
 31
0.0
1001
ACDBBLOCKREPETAG
1070
     1
1071
       56
1005
12784E
  0
LINE
  5
12784F
  8
DIM
 10
4404.9999999999936
 20
-845.9999999999942
 30
0.0
 11
4333.1164560757752
 21
-845.99999999999363
 31
0.0
  0
LINE
  5
127850
  8
DIM
 10
4410.0
 20
-1085.9999999999941
 30
0.0
 11
4333.1164560757752
 21
-1085.9999999999941
 31
0.0
  0
LINE
  5
127851
  8
DIM
 10
4343.1164560757752
 20
-865.99999999999409
 30
0.0
 11
4343.1164560757752
 21
-1065.9999999999941
 31
0.0
  0
INSERT
  5
127852
  8
DIM
  2
_OPEN30
 10
4343.1164560757752
 20
-845.99999999999363
 30
0.0
 41
20.0
 42
20.0
 43
20.0
 50
90.0
  0
INSERT
  5
127853
  8
DIM
  2
_OPEN30
 10
4343.1164560757752
 20
-1085.9999999999941
 30
0.0
 41
20.0
 42
20.0
 43
20.0
 50
270.0
  0
INSERT
  5
127854
  8
OBJECT
  2
*U6
 10
0.0
 20
0.0
 30
0.0
  0
LINE
  5
127855
  8
DIM
 10
4665.0
 20
-696.0
 30
0.0
 11
4719.4245816727544
 21
-696.0
 31
0.0
  0
LINE
  5
127856
  8
DIM
 10
4527.9164728671331
 20
-846.00000000000659
 30
0.0
 11
4719.4245816727544
 21
-846.00000000000659
 31
0.0
  0
LINE
  5
127857
  8
DIM
 10
4709.4245816727544
 20
-716.0
 30
0.0
 11
4709.4245816727544
 21
-826.00000000000614
 31
0.0
  0
INSERT
  5
127858
  8
DIM
  2
_OPEN30
 10
4709.4245816727544
 20
-696.0
 30
0.0
 41
20.0
 42
20.0
 43
20.0
 50
90.0
  0
INSERT
  5
127859
  8
DIM
  2
_OPEN30
 10
4709.4245816727544
 20
-846.00000000000659
 30
0.0
 41
20.0
 42
20.0
 43
20.0
 50
270.0
  0
INSERT
  5
12785A
  8
OBJECT
  2
*U7
 10
0.0
 20
0.0
 30
0.0
  0
LINE
  5
12785B
  8
DIM
 10
2665.0
 20
-696.0
 30
0.0
 11
2719.4245816727562
 21
-696.0
 31
0.0
  0
LINE
  5
12785C
  8
DIM
 10
2527.916472867169
 20
-845.99999999999443
 30
0.0
 11
2719.4245816727562
 21
-845.99999999999443
 31
0.0
  0
LINE
  5
12785D
  8
DIM
 10
2709.4245816727562
 20
-716.0
 30
0.0
 11
2709.4245816727562
 21
-825.9999999999942
 31
0.0
  0
INSERT
  5
12785E
  8
DIM
  2
_OPEN30
 10
2709.4245816727562
 20
-696.0
 30
0.0
 41
20.0
 42
20.0
 43
20.0
 50
90.0
  0
INSERT
  5
12785F
  8
DIM
  2
_OPEN30
 10
2709.4245816727562
 20
-845.99999999999443
 30
0.0
 41
20.0
 42
20.0
 43
20.0
 50
270.0
  0
INSERT
  5
127860
  8
OBJECT
  2
*U8
 10
0.0
 20
0.0
 30
0.0
  0
LINE
  5
127861
  8
CENTER
 10
4977.0000000000009
 20
-3640.9999999999959
 30
0.0
 11
4823.0000000000009
 21
-3640.9999999999959
 31
0.0
1001
ACDBBLOCKREPETAG
1070
     1
1071
       17
1005
127861
  0
CIRCLE
  5
127862
  8
OBJECT
 10
4900.0000000000009
 20
-3640.9999999999959
 30
0.0
 40
41.5
1001
ACDBBLOCKREPETAG
1070
     1
1071
       18
1005
127862
  0
CIRCLE
  5
127863
  8
OBJECT
 10
4900.0000000000009
 20
-3640.9999999999959
 30
0.0
 40
54.0
1001
ACDBBLOCKREPETAG
1070
     1
1071
       19
1005
127863
  0
ARC
  5
127864
  8
OBJECT
 10
4900.0000000000009
 20
-3640.9999999999959
 30
0.0
 40
62.0
 50
287.89655112921122
 51
252.1034488707887
1001
ACDBBLOCKREPETAG
1070
     1
1071
       20
1005
127864
  0
LINE
  5
127865
  8
OBJECT
 10
4880.9474411167439
 20
-3699.9999999999968
 30
0.0
 11
4919.0525588832579
 21
-3699.9999999999968
 31
0.0
1001
ACDBBLOCKREPETAG
1070
     1
1071
       21
1005
127865
  0
POINT
  5
127866
  8
DOTS
 10
4900.0000000000009
 20
-3699.9999999999968
 30
0.0
1001
ACDBBLOCKREPETAG
1070
     1
1071
       24
1005
127866
  0
LINE
  5
127867
  8
OBJECT
 10
4633.0000000000009
 20
-3578.9999999999968
 30
0.0
 11
4640.0000000000009
 21
-3578.9999999999968
 31
0.0
1001
ACDBBLOCKREPETAG
1070
     1
1071
       46
1005
127867
  0
LINE
  5
127868
  8
OBJECT
 10
4640.0000000000009
 20
-3578.9999999999968
 30
0.0
 11
4640.0000000000009
 21
-3699.9999999999968
 31
0.0
1001
ACDBBLOCKREPETAG
1070
     1
1071
       47
1005
127868
  0
LINE
  5
127869
  8
OBJECT
 10
4633.0000000000009
 20
-3699.9999999999968
 30
0.0
 11
4633.0000000000009
 21
-3578.9999999999968
 31
0.0
1001
ACDBBLOCKREPETAG
1070
     1
1071
       48
1005
127869
  0
LINE
  5
12786A
  8
CENTER
 10
4655.0000000000009
 20
-3640.9999999999959
 30
0.0
 11
4541.3449199130037
 21
-3641.0000000000618
 31
0.0
1001
ACDBBLOCKREPETAG
1070
     1
1071
       49
1005
12786A
  0
LINE
  5
12786B
  8
OBJECT
 10
4633.0000000000009
 20
-3581.9999999999968
 30
0.0
 11
4597.0000000000009
 21
-3581.9999999999968
 31
0.0
1001
ACDBBLOCKREPETAG
1070
     1
1071
       50
1005
12786B
  0
LINE
  5
12786C
  8
OBJECT
 10
4597.0000000000009
 20
-3581.9999999999968
 30
0.0
 11
4597.0000000000009
 21
-3699.9999999999968
 31
0.0
1001
ACDBBLOCKREPETAG
1070
     1
1071
       51
1005
12786C
  0
LINE
  5
12786D
  8
OBJECT
 10
4597.0000000000009
 20
-3699.9999999999968
 30
0.0
 11
4640.0000000000009
 21
-3699.9999999999968
 31
0.0
1001
ACDBBLOCKREPETAG
1070
     1
1071
       52
1005
12786D
  0
LINE
  5
12786E
  8
OBJECT
 10
4593.0
 20
-3586.4999999999968
 30
0.0
 11
4582.5000000000009
 21
-3586.4999999999968
 31
0.0
1001
ACDBBLOCKREPETAG
1070
     1
1071
       53
1005
12786E
  0
LINE
  5
12786F
  8
OBJECT
 10
4582.5000000000009
 20
-3695.4999999999959
 30
0.0
 11
4593.0
 21
-3695.4999999999959
 31
0.0
1001
ACDBBLOCKREPETAG
1070
     1
1071
       54
1005
12786F
  0
LINE
  5
127870
  8
OBJECT
 10
4593.0
 20
-3695.4999999999959
 30
0.0
 11
4593.0
 21
-3586.4999999999968
 31
0.0
1001
ACDBBLOCKREPETAG
1070
     1
1071
       55
1005
127870
  0
LINE
  5
127871
  8
OBJECT
 10
4597.0000000000009
 20
-3581.9999999999968
 30
0.0
 11
4593.0
 21
-3586.4999999999968
 31
0.0
1001
ACDBBLOCKREPETAG
1070
     1
1071
       56
1005
127871
  0
LINE
  5
127872
  8
OBJECT
 10
4597.0000000000009
 20
-3699.9999999999968
 30
0.0
 11
4593.0
 21
-3695.4999999999959
 31
0.0
1001
ACDBBLOCKREPETAG
1070
     1
1071
       57
1005
127872
  0
LINE
  5
127873
  8
HIDDEN
 10
4588.0
 20
-3596.4999999999968
 30
0.0
 11
4588.0
 21
-3685.4999999999959
 31
0.0
1001
ACDBBLOCKREPETAG
1070
     1
1071
       58
1005
127873
  0
ARC
  5
127874
  8
OBJECT
 10
4664.8782728787719
 20
-3656.4095072612249
 30
0.0
 40
110.86635228309
 50
144.16342741928889
 51
163.04035380433939
1001
ACDBBLOCKREPETAG
1070
     1
1071
       59
1005
127874
  0
ARC
  5
127875
  8
OBJECT
 10
4617.1359887769049
 20
-3641.2877497184459
 30
0.0
 40
60.791749880358971
 50
163.54720465221931
 51
179.72879698282651
1001
ACDBBLOCKREPETAG
1070
     1
1071
       60
1005
127875
  0
ARC
  5
127876
  8
OBJECT
 10
4617.1359956562492
 20
-3647.712249759898
 30
0.0
 40
60.79175676209487
 50
180.2712034781452
 51
196.4527794605265
1001
ACDBBLOCKREPETAG
1070
     1
1071
       61
1005
127876
  0
ARC
  5
127877
  8
OBJECT
 10
4664.8782728787719
 20
-3632.5904927388328
 30
0.0
 40
110.8663522830916
 50
196.9596461956605
 51
215.83657258071111
1001
ACDBBLOCKREPETAG
1070
     1
1071
       62
1005
127877
  0
LINE
  5
127878
  8
OBJECT
 10
4556.3449199130037
 20
-3641.0000000000332
 30
0.0
 11
4556.3449199130037
 21
-3648.00000000003
 31
0.0
1001
ACDBBLOCKREPETAG
1070
     1
1071
       63
1005
127878
  0
LINE
  5
127879
  8
OBJECT
 10
4574.9999999998372
 20
-3591.500000000291
 30
0.0
 11
4577.4999999998372
 21
-3591.500000000291
 31
0.0
1001
ACDBBLOCKREPETAG
1070
     1
1071
       65
1005
127879
  0
LINE
  5
12787A
  8
OBJECT
 10
4574.9999999998336
 20
-3697.4999999997672
 30
0.0
 11
4579.4999999998336
 21
-3697.4999999997672
 31
0.0
1001
ACDBBLOCKREPETAG
1070
     1
1071
       66
1005
12787A
  0
LINE
  5
12787B
  8
OBJECT
 10
4579.4999999998336
 20
-3697.4999999997672
 30
0.0
 11
4577.4999999998372
 21
-3591.500000000291
 31
0.0
1001
ACDBBLOCKREPETAG
1070
     1
1071
       67
1005
12787B
  0
LINE
  5
12787C
  8
OBJECT
 10
4579.4999999998336
 20
-3697.4999999997672
 30
0.0
 11
4582.5000000000009
 21
-3695.4999999999959
 31
0.0
1001
ACDBBLOCKREPETAG
1070
     1
1071
       68
1005
12787C
  0
LINE
  5
12787D
  8
OBJECT
 10
4582.5000000000009
 20
-3695.4999999999959
 30
0.0
 11
4582.5000000000009
 21
-3586.4999999999968
 31
0.0
1001
ACDBBLOCKREPETAG
1070
     1
1071
       69
1005
12787D
  0
LINE
  5
12787E
  8
OBJECT
 10
4582.5000000000009
 20
-3586.4999999999968
 30
0.0
 11
4577.4999999998372
 21
-3591.500000000291
 31
0.0
1001
ACDBBLOCKREPETAG
1070
     1
1071
       70
1005
12787E
  0
LINE
  5
12787F
  8
OBJECT
 10
4633.0000000000009
 20
-3232.9999999999959
 30
0.0
 11
4640.0000000000018
 21
-3232.9999999999959
 31
0.0
1001
ACDBBLOCKREPETAG
1070
     1
1071
       38
1005
12787F
  0
LINE
  5
127880
  8
OBJECT
 10
4640.0000000000018
 20
-3232.9999999999959
 30
0.0
 11
4640.0000000000009
 21
-3356.9999999999968
 31
0.0
1001
ACDBBLOCKREPETAG
1070
     1
1071
       39
1005
127880
  0
LINE
  5
127881
  8
OBJECT
 10
4640.0000000000009
 20
-3356.9999999999968
 30
0.0
 11
4633.0000000000009
 21
-3356.9999999999968
 31
0.0
1001
ACDBBLOCKREPETAG
1070
     1
1071
       40
1005
127881
  0
LINE
  5
127882
  8
OBJECT
 10
4633.0000000000009
 20
-3356.9999999999968
 30
0.0
 11
4633.0000000000009
 21
-3232.9999999999959
 31
0.0
1001
ACDBBLOCKREPETAG
1070
     1
1071
       41
1005
127882
  0
LINE
  5
127883
  8
CENTER
 10
4655.0000000000009
 20
-3294.9999999999968
 30
0.0
 11
4580.0
 21
-3294.9999999999968
 31
0.0
1001
ACDBBLOCKREPETAG
1070
     1
1071
       42
1005
127883
  0
LINE
  5
127884
  8
OBJECT
 10
4633.0000000000009
 20
-3235.9999999999968
 30
0.0
 11
4597.0000000000018
 21
-3235.9999999999968
 31
0.0
1001
ACDBBLOCKREPETAG
1070
     1
1071
       43
1005
127884
  0
LINE
  5
127885
  8
OBJECT
 10
4597.0000000000018
 20
-3235.9999999999968
 30
0.0
 11
4597.0000000000009
 21
-3353.9999999999959
 31
0.0
1001
ACDBBLOCKREPETAG
1070
     1
1071
       44
1005
127885
  0
LINE
  5
127886
  8
OBJECT
 10
4597.0000000000009
 20
-3353.9999999999959
 30
0.0
 11
4633.0000000000009
 21
-3353.9999999999959
 31
0.0
1001
ACDBBLOCKREPETAG
1070
     1
1071
       45
1005
127886
  0
LINE
  5
127887
  8
OBJECT
 10
4593.0000000000018
 20
-3240.4999999999968
 30
0.0
 11
4582.5000000000018
 21
-3240.4999999999968
 31
0.0
1001
ACDBBLOCKREPETAG
1070
     1
1071
       46
1005
127887
  0
LINE
  5
127888
  8
OBJECT
 10
4582.5000000000009
 20
-3349.4999999999959
 30
0.0
 11
4593.0
 21
-3349.4999999999959
 31
0.0
1001
ACDBBLOCKREPETAG
1070
     1
1071
       47
1005
127888
  0
LINE
  5
127889
  8
OBJECT
 10
4593.0
 20
-3349.4999999999959
 30
0.0
 11
4593.0000000000018
 21
-3240.4999999999968
 31
0.0
1001
ACDBBLOCKREPETAG
1070
     1
1071
       48
1005
127889
  0
LINE
  5
12788A
  8
OBJECT
 10
4597.0000000000018
 20
-3235.9999999999968
 30
0.0
 11
4593.0000000000018
 21
-3240.4999999999968
 31
0.0
1001
ACDBBLOCKREPETAG
1070
     1
1071
       49
1005
12788A
  0
LINE
  5
12788B
  8
OBJECT
 10
4597.0000000000009
 20
-3353.9999999999959
 30
0.0
 11
4593.0
 21
-3349.4999999999959
 31
0.0
1001
ACDBBLOCKREPETAG
1070
     1
1071
       50
1005
12788B
  0
LINE
  5
12788C
  8
HIDDEN
 10
4588.0
 20
-3250.4999999999968
 30
0.0
 11
4588.0
 21
-3339.4999999999968
 31
0.0
1001
ACDBBLOCKREPETAG
1070
     1
1071
       51
1005
12788C
  0
LINE
  5
12788D
  8
OBJECT
 10
4577.5000000000018
 20
-3245.4999999999959
 30
0.0
 11
4556.3449199129791
 21
-3245.4999999999959
 31
0.0
1001
ACDBBLOCKREPETAG
1070
     1
1071
       52
1005
12788D
  0
LINE
  5
12788E
  8
OBJECT
 10
4577.5000000000009
 20
-3344.4999999999959
 30
0.0
 11
4556.3449199129791
 21
-3344.4999999999959
 31
0.0
1001
ACDBBLOCKREPETAG
1070
     1
1071
       53
1005
12788E
  0
LINE
  5
12788F
  8
OBJECT
 10
4582.5000000000018
 20
-3240.4999999999968
 30
0.0
 11
4582.5000000000009
 21
-3349.4999999999959
 31
0.0
1001
ACDBBLOCKREPETAG
1070
     1
1071
       54
1005
12788F
  0
LINE
  5
127890
  8
OBJECT
 10
4577.5000000000018
 20
-3245.4999999999959
 30
0.0
 11
4577.5000000000009
 21
-3344.4999999999959
 31
0.0
1001
ACDBBLOCKREPETAG
1070
     1
1071
       55
1005
127890
  0
LINE
  5
127891
  8
OBJECT
 10
4582.5000000000018
 20
-3240.4999999999968
 30
0.0
 11
4577.5000000000018
 21
-3245.4999999999959
 31
0.0
1001
ACDBBLOCKREPETAG
1070
     1
1071
       56
1005
127891
  0
LINE
  5
127892
  8
OBJECT
 10
4577.5000000000009
 20
-3344.4999999999959
 30
0.0
 11
4582.5000000000009
 21
-3349.4999999999941
 31
0.0
1001
ACDBBLOCKREPETAG
1070
     1
1071
       57
1005
127892
  0
CIRCLE
  5
127893
  8
OBJECT
 10
3900.0000000000018
 20
-3647.9999999999959
 30
0.0
 40
35.5
1001
ACDBBLOCKREPETAG
1070
     1
1071
       11
1005
127893
  0
LINE
  5
127894
  8
CENTER
 10
3830.0
 20
-3647.9999999999959
 30
0.0
 11
3970.0
 21
-3647.9999999999959
 31
0.0
1001
ACDBBLOCKREPETAG
1070
     1
1071
       12
1005
127894
  0
CIRCLE
  5
127895
  8
OBJECT
 10
3900.0000000000018
 20
-3647.9999999999959
 30
0.0
 40
47.0
1001
ACDBBLOCKREPETAG
1070
     1
1071
       14
1005
127895
  0
ARC
  5
127896
  8
OBJECT
 10
3900.0000000000018
 20
-3647.9999999999959
 30
0.0
 40
55.0
 50
289.01126526008892
 51
250.98873473991111
1001
ACDBBLOCKREPETAG
1070
     1
1071
       15
1005
127896
  0
LINE
  5
127897
  8
OBJECT
 10
3882.0835271328328
 20
-3699.9999999999968
 30
0.0
 11
3917.9164728671681
 21
-3699.9999999999968
 31
0.0
1001
ACDBBLOCKREPETAG
1070
     1
1071
       16
1005
127897
  0
POINT
  5
127898
  8
DOTS
 10
3900.0000000000018
 20
-3699.9999999999968
 30
0.0
1001
ACDBBLOCKREPETAG
1070
     1
1071
       23
1005
127898
  0
LINE
  5
127899
  8
OBJECT
 10
3633.0000000000009
 20
-3592.9999999999959
 30
0.0
 11
3640.0000000000009
 21
-3592.9999999999959
 31
0.0
1001
ACDBBLOCKREPETAG
1070
     1
1071
       23
1005
127899
  0
LINE
  5
12789A
  8
OBJECT
 10
3640.0000000000009
 20
-3592.9999999999959
 30
0.0
 11
3640.0000000000009
 21
-3699.9999999999968
 31
0.0
1001
ACDBBLOCKREPETAG
1070
     1
1071
       24
1005
12789A
  0
LINE
  5
12789B
  8
OBJECT
 10
3584.5000000000018
 20
-3594.5000000000618
 30
0.0
 11
3584.5000000000018
 21
-3697.4999999999968
 31
0.0
1001
ACDBBLOCKREPETAG
1070
     1
1071
       25
1005
12789B
  0
ARC
  5
12789C
  8
OBJECT
 10
3581.5000000000009
 20
-3594.5000000000618
 30
0.0
 40
3.0
 50
0.0
 51
90.0
1001
ACDBBLOCKREPETAG
1070
     1
1071
       26
1005
12789C
  0
LINE
  5
12789D
  8
OBJECT
 10
3633.0000000000009
 20
-3699.9999999999968
 30
0.0
 11
3633.0000000000009
 21
-3592.9999999999959
 31
0.0
1001
ACDBBLOCKREPETAG
1070
     1
1071
       27
1005
12789D
  0
LINE
  5
12789E
  8
CENTER
 10
3655.0000000000009
 20
-3647.9999999999959
 30
0.0
 11
3541.344919913005
 21
-3648.0000000000618
 31
0.0
1001
ACDBBLOCKREPETAG
1070
     1
1071
       28
1005
12789E
  0
LINE
  5
12789F
  8
OBJECT
 10
3633.0000000000009
 20
-3595.9999999999959
 30
0.0
 11
3597.0000000000009
 21
-3595.9999999999959
 31
0.0
1001
ACDBBLOCKREPETAG
1070
     1
1071
       29
1005
12789F
  0
LINE
  5
1278A0
  8
OBJECT
 10
3597.0000000000009
 20
-3595.9999999999959
 30
0.0
 11
3597.0000000000009
 21
-3699.9999999999968
 31
0.0
1001
ACDBBLOCKREPETAG
1070
     1
1071
       30
1005
1278A0
  0
LINE
  5
1278A1
  8
OBJECT
 10
3597.0000000000009
 20
-3699.9999999999968
 30
0.0
 11
3640.0000000000009
 21
-3699.9999999999968
 31
0.0
1001
ACDBBLOCKREPETAG
1070
     1
1071
       31
1005
1278A1
  0
LINE
  5
1278A2
  8
OBJECT
 10
3593.0000000000018
 20
-3600.4999999999968
 30
0.0
 11
3584.5000000000018
 21
-3600.4999999999968
 31
0.0
1001
ACDBBLOCKREPETAG
1070
     1
1071
       32
1005
1278A2
  0
LINE
  5
1278A3
  8
OBJECT
 10
3584.5000000000018
 20
-3695.4999999999959
 30
0.0
 11
3593.0000000000018
 21
-3695.4999999999959
 31
0.0
1001
ACDBBLOCKREPETAG
1070
     1
1071
       33
1005
1278A3
  0
LINE
  5
1278A4
  8
OBJECT
 10
3593.0000000000018
 20
-3695.4999999999959
 30
0.0
 11
3593.0000000000018
 21
-3600.4999999999968
 31
0.0
1001
ACDBBLOCKREPETAG
1070
     1
1071
       34
1005
1278A4
  0
LINE
  5
1278A5
  8
OBJECT
 10
3597.0000000000009
 20
-3595.9999999999959
 30
0.0
 11
3593.0000000000018
 21
-3600.4999999999968
 31
0.0
1001
ACDBBLOCKREPETAG
1070
     1
1071
       35
1005
1278A5
  0
LINE
  5
1278A6
  8
OBJECT
 10
3597.0000000000009
 20
-3699.9999999999968
 30
0.0
 11
3593.0000000000018
 21
-3695.4999999999959
 31
0.0
1001
ACDBBLOCKREPETAG
1070
     1
1071
       36
1005
1278A6
  0
LINE
  5
1278A7
  8
HIDDEN
 10
3588.0
 20
-3609.9999999999968
 30
0.0
 11
3588.0
 21
-3685.9999999999959
 31
0.0
1001
ACDBBLOCKREPETAG
1070
     1
1071
       37
1005
1278A7
  0
ARC
  5
1278A8
  8
OBJECT
 10
3664.8782728787742
 20
-3656.4095072612249
 30
0.0
 40
110.86635228309
 50
144.16342741928889
 51
163.04035380433169
1001
ACDBBLOCKREPETAG
1070
     1
1071
       38
1005
1278A8
  0
ARC
  5
1278A9
  8
OBJECT
 10
3617.1359887769072
 20
-3641.2877497184459
 30
0.0
 40
60.791749880358971
 50
163.5472046522267
 51
179.72879698282679
1001
ACDBBLOCKREPETAG
1070
     1
1071
       39
1005
1278A9
  0
ARC
  5
1278AA
  8
OBJECT
 10
3617.1359956562492
 20
-3647.712249759898
 30
0.0
 40
60.79175676209487
 50
180.2712034781452
 51
196.4527794605338
1001
ACDBBLOCKREPETAG
1070
     1
1071
       40
1005
1278AA
  0
ARC
  5
1278AB
  8
OBJECT
 10
3664.8782728787742
 20
-3632.5904927388328
 30
0.0
 40
110.8663522830916
 50
196.95964619566811
 51
215.83657258071111
1001
ACDBBLOCKREPETAG
1070
     1
1071
       41
1005
1278AB
  0
LINE
  5
1278AC
  8
OBJECT
 10
3556.344919913005
 20
-3641.0000000000332
 30
0.0
 11
3556.344919913005
 21
-3648.00000000003
 31
0.0
1001
ACDBBLOCKREPETAG
1070
     1
1071
       42
1005
1278AC
  0
LINE
  5
1278AD
  8
OBJECT
 10
3575.0000000000009
 20
-3591.5000000000618
 30
0.0
 11
3581.5000000000009
 21
-3591.5000000000618
 31
0.0
1001
ACDBBLOCKREPETAG
1070
     1
1071
       43
1005
1278AD
  0
LINE
  5
1278AE
  8
OBJECT
 10
3575.0000000000009
 20
-3697.4999999999968
 30
0.0
 11
3584.5000000000018
 21
-3697.4999999999968
 31
0.0
1001
ACDBBLOCKREPETAG
1070
     1
1071
       44
1005
1278AE
  0
LINE
  5
1278AF
  8
OBJECT
 10
3633.0000000000009
 20
-3239.9999999999968
 30
0.0
 11
3640.0000000000009
 21
-3239.9999999999968
 31
0.0
1001
ACDBBLOCKREPETAG
1070
     1
1071
       20
1005
1278AF
  0
LINE
  5
1278B0
  8
OBJECT
 10
3640.0000000000009
 20
-3239.9999999999968
 30
0.0
 11
3640.0000000000009
 21
-3349.9999999999959
 31
0.0
1001
ACDBBLOCKREPETAG
1070
     1
1071
       21
1005
1278B0
  0
LINE
  5
1278B1
  8
OBJECT
 10
3640.0000000000009
 20
-3349.9999999999959
 30
0.0
 11
3633.0000000000009
 21
-3349.9999999999959
 31
0.0
1001
ACDBBLOCKREPETAG
1070
     1
1071
       22
1005
1278B1
  0
LINE
  5
1278B2
  8
OBJECT
 10
3633.0000000000009
 20
-3349.9999999999959
 30
0.0
 11
3633.0000000000009
 21
-3239.9999999999968
 31
0.0
1001
ACDBBLOCKREPETAG
1070
     1
1071
       23
1005
1278B2
  0
LINE
  5
1278B3
  8
CENTER
 10
3655.0000000000009
 20
-3294.9999999999968
 30
0.0
 11
3580.0
 21
-3294.9999999999968
 31
0.0
1001
ACDBBLOCKREPETAG
1070
     1
1071
       24
1005
1278B3
  0
LINE
  5
1278B4
  8
OBJECT
 10
3633.0000000000009
 20
-3242.9999999999968
 30
0.0
 11
3597.0000000000009
 21
-3242.9999999999968
 31
0.0
1001
ACDBBLOCKREPETAG
1070
     1
1071
       25
1005
1278B4
  0
LINE
  5
1278B5
  8
OBJECT
 10
3597.0000000000009
 20
-3242.9999999999968
 30
0.0
 11
3597.0000000000009
 21
-3346.9999999999959
 31
0.0
1001
ACDBBLOCKREPETAG
1070
     1
1071
       26
1005
1278B5
  0
LINE
  5
1278B6
  8
OBJECT
 10
3597.0000000000009
 20
-3346.9999999999959
 30
0.0
 11
3633.0000000000009
 21
-3346.9999999999959
 31
0.0
1001
ACDBBLOCKREPETAG
1070
     1
1071
       27
1005
1278B6
  0
LINE
  5
1278B7
  8
OBJECT
 10
3593.0000000000018
 20
-3247.4999999999968
 30
0.0
 11
3584.5000000000018
 21
-3247.4999999999968
 31
0.0
1001
ACDBBLOCKREPETAG
1070
     1
1071
       28
1005
1278B7
  0
LINE
  5
1278B8
  8
OBJECT
 10
3584.5000000000018
 20
-3342.4999999999959
 30
0.0
 11
3593.0000000000018
 21
-3342.4999999999959
 31
0.0
1001
ACDBBLOCKREPETAG
1070
     1
1071
       29
1005
1278B8
  0
LINE
  5
1278B9
  8
OBJECT
 10
3593.0000000000018
 20
-3342.4999999999959
 30
0.0
 11
3593.0000000000018
 21
-3247.4999999999968
 31
0.0
1001
ACDBBLOCKREPETAG
1070
     1
1071
       30
1005
1278B9
  0
LINE
  5
1278BA
  8
OBJECT
 10
3597.0000000000009
 20
-3242.9999999999968
 30
0.0
 11
3593.0000000000018
 21
-3247.4999999999968
 31
0.0
1001
ACDBBLOCKREPETAG
1070
     1
1071
       31
1005
1278BA
  0
LINE
  5
1278BB
  8
OBJECT
 10
3597.0000000000009
 20
-3346.9999999999959
 30
0.0
 11
3593.0000000000018
 21
-3342.4999999999959
 31
0.0
1001
ACDBBLOCKREPETAG
1070
     1
1071
       32
1005
1278BB
  0
LINE
  5
1278BC
  8
OBJECT
 10
3584.4999999999982
 20
-3344.4999999999959
 30
0.0
 11
3584.5000000000018
 21
-3245.4999999999959
 31
0.0
1001
ACDBBLOCKREPETAG
1070
     1
1071
       33
1005
1278BC
  0
LINE
  5
1278BD
  8
HIDDEN
 10
3588.0
 20
-3256.9999999999968
 30
0.0
 11
3588.0
 21
-3332.9999999999968
 31
0.0
1001
ACDBBLOCKREPETAG
1070
     1
1071
       34
1005
1278BD
  0
LINE
  5
1278BE
  8
OBJECT
 10
3584.5000000000018
 20
-3245.4999999999959
 30
0.0
 11
3556.34491991298
 21
-3245.4999999999959
 31
0.0
1001
ACDBBLOCKREPETAG
1070
     1
1071
       35
1005
1278BE
  0
LINE
  5
1278BF
  8
OBJECT
 10
3584.4999999999982
 20
-3344.4999999999959
 30
0.0
 11
3556.34491991298
 21
-3344.4999999999959
 31
0.0
1001
ACDBBLOCKREPETAG
1070
     1
1071
       36
1005
1278BF
  0
LINE
  5
1278C0
  8
CENTER
 10
2838.0000000000009
 20
-3655.9999999999968
 30
0.0
 11
2962.0000000000009
 21
-3655.9999999999968
 31
0.0
1001
ACDBBLOCKREPETAG
1070
     1
1071
        0
1005
1278C0
  0
CIRCLE
  5
1278C1
  8
OBJECT
 10
2900.0
 20
-3655.9999999999968
 30
0.0
 40
28.0
1001
ACDBBLOCKREPETAG
1070
     1
1071
        2
1005
1278C1
  0
CIRCLE
  5
1278C2
  8
OBJECT
 10
2900.0
 20
-3655.9999999999968
 30
0.0
 40
39.0
1001
ACDBBLOCKREPETAG
1070
     1
1071
        3
1005
1278C2
  0
ARC
  5
1278C3
  8
OBJECT
 10
2900.0
 20
-3655.9999999999968
 30
0.0
 40
47.0
 50
290.58196921144412
 51
249.41803078855591
1001
ACDBBLOCKREPETAG
1070
     1
1071
        4
1005
1278C3
  0
LINE
  5
1278C4
  8
OBJECT
 10
2883.4772883581441
 20
-3699.9999999999968
 30
0.0
 11
2916.5227116418591
 21
-3699.9999999999968
 31
0.0
1001
ACDBBLOCKREPETAG
1070
     1
1071
        5
1005
1278C4
  0
ARC
  5
1278C5
  8
OBJECT
 10
2900.0
 20
-3640.9999999999932
 30
0.0
 40
49.5
 50
0.0
 51
180.0
1001
ACDBBLOCKREPETAG
1070
     1
1071
        6
1005
1278C5
  0
LINE
  5
1278C6
  8
OBJECT
 10
2850.5000000000041
 20
-3640.9999999999932
 30
0.0
 11
2850.5000000000041
 21
-3647.9999999999959
 31
0.0
1001
ACDBBLOCKREPETAG
1070
     1
1071
        7
1005
1278C6
  0
LINE
  5
1278C7
  8
OBJECT
 10
2949.5000000000082
 20
-3640.9999999999932
 30
0.0
 11
2949.5000000000082
 21
-3647.9999999999959
 31
0.0
1001
ACDBBLOCKREPETAG
1070
     1
1071
        8
1005
1278C7
  0
ARC
  5
1278C8
  8
OBJECT
 10
2900.0
 20
-3647.9999999999959
 30
0.0
 40
49.5
 50
180.0
 51
202.66956385104879
1001
ACDBBLOCKREPETAG
1070
     1
1071
        9
1005
1278C8
  0
ARC
  5
1278C9
  8
OBJECT
 10
2900.0
 20
-3647.9999999999959
 30
0.0
 40
49.5
 50
337.33043614895121
 51
0.0
1001
ACDBBLOCKREPETAG
1070
     1
1071
       10
1005
1278C9
  0
POINT
  5
1278CA
  8
DOTS
 10
2900.0
 20
-3699.9999999999968
 30
0.0
1001
ACDBBLOCKREPETAG
1070
     1
1071
       25
1005
1278CA
  0
LINE
  5
1278CB
  8
OBJECT
 10
2633.0000000000009
 20
-3608.9999999999968
 30
0.0
 11
2640.0000000000009
 21
-3608.9999999999968
 31
0.0
1001
ACDBBLOCKREPETAG
1070
     1
1071
        0
1005
1278CB
  0
LINE
  5
1278CC
  8
OBJECT
 10
2640.0000000000009
 20
-3608.9999999999968
 30
0.0
 11
2640.0000000000009
 21
-3699.9999999999968
 31
0.0
1001
ACDBBLOCKREPETAG
1070
     1
1071
        1
1005
1278CC
  0
LINE
  5
1278CD
  8
OBJECT
 10
2584.5000000000009
 20
-3594.5000000000618
 30
0.0
 11
2584.5000000000009
 21
-3697.4999999999968
 31
0.0
1001
ACDBBLOCKREPETAG
1070
     1
1071
        2
1005
1278CD
  0
ARC
  5
1278CE
  8
OBJECT
 10
2581.5000000000009
 20
-3594.5000000000618
 30
0.0
 40
3.0
 50
0.0
 51
90.0
1001
ACDBBLOCKREPETAG
1070
     1
1071
        3
1005
1278CE
  0
LINE
  5
1278CF
  8
OBJECT
 10
2633.0000000000009
 20
-3699.9999999999968
 30
0.0
 11
2633.0000000000009
 21
-3608.9999999999968
 31
0.0
1001
ACDBBLOCKREPETAG
1070
     1
1071
        4
1005
1278CF
  0
LINE
  5
1278D0
  8
CENTER
 10
2655.0000000000009
 20
-3655.9999999999968
 30
0.0
 11
2541.9118237135849
 21
-3655.9999999999968
 31
0.0
1001
ACDBBLOCKREPETAG
1070
     1
1071
        5
1005
1278D0
  0
LINE
  5
1278D1
  8
OBJECT
 10
2633.0000000000009
 20
-3611.9999999999959
 30
0.0
 11
2597.0000000000009
 21
-3611.9999999999959
 31
0.0
1001
ACDBBLOCKREPETAG
1070
     1
1071
        6
1005
1278D1
  0
LINE
  5
1278D2
  8
OBJECT
 10
2597.0000000000009
 20
-3611.9999999999959
 30
0.0
 11
2597.0000000000009
 21
-3699.9999999999968
 31
0.0
1001
ACDBBLOCKREPETAG
1070
     1
1071
        7
1005
1278D2
  0
LINE
  5
1278D3
  8
OBJECT
 10
2597.0000000000009
 20
-3699.9999999999968
 30
0.0
 11
2640.0000000000009
 21
-3699.9999999999968
 31
0.0
1001
ACDBBLOCKREPETAG
1070
     1
1071
        8
1005
1278D3
  0
LINE
  5
1278D4
  8
OBJECT
 10
2593.0000000000009
 20
-3616.4999999999968
 30
0.0
 11
2584.5000000000009
 21
-3616.4999999999968
 31
0.0
1001
ACDBBLOCKREPETAG
1070
     1
1071
        9
1005
1278D4
  0
LINE
  5
1278D5
  8
OBJECT
 10
2584.5000000000009
 20
-3695.4999999999959
 30
0.0
 11
2593.0000000000009
 21
-3695.4999999999959
 31
0.0
1001
ACDBBLOCKREPETAG
1070
     1
1071
       10
1005
1278D5
  0
LINE
  5
1278D6
  8
OBJECT
 10
2593.0000000000009
 20
-3695.4999999999959
 30
0.0
 11
2593.0000000000009
 21
-3616.4999999999968
 31
0.0
1001
ACDBBLOCKREPETAG
1070
     1
1071
       11
1005
1278D6
  0
LINE
  5
1278D7
  8
OBJECT
 10
2597.0000000000009
 20
-3611.9999999999959
 30
0.0
 11
2593.0000000000009
 21
-3616.4999999999968
 31
0.0
1001
ACDBBLOCKREPETAG
1070
     1
1071
       12
1005
1278D7
  0
LINE
  5
1278D8
  8
OBJECT
 10
2597.0000000000009
 20
-3699.9999999999968
 30
0.0
 11
2593.0000000000009
 21
-3695.4999999999959
 31
0.0
1001
ACDBBLOCKREPETAG
1070
     1
1071
       13
1005
1278D8
  0
LINE
  5
1278D9
  8
HIDDEN
 10
2588.0000000000009
 20
-3625.9999999999959
 30
0.0
 11
2588.0000000000009
 21
-3685.9999999999959
 31
0.0
1001
ACDBBLOCKREPETAG
1070
     1
1071
       14
1005
1278D9
  0
ARC
  5
1278DA
  8
OBJECT
 10
2664.8782728787751
 20
-3656.4095072612249
 30
0.0
 40
110.86635228309
 50
144.1634274191434
 51
163.04035380433169
1001
ACDBBLOCKREPETAG
1070
     1
1071
       15
1005
1278DA
  0
ARC
  5
1278DB
  8
OBJECT
 10
2617.1359887769072
 20
-3641.2877497184459
 30
0.0
 40
60.791749880358971
 50
163.5472046522267
 51
179.72879698282679
1001
ACDBBLOCKREPETAG
1070
     1
1071
       16
1005
1278DB
  0
ARC
  5
1278DC
  8
OBJECT
 10
2617.1359956562501
 20
-3647.712249759898
 30
0.0
 40
60.79175676209487
 50
180.2712034781452
 51
196.4527794605338
1001
ACDBBLOCKREPETAG
1070
     1
1071
       17
1005
1278DC
  0
ARC
  5
1278DD
  8
OBJECT
 10
2664.8782728787751
 20
-3632.5904927388328
 30
0.0
 40
110.8663522830916
 50
196.95964619566811
 51
215.8365725808566
1001
ACDBBLOCKREPETAG
1070
     1
1071
       18
1005
1278DD
  0
LINE
  5
1278DE
  8
OBJECT
 10
2556.344919913005
 20
-3641.0000000000332
 30
0.0
 11
2556.344919913005
 21
-3648.00000000003
 31
0.0
1001
ACDBBLOCKREPETAG
1070
     1
1071
       19
1005
1278DE
  0
LINE
  5
1278DF
  8
OBJECT
 10
2575.0000000000009
 20
-3591.5000000000618
 30
0.0
 11
2581.5000000000009
 21
-3591.5000000000618
 31
0.0
1001
ACDBBLOCKREPETAG
1070
     1
1071
       20
1005
1278DF
  0
LINE
  5
1278E0
  8
OBJECT
 10
2575.0000000000009
 20
-3697.4999999999968
 30
0.0
 11
2584.5000000000009
 21
-3697.4999999999968
 31
0.0
1001
ACDBBLOCKREPETAG
1070
     1
1071
       21
1005
1278E0
  0
LINE
  5
1278E1
  8
OBJECT
 10
2633.0000000000009
 20
-3247.9999999999959
 30
0.0
 11
2640.0000000000009
 21
-3247.9999999999959
 31
0.0
1001
ACDBBLOCKREPETAG
1070
     1
1071
        0
1005
1278E1
  0
LINE
  5
1278E2
  8
OBJECT
 10
2640.0000000000009
 20
-3247.9999999999959
 30
0.0
 11
2640.0000000000009
 21
-3341.9999999999968
 31
0.0
1001
ACDBBLOCKREPETAG
1070
     1
1071
        1
1005
1278E2
  0
LINE
  5
1278E3
  8
OBJECT
 10
2640.0000000000009
 20
-3341.9999999999968
 30
0.0
 11
2633.0000000000009
 21
-3341.9999999999968
 31
0.0
1001
ACDBBLOCKREPETAG
1070
     1
1071
        2
1005
1278E3
  0
LINE
  5
1278E4
  8
OBJECT
 10
2633.0000000000009
 20
-3341.9999999999968
 30
0.0
 11
2633.0000000000009
 21
-3247.9999999999959
 31
0.0
1001
ACDBBLOCKREPETAG
1070
     1
1071
        3
1005
1278E4
  0
LINE
  5
1278E5
  8
CENTER
 10
2655.0000000000009
 20
-3294.9999999999968
 30
0.0
 11
2580.0
 21
-3294.9999999999968
 31
0.0
1001
ACDBBLOCKREPETAG
1070
     1
1071
        4
1005
1278E5
  0
LINE
  5
1278E6
  8
OBJECT
 10
2633.0000000000009
 20
-3250.9999999999959
 30
0.0
 11
2597.0000000000009
 21
-3250.9999999999959
 31
0.0
1001
ACDBBLOCKREPETAG
1070
     1
1071
        5
1005
1278E6
  0
LINE
  5
1278E7
  8
OBJECT
 10
2597.0000000000009
 20
-3250.9999999999959
 30
0.0
 11
2597.0000000000009
 21
-3338.9999999999968
 31
0.0
1001
ACDBBLOCKREPETAG
1070
     1
1071
        6
1005
1278E7
  0
LINE
  5
1278E8
  8
OBJECT
 10
2597.0000000000009
 20
-3338.9999999999968
 30
0.0
 11
2633.0000000000009
 21
-3338.9999999999968
 31
0.0
1001
ACDBBLOCKREPETAG
1070
     1
1071
        7
1005
1278E8
  0
LINE
  5
1278E9
  8
OBJECT
 10
2593.0000000000009
 20
-3255.4999999999959
 30
0.0
 11
2584.5000000000009
 21
-3255.4999999999959
 31
0.0
1001
ACDBBLOCKREPETAG
1070
     1
1071
        8
1005
1278E9
  0
LINE
  5
1278EA
  8
OBJECT
 10
2584.5000000000009
 20
-3334.4999999999968
 30
0.0
 11
2593.0000000000009
 21
-3334.4999999999968
 31
0.0
1001
ACDBBLOCKREPETAG
1070
     1
1071
        9
1005
1278EA
  0
LINE
  5
1278EB
  8
OBJECT
 10
2593.0000000000009
 20
-3334.4999999999968
 30
0.0
 11
2593.0000000000009
 21
-3255.4999999999959
 31
0.0
1001
ACDBBLOCKREPETAG
1070
     1
1071
       10
1005
1278EB
  0
LINE
  5
1278EC
  8
OBJECT
 10
2597.0000000000009
 20
-3250.9999999999959
 30
0.0
 11
2593.0000000000009
 21
-3255.4999999999959
 31
0.0
1001
ACDBBLOCKREPETAG
1070
     1
1071
       11
1005
1278EC
  0
LINE
  5
1278ED
  8
OBJECT
 10
2597.0000000000009
 20
-3338.9999999999968
 30
0.0
 11
2593.0000000000009
 21
-3334.4999999999968
 31
0.0
1001
ACDBBLOCKREPETAG
1070
     1
1071
       12
1005
1278ED
  0
LINE
  5
1278EE
  8
OBJECT
 10
2584.4999999999991
 20
-3341.4999999999959
 30
0.0
 11
2584.5000000000009
 21
-3248.4999999999959
 31
0.0
1001
ACDBBLOCKREPETAG
1070
     1
1071
       13
1005
1278EE
  0
ARC
  5
1278EF
  8
OBJECT
 10
2581.5000000000009
 20
-3248.4999999999959
 30
0.0
 40
3.0
 50
0.0
 51
90.0
1001
ACDBBLOCKREPETAG
1070
     1
1071
       14
1005
1278EF
  0
LINE
  5
1278F0
  8
HIDDEN
 10
2588.0000000000009
 20
-3264.9999999999968
 30
0.0
 11
2588.0000000000009
 21
-3324.9999999999968
 31
0.0
1001
ACDBBLOCKREPETAG
1070
     1
1071
       15
1005
1278F0
  0
LINE
  5
1278F1
  8
OBJECT
 10
2581.5000000000009
 20
-3245.4999999999959
 30
0.0
 11
2556.34491991298
 21
-3245.4999999999959
 31
0.0
1001
ACDBBLOCKREPETAG
1070
     1
1071
       17
1005
1278F1
  0
LINE
  5
1278F2
  8
OBJECT
 10
2581.4999999999991
 20
-3344.4999999999959
 30
0.0
 11
2556.34491991298
 21
-3344.4999999999959
 31
0.0
1001
ACDBBLOCKREPETAG
1070
     1
1071
       18
1005
1278F2
  0
ARC
  5
1278F3
  8
OBJECT
 10
2581.4999999999991
 20
-3341.4999999999959
 30
0.0
 40
3.0
 50
270.0
 51
0.0
1001
ACDBBLOCKREPETAG
1070
     1
1071
       19
1005
1278F3
  0
LINE
  5
1278F4
  8
DIM
 10
2650.0
 20
-3341.9999999999968
 30
0.0
 11
2728.479620594459
 21
-3341.9999999999968
 31
0.0
  0
LINE
  5
1278F5
  8
DIM
 10
2650.0
 20
-3247.9999999999959
 30
0.0
 11
2728.479620594459
 21
-3247.9999999999959
 31
0.0
  0
LINE
  5
1278F6
  8
DIM
 10
2718.4796205944608
 20
-3321.9999999999959
 30
0.0
 11
2718.4796205944608
 21
-3267.9999999999968
 31
0.0
  0
INSERT
  5
1278F7
  8
DIM
  2
_OPEN30
 10
2718.4796205944608
 20
-3341.9999999999968
 30
0.0
 41
20.0
 42
20.0
 43
20.0
 50
270.0
  0
INSERT
  5
1278F8
  8
DIM
  2
_OPEN30
 10
2718.4796205944608
 20
-3247.9999999999959
 30
0.0
 41
20.0
 42
20.0
 43
20.0
 50
90.0
  0
INSERT
  5
1278F9
  8
OBJECT
  2
*U9
 10
0.0
 20
0.0
 30
0.0
  0
LINE
  5
1278FA
  8
DIM
 10
2650.0
 20
-3699.9999999999968
 30
0.0
 11
2726.8409284037339
 21
-3699.9999999999968
 31
0.0
  0
LINE
  5
1278FB
  8
DIM
 10
2665.0000000000009
 20
-3655.9999999999968
 30
0.0
 11
2726.8409284037339
 21
-3655.9999999999968
 31
0.0
  0
LINE
  5
1278FC
  8
DIM
 10
2716.8409284037361
 20
-3719.9999999999968
 30
0.0
 11
2716.8409284037361
 21
-3739.9999999999968
 31
0.0
  0
LINE
  5
1278FD
  8
DIM
 10
2716.8409284037361
 20
-3635.9999999999968
 30
0.0
 11
2716.8409284037361
 21
-3615.9999999999991
 31
0.0
  0
LINE
  5
1278FE
  8
DIM
 10
2716.8409284037361
 20
-3699.9999999999968
 30
0.0
 11
2716.8409284037361
 21
-3655.9999999999968
 31
0.0
  0
INSERT
  5
1278FF
  8
DIM
  2
_OPEN30
 10
2716.8409284037361
 20
-3699.9999999999968
 30
0.0
 41
20.0
 42
20.0
 43
20.0
 50
90.0
  0
INSERT
  5
127900
  8
DIM
  2
_OPEN30
 10
2716.8409284037361
 20
-3655.9999999999968
 30
0.0
 41
20.0
 42
20.0
 43
20.0
 50
270.0
  0
INSERT
  5
127901
  8
OBJECT
  2
*U10
 10
0.0
 20
0.0
 30
0.0
  0
LINE
  5
127902
  8
DIM
 10
2500.0
 20
-3194.9999999999968
 30
0.0
 11
2500.0
 21
-3157.2081219844449
 31
0.0
  0
LINE
  5
127903
  8
DIM
 10
2640.0000000000009
 20
-3237.9999999999968
 30
0.0
 11
2640.0000000000009
 21
-3157.2081219844449
 31
0.0
  0
LINE
  5
127904
  8
DIM
 10
2520.0
 20
-3167.208121984444
 30
0.0
 11
2620.0000000000009
 21
-3167.208121984444
 31
0.0
  0
INSERT
  5
127905
  8
DIM
  2
_OPEN30
 10
2500.0
 20
-3167.208121984444
 30
0.0
 41
20.0
 42
20.0
 43
20.0
 50
180.0
  0
INSERT
  5
127906
  8
DIM
  2
_OPEN30
 10
2640.0000000000009
 20
-3167.208121984444
 30
0.0
 41
20.0
 42
20.0
 43
20.0
  0
INSERT
  5
127907
  8
OBJECT
  2
*U11
 10
0.0
 20
0.0
 30
0.0
  0
TEXT
  5
127908
  8
SLIM
 10
3271.0000000000018
 20
-3072.5000160472709
 30
0.0
 40
40.0
  1
C寸法
 41
0.75
  0
TEXT
  5
127909
  8
SLIM
 10
3271.0000000000018
 20
-3002.5000160472709
 30
0.0
 40
40.0
  1
B寸法
 41
0.75
  0
TEXT
  5
12790A
  8
SLIM
 10
3270.2857142857151
 20
-2932.5000160472709
 30
0.0
 40
40.0
  1
A寸法
 41
0.75
  0
TEXT
  5
12790B
  8
SLIM
 10
3669.2857142857151
 20
-3072.5000160472709
 30
0.0
 40
40.0
  1
140
 41
0.75
  0
TEXT
  5
12790C
  8
SLIM
 10
3409.2857142857151
 20
-3072.5000160472709
 30
0.0
 40
40.0
  1
140
 41
0.75
  0
TEXT
  5
12790D
  8
SLIM
 10
3539.2857142857151
 20
-3072.5000160472709
 30
0.0
 40
40.0
  1
140
 41
0.75
  0
TEXT
  5
12790E
  8
SLIM
 10
3681.428571428572
 20
-3002.5000160472709
 30
0.0
 40
40.0
  1
59
 41
0.75
  0
TEXT
  5
12790F
  8
SLIM
 10
3420.0
 20
-3002.5000160472709
 30
0.0
 40
40.0
  1
44
 41
0.75
  0
TEXT
  5
127910
  8
SLIM
 10
3550.7142857142849
 20
-3002.5000160472709
 30
0.0
 40
40.0
  1
52
 41
0.75
  0
TEXT
  5
127911
  8
SLIM
 10
3471.0000000000018
 20
-2807.5000160472709
 30
0.0
 40
40.0
  1
横枝管サイズ
 41
0.75
  0
TEXT
  5
127912
  8
SLIM
 10
3654.8571428571449
 20
-2862.5000160472709
 30
0.0
 40
30.0
  1
75（3）
 41
0.75
  0
TEXT
  5
127913
  8
SLIM
 10
3524.8571428571431
 20
-2862.5000160472709
 30
0.0
 40
30.0
  1
65（2）
 41
0.75
  0
TEXT
  5
127914
  8
SLIM
 10
3397.0000000000018
 20
-2862.5000160472709
 30
0.0
 40
30.0
  1
50（1）
 41
0.75
  0
TEXT
  5
127915
  8
SLIM
 10
3668.5714285714289
 20
-2932.5000160472709
 30
0.0
 40
40.0
  1
124
 41
0.75
  0
TEXT
  5
127916
  8
SLIM
 10
3420.0
 20
-2932.5000160472709
 30
0.0
 40
40.0
  1
94
 41
0.75
  0
TEXT
  5
127917
  8
SLIM
 10
3542.1428571428569
 20
-2932.5000160472709
 30
0.0
 40
40.0
  1
110
 41
0.75
  0
TEXT
  5
127918
  8
SLIM
 10
2350.0
 20
-2832.5000000000009
 30
0.0
 40
75.0
  1
下部枝管サイズ毎の形状
 41
0.75
  0
TEXT
  5
127919
  8
SLIM
 10
4394.2500000000009
 20
-3817.4999999999959
 30
0.0
 40
35.0
  1
通常枝75（3）
 41
0.75
  0
TEXT
  5
12791A
  8
SLIM
 10
3394.25
 20
-3817.4999999999959
 30
0.0
 40
35.0
  1
通常枝65（2）
 41
0.75
  0
TEXT
  5
12791B
  8
SLIM
 10
2396.75
 20
-3817.4999999999959
 30
0.0
 40
35.0
  1
通常枝50（1）
 41
0.75
  0
POLYLINE
  5
12791C
  8
HIDDEN
 66
     1
 10
0.0
 20
0.0
 30
0.0
 70
     1
1001
ACDBBLOCKREPETAG
1070
     1
1071
      105
1005
0
  0
VERTEX
  5
1280EB
  8
HIDDEN
 10
359.99999999987779
 20
-799.99999999999818
 30
0.0
  0
VERTEX
  5
1280EC
  8
HIDDEN
 10
719.99999999975603
 20
-799.99999999999818
 30
0.0
  0
VERTEX
  5
1280ED
  8
HIDDEN
 10
719.99999999975603
 20
-1263.9999999998399
 30
0.0
  0
VERTEX
  5
1280EE
  8
HIDDEN
 10
359.99999999987779
 20
-1263.9999999998399
 30
0.0
  0
SEQEND
  5
1280EF
  8
HIDDEN
  0
POLYLINE
  5
12791D
  8
HIDDEN
 66
     1
 10
0.0
 20
0.0
 30
0.0
 70
     1
1001
ACDBBLOCKREPETAG
1070
     1
1071
      110
1005
0
  0
VERTEX
  5
1280F0
  8
HIDDEN
 10
-0.0000000000002274
 20
-799.99999999999818
 30
0.0
  0
VERTEX
  5
1280F1
  8
HIDDEN
 10
359.99999999987779
 20
-799.99999999999818
 30
0.0
  0
VERTEX
  5
1280F2
  8
HIDDEN
 10
359.99999999987779
 20
-1263.9999999998399
 30
0.0
  0
VERTEX
  5
1280F3
  8
HIDDEN
 10
-0.0000000000002274
 20
-1263.9999999998399
 30
0.0
  0
SEQEND
  5
1280F4
  8
HIDDEN
  0
POLYLINE
  5
12791E
  8
HIDDEN
 66
     1
 10
0.0
 20
0.0
 30
0.0
 70
     1
1001
ACDBBLOCKREPETAG
1070
     1
1071
      125
1005
0
  0
VERTEX
  5
1280F5
  8
HIDDEN
 10
-0.0000000000002274
 20
-1263.9999999998399
 30
0.0
  0
VERTEX
  5
1280F6
  8
HIDDEN
 10
359.99999999987779
 20
-1263.9999999998399
 30
0.0
  0
VERTEX
  5
1280F7
  8
HIDDEN
 10
359.99999999987779
 20
-1727.999999999681
 30
0.0
  0
VERTEX
  5
1280F8
  8
HIDDEN
 10
-0.0000000000002274
 20
-1727.999999999681
 30
0.0
  0
SEQEND
  5
1280F9
  8
HIDDEN
  0
POLYLINE
  5
12791F
  8
HIDDEN
 66
     1
 10
0.0
 20
0.0
 30
0.0
 70
     1
1001
ACDBBLOCKREPETAG
1070
     1
1071
      110
1005
0
  0
VERTEX
  5
1280FA
  8
HIDDEN
 10
-0.0000000000002274
 20
0.0000000000009095
 30
0.0
  0
VERTEX
  5
1280FB
  8
HIDDEN
 10
359.99999999987779
 20
0.0000000000009095
 30
0.0
  0
VERTEX
  5
1280FC
  8
HIDDEN
 10
359.99999999987779
 20
-463.99999999984078
 30
0.0
  0
VERTEX
  5
1280FD
  8
HIDDEN
 10
-0.0000000000002274
 20
-463.99999999984078
 30
0.0
  0
SEQEND
  5
1280FE
  8
HIDDEN
  0
INSERT
  5
127920
  8
OBJECT
  2
*U12
 10
0.0
 20
0.0
 30
0.0
  0
LINE
  5
127921
  8
OBJECT
 10
118.00000000004179
 20
-99.000000000171866
 30
0.0
 11
118.00000000004179
 21
-92.000000000171852
 31
0.0
1001
ACDBBLOCKREPETAG
1070
     1
1071
       39
1005
127921
  0
LINE
  5
127922
  8
OBJECT
 10
118.00000000004179
 20
-92.000000000171852
 30
0.0
 11
242.00000000004181
 21
-92.000000000171852
 31
0.0
1001
ACDBBLOCKREPETAG
1070
     1
1071
       40
1005
127922
  0
LINE
  5
127923
  8
OBJECT
 10
242.00000000004181
 20
-92.000000000171852
 30
0.0
 11
242.00000000004181
 21
-99.000000000171866
 31
0.0
1001
ACDBBLOCKREPETAG
1070
     1
1071
       41
1005
127923
  0
LINE
  5
127924
  8
OBJECT
 10
242.00000000004181
 20
-99.000000000171866
 30
0.0
 11
118.00000000004179
 21
-99.000000000171866
 31
0.0
1001
ACDBBLOCKREPETAG
1070
     1
1071
       42
1005
127924
  0
LINE
  5
127925
  8
OBJECT
 10
121.00000000004179
 20
-99.000000000171866
 30
0.0
 11
121.00000000004179
 21
-135.00000000017181
 31
0.0
1001
ACDBBLOCKREPETAG
1070
     1
1071
       43
1005
127925
  0
LINE
  5
127926
  8
OBJECT
 10
121.00000000004179
 20
-135.00000000017181
 30
0.0
 11
239.00000000004181
 21
-135.00000000017181
 31
0.0
1001
ACDBBLOCKREPETAG
1070
     1
1071
       44
1005
127926
  0
LINE
  5
127927
  8
OBJECT
 10
239.00000000004181
 20
-135.00000000017181
 30
0.0
 11
239.00000000004181
 21
-99.000000000171866
 31
0.0
1001
ACDBBLOCKREPETAG
1070
     1
1071
       45
1005
127927
  0
LINE
  5
127928
  8
OBJECT
 10
125.50000000004179
 20
-139.00000000017181
 30
0.0
 11
125.50000000004179
 21
-146.00000000017181
 31
0.0
1001
ACDBBLOCKREPETAG
1070
     1
1071
       46
1005
127928
  0
LINE
  5
127929
  8
OBJECT
 10
234.50000000004181
 20
-146.00000000017181
 30
0.0
 11
234.50000000004181
 21
-139.00000000017181
 31
0.0
1001
ACDBBLOCKREPETAG
1070
     1
1071
       47
1005
127929
  0
LINE
  5
12792A
  8
OBJECT
 10
234.50000000004181
 20
-139.00000000017181
 30
0.0
 11
125.50000000004179
 21
-139.00000000017181
 31
0.0
1001
ACDBBLOCKREPETAG
1070
     1
1071
       48
1005
12792A
  0
LINE
  5
12792B
  8
OBJECT
 10
121.00000000004179
 20
-135.00000000017181
 30
0.0
 11
125.50000000004179
 21
-139.00000000017181
 31
0.0
1001
ACDBBLOCKREPETAG
1070
     1
1071
       49
1005
12792B
  0
LINE
  5
12792C
  8
OBJECT
 10
239.00000000004181
 20
-135.00000000017181
 30
0.0
 11
234.50000000004181
 21
-139.00000000017181
 31
0.0
1001
ACDBBLOCKREPETAG
1070
     1
1071
       50
1005
12792C
  0
LINE
  5
12792D
  8
OBJECT
 10
118.00000000004179
 20
-149.00000000017101
 30
0.0
 11
118.00000000004179
 21
-152.00000000017181
 31
0.0
1001
ACDBBLOCKREPETAG
1070
     1
1071
       51
1005
12792D
  0
ARC
  5
12792E
  8
OBJECT
 10
121.00000000004179
 20
-149.00000000017101
 30
0.0
 40
3.0
 50
90.0
 51
180.0
1001
ACDBBLOCKREPETAG
1070
     1
1071
       52
1005
12792E
  0
LINE
  5
12792F
  8
OBJECT
 10
242.00000000004181
 20
-152.00000000017181
 30
0.0
 11
242.00000000004181
 21
-149.0000000001728
 31
0.0
1001
ACDBBLOCKREPETAG
1070
     1
1071
       53
1005
12792F
  0
ARC
  5
127930
  8
OBJECT
 10
239.00000000004181
 20
-149.0000000001728
 30
0.0
 40
3.0
 50
0.0
 51
90.0
1001
ACDBBLOCKREPETAG
1070
     1
1071
       54
1005
127930
  0
LINE
  5
127931
  8
OBJECT
 10
239.00000000004181
 20
-146.0000000001728
 30
0.0
 11
121.00000000004179
 21
-146.00000000017101
 31
0.0
1001
ACDBBLOCKREPETAG
1070
     1
1071
       55
1005
127931
  0
LINE
  5
127932
  8
HIDDEN
 10
135.50000000004181
 20
-144.00000000017189
 30
0.0
 11
224.50000000004181
 21
-144.00000000017189
 31
0.0
1001
ACDBBLOCKREPETAG
1070
     1
1071
      426
1005
127932
  0
CIRCLE
  5
127933
  8
OBJECT
 10
180.00000000004181
 20
-232.00000000017189
 30
0.0
 40
70.0
1001
ACDBBLOCKREPETAG
1070
     1
1071
       50
1005
127933
  0
CIRCLE
  5
127934
  8
OBJECT
 10
180.00000000004181
 20
-232.00000000017189
 30
0.0
 40
77.0
1001
ACDBBLOCKREPETAG
1070
     1
1071
       51
1005
127934
  0
ARC
  5
127935
  8
OBJECT
 10
180.00000000004181
 20
-232.00000000017189
 30
0.0
 40
80.0
 50
140.80503257377961
 51
39.194967426220252
1001
ACDBBLOCKREPETAG
1070
     1
1071
       52
1005
127935
  0
LINE
  5
127936
  8
OBJECT
 10
118.00000000004179
 20
-186.3381997728473
 30
0.0
 11
118.00000000004179
 21
-152.00000000017181
 31
0.0
1001
ACDBBLOCKREPETAG
1070
     1
1071
       53
1005
127936
  0
LINE
  5
127937
  8
OBJECT
 10
242.00000000004181
 20
-186.3381997728473
 30
0.0
 11
242.00000000004181
 21
-152.00000000017181
 31
0.0
1001
ACDBBLOCKREPETAG
1070
     1
1071
       54
1005
127937
  0
CIRCLE
  5
127938
  8
OBJECT
 10
180.00000000004181
 20
-232.00000000017189
 30
0.0
 40
53.5
1001
ACDBBLOCKREPETAG
1070
     1
1071
      157
1005
127938
  0
POINT
  5
127939
  8
DOTS
 10
180.00000000004181
 20
-232.00000000017189
 30
0.0
1001
ACDBBLOCKREPETAG
1070
     1
1071
      162
1005
127939
  0
CIRCLE
  5
12793A
  8
OBJECT
 10
155.9999999999998
 20
-1460.0
 30
0.0
 40
70.0
1001
ACDBBLOCKREPETAG
1070
     1
1071
       50
1005
12793A
  0
CIRCLE
  5
12793B
  8
OBJECT
 10
155.9999999999998
 20
-1460.0
 30
0.0
 40
75.0
1001
ACDBBLOCKREPETAG
1070
     1
1071
       51
1005
12793B
  0
POINT
  5
12793C
  8
DOTS
 10
155.9999999999998
 20
-1460.0
 30
0.0
1001
ACDBBLOCKREPETAG
1070
     1
1071
       63
1005
12793C
  0
CIRCLE
  5
12793D
  8
OBJECT
 10
155.9999999999998
 20
-1460.0
 30
0.0
 40
62.5
1001
ACDBBLOCKREPETAG
1070
     1
1071
       50
1005
12793D
  0
CIRCLE
  5
12793E
  8
OBJECT
 10
515.99999999999955
 20
-996.0
 30
0.0
 40
70.0
1001
ACDBBLOCKREPETAG
1070
     1
1071
       50
1005
12793E
  0
CIRCLE
  5
12793F
  8
OBJECT
 10
515.99999999999955
 20
-996.0
 30
0.0
 40
75.0
1001
ACDBBLOCKREPETAG
1070
     1
1071
       51
1005
12793F
  0
POINT
  5
127940
  8
DOTS
 10
515.99999999999955
 20
-996.0
 30
0.0
1001
ACDBBLOCKREPETAG
1070
     1
1071
       63
1005
127940
  0
CIRCLE
  5
127941
  8
OBJECT
 10
515.99999999999955
 20
-996.0
 30
0.0
 40
62.5
1001
ACDBBLOCKREPETAG
1070
     1
1071
       50
1005
127941
  0
CIRCLE
  5
127942
  8
OBJECT
 10
155.9999999999998
 20
-996.0
 30
0.0
 40
70.0
1001
ACDBBLOCKREPETAG
1070
     1
1071
       50
1005
127942
  0
CIRCLE
  5
127943
  8
OBJECT
 10
155.9999999999998
 20
-996.0
 30
0.0
 40
75.0
1001
ACDBBLOCKREPETAG
1070
     1
1071
       51
1005
127943
  0
POINT
  5
127944
  8
DOTS
 10
155.9999999999998
 20
-996.0
 30
0.0
1001
ACDBBLOCKREPETAG
1070
     1
1071
       63
1005
127944
  0
CIRCLE
  5
127945
  8
OBJECT
 10
155.9999999999998
 20
-996.0
 30
0.0
 40
62.5
1001
ACDBBLOCKREPETAG
1070
     1
1071
       50
1005
127945
  0
TEXT
  5
127946
  8
SLIM
 10
97.714285714224999
 20
-1707.9999999996919
 30
0.0
 40
48.0
  1
A0300
 41
0.75
1001
ACDBBLOCKREPETAG
1070
     1
1071
      119
1005
0
  0
TEXT
  5
127947
  8
SLIM
 10
457.71428571410308
 20
-1243.9999999998499
 30
0.0
 40
48.0
  1
A0200
 41
0.75
1001
ACDBBLOCKREPETAG
1070
     1
1071
      119
1005
0
  0
TEXT
  5
127948
  8
SLIM
 10
101.1428571427964
 20
-1243.9999999998499
 30
0.0
 40
48.0
  1
A0100
 41
0.75
1001
ACDBBLOCKREPETAG
1070
     1
1071
      119
1005
0
  0
TEXT
  5
127949
  8
SLIM
 10
0.000003566523219
 20
-775.9999954146823
 30
0.0
 40
79.999999999972701
  1
下部枝管バリエーション
 41
0.75
1001
ACDBBLOCKREPETAG
1070
     1
1071
      119
1005
124B78
  0
TEXT
  5
12794A
  8
SLIM
 10
149.1428571427966
 20
-443.99999999984971
 30
0.0
 40
48.0
  1
A3
 41
0.75
1001
ACDBBLOCKREPETAG
1070
     1
1071
      119
1005
0
  0
TEXT
  5
12794B
  8
SLIM
 10
0.0000035665234464
 20
24.000004585317608
 30
0.0
 40
79.999999999972701
  1
上部枝管
 41
0.75
1001
ACDBBLOCKREPETAG
1070
     1
1071
      119
1005
124B78
  0
LINE
  5
12794C
  8
OBJECT
 10
4923.0
 20
-570.99999999999432
 30
0.0
 11
4923.0
 21
-549.99999999999432
 31
0.0
1001
ACDBBLOCKREPETAG
1070
     1
1071
       22
1005
12794C
  0
LINE
  5
12794D
  8
OBJECT
 10
4923.0
 20
-549.99999999999432
 30
0.0
 11
5077.0
 21
-549.99999999999432
 31
0.0
1001
ACDBBLOCKREPETAG
1070
     1
1071
       23
1005
12794D
  0
LINE
  5
12794E
  8
HIDDEN
 10
4943.0
 20
-619.99999999999432
 30
0.0
 11
5057.0
 21
-619.99999999999432
 31
0.0
1001
ACDBBLOCKREPETAG
1070
     1
1071
       24
1005
12794E
  0
LINE
  5
12794F
  8
OBJECT
 10
5077.0
 20
-549.99999999999432
 30
0.0
 11
5077.0
 21
-570.99999999999432
 31
0.0
1001
ACDBBLOCKREPETAG
1070
     1
1071
       25
1005
12794F
  0
LINE
  5
127950
  8
OBJECT
 10
5077.0
 20
-570.99999999999432
 30
0.0
 11
4923.0
 21
-570.99999999999432
 31
0.0
1001
ACDBBLOCKREPETAG
1070
     1
1071
       26
1005
127950
  0
LINE
  5
127951
  8
CENTER
 10
5000.0
 20
-534.99999999999432
 30
0.0
 11
5000.0
 21
-889.99999999999409
 31
0.0
1001
ACDBBLOCKREPETAG
1070
     1
1071
       27
1005
127951
  0
LINE
  5
127952
  8
OBJECT
 10
4925.0
 20
-633.99999999999432
 30
0.0
 11
4925.0
 21
-737.50000000005946
 31
0.0
1001
ACDBBLOCKREPETAG
1070
     1
1071
       28
1005
127952
  0
LINE
  5
127953
  8
OBJECT
 10
4925.0
 20
-843.49999999999409
 30
0.0
 11
4925.0
 21
-877.9999999999942
 31
0.0
1001
ACDBBLOCKREPETAG
1070
     1
1071
      218
1005
127953
  0
LINE
  5
127954
  8
OBJECT
 10
4928.0
 20
-570.99999999999432
 30
0.0
 11
4928.0
 21
-633.99999999999432
 31
0.0
1001
ACDBBLOCKREPETAG
1070
     1
1071
       29
1005
127954
  0
LINE
  5
127955
  8
OBJECT
 10
5072.0
 20
-633.99999999999432
 30
0.0
 11
5072.0
 21
-570.99999999999432
 31
0.0
1001
ACDBBLOCKREPETAG
1070
     1
1071
       30
1005
127955
  0
LINE
  5
127956
  8
OBJECT
 10
4920.0
 20
-877.9999999999942
 30
0.0
 11
5080.0
 21
-877.9999999999942
 31
0.0
1001
ACDBBLOCKREPETAG
1070
     1
1071
       31
1005
127956
  0
LINE
  5
127957
  8
OBJECT
 10
5074.9999999997199
 20
-633.99999999999432
 30
0.0
 11
4925.0
 21
-633.99999999999432
 31
0.0
1001
ACDBBLOCKREPETAG
1070
     1
1071
       32
1005
127957
  0
LINE
  5
127958
  8
OBJECT
 10
4920.0
 20
-877.9999999999942
 30
0.0
 11
4920.0
 21
-889.99999999999409
 31
0.0
1001
ACDBBLOCKREPETAG
1070
     1
1071
       33
1005
127958
  0
LINE
  5
127959
  8
OBJECT
 10
4920.0
 20
-889.99999999999409
 30
0.0
 11
5080.0
 21
-889.99999999999409
 31
0.0
1001
ACDBBLOCKREPETAG
1070
     1
1071
       34
1005
127959
  0
LINE
  5
12795A
  8
OBJECT
 10
5080.0
 20
-889.99999999999409
 30
0.0
 11
5080.0
 21
-877.9999999999942
 31
0.0
1001
ACDBBLOCKREPETAG
1070
     1
1071
       35
1005
12795A
  0
LINE
  5
12795B
  8
OBJECT
 10
5074.9999999997199
 20
-633.99999999999432
 30
0.0
 11
5075.0
 21
-877.9999999999942
 31
0.0
1001
ACDBBLOCKREPETAG
1070
     1
1071
       37
1005
12795B
  0
LINE
  5
12795C
  8
OBJECT
 10
4867.0
 20
-738.99999999999409
 30
0.0
 11
4860.0
 21
-738.99999999999409
 31
0.0
1001
ACDBBLOCKREPETAG
1070
     1
1071
      197
1005
12795C
  0
LINE
  5
12795D
  8
OBJECT
 10
4860.0
 20
-738.99999999999409
 30
0.0
 11
4860.0
 21
-845.99999999999443
 31
0.0
1001
ACDBBLOCKREPETAG
1070
     1
1071
      198
1005
12795D
  0
LINE
  5
12795E
  8
OBJECT
 10
4915.5
 20
-740.50000000005969
 30
0.0
 11
4915.5
 21
-843.49999999999409
 31
0.0
1001
ACDBBLOCKREPETAG
1070
     1
1071
      199
1005
12795E
  0
ARC
  5
12795F
  8
OBJECT
 10
4918.5
 20
-740.50000000005969
 30
0.0
 40
3.0
 50
90.0
 51
180.0
1001
ACDBBLOCKREPETAG
1070
     1
1071
      200
1005
12795F
  0
LINE
  5
127960
  8
OBJECT
 10
4867.0
 20
-845.99999999999443
 30
0.0
 11
4867.0
 21
-738.99999999999409
 31
0.0
1001
ACDBBLOCKREPETAG
1070
     1
1071
      201
1005
127960
  0
LINE
  5
127961
  8
CENTER
 10
4845.0
 20
-793.99999999999397
 30
0.0
 11
4958.6550800869954
 21
-794.0000000000598
 31
0.0
1001
ACDBBLOCKREPETAG
1070
     1
1071
      202
1005
127961
  0
LINE
  5
127962
  8
OBJECT
 10
4867.0
 20
-741.9999999999942
 30
0.0
 11
4903.0
 21
-741.9999999999942
 31
0.0
1001
ACDBBLOCKREPETAG
1070
     1
1071
      203
1005
127962
  0
LINE
  5
127963
  8
OBJECT
 10
4903.0
 20
-741.9999999999942
 30
0.0
 11
4903.0
 21
-845.99999999999443
 31
0.0
1001
ACDBBLOCKREPETAG
1070
     1
1071
      204
1005
127963
  0
LINE
  5
127964
  8
OBJECT
 10
4903.0
 20
-845.99999999999443
 30
0.0
 11
4860.0
 21
-845.99999999999443
 31
0.0
1001
ACDBBLOCKREPETAG
1070
     1
1071
      205
1005
127964
  0
LINE
  5
127965
  8
OBJECT
 10
4907.0
 20
-746.4999999999942
 30
0.0
 11
4915.5
 21
-746.4999999999942
 31
0.0
1001
ACDBBLOCKREPETAG
1070
     1
1071
      206
1005
127965
  0
LINE
  5
127966
  8
OBJECT
 10
4915.5
 20
-841.49999999999443
 30
0.0
 11
4907.0
 21
-841.49999999999443
 31
0.0
1001
ACDBBLOCKREPETAG
1070
     1
1071
      207
1005
127966
  0
LINE
  5
127967
  8
OBJECT
 10
4907.0
 20
-841.49999999999443
 30
0.0
 11
4907.0
 21
-746.4999999999942
 31
0.0
1001
ACDBBLOCKREPETAG
1070
     1
1071
      208
1005
127967
  0
LINE
  5
127968
  8
OBJECT
 10
4903.0
 20
-741.9999999999942
 30
0.0
 11
4907.0
 21
-746.4999999999942
 31
0.0
1001
ACDBBLOCKREPETAG
1070
     1
1071
      209
1005
127968
  0
LINE
  5
127969
  8
OBJECT
 10
4903.0
 20
-845.99999999999443
 30
0.0
 11
4907.0
 21
-841.49999999999443
 31
0.0
1001
ACDBBLOCKREPETAG
1070
     1
1071
       36
1005
127969
  0
LINE
  5
12796A
  8
HIDDEN
 10
4912.0
 20
-755.99999999999397
 30
0.0
 11
4912.0
 21
-831.99999999999409
 31
0.0
1001
ACDBBLOCKREPETAG
1070
     1
1071
      210
1005
12796A
  0
ARC
  5
12796B
  8
OBJECT
 10
4835.1217271212263
 20
-802.40950726122355
 30
0.0
 40
110.86635228309
 50
16.95964619565439
 51
35.836572580695218
1001
ACDBBLOCKREPETAG
1070
     1
1071
      211
1005
12796B
  0
ARC
  5
12796C
  8
OBJECT
 10
4882.8640112230942
 20
-787.28774971844325
 30
0.0
 40
60.791749880358971
 50
0.2712030171733432
 51
16.452795347786878
1001
ACDBBLOCKREPETAG
1070
     1
1071
      212
1005
12796C
  0
ARC
  5
12796D
  8
OBJECT
 10
4882.8640043437508
 20
-793.71224975989549
 30
0.0
 40
60.79175676209487
 50
343.54722053947972
 51
359.7287965218548
1001
ACDBBLOCKREPETAG
1070
     1
1071
      213
1005
12796D
  0
ARC
  5
12796E
  8
OBJECT
 10
4835.1217271212263
 20
-778.59049273883056
 30
0.0
 40
110.8663522830916
 50
324.16342741930481
 51
343.04035380434561
1001
ACDBBLOCKREPETAG
1070
     1
1071
      214
1005
12796E
  0
LINE
  5
12796F
  8
OBJECT
 10
4943.6550800869954
 20
-787.00000000003081
 30
0.0
 11
4943.6550800869954
 21
-794.00000000002683
 31
0.0
1001
ACDBBLOCKREPETAG
1070
     1
1071
      215
1005
12796F
  0
LINE
  5
127970
  8
OBJECT
 10
4925.0
 20
-737.50000000005946
 30
0.0
 11
4918.5
 21
-737.50000000005946
 31
0.0
1001
ACDBBLOCKREPETAG
1070
     1
1071
      216
1005
127970
  0
LINE
  5
127971
  8
OBJECT
 10
4925.0
 20
-843.49999999999409
 30
0.0
 11
4915.5
 21
-843.49999999999409
 31
0.0
1001
ACDBBLOCKREPETAG
1070
     1
1071
      217
1005
127971
  0
POINT
  5
127972
  8
DOTS
 10
5000.0
 20
-845.99999999999443
 30
0.0
1001
ACDBBLOCKREPETAG
1070
     1
1071
      219
1005
127972
  0
LINE
  5
127973
  8
OBJECT
 10
4423.0
 20
-570.99999999999432
 30
0.0
 11
4423.0
 21
-549.99999999999432
 31
0.0
1001
ACDBBLOCKREPETAG
1070
     1
1071
        0
1005
127973
  0
LINE
  5
127974
  8
OBJECT
 10
4423.0
 20
-549.99999999999432
 30
0.0
 11
4577.0
 21
-549.99999999999432
 31
0.0
1001
ACDBBLOCKREPETAG
1070
     1
1071
        1
1005
127974
  0
LINE
  5
127975
  8
HIDDEN
 10
4443.0
 20
-619.99999999999432
 30
0.0
 11
4557.0
 21
-619.99999999999432
 31
0.0
1001
ACDBBLOCKREPETAG
1070
     1
1071
        2
1005
127975
  0
LINE
  5
127976
  8
OBJECT
 10
4577.0
 20
-549.99999999999432
 30
0.0
 11
4577.0
 21
-570.99999999999432
 31
0.0
1001
ACDBBLOCKREPETAG
1070
     1
1071
        3
1005
127976
  0
LINE
  5
127977
  8
OBJECT
 10
4577.0
 20
-570.99999999999432
 30
0.0
 11
4423.0
 21
-570.99999999999432
 31
0.0
1001
ACDBBLOCKREPETAG
1070
     1
1071
        4
1005
127977
  0
LINE
  5
127978
  8
CENTER
 10
4500.0
 20
-534.99999999999432
 30
0.0
 11
4500.0
 21
-889.99999999999409
 31
0.0
1001
ACDBBLOCKREPETAG
1070
     1
1071
        5
1005
127978
  0
LINE
  5
127979
  8
OBJECT
 10
4425.0
 20
-633.99999999999432
 30
0.0
 11
4425.0
 21
-877.9999999999942
 31
0.0
1001
ACDBBLOCKREPETAG
1070
     1
1071
        6
1005
127979
  0
LINE
  5
12797A
  8
OBJECT
 10
4428.0
 20
-570.99999999999432
 30
0.0
 11
4428.0
 21
-633.99999999999432
 31
0.0
1001
ACDBBLOCKREPETAG
1070
     1
1071
        7
1005
12797A
  0
LINE
  5
12797B
  8
OBJECT
 10
4572.0
 20
-633.99999999999432
 30
0.0
 11
4572.0
 21
-570.99999999999432
 31
0.0
1001
ACDBBLOCKREPETAG
1070
     1
1071
        8
1005
12797B
  0
LINE
  5
12797C
  8
OBJECT
 10
4420.0
 20
-877.9999999999942
 30
0.0
 11
4580.0
 21
-877.9999999999942
 31
0.0
1001
ACDBBLOCKREPETAG
1070
     1
1071
        9
1005
12797C
  0
LINE
  5
12797D
  8
OBJECT
 10
4580.0
 20
-633.99999999999432
 30
0.0
 11
4425.0
 21
-633.99999999999432
 31
0.0
1001
ACDBBLOCKREPETAG
1070
     1
1071
       10
1005
12797D
  0
LINE
  5
12797E
  8
OBJECT
 10
4420.0
 20
-877.9999999999942
 30
0.0
 11
4420.0
 21
-889.99999999999409
 31
0.0
1001
ACDBBLOCKREPETAG
1070
     1
1071
       11
1005
12797E
  0
LINE
  5
12797F
  8
OBJECT
 10
4420.0
 20
-889.99999999999409
 30
0.0
 11
4580.0
 21
-889.99999999999409
 31
0.0
1001
ACDBBLOCKREPETAG
1070
     1
1071
       12
1005
12797F
  0
LINE
  5
127980
  8
OBJECT
 10
4580.0
 20
-889.99999999999409
 30
0.0
 11
4580.0
 21
-877.9999999999942
 31
0.0
1001
ACDBBLOCKREPETAG
1070
     1
1071
       13
1005
127980
  0
LINE
  5
127981
  8
OBJECT
 10
4574.9999999998618
 20
-757.99999999984493
 30
0.0
 11
4575.0
 21
-877.9999999999942
 31
0.0
1001
ACDBBLOCKREPETAG
1070
     1
1071
       15
1005
127981
  0
LINE
  5
127982
  8
OBJECT
 10
4574.9999908029849
 20
-757.99998602701612
 30
0.0
 11
4580.0
 21
-757.99998602701612
 31
0.0
1001
ACDBBLOCKREPETAG
1070
     1
1071
       16
1005
127982
  0
ARC
  5
127983
  8
OBJECT
 10
4700.6872746716726
 20
-749.40809941010195
 30
0.0
 40
170.6350503965856
 50
137.44134459184301
 51
149.91949581337221
1001
ACDBBLOCKREPETAG
1070
     1
1071
       17
1005
127983
  0
ARC
  5
127984
  8
OBJECT
 10
4618.8455987040506
 20
-705.88272669535922
 30
0.0
 40
78.072222021763665
 50
147.4551531038623
 51
164.66365997718671
1001
ACDBBLOCKREPETAG
1070
     1
1071
       18
1005
127984
  0
ARC
  5
127985
  8
OBJECT
 10
4585.7554349608718
 20
-695.99999999999432
 30
0.0
 40
43.55353926885617
 50
165.688452300753
 51
194.3115476992468
1001
ACDBBLOCKREPETAG
1070
     1
1071
       19
1005
127985
  0
ARC
  5
127986
  8
OBJECT
 10
4700.6872746716726
 20
-642.59190058988645
 30
0.0
 40
170.6350503965856
 50
210.08050418662771
 51
222.55865540815699
1001
ACDBBLOCKREPETAG
1070
     1
1071
       20
1005
127986
  0
ARC
  5
127987
  8
OBJECT
 10
4618.8455987040506
 20
-686.11727330462952
 30
0.0
 40
78.072222021763665
 50
195.33634002281309
 51
212.5448468961377
1001
ACDBBLOCKREPETAG
1070
     1
1071
       21
1005
127987
  0
CIRCLE
  5
127988
  8
OBJECT
 10
4500.0
 20
-793.99999999999397
 30
0.0
 40
35.5
1001
ACDBBLOCKREPETAG
1070
     1
1071
      192
1005
127988
  0
LINE
  5
127989
  8
CENTER
 10
4430.0
 20
-793.99999999999397
 30
0.0
 11
4570.0
 21
-793.99999999999397
 31
0.0
1001
ACDBBLOCKREPETAG
1070
     1
1071
      193
1005
127989
  0
CIRCLE
  5
12798A
  8
OBJECT
 10
4500.0
 20
-793.99999999999397
 30
0.0
 40
47.0
1001
ACDBBLOCKREPETAG
1070
     1
1071
       14
1005
12798A
  0
ARC
  5
12798B
  8
OBJECT
 10
4500.0
 20
-793.99999999999397
 30
0.0
 40
55.0
 50
289.01126526010933
 51
250.9887347398907
1001
ACDBBLOCKREPETAG
1070
     1
1071
      194
1005
12798B
  0
LINE
  5
12798C
  8
OBJECT
 10
4482.0835271328324
 20
-845.99999999999443
 30
0.0
 11
4517.9164728671676
 21
-845.99999999999443
 31
0.0
1001
ACDBBLOCKREPETAG
1070
     1
1071
      195
1005
12798C
  0
POINT
  5
12798D
  8
DOTS
 10
4500.0
 20
-845.99999999999443
 30
0.0
1001
ACDBBLOCKREPETAG
1070
     1
1071
      196
1005
12798D
  0
LINE
  5
12798E
  8
CENTER
 10
5077.0
 20
-695.99999999999432
 30
0.0
 11
4923.0
 21
-695.99999999999432
 31
0.0
1001
ACDBBLOCKREPETAG
1070
     1
1071
       17
1005
12798E
  0
CIRCLE
  5
12798F
  8
OBJECT
 10
5000.0
 20
-695.99999999999432
 30
0.0
 40
41.5
1001
ACDBBLOCKREPETAG
1070
     1
1071
       19
1005
12798F
  0
CIRCLE
  5
127990
  8
OBJECT
 10
5000.0
 20
-695.99999999999432
 30
0.0
 40
54.0
1001
ACDBBLOCKREPETAG
1070
     1
1071
       20
1005
127990
  0
ARC
  5
127991
  8
OBJECT
 10
5000.0
 20
-695.99999999999432
 30
0.0
 40
62.0
 50
287.89655112920718
 51
252.10344887079279
1001
ACDBBLOCKREPETAG
1070
     1
1071
       21
1005
127991
  0
LINE
  5
127992
  8
OBJECT
 10
4980.947441116743
 20
-754.9999999999942
 30
0.0
 11
5019.052558883257
 21
-754.9999999999942
 31
0.0
1001
ACDBBLOCKREPETAG
1070
     1
1071
       22
1005
127992
  0
LINE
  5
127993
  8
OBJECT
 10
4633.0
 20
-634.0
 30
0.0
 11
4640.0
 21
-634.0
 31
0.0
1001
ACDBBLOCKREPETAG
1070
     1
1071
       45
1005
127993
  0
LINE
  5
127994
  8
OBJECT
 10
4640.0
 20
-634.0
 30
0.0
 11
4640.0
 21
-755.0
 31
0.0
1001
ACDBBLOCKREPETAG
1070
     1
1071
       46
1005
127994
  0
LINE
  5
127995
  8
OBJECT
 10
4633.0
 20
-755.0
 30
0.0
 11
4633.0
 21
-634.0
 31
0.0
1001
ACDBBLOCKREPETAG
1070
     1
1071
       47
1005
127995
  0
LINE
  5
127996
  8
CENTER
 10
4655.0
 20
-696.0
 30
0.0
 11
4571.0
 21
-696.0
 31
0.0
1001
ACDBBLOCKREPETAG
1070
     1
1071
       48
1005
127996
  0
LINE
  5
127997
  8
OBJECT
 10
4633.0
 20
-637.0
 30
0.0
 11
4597.0
 21
-637.0
 31
0.0
1001
ACDBBLOCKREPETAG
1070
     1
1071
       49
1005
127997
  0
LINE
  5
127998
  8
OBJECT
 10
4597.0
 20
-637.0
 30
0.0
 11
4597.0
 21
-755.0
 31
0.0
1001
ACDBBLOCKREPETAG
1070
     1
1071
       50
1005
127998
  0
LINE
  5
127999
  8
OBJECT
 10
4597.0
 20
-755.0
 30
0.0
 11
4640.0
 21
-755.0
 31
0.0
1001
ACDBBLOCKREPETAG
1070
     1
1071
       51
1005
127999
  0
LINE
  5
12799A
  8
OBJECT
 10
4593.0
 20
-641.5
 30
0.0
 11
4586.0
 21
-641.5
 31
0.0
1001
ACDBBLOCKREPETAG
1070
     1
1071
       52
1005
12799A
  0
LINE
  5
12799B
  8
OBJECT
 10
4586.0
 20
-750.49999999999989
 30
0.0
 11
4593.0
 21
-750.49999999999989
 31
0.0
1001
ACDBBLOCKREPETAG
1070
     1
1071
       53
1005
12799B
  0
LINE
  5
12799C
  8
OBJECT
 10
4593.0
 20
-750.49999999999989
 30
0.0
 11
4593.0
 21
-641.5
 31
0.0
1001
ACDBBLOCKREPETAG
1070
     1
1071
       54
1005
12799C
  0
LINE
  5
12799D
  8
OBJECT
 10
4597.0
 20
-637.0
 30
0.0
 11
4593.0
 21
-641.5
 31
0.0
1001
ACDBBLOCKREPETAG
1070
     1
1071
       55
1005
12799D
  0
LINE
  5
12799E
  8
OBJECT
 10
4597.0
 20
-755.0
 30
0.0
 11
4593.0
 21
-750.49999999999989
 31
0.0
1001
ACDBBLOCKREPETAG
1070
     1
1071
       56
1005
12799E
  0
LINE
  5
12799F
  8
OBJECT
 10
4583.0
 20
-634.0
 30
0.0
 11
4580.0
 21
-634.0
 31
0.0
1001
ACDBBLOCKREPETAG
1070
     1
1071
       57
1005
12799F
  0
ARC
  5
1279A0
  8
OBJECT
 10
4583.0
 20
-637.0
 30
0.0
 40
3.0
 50
0.0
 51
90.0
1001
ACDBBLOCKREPETAG
1070
     1
1071
       58
1005
1279A0
  0
LINE
  5
1279A1
  8
OBJECT
 10
4580.0
 20
-758.0
 30
0.0
 11
4583.0
 21
-758.0
 31
0.0
1001
ACDBBLOCKREPETAG
1070
     1
1071
       59
1005
1279A1
  0
ARC
  5
1279A2
  8
OBJECT
 10
4583.0
 20
-755.0
 30
0.0
 40
3.0
 50
270.0
 51
0.0
1001
ACDBBLOCKREPETAG
1070
     1
1071
       60
1005
1279A2
  0
LINE
  5
1279A3
  8
OBJECT
 10
4586.0
 20
-755.0
 30
0.0
 11
4586.0
 21
-637.0
 31
0.0
1001
ACDBBLOCKREPETAG
1070
     1
1071
       61
1005
1279A3
  0
LINE
  5
1279A4
  8
HIDDEN
 10
4588.0
 20
-651.5
 30
0.0
 11
4588.0
 21
-740.5
 31
0.0
1001
ACDBBLOCKREPETAG
1070
     1
1071
       63
1005
1279A4
  0
LINE
  5
1279A5
  8
OBJECT
 10
2923.0
 20
-570.99999999999432
 30
0.0
 11
2923.0
 21
-549.99999999999432
 31
0.0
1001
ACDBBLOCKREPETAG
1070
     1
1071
       22
1005
1279A5
  0
LINE
  5
1279A6
  8
OBJECT
 10
2923.0
 20
-549.99999999999432
 30
0.0
 11
3077.0
 21
-549.99999999999432
 31
0.0
1001
ACDBBLOCKREPETAG
1070
     1
1071
       23
1005
1279A6
  0
LINE
  5
1279A7
  8
HIDDEN
 10
2943.0
 20
-619.99999999999432
 30
0.0
 11
3057.0
 21
-619.99999999999432
 31
0.0
1001
ACDBBLOCKREPETAG
1070
     1
1071
       24
1005
1279A7
  0
LINE
  5
1279A8
  8
OBJECT
 10
3077.0
 20
-549.99999999999432
 30
0.0
 11
3077.0
 21
-570.99999999999432
 31
0.0
1001
ACDBBLOCKREPETAG
1070
     1
1071
       25
1005
1279A8
  0
LINE
  5
1279A9
  8
OBJECT
 10
3077.0
 20
-570.99999999999432
 30
0.0
 11
2923.0
 21
-570.99999999999432
 31
0.0
1001
ACDBBLOCKREPETAG
1070
     1
1071
       26
1005
1279A9
  0
LINE
  5
1279AA
  8
CENTER
 10
3000.0
 20
-534.99999999999432
 30
0.0
 11
3000.0
 21
-889.99999999999409
 31
0.0
1001
ACDBBLOCKREPETAG
1070
     1
1071
       27
1005
1279AA
  0
LINE
  5
1279AB
  8
OBJECT
 10
2925.0
 20
-633.99999999999432
 30
0.0
 11
2925.0
 21
-737.50000000005946
 31
0.0
1001
ACDBBLOCKREPETAG
1070
     1
1071
       28
1005
1279AB
  0
LINE
  5
1279AC
  8
OBJECT
 10
2925.0
 20
-843.49999999999409
 30
0.0
 11
2925.0
 21
-877.9999999999942
 31
0.0
1001
ACDBBLOCKREPETAG
1070
     1
1071
      218
1005
1279AC
  0
LINE
  5
1279AD
  8
OBJECT
 10
2928.0
 20
-570.99999999999432
 30
0.0
 11
2928.0
 21
-633.99999999999432
 31
0.0
1001
ACDBBLOCKREPETAG
1070
     1
1071
       29
1005
1279AD
  0
LINE
  5
1279AE
  8
OBJECT
 10
3072.0
 20
-633.99999999999432
 30
0.0
 11
3072.0
 21
-570.99999999999432
 31
0.0
1001
ACDBBLOCKREPETAG
1070
     1
1071
       30
1005
1279AE
  0
LINE
  5
1279AF
  8
OBJECT
 10
2920.0
 20
-877.9999999999942
 30
0.0
 11
3080.0
 21
-877.9999999999942
 31
0.0
1001
ACDBBLOCKREPETAG
1070
     1
1071
       31
1005
1279AF
  0
LINE
  5
1279B0
  8
OBJECT
 10
3074.9999999997199
 20
-633.99999999999432
 30
0.0
 11
2925.0
 21
-633.99999999999432
 31
0.0
1001
ACDBBLOCKREPETAG
1070
     1
1071
       32
1005
1279B0
  0
LINE
  5
1279B1
  8
OBJECT
 10
2920.0
 20
-877.9999999999942
 30
0.0
 11
2920.0
 21
-889.99999999999409
 31
0.0
1001
ACDBBLOCKREPETAG
1070
     1
1071
       33
1005
1279B1
  0
LINE
  5
1279B2
  8
OBJECT
 10
2920.0
 20
-889.99999999999409
 30
0.0
 11
3080.0
 21
-889.99999999999409
 31
0.0
1001
ACDBBLOCKREPETAG
1070
     1
1071
       34
1005
1279B2
  0
LINE
  5
1279B3
  8
OBJECT
 10
3080.0
 20
-889.99999999999409
 30
0.0
 11
3080.0
 21
-877.9999999999942
 31
0.0
1001
ACDBBLOCKREPETAG
1070
     1
1071
       35
1005
1279B3
  0
LINE
  5
1279B4
  8
OBJECT
 10
3074.9999999997199
 20
-633.99999999999432
 30
0.0
 11
3075.0
 21
-877.9999999999942
 31
0.0
1001
ACDBBLOCKREPETAG
1070
     1
1071
       37
1005
1279B4
  0
LINE
  5
1279B5
  8
OBJECT
 10
2867.0
 20
-738.99999999999409
 30
0.0
 11
2860.0
 21
-738.99999999999409
 31
0.0
1001
ACDBBLOCKREPETAG
1070
     1
1071
      197
1005
1279B5
  0
LINE
  5
1279B6
  8
OBJECT
 10
2860.0
 20
-738.99999999999409
 30
0.0
 11
2860.0
 21
-845.99999999999443
 31
0.0
1001
ACDBBLOCKREPETAG
1070
     1
1071
      198
1005
1279B6
  0
LINE
  5
1279B7
  8
OBJECT
 10
2915.5
 20
-740.50000000005969
 30
0.0
 11
2915.5
 21
-843.49999999999409
 31
0.0
1001
ACDBBLOCKREPETAG
1070
     1
1071
      199
1005
1279B7
  0
ARC
  5
1279B8
  8
OBJECT
 10
2918.5
 20
-740.50000000005969
 30
0.0
 40
3.0
 50
90.0
 51
180.0
1001
ACDBBLOCKREPETAG
1070
     1
1071
      200
1005
1279B8
  0
LINE
  5
1279B9
  8
OBJECT
 10
2867.0
 20
-845.99999999999443
 30
0.0
 11
2867.0
 21
-738.99999999999409
 31
0.0
1001
ACDBBLOCKREPETAG
1070
     1
1071
      201
1005
1279B9
  0
LINE
  5
1279BA
  8
CENTER
 10
2845.0
 20
-793.99999999999397
 30
0.0
 11
2958.655080086995
 21
-794.0000000000598
 31
0.0
1001
ACDBBLOCKREPETAG
1070
     1
1071
      202
1005
1279BA
  0
LINE
  5
1279BB
  8
OBJECT
 10
2867.0
 20
-741.9999999999942
 30
0.0
 11
2903.0
 21
-741.9999999999942
 31
0.0
1001
ACDBBLOCKREPETAG
1070
     1
1071
      203
1005
1279BB
  0
LINE
  5
1279BC
  8
OBJECT
 10
2903.0
 20
-741.9999999999942
 30
0.0
 11
2903.0
 21
-845.99999999999443
 31
0.0
1001
ACDBBLOCKREPETAG
1070
     1
1071
      204
1005
1279BC
  0
LINE
  5
1279BD
  8
OBJECT
 10
2903.0
 20
-845.99999999999443
 30
0.0
 11
2860.0
 21
-845.99999999999443
 31
0.0
1001
ACDBBLOCKREPETAG
1070
     1
1071
      205
1005
1279BD
  0
LINE
  5
1279BE
  8
OBJECT
 10
2907.0
 20
-746.4999999999942
 30
0.0
 11
2915.5
 21
-746.4999999999942
 31
0.0
1001
ACDBBLOCKREPETAG
1070
     1
1071
      206
1005
1279BE
  0
LINE
  5
1279BF
  8
OBJECT
 10
2915.5
 20
-841.49999999999443
 30
0.0
 11
2907.0
 21
-841.49999999999443
 31
0.0
1001
ACDBBLOCKREPETAG
1070
     1
1071
      207
1005
1279BF
  0
LINE
  5
1279C0
  8
OBJECT
 10
2907.0
 20
-841.49999999999443
 30
0.0
 11
2907.0
 21
-746.4999999999942
 31
0.0
1001
ACDBBLOCKREPETAG
1070
     1
1071
      208
1005
1279C0
  0
LINE
  5
1279C1
  8
OBJECT
 10
2903.0
 20
-741.9999999999942
 30
0.0
 11
2907.0
 21
-746.4999999999942
 31
0.0
1001
ACDBBLOCKREPETAG
1070
     1
1071
      209
1005
1279C1
  0
LINE
  5
1279C2
  8
OBJECT
 10
2903.0
 20
-845.99999999999443
 30
0.0
 11
2907.0
 21
-841.49999999999443
 31
0.0
1001
ACDBBLOCKREPETAG
1070
     1
1071
       36
1005
1279C2
  0
LINE
  5
1279C3
  8
HIDDEN
 10
2912.0
 20
-755.99999999999397
 30
0.0
 11
2912.0
 21
-831.99999999999409
 31
0.0
1001
ACDBBLOCKREPETAG
1070
     1
1071
      210
1005
1279C3
  0
ARC
  5
1279C4
  8
OBJECT
 10
2835.1217271212249
 20
-802.40950726122355
 30
0.0
 40
110.86635228309
 50
16.959646195661989
 51
35.836572580695218
1001
ACDBBLOCKREPETAG
1070
     1
1071
      211
1005
1279C4
  0
ARC
  5
1279C5
  8
OBJECT
 10
2882.8640112230928
 20
-787.28774971844325
 30
0.0
 40
60.791749880358971
 50
0.2712030171732199
 51
16.452795347779499
1001
ACDBBLOCKREPETAG
1070
     1
1071
      212
1005
1279C5
  0
ARC
  5
1279C6
  8
OBJECT
 10
2882.8640043437522
 20
-793.71224975989549
 30
0.0
 40
60.79175676209487
 50
343.54722053947239
 51
359.72879652185469
1001
ACDBBLOCKREPETAG
1070
     1
1071
      213
1005
1279C6
  0
ARC
  5
1279C7
  8
OBJECT
 10
2835.1217271212249
 20
-778.59049273883056
 30
0.0
 40
110.8663522830916
 50
324.16342741930481
 51
343.040353804338
1001
ACDBBLOCKREPETAG
1070
     1
1071
      214
1005
1279C7
  0
LINE
  5
1279C8
  8
OBJECT
 10
2943.6550800869959
 20
-787.00000000003081
 30
0.0
 11
2943.6550800869959
 21
-794.00000000002683
 31
0.0
1001
ACDBBLOCKREPETAG
1070
     1
1071
      215
1005
1279C8
  0
LINE
  5
1279C9
  8
OBJECT
 10
2925.0
 20
-737.50000000005946
 30
0.0
 11
2918.5
 21
-737.50000000005946
 31
0.0
1001
ACDBBLOCKREPETAG
1070
     1
1071
      216
1005
1279C9
  0
LINE
  5
1279CA
  8
OBJECT
 10
2925.0
 20
-843.49999999999409
 30
0.0
 11
2915.5
 21
-843.49999999999409
 31
0.0
1001
ACDBBLOCKREPETAG
1070
     1
1071
      217
1005
1279CA
  0
POINT
  5
1279CB
  8
DOTS
 10
3000.0
 20
-845.99999999999443
 30
0.0
1001
ACDBBLOCKREPETAG
1070
     1
1071
      219
1005
1279CB
  0
LINE
  5
1279CC
  8
OBJECT
 10
2423.0
 20
-570.99999999999432
 30
0.0
 11
2423.0
 21
-549.99999999999432
 31
0.0
1001
ACDBBLOCKREPETAG
1070
     1
1071
        0
1005
1279CC
  0
LINE
  5
1279CD
  8
OBJECT
 10
2423.0
 20
-549.99999999999432
 30
0.0
 11
2577.0
 21
-549.99999999999432
 31
0.0
1001
ACDBBLOCKREPETAG
1070
     1
1071
        1
1005
1279CD
  0
LINE
  5
1279CE
  8
HIDDEN
 10
2443.0
 20
-619.99999999999432
 30
0.0
 11
2557.0
 21
-619.99999999999432
 31
0.0
1001
ACDBBLOCKREPETAG
1070
     1
1071
        2
1005
1279CE
  0
LINE
  5
1279CF
  8
OBJECT
 10
2577.0
 20
-549.99999999999432
 30
0.0
 11
2577.0
 21
-570.99999999999432
 31
0.0
1001
ACDBBLOCKREPETAG
1070
     1
1071
        3
1005
1279CF
  0
LINE
  5
1279D0
  8
OBJECT
 10
2577.0
 20
-570.99999999999432
 30
0.0
 11
2423.0
 21
-570.99999999999432
 31
0.0
1001
ACDBBLOCKREPETAG
1070
     1
1071
        4
1005
1279D0
  0
LINE
  5
1279D1
  8
CENTER
 10
2500.0
 20
-534.99999999999432
 30
0.0
 11
2500.0
 21
-889.99999999999409
 31
0.0
1001
ACDBBLOCKREPETAG
1070
     1
1071
        5
1005
1279D1
  0
LINE
  5
1279D2
  8
OBJECT
 10
2425.0
 20
-633.99999999999432
 30
0.0
 11
2425.0
 21
-877.9999999999942
 31
0.0
1001
ACDBBLOCKREPETAG
1070
     1
1071
        6
1005
1279D2
  0
LINE
  5
1279D3
  8
OBJECT
 10
2428.0
 20
-570.99999999999432
 30
0.0
 11
2428.0
 21
-633.99999999999432
 31
0.0
1001
ACDBBLOCKREPETAG
1070
     1
1071
        7
1005
1279D3
  0
LINE
  5
1279D4
  8
OBJECT
 10
2572.0
 20
-633.99999999999432
 30
0.0
 11
2572.0
 21
-570.99999999999432
 31
0.0
1001
ACDBBLOCKREPETAG
1070
     1
1071
        8
1005
1279D4
  0
LINE
  5
1279D5
  8
OBJECT
 10
2420.0
 20
-877.9999999999942
 30
0.0
 11
2580.0
 21
-877.9999999999942
 31
0.0
1001
ACDBBLOCKREPETAG
1070
     1
1071
        9
1005
1279D5
  0
LINE
  5
1279D6
  8
OBJECT
 10
2580.0
 20
-633.99999999999432
 30
0.0
 11
2425.0
 21
-633.99999999999432
 31
0.0
1001
ACDBBLOCKREPETAG
1070
     1
1071
       10
1005
1279D6
  0
LINE
  5
1279D7
  8
OBJECT
 10
2420.0
 20
-877.9999999999942
 30
0.0
 11
2420.0
 21
-889.99999999999409
 31
0.0
1001
ACDBBLOCKREPETAG
1070
     1
1071
       11
1005
1279D7
  0
LINE
  5
1279D8
  8
OBJECT
 10
2420.0
 20
-889.99999999999409
 30
0.0
 11
2580.0
 21
-889.99999999999409
 31
0.0
1001
ACDBBLOCKREPETAG
1070
     1
1071
       12
1005
1279D8
  0
LINE
  5
1279D9
  8
OBJECT
 10
2580.0
 20
-889.99999999999409
 30
0.0
 11
2580.0
 21
-877.9999999999942
 31
0.0
1001
ACDBBLOCKREPETAG
1070
     1
1071
       13
1005
1279D9
  0
LINE
  5
1279DA
  8
OBJECT
 10
2574.9999999998622
 20
-757.99999999984493
 30
0.0
 11
2575.0
 21
-877.9999999999942
 31
0.0
1001
ACDBBLOCKREPETAG
1070
     1
1071
       15
1005
1279DA
  0
LINE
  5
1279DB
  8
OBJECT
 10
2574.9999908029849
 20
-757.99998602701612
 30
0.0
 11
2580.0
 21
-757.99998602701612
 31
0.0
1001
ACDBBLOCKREPETAG
1070
     1
1071
       16
1005
1279DB
  0
ARC
  5
1279DC
  8
OBJECT
 10
2700.6872746716731
 20
-749.40809941010195
 30
0.0
 40
170.6350503965856
 50
137.44134459184301
 51
149.91949581337221
1001
ACDBBLOCKREPETAG
1070
     1
1071
       17
1005
1279DC
  0
ARC
  5
1279DD
  8
OBJECT
 10
2618.8455987040511
 20
-705.88272669535922
 30
0.0
 40
78.072222021763665
 50
147.4551531038623
 51
164.6636599771798
1001
ACDBBLOCKREPETAG
1070
     1
1071
       18
1005
1279DD
  0
ARC
  5
1279DE
  8
OBJECT
 10
2585.7554349608731
 20
-695.99999999999432
 30
0.0
 40
43.55353926885617
 50
165.6884523007466
 51
194.3115476992534
1001
ACDBBLOCKREPETAG
1070
     1
1071
       19
1005
1279DE
  0
ARC
  5
1279DF
  8
OBJECT
 10
2700.6872746716731
 20
-642.59190058988645
 30
0.0
 40
170.6350503965856
 50
210.08050418662771
 51
222.55865540815699
1001
ACDBBLOCKREPETAG
1070
     1
1071
       20
1005
1279DF
  0
ARC
  5
1279E0
  8
OBJECT
 10
2618.8455987040511
 20
-686.11727330462952
 30
0.0
 40
78.072222021763665
 50
195.3363400228202
 51
212.5448468961377
1001
ACDBBLOCKREPETAG
1070
     1
1071
       21
1005
1279E0
  0
CIRCLE
  5
1279E1
  8
OBJECT
 10
2500.0
 20
-793.99999999999397
 30
0.0
 40
35.5
1001
ACDBBLOCKREPETAG
1070
     1
1071
      192
1005
1279E1
  0
LINE
  5
1279E2
  8
CENTER
 10
2430.0
 20
-793.99999999999397
 30
0.0
 11
2570.0
 21
-793.99999999999397
 31
0.0
1001
ACDBBLOCKREPETAG
1070
     1
1071
      193
1005
1279E2
  0
CIRCLE
  5
1279E3
  8
OBJECT
 10
2500.0
 20
-793.99999999999397
 30
0.0
 40
47.0
1001
ACDBBLOCKREPETAG
1070
     1
1071
       14
1005
1279E3
  0
ARC
  5
1279E4
  8
OBJECT
 10
2500.0
 20
-793.99999999999397
 30
0.0
 40
55.0
 50
289.0112652600846
 51
250.98873473991529
1001
ACDBBLOCKREPETAG
1070
     1
1071
      194
1005
1279E4
  0
LINE
  5
1279E5
  8
OBJECT
 10
2482.0835271328328
 20
-845.99999999999443
 30
0.0
 11
2517.9164728671681
 21
-845.99999999999443
 31
0.0
1001
ACDBBLOCKREPETAG
1070
     1
1071
      195
1005
1279E5
  0
POINT
  5
1279E6
  8
DOTS
 10
2500.0
 20
-845.99999999999443
 30
0.0
1001
ACDBBLOCKREPETAG
1070
     1
1071
      196
1005
1279E6
  0
LINE
  5
1279E7
  8
CENTER
 10
3077.0
 20
-695.99999999999432
 30
0.0
 11
2923.0
 21
-695.99999999999432
 31
0.0
1001
ACDBBLOCKREPETAG
1070
     1
1071
       17
1005
1279E7
  0
CIRCLE
  5
1279E8
  8
OBJECT
 10
3000.0
 20
-695.99999999999432
 30
0.0
 40
41.5
1001
ACDBBLOCKREPETAG
1070
     1
1071
       19
1005
1279E8
  0
CIRCLE
  5
1279E9
  8
OBJECT
 10
3000.0
 20
-695.99999999999432
 30
0.0
 40
54.0
1001
ACDBBLOCKREPETAG
1070
     1
1071
       20
1005
1279E9
  0
ARC
  5
1279EA
  8
OBJECT
 10
3000.0
 20
-695.99999999999432
 30
0.0
 40
62.0
 50
287.89655112920718
 51
252.10344887079279
1001
ACDBBLOCKREPETAG
1070
     1
1071
       21
1005
1279EA
  0
LINE
  5
1279EB
  8
OBJECT
 10
2980.947441116743
 20
-754.9999999999942
 30
0.0
 11
3019.052558883257
 21
-754.9999999999942
 31
0.0
1001
ACDBBLOCKREPETAG
1070
     1
1071
       22
1005
1279EB
  0
LINE
  5
1279EC
  8
OBJECT
 10
2633.0
 20
-137.99999999999909
 30
0.0
 11
2640.0
 21
-137.99999999999909
 31
0.0
1001
ACDBBLOCKREPETAG
1070
     1
1071
       47
1005
1279EC
  0
LINE
  5
1279ED
  8
OBJECT
 10
2640.0
 20
-137.99999999999909
 30
0.0
 11
2640.0
 21
-261.99999999999909
 31
0.0
1001
ACDBBLOCKREPETAG
1070
     1
1071
       48
1005
1279ED
  0
LINE
  5
1279EE
  8
OBJECT
 10
2640.0
 20
-261.99999999999909
 30
0.0
 11
2633.0
 21
-261.99999999999909
 31
0.0
1001
ACDBBLOCKREPETAG
1070
     1
1071
       49
1005
1279EE
  0
LINE
  5
1279EF
  8
OBJECT
 10
2633.0
 20
-261.99999999999909
 30
0.0
 11
2633.0
 21
-137.99999999999909
 31
0.0
1001
ACDBBLOCKREPETAG
1070
     1
1071
       50
1005
1279EF
  0
LINE
  5
1279F0
  8
CENTER
 10
2655.0
 20
-199.99999999999909
 30
0.0
 11
2580.0
 21
-199.99999999999909
 31
0.0
1001
ACDBBLOCKREPETAG
1070
     1
1071
       51
1005
1279F0
  0
LINE
  5
1279F1
  8
OBJECT
 10
2633.0
 20
-140.99999999999909
 30
0.0
 11
2597.0
 21
-140.99999999999909
 31
0.0
1001
ACDBBLOCKREPETAG
1070
     1
1071
       52
1005
1279F1
  0
LINE
  5
1279F2
  8
OBJECT
 10
2597.0
 20
-140.99999999999909
 30
0.0
 11
2597.0
 21
-258.99999999999909
 31
0.0
1001
ACDBBLOCKREPETAG
1070
     1
1071
       53
1005
1279F2
  0
LINE
  5
1279F3
  8
OBJECT
 10
2597.0
 20
-258.99999999999909
 30
0.0
 11
2633.0
 21
-258.99999999999909
 31
0.0
1001
ACDBBLOCKREPETAG
1070
     1
1071
       54
1005
1279F3
  0
LINE
  5
1279F4
  8
OBJECT
 10
2593.0
 20
-145.49999999999909
 30
0.0
 11
2586.0
 21
-145.49999999999909
 31
0.0
1001
ACDBBLOCKREPETAG
1070
     1
1071
       55
1005
1279F4
  0
LINE
  5
1279F5
  8
OBJECT
 10
2586.0
 20
-254.49999999999909
 30
0.0
 11
2593.0
 21
-254.49999999999909
 31
0.0
1001
ACDBBLOCKREPETAG
1070
     1
1071
       56
1005
1279F5
  0
LINE
  5
1279F6
  8
OBJECT
 10
2593.0
 20
-254.49999999999909
 30
0.0
 11
2593.0
 21
-145.49999999999909
 31
0.0
1001
ACDBBLOCKREPETAG
1070
     1
1071
       57
1005
1279F6
  0
LINE
  5
1279F7
  8
OBJECT
 10
2597.0
 20
-140.99999999999909
 30
0.0
 11
2593.0
 21
-145.49999999999909
 31
0.0
1001
ACDBBLOCKREPETAG
1070
     1
1071
       58
1005
1279F7
  0
LINE
  5
1279F8
  8
OBJECT
 10
2597.0
 20
-258.99999999999909
 30
0.0
 11
2593.0
 21
-254.49999999999909
 31
0.0
1001
ACDBBLOCKREPETAG
1070
     1
1071
       59
1005
1279F8
  0
LINE
  5
1279F9
  8
OBJECT
 10
2583.0
 20
-137.99999999999909
 30
0.0
 11
2580.0
 21
-137.99999999999909
 31
0.0
1001
ACDBBLOCKREPETAG
1070
     1
1071
       60
1005
1279F9
  0
ARC
  5
1279FA
  8
OBJECT
 10
2583.0
 20
-140.99999999999909
 30
0.0
 40
3.0
 50
0.0
 51
90.0
1001
ACDBBLOCKREPETAG
1070
     1
1071
       61
1005
1279FA
  0
LINE
  5
1279FB
  8
OBJECT
 10
2580.0
 20
-261.99999999999909
 30
0.0
 11
2583.0
 21
-261.99999999999909
 31
0.0
1001
ACDBBLOCKREPETAG
1070
     1
1071
       62
1005
1279FB
  0
ARC
  5
1279FC
  8
OBJECT
 10
2583.0
 20
-258.99999999999909
 30
0.0
 40
3.0
 50
270.0
 51
0.0
1001
ACDBBLOCKREPETAG
1070
     1
1071
       63
1005
1279FC
  0
LINE
  5
1279FD
  8
OBJECT
 10
2586.0
 20
-258.99999999999909
 30
0.0
 11
2586.0
 21
-140.99999999999909
 31
0.0
1001
ACDBBLOCKREPETAG
1070
     1
1071
       64
1005
1279FD
  0
LINE
  5
1279FE
  8
HIDDEN
 10
2588.0
 20
-155.49999999999909
 30
0.0
 11
2588.0
 21
-244.49999999999909
 31
0.0
1001
ACDBBLOCKREPETAG
1070
     1
1071
       65
1005
1279FE
  0
LINE
  5
1279FF
  8
OBJECT
 10
2633.0
 20
-634.0
 30
0.0
 11
2640.0
 21
-634.0
 31
0.0
1001
ACDBBLOCKREPETAG
1070
     1
1071
       45
1005
1279FF
  0
LINE
  5
127A00
  8
OBJECT
 10
2640.0
 20
-634.0
 30
0.0
 11
2640.0
 21
-755.0
 31
0.0
1001
ACDBBLOCKREPETAG
1070
     1
1071
       46
1005
127A00
  0
LINE
  5
127A01
  8
OBJECT
 10
2633.0
 20
-755.0
 30
0.0
 11
2633.0
 21
-634.0
 31
0.0
1001
ACDBBLOCKREPETAG
1070
     1
1071
       47
1005
127A01
  0
LINE
  5
127A02
  8
CENTER
 10
2655.0
 20
-696.0
 30
0.0
 11
2571.0
 21
-696.0
 31
0.0
1001
ACDBBLOCKREPETAG
1070
     1
1071
       48
1005
127A02
  0
LINE
  5
127A03
  8
OBJECT
 10
2633.0
 20
-637.0
 30
0.0
 11
2597.0
 21
-637.0
 31
0.0
1001
ACDBBLOCKREPETAG
1070
     1
1071
       49
1005
127A03
  0
LINE
  5
127A04
  8
OBJECT
 10
2597.0
 20
-637.0
 30
0.0
 11
2597.0
 21
-755.0
 31
0.0
1001
ACDBBLOCKREPETAG
1070
     1
1071
       50
1005
127A04
  0
LINE
  5
127A05
  8
OBJECT
 10
2597.0
 20
-755.0
 30
0.0
 11
2640.0
 21
-755.0
 31
0.0
1001
ACDBBLOCKREPETAG
1070
     1
1071
       51
1005
127A05
  0
LINE
  5
127A06
  8
OBJECT
 10
2593.0
 20
-641.5
 30
0.0
 11
2586.0
 21
-641.5
 31
0.0
1001
ACDBBLOCKREPETAG
1070
     1
1071
       52
1005
127A06
  0
LINE
  5
127A07
  8
OBJECT
 10
2586.0
 20
-750.49999999999989
 30
0.0
 11
2593.0
 21
-750.49999999999989
 31
0.0
1001
ACDBBLOCKREPETAG
1070
     1
1071
       53
1005
127A07
  0
LINE
  5
127A08
  8
OBJECT
 10
2593.0
 20
-750.49999999999989
 30
0.0
 11
2593.0
 21
-641.5
 31
0.0
1001
ACDBBLOCKREPETAG
1070
     1
1071
       54
1005
127A08
  0
LINE
  5
127A09
  8
OBJECT
 10
2597.0
 20
-637.0
 30
0.0
 11
2593.0
 21
-641.5
 31
0.0
1001
ACDBBLOCKREPETAG
1070
     1
1071
       55
1005
127A09
  0
LINE
  5
127A0A
  8
OBJECT
 10
2597.0
 20
-755.0
 30
0.0
 11
2593.0
 21
-750.49999999999989
 31
0.0
1001
ACDBBLOCKREPETAG
1070
     1
1071
       56
1005
127A0A
  0
LINE
  5
127A0B
  8
OBJECT
 10
2583.0
 20
-634.0
 30
0.0
 11
2580.0
 21
-634.0
 31
0.0
1001
ACDBBLOCKREPETAG
1070
     1
1071
       57
1005
127A0B
  0
ARC
  5
127A0C
  8
OBJECT
 10
2583.0
 20
-637.0
 30
0.0
 40
3.0
 50
0.0
 51
90.0
1001
ACDBBLOCKREPETAG
1070
     1
1071
       58
1005
127A0C
  0
LINE
  5
127A0D
  8
OBJECT
 10
2580.0
 20
-758.0
 30
0.0
 11
2583.0
 21
-758.0
 31
0.0
1001
ACDBBLOCKREPETAG
1070
     1
1071
       59
1005
127A0D
  0
ARC
  5
127A0E
  8
OBJECT
 10
2583.0
 20
-755.0
 30
0.0
 40
3.0
 50
270.0
 51
0.0
1001
ACDBBLOCKREPETAG
1070
     1
1071
       60
1005
127A0E
  0
LINE
  5
127A0F
  8
OBJECT
 10
2586.0
 20
-755.0
 30
0.0
 11
2586.0
 21
-637.0
 31
0.0
1001
ACDBBLOCKREPETAG
1070
     1
1071
       61
1005
127A0F
  0
LINE
  5
127A10
  8
HIDDEN
 10
2588.0
 20
-651.5
 30
0.0
 11
2588.0
 21
-740.5
 31
0.0
1001
ACDBBLOCKREPETAG
1070
     1
1071
       63
1005
127A10
  0
TEXT
  5
127A11
  8
SLIM
 10
2337.75
 20
282.50000000000011
 30
0.0
 40
35.0
  1
（枝管サイズ毎に寸法が異なります。管底の位置は全サイズで同じです）
 41
0.75
  0
TEXT
  5
127A12
  8
SLIM
 10
2350.0
 20
532.5
 30
0.0
 40
75.0
  1
側面図の代表機種
 41
0.75
  0
TEXT
  5
127A13
  8
SLIM
 10
2350.0
 20
369.99999999999989
 30
0.0
 40
100.0
  1
4SRTG-A3-A0200-P150
 41
0.75
  0
TEXT
  5
127A14
  8
SLIM
 10
0.0
 20
369.99999999999989
 30
0.0
 40
100.0
  1
4SRTG-A3-A0X00-PXXX-S
 41
0.75
  0
TEXT
  5
127A16
  8
SLIM
 10
4241.6249999999991
 20
-1467.499999999998
 30
0.0
 40
35.0
  1
片受けスタイル（S）＋シンドカット
 41
0.75
  0
TEXT
  5
127A17
  8
SLIM
 10
2356.25
 20
-1467.499999999998
 30
0.0
 40
35.0
  1
片受けスタイル（S）
 41
0.75
  0
VIEWPORT
  5
F6BA7
 67
     1
  8
0
 10
145.33033752441401
 20
101.8328354358673
 30
0.0
 40
334.0025019414623
 41
222.19657968139651
 68
     1
 69
     1
1001
ACAD
1000
MVIEW
1002
{
1070
    16
1010
0.0
1020
0.0
1030
0.0
1010
0.0
1020
0.0
1030
1.0
1040
0.0
1040
222.19657968139651
1040
145.33033752441401
1040
101.8328354358673
1040
50.0
1040
0.0
1040
0.0
1070
     0
1070
     0
1070
     1
1070
     1
1070
     0
1070
     0
1070
     0
1070
     0
1040
0.0
1040
0.0
1040
0.0
1040
10.0
1040
10.0
1040
10.0
1040
10.0
1070
     0
1002
{
1002
}
1002
}
  0
VIEWPORT
  5
F6BA9
 67
     1
  8
OBJECT
 10
145.3303314447403
 20
101.8328338861465
 30
0.0
 40
232.5285303115844
 41
162.93253421783439
 68
     2
 69
     2
1001
ACAD
1000
MVIEW
1002
{
1070
    16
1010
0.0
1020
0.0
1030
0.0
1010
0.0
1020
0.0
1030
1.0
1040
0.0
1040
25942.55904403147
1040
2377.604457077377
1040
-7591.5176687056619
1040
50.0
1040
0.0
1040
0.0
1070
     0
1070
   600
1070
     1
1070
     1
1070
     0
1070
     0
1070
     0
1070
     0
1040
0.0
1040
0.0
1040
0.0
1040
1.0
1040
1.0
1040
0.0
1040
0.0
1070
     0
1002
{
1002
}
1002
}
  0
ENDSEC
  0
EOF
