  0
SECTION
  2
HEADER
  9
$ACADVER
  1
AC1009
  9
$INSBASE
 10
0.0
 20
0.0
 30
0.0
  9
$EXTMIN
 10
0.0
 20
-1617.333333333331
 30
0.0
  9
$EXTMAX
 10
4387.0999999999922
 20
470.00000000000011
 30
0.0
  9
$LIMMIN
 10
0.0
 20
0.0
  9
$LIMMAX
 10
210.0
 20
297.0
  9
$ORTHOMODE
 70
     0
  9
$REGENMODE
 70
     1
  9
$FILLMODE
 70
     1
  9
$QTEXTMODE
 70
     0
  9
$MIRRTEXT
 70
     0
  9
$DRAGMODE
 70
     2
  9
$LTSCALE
 40
1.0
  9
$OSMODE
 70
   125
  9
$ATTMODE
 70
     1
  9
$TEXTSIZE
 40
4.0
  9
$TRACEWID
 40
0.05
  9
$TEXTSTYLE
  7
STANDARD
  9
$CLAYER
  8
OBJECT
  9
$CELTYPE
  6
BYLAYER
  9
$CECOLOR
 62
   256
  9
$DIMSCALE
 40
10.0
  9
$DIMASZ
 40
2.0
  9
$DIMEXO
 40
1.0
  9
$DIMDLI
 40
10.0
  9
$DIMRND
 40
0.0
  9
$DIMDLE
 40
0.0
  9
$DIMEXE
 40
1.0
  9
$DIMTP
 40
0.0
  9
$DIMTM
 40
0.0
  9
$DIMTXT
 40
3.2000000000000002
  9
$DIMCEN
 40
0.0
  9
$DIMTSZ
 40
0.0
  9
$DIMTOL
 70
     0
  9
$DIMLIM
 70
     0
  9
$DIMTIH
 70
     0
  9
$DIMTOH
 70
     0
  9
$DIMSE1
 70
     0
  9
$DIMSE2
 70
     0
  9
$DIMTAD
 70
     1
  9
$DIMZIN
 70
     8
  9
$DIMBLK
  1
OPEN30
  9
$DIMASO
 70
     1
  9
$DIMSHO
 70
     1
  9
$DIMPOST
  1

  9
$DIMAPOST
  1

  9
$DIMALT
 70
     0
  9
$DIMALTD
 70
     2
  9
$DIMALTF
 40
25.399999999999999
  9
$DIMLFAC
 40
1.0
  9
$DIMTOFL
 70
     1
  9
$DIMTVP
 40
0.0
  9
$DIMTIX
 70
     0
  9
$DIMSOXD
 70
     0
  9
$DIMSAH
 70
     0
  9
$DIMBLK1
  1

  9
$DIMBLK2
  1

  9
$DIMSTYLE
  2
S10
  9
$DIMCLRD
 70
   256
  9
$DIMCLRE
 70
   256
  9
$DIMCLRT
 70
   256
  9
$DIMTFAC
 40
1.0
  9
$DIMGAP
 40
0.9
  9
$LUNITS
 70
     2
  9
$LUPREC
 70
     2
  9
$SKETCHINC
 40
0.1
  9
$FILLETRAD
 40
0.0
  9
$AUNITS
 70
     0
  9
$AUPREC
 70
     2
  9
$MENU
  1
ACAD
  9
$ELEVATION
 40
0.0
  9
$PELEVATION
 40
0.0
  9
$THICKNESS
 40
0.0
  9
$LIMCHECK
 70
     0
  9
$BLIPMODE
 70
     0
  9
$CHAMFERA
 40
2.0
  9
$CHAMFERB
 40
2.0
  9
$SKPOLY
 70
     0
  9
$TDCREATE
 40
2453095.4929404748
  9
$TDUPDATE
 40
2456832.727122372
  9
$TDINDWG
 40
18.4142807755
  9
$TDUSRTIMER
 40
18.4142801273
  9
$USRTIMER
 70
     1
  9
$ANGBASE
 50
0.0
  9
$ANGDIR
 70
     0
  9
$PDMODE
 70
    35
  9
$PDSIZE
 40
2.0
  9
$PLINEWID
 40
0.0
  9
$COORDS
 70
     1
  9
$SPLFRAME
 70
     0
  9
$SPLINETYPE
 70
     6
  9
$SPLINESEGS
 70
     8
  9
$ATTDIA
 70
     1
  9
$ATTREQ
 70
     1
  9
$HANDLING
 70
     1
  9
$HANDSEED
  5
1225F7
  9
$SURFTAB1
 70
     6
  9
$SURFTAB2
 70
     6
  9
$SURFTYPE
 70
     6
  9
$SURFU
 70
     6
  9
$SURFV
 70
     6
  9
$UCSNAME
  2

  9
$UCSORG
 10
0.0
 20
0.0
 30
0.0
  9
$UCSXDIR
 10
1.0
 20
0.0
 30
0.0
  9
$UCSYDIR
 10
0.0
 20
1.0
 30
0.0
  9
$PUCSNAME
  2

  9
$PUCSORG
 10
0.0
 20
0.0
 30
0.0
  9
$PUCSXDIR
 10
1.0
 20
0.0
 30
0.0
  9
$PUCSYDIR
 10
0.0
 20
1.0
 30
0.0
  9
$USERI1
 70
     0
  9
$USERI2
 70
     0
  9
$USERI3
 70
     0
  9
$USERI4
 70
     0
  9
$USERI5
 70
     0
  9
$USERR1
 40
0.0
  9
$USERR2
 40
0.0
  9
$USERR3
 40
0.0
  9
$USERR4
 40
0.0
  9
$USERR5
 40
0.0
  9
$WORLDVIEW
 70
     1
  9
$SHADEDGE
 70
     3
  9
$SHADEDIF
 70
    70
  9
$TILEMODE
 70
     1
  9
$MAXACTVP
 70
    64
  9
$PLIMCHECK
 70
     0
  9
$PEXTMIN
 10
29.066066288948051
 20
20.366566777229309
 30
0.0
  9
$PEXTMAX
 10
261.5945966005325
 20
183.29910099506381
 30
0.0
  9
$PLIMMIN
 10
-3.17498779296875
 20
-3.1749999523162842
  9
$PLIMMAX
 10
293.83566284179687
 20
206.8406708240509
  9
$UNITMODE
 70
     0
  9
$VISRETAIN
 70
     1
  9
$PLINEGEN
 70
     0
  9
$PSLTSCALE
 70
     1
  0
ENDSEC
  0
SECTION
  2
TABLES
  0
TABLE
  2
VPORT
 70
     1
  0
VPORT
  2
*ACTIVE
 70
     0
 10
0.0
 20
0.0
 11
1.0
 21
1.0
 12
7801.8255425389943
 22
-1133.337906953853
 13
0.0
 23
0.0
 14
1.0
 24
1.0
 15
0.0
 25
0.0
 16
0.0
 26
0.0
 36
1.0
 17
0.0
 27
0.0
 37
0.0
 40
19020.905845551231
 41
1.8343023255813951
 42
50.0
 43
0.0
 44
0.0
 50
0.0
 51
0.0
 71
     0
 72
   600
 73
     1
 74
     1
 75
     0
 76
     0
 77
     0
 78
     0
  0
ENDTAB
  0
TABLE
  2
LTYPE
 70
     3
  0
LTYPE
  2
CONTINUOUS
 70
     0
  3
Solid line
 72
    65
 73
     0
 40
0.0
  0
LTYPE
  2
ACAD_ISO08W100
 70
     0
  3
ISO long-dash short-dash ____ __ ____ __ ____ _
 72
    65
 73
     4
 40
36.0
 49
24.0
 49
-3.0
 49
6.0
 49
-3.0
  0
LTYPE
  2
ACAD_ISO02W100
 70
     0
  3
ISO dash __ __ __ __ __ __ __ __ __ __ __ __ __
 72
    65
 73
     2
 40
15.0
 49
12.0
 49
-3.0
  0
ENDTAB
  0
TABLE
  2
LAYER
 70
     7
  0
LAYER
  2
0
 70
     0
 62
     7
  6
CONTINUOUS
  0
LAYER
  2
OBJECT
 70
     0
 62
     4
  6
CONTINUOUS
  0
LAYER
  2
DEFPOINTS
 70
     0
 62
     7
  6
CONTINUOUS
  0
LAYER
  2
HIDDEN
 70
     0
 62
     2
  6
ACAD_ISO02W100
  0
LAYER
  2
CENTER
 70
     0
 62
     2
  6
ACAD_ISO08W100
  0
LAYER
  2
DOTS
 70
     0
 62
     1
  6
CONTINUOUS
  0
LAYER
  2
SLIM
 70
     0
 62
     2
  6
CONTINUOUS
  0
ENDTAB
  0
TABLE
  2
STYLE
 70
     2
  0
STYLE
  2
STANDARD
 70
     0
 40
0.0
 41
0.75
 50
0.0
 71
     0
 42
4.0
  3
simplex.shx
  4
bigfont.shx
  0
ENDTAB
  0
TABLE
  2
VIEW
 70
     0
  0
ENDTAB
  0
TABLE
  2
UCS
 70
     0
  0
ENDTAB
  0
TABLE
  2
APPID
 70
    18
  0
APPID
  2
ACAD
 70
     0
  0
APPID
  2
ACADANNOTATIVE
 70
     0
  0
APPID
  2
ACAD_PSEXT
 70
     0
  0
APPID
  2
ACAD_EXEMPT_FROM_CAD_STANDARDS
 70
     0
  0
APPID
  2
ACAECLAYERSTANDARD
 70
     0
  0
APPID
  2
ACAUTHENVIRON
 70
     0
  0
APPID
  2
ACDBDYNAMICBLOCKTRUENAME
 70
     0
  0
APPID
  2
ACDBDYNAMICBLOCKGUID
 70
     0
  0
APPID
  2
ACDBBLOCKREPETAG
 70
     0
  0
APPID
  2
ACDBBLOCKREPBTAG
 70
     0
  0
APPID
  2
ACAD_NAV_VCDISPLAY
 70
     0
  0
APPID
  2
ACAD_DSTYLE_DIMRADIAL_EXTENSION
 70
     0
  0
APPID
  2
ACAD_DSTYLE_DIMJAG
 70
     0
  0
APPID
  2
ACAD_DSTYLE_DIMTALN
 70
     0
  0
APPID
  2
ACADANNOPO
 70
     0
  0
APPID
  2
GRADIENTCOLOR1ACI
 70
     0
  0
APPID
  2
GRADIENTCOLOR2ACI
 70
     0
  0
APPID
  2
ACAD_MLEADERVER
 70
     0
  0
ENDTAB
  0
TABLE
  2
DIMSTYLE
 70
     3
  0
DIMSTYLE
  2
STANDARD
 70
     0
  3

  4

  5

  6

  7

 40
1.0
 41
0.18
 42
0.0625
 43
0.38
 44
0.18
 45
0.0
 46
0.0
 47
0.0
 48
0.0
140
0.18
141
0.09
142
0.0
143
25.399999999999999
144
1.0
145
0.0
146
1.0
147
0.09
 71
     0
 72
     0
 73
     1
 74
     1
 75
     0
 76
     0
 77
     0
 78
     0
170
     0
171
     2
172
     0
173
     0
174
     0
175
     0
176
     0
177
     0
178
     0
  0
DIMSTYLE
  2
S10
 70
     0
  3

  4

  5

  6

  7

 40
10.0
 41
2.0
 42
1.0
 43
10.0
 44
1.0
 45
0.0
 46
0.0
 47
0.0
 48
0.0
140
3.2000000000000002
141
0.0
142
0.0
143
25.399999999999999
144
1.0
145
0.0
146
1.0
147
0.9
 71
     0
 72
     0
 73
     0
 74
     0
 75
     0
 76
     0
 77
     1
 78
     8
170
     0
171
     2
172
     1
173
     0
174
     0
175
     0
176
   256
177
   256
178
   256
  0
ENDTAB
  0
ENDSEC
  0
SECTION
  2
BLOCKS
  0
BLOCK
  8
0
  2
$MODEL_SPACE
 70
     0
 10
0.0
 20
0.0
 30
0.0
  3
$MODEL_SPACE
  1

  0
ENDBLK
  5
12248A
  8
0
  0
BLOCK
 67
     1
  8
0
  2
$PAPER_SPACE
 70
     0
 10
0.0
 20
0.0
 30
0.0
  3
$PAPER_SPACE
  1

  0
ENDBLK
  5
122486
 67
     1
  8
0
  0
BLOCK
  8
0
  2
_OPEN30
 70
     0
 10
0.0
 20
0.0
 30
0.0
  3
_OPEN30
  1

  0
LINE
  5
202
  8
0
  6
BYBLOCK
 62
     0
 10
-1.0
 20
0.26794919
 30
0.0
 11
0.0
 21
0.0
 31
0.0
  0
LINE
  5
203
  8
0
  6
BYBLOCK
 62
     0
 10
0.0
 20
0.0
 30
0.0
 11
-1.0
 21
-0.26794919
 31
0.0
  0
LINE
  5
204
  8
0
  6
BYBLOCK
 62
     0
 10
0.0
 20
0.0
 30
0.0
 11
-1.0
 21
0.0
 31
0.0
  0
ENDBLK
  5
206
  8
0
  0
BLOCK
  8
0
  2
*X117
 70
     1
 10
0.0
 20
0.0
 30
0.0
  3
*X117
  1

  0
LINE
  5
122288
  8
0
 62
     0
 10
4044.9012806053461
 20
-129.28048304657869
 30
0.0
 11
4041.364797757567
 21
-125.7440001987998
 31
0.0
  0
LINE
  5
122289
  8
0
 62
     0
 10
4053.6207975587658
 20
-137.99999999999841
 30
0.0
 11
4049.3914086658801
 21
-133.77061110711341
 31
0.0
  0
LINE
  5
12228A
  8
0
 62
     0
 10
4026.9407683632062
 20
-120.3002269255097
 30
0.0
 11
4025.5813318337941
 21
-118.9407903960969
 31
0.0
  0
LINE
  5
12228B
  8
0
 62
     0
 10
4035.9210244842761
 20
-129.28048304657889
 30
0.0
 11
4031.4308964237398
 21
-124.79035498604431
 31
0.0
  0
LINE
  5
12228C
  8
0
 62
     0
 10
4044.6405414376959
 20
-137.99999999999841
 30
0.0
 11
4040.4111525448111
 21
-133.7706111071135
 31
0.0
  0
LINE
  5
12228D
  8
0
 62
     0
 10
4017.9605122421381
 20
-120.3002269255102
 30
0.0
 11
4013.785639980023
 21
-116.12535466339411
 31
0.0
  0
LINE
  5
12228E
  8
0
 62
     0
 10
4026.9407683632062
 20
-129.28048304657929
 30
0.0
 11
4022.450640302673
 21
-124.7903549860448
 31
0.0
  0
LINE
  5
12228F
  8
0
 62
     0
 10
4008.980256121069
 20
-120.30022692550961
 30
0.0
 11
4004.4901280605341
 21
-115.810098864975
 31
0.0
  0
LINE
  5
122290
  8
0
 62
     0
 10
4015.2459755954542
 20
-126.56594639989559
 30
0.0
 11
4013.4703841816022
 21
-124.79035498604421
 31
0.0
  0
LINE
  5
122291
  8
0
 62
     0
 10
4000.0
 20
-120.3002269255098
 30
0.0
 11
3995.5098719394659
 21
-115.8100988649755
 31
0.0
  0
LINE
  5
122292
  8
0
 62
     0
 10
4000.0
 20
-120.3002269255101
 30
0.0
 11
4000.0
 21
-120.3002269255099
 31
0.0
  0
LINE
  5
122293
  8
0
 62
     0
 10
4004.857222406476
 20
-125.157449331986
 30
0.0
 11
4004.4901280605341
 21
-124.7903549860447
 31
0.0
  0
LINE
  5
122294
  8
0
 62
     0
 10
3991.0197438789319
 20
-120.30022692550961
 30
0.0
 11
3986.7574181990171
 21
-116.0379012455945
 31
0.0
  0
LINE
  5
122295
  8
0
 62
     0
 10
3995.8352410164198
 20
-125.11572406299901
 30
0.0
 11
3995.5098719394659
 21
-124.79035498604399
 31
0.0
  0
LINE
  5
122296
  8
0
 62
     0
 10
3982.039487757861
 20
-120.3002269255103
 30
0.0
 11
3979.2986509997559
 21
-117.5593901674041
 31
0.0
  0
LINE
  5
122297
  8
0
 62
     0
 10
3987.7469459221788
 20
-126.00768508982701
 30
0.0
 11
3986.5296158183978
 21
-124.7903549860449
 31
0.0
  0
LINE
  5
122298
  8
0
 62
     0
 10
3973.0592316367929
 20
-120.30022692551
 30
0.0
 11
3972.3737447415801
 21
-119.6147400302966
 31
0.0
  0
LINE
  5
122299
  8
0
 62
     0
 10
3980.3727435536048
 20
-127.6137388423216
 30
0.0
 11
3977.5493596973279
 21
-124.79035498604451
 31
0.0
  0
LINE
  5
12229A
  8
0
 62
     0
 10
3973.0592316367929
 20
-129.28048304657889
 30
0.0
 11
3968.5691035762588
 21
-124.79035498604441
 31
0.0
  0
LINE
  5
12229B
  8
0
 62
     0
 10
3964.0789755157239
 20
-129.28048304657941
 30
0.0
 11
3959.8686784425822
 21
-125.07018597343711
 31
0.0
  0
LINE
  5
12229C
  8
0
 62
     0
 10
3955.098719394653
 20
-129.28048304657869
 30
0.0
 11
3954.207715567552
 21
-128.3894792194757
 31
0.0
  0
LINE
  5
12229D
  8
0
 62
     0
 10
3961.4712462510188
 20
-135.65300990294421
 30
0.0
 11
3959.5888474551889
 21
-133.77061110711341
 31
0.0
  0
LINE
  5
12229E
  8
0
 62
     0
 10
3955.098719394653
 20
-138.26073916764781
 30
0.0
 11
3950.6085913341199
 21
-133.77061110711321
 31
0.0
  0
LINE
  5
12229F
  8
0
 62
     0
 10
3946.1184632735858
 20
-138.26073916764841
 30
0.0
 11
3943.953333351933
 21
-136.0956092459956
 31
0.0
  0
LINE
  5
1222A0
  8
0
 62
     0
 10
3951.0415852941028
 20
-143.18386118816611
 30
0.0
 11
3950.6085913341199
 21
-142.75086722818301
 31
0.0
  0
LINE
  5
1222A1
  8
0
 62
     0
 10
3946.1184632735858
 20
-147.24099528871739
 30
0.0
 11
3941.6283352130508
 21
-142.75086722818281
 31
0.0
  0
LINE
  5
1222A2
  8
0
 62
     0
 10
3937.1382071525159
 20
-147.2409952887169
 30
0.0
 11
3935.0571756770728
 21
-145.15996381327341
 31
0.0
  0
LINE
  5
1222A3
  8
0
 62
     0
 10
3942.156718127344
 20
-152.25950626354469
 30
0.0
 11
3941.6283352130508
 21
-151.73112334925139
 31
0.0
  0
LINE
  5
1222A4
  8
0
 62
     0
 10
4053.8815367264142
 20
-263.98432486261572
 30
0.0
 11
4051.8972118637971
 21
-261.99999999999841
 31
0.0
  0
LINE
  5
1222A5
  8
0
 62
     0
 10
3937.1382071525159
 20
-156.22125140978659
 30
0.0
 11
3932.6480790919818
 21
-151.73112334925199
 31
0.0
  0
LINE
  5
1222A6
  8
0
 62
     0
 10
4044.9012806053461
 20
-263.98432486261601
 30
0.0
 11
4042.9169557427281
 21
-261.99999999999841
 31
0.0
  0
LINE
  5
1222A7
  8
0
 62
     0
 10
4049.800363209366
 20
-268.883407466638
 30
0.0
 11
4049.3914086658801
 21
-268.47445292315058
 31
0.0
  0
LINE
  5
1222A8
  8
0
 62
     0
 10
3928.1579510314468
 20
-156.2212514097865
 30
0.0
 11
3927.5251056078532
 21
-155.58840598619281
 31
0.0
  0
LINE
  5
1222A9
  8
0
 62
     0
 10
3934.825287788999
 20
-162.88858816733909
 30
0.0
 11
3932.6480790919818
 21
-160.71137947032111
 31
0.0
  0
LINE
  5
1222AA
  8
0
 62
     0
 10
4044.4115940138049
 20
-272.47489439214559
 30
0.0
 11
4040.4111525448111
 21
-268.47445292315069
 31
0.0
  0
LINE
  5
1222AB
  8
0
 62
     0
 10
3928.1579510314468
 20
-165.20150753085579
 30
0.0
 11
3924.2991719989341
 21
-161.34272849834159
 31
0.0
  0
LINE
  5
1222AC
  8
0
 62
     0
 10
4035.9210244842761
 20
-272.96458098368549
 30
0.0
 11
4031.4308964237398
 21
-268.47445292315092
 31
0.0
  0
LINE
  5
1222AD
  8
0
 62
     0
 10
3928.1579510314468
 20
-174.18176365192451
 30
0.0
 11
3923.6678229709119
 21
-169.69163559139
 31
0.0
  0
LINE
  5
1222AE
  8
0
 62
     0
 10
4026.9407683632062
 20
-272.9645809836851
 30
0.0
 11
4024.768342412101
 21
-270.79215503257888
 31
0.0
  0
LINE
  5
1222AF
  8
0
 62
     0
 10
4032.5124322087249
 20
-278.53624482920441
 30
0.0
 11
4031.4308964237398
 21
-277.45470904421973
 31
0.0
  0
LINE
  5
1222B0
  8
0
 62
     0
 10
3919.1776949103769
 20
-174.1817636519248
 30
0.0
 11
3919.0551166644791
 21
-174.0591854060259
 31
0.0
  0
LINE
  5
1222B1
  8
0
 62
     0
 10
3927.1533065670092
 20
-182.15737530855529
 30
0.0
 11
3923.6678229709119
 21
-178.6718917124594
 31
0.0
  0
LINE
  5
1222B2
  8
0
 62
     0
 10
4017.960512242139
 20
-272.96458098368612
 30
0.0
 11
4017.8426246914441
 21
-272.846693432991
 31
0.0
  0
LINE
  5
1222B3
  8
0
 62
     0
 10
4025.9408145939719
 20
-280.94488333551971
 30
0.0
 11
4022.4506403026739
 21
-277.45470904422069
 31
0.0
  0
LINE
  5
1222B4
  8
0
 62
     0
 10
3919.1776949103769
 20
-183.16201977299369
 30
0.0
 11
3917.1256054736991
 21
-181.10993033631431
 31
0.0
  0
LINE
  5
1222B5
  8
0
 62
     0
 10
3925.711247363703
 20
-189.69557222631869
 30
0.0
 11
3923.6678229709119
 21
-187.6521478335282
 31
0.0
  0
LINE
  5
1222B6
  8
0
 62
     0
 10
4017.9605122421381
 20
-281.94483710475481
 30
0.0
 11
4013.470384181604
 21
-277.45470904422018
 31
0.0
  0
LINE
  5
1222B7
  8
0
 62
     0
 10
3919.1776949103769
 20
-192.1422758940632
 30
0.0
 11
3915.7522148444491
 21
-188.71679582813351
 31
0.0
  0
LINE
  5
1222B8
  8
0
 62
     0
 10
3925.0268991702492
 20
-197.9914801539347
 30
0.0
 11
3923.6678229709119
 21
-196.63240395459789
 31
0.0
  0
LINE
  5
1222B9
  8
0
 62
     0
 10
4008.980256121069
 20
-281.94483710475492
 30
0.0
 11
4004.490128060535
 21
-277.45470904422041
 31
0.0
  0
LINE
  5
1222BA
  8
0
 62
     0
 10
3919.1776949103769
 20
-201.12253201513221
 30
0.0
 11
3918.0551628952448
 21
-199.99999999999829
 31
0.0
  0
LINE
  5
1222BB
  8
0
 62
     0
 10
3925.3562150071471
 20
-207.3010521119015
 30
0.0
 11
3923.6678229709119
 21
-205.6126600756667
 31
0.0
  0
LINE
  5
1222BC
  8
0
 62
     0
 10
4000.0
 20
-281.94483710475453
 30
0.0
 11
3995.5098719394659
 21
-277.45470904422018
 31
0.0
  0
LINE
  5
1222BD
  8
0
 62
     0
 10
3918.0551628952448
 20
-199.99999999999829
 30
0.0
 11
3915.0530329227231
 21
-196.99787002747681
 31
0.0
  0
LINE
  5
1222BE
  8
0
 62
     0
 10
4000.0
 20
-281.94483710475441
 30
0.0
 11
4000.0
 21
-281.94483710475401
 31
0.0
  0
LINE
  5
1222BF
  8
0
 62
     0
 10
3919.1776949103769
 20
-210.10278813620101
 30
0.0
 11
3915.2226107005308
 21
-206.14770392635401
 31
0.0
  0
LINE
  5
1222C0
  8
0
 62
     0
 10
3927.230735249077
 20
-218.1558284749006
 30
0.0
 11
3923.6678229709119
 21
-214.59291619673559
 31
0.0
  0
LINE
  5
1222C1
  8
0
 62
     0
 10
3982.039487757861
 20
-272.96458098368532
 30
0.0
 11
3981.8441715250988
 21
-272.76926475092188
 31
0.0
  0
LINE
  5
1222C2
  8
0
 62
     0
 10
3991.0197438789319
 20
-281.94483710475441
 30
0.0
 11
3986.5296158183978
 21
-277.45470904421973
 31
0.0
  0
LINE
  5
1222C3
  8
0
 62
     0
 10
3919.1776949103769
 20
-219.0830442572707
 30
0.0
 11
3916.6223302933631
 21
-216.52767964025591
 31
0.0
  0
LINE
  5
1222C4
  8
0
 62
     0
 10
3928.1579510314468
 20
-228.0633003783399
 30
0.0
 11
3923.6678229709119
 21
-223.5731723178053
 31
0.0
  0
LINE
  5
1222C5
  8
0
 62
     0
 10
3973.0592316367929
 20
-272.96458098368572
 30
0.0
 11
3968.5691035762588
 21
-268.47445292315109
 31
0.0
  0
LINE
  5
1222C6
  8
0
 62
     0
 10
3982.039487757861
 20
-281.94483710475481
 30
0.0
 11
3977.5493596973279
 21
-277.45470904422018
 31
0.0
  0
LINE
  5
1222C7
  8
0
 62
     0
 10
3928.1579510314468
 20
-237.04355649940879
 30
0.0
 11
3923.6678229709141
 21
-232.55342843887431
 31
0.0
  0
LINE
  5
1222C8
  8
0
 62
     0
 10
3937.1382071525159
 20
-246.023812620478
 30
0.0
 11
3932.6480790919818
 21
-241.5336845599434
 31
0.0
  0
LINE
  5
1222C9
  8
0
 62
     0
 10
3946.1184632735858
 20
-255.00406874154709
 30
0.0
 11
3941.6283352130508
 21
-250.5139406810126
 31
0.0
  0
LINE
  5
1222CA
  8
0
 62
     0
 10
3955.0987193946548
 20
-263.98432486261629
 30
0.0
 11
3950.6085913341199
 21
-259.49419680208172
 31
0.0
  0
LINE
  5
1222CB
  8
0
 62
     0
 10
3964.0789755157239
 20
-272.96458098368549
 30
0.0
 11
3959.5888474551889
 21
-268.47445292315092
 31
0.0
  0
LINE
  5
1222CC
  8
0
 62
     0
 10
3971.0224918935851
 20
-279.90809736154642
 30
0.0
 11
3968.569103576257
 21
-277.45470904422001
 31
0.0
  0
LINE
  5
1222CD
  8
0
 62
     0
 10
3937.1382071525159
 20
-255.004068741547
 30
0.0
 11
3932.6480790919818
 21
-250.5139406810124
 31
0.0
  0
LINE
  5
1222CE
  8
0
 62
     0
 10
3946.1184632735858
 20
-263.98432486261601
 30
0.0
 11
3941.6283352130508
 21
-259.49419680208149
 31
0.0
  0
LINE
  5
1222CF
  8
0
 62
     0
 10
3952.8742563374281
 20
-270.74011792645911
 30
0.0
 11
3950.6085913341199
 21
-268.47445292315069
 31
0.0
  0
LINE
  5
1222D0
  8
0
 62
     0
 10
4043.2174825826451
 20
-130.96428106927939
 30
0.0
 11
4038.7273545221101
 21
-126.47415300874481
 31
0.0
  0
LINE
  5
1222D1
  8
0
 62
     0
 10
4050.2532015133638
 20
-137.99999999999849
 30
0.0
 11
4047.7076106431782
 21
-135.454409129814
 31
0.0
  0
LINE
  5
1222D2
  8
0
 62
     0
 10
4025.256970340507
 20
-121.9840249482106
 30
0.0
 11
4020.8765200385119
 21
-117.6035746462148
 31
0.0
  0
LINE
  5
1222D3
  8
0
 62
     0
 10
4034.237226461576
 20
-130.96428106927971
 30
0.0
 11
4029.747098401042
 21
-126.4741530087452
 31
0.0
  0
LINE
  5
1222D4
  8
0
 62
     0
 10
4039.546200263319
 20
-136.27325487102291
 30
0.0
 11
4038.727354522111
 21
-135.45440912981431
 31
0.0
  0
LINE
  5
1222D5
  8
0
 62
     0
 10
4016.276714219438
 20
-121.9840249482103
 30
0.0
 11
4011.7865861589039
 21
-117.4938968876757
 31
0.0
  0
LINE
  5
1222D6
  8
0
 62
     0
 10
4022.8621483857878
 20
-128.5694591145608
 30
0.0
 11
4020.766842279972
 21
-126.47415300874491
 31
0.0
  0
LINE
  5
1222D7
  8
0
 62
     0
 10
4007.2964580983689
 20
-121.9840249482103
 30
0.0
 11
4002.806330037834
 21
-117.4938968876757
 31
0.0
  0
LINE
  5
1222D8
  8
0
 62
     0
 10
3998.3162019772999
 20
-121.9840249482104
 30
0.0
 11
3993.8260739167658
 21
-117.4938968876758
 31
0.0
  0
LINE
  5
1222D9
  8
0
 62
     0
 10
3989.3359458562309
 20
-121.9840249482105
 30
0.0
 11
3984.8458177956959
 21
-117.493896887676
 31
0.0
  0
LINE
  5
1222DA
  8
0
 62
     0
 10
3980.3556897351609
 20
-121.9840249482103
 30
0.0
 11
3976.643590459008
 21
-118.27192567205719
 31
0.0
  0
LINE
  5
1222DB
  8
0
 62
     0
 10
3984.9061848395481
 20
-126.5345200525967
 30
0.0
 11
3984.8458177956959
 21
-126.47415300874481
 31
0.0
  0
LINE
  5
1222DC
  8
0
 62
     0
 10
3971.3754336140919
 20
-121.98402494821001
 30
0.0
 11
3969.8995166233922
 21
-120.5081079575105
 31
0.0
  0
LINE
  5
1222DD
  8
0
 62
     0
 10
3977.763602446279
 20
-128.37219378039671
 30
0.0
 11
3975.8655616746269
 21
-126.47415300874449
 31
0.0
  0
LINE
  5
1222DE
  8
0
 62
     0
 10
3971.1725803665872
 20
-130.76142782177459
 30
0.0
 11
3966.8853055535569
 21
-126.47415300874459
 31
0.0
  0
LINE
  5
1222DF
  8
0
 62
     0
 10
3962.3951774930229
 20
-130.96428106927951
 30
0.0
 11
3957.9050494324879
 21
-126.47415300874491
 31
0.0
  0
LINE
  5
1222E0
  8
0
 62
     0
 10
3953.4149213719538
 20
-130.96428106927959
 30
0.0
 11
3952.1787945338201
 21
-129.72815423114599
 31
0.0
  0
LINE
  5
1222E1
  8
0
 62
     0
 10
3959.393937886342
 20
-136.94329758366749
 30
0.0
 11
3957.9050494324879
 21
-135.4544091298142
 31
0.0
  0
LINE
  5
1222E2
  8
0
 62
     0
 10
3953.4149213719538
 20
-139.94453719034831
 30
0.0
 11
3948.9247933114189
 21
-135.45440912981371
 31
0.0
  0
LINE
  5
1222E3
  8
0
 62
     0
 10
3944.4346652508839
 20
-139.94453719034851
 30
0.0
 11
3942.1829321375349
 21
-137.69280407699901
 31
0.0
  0
LINE
  5
1222E4
  8
0
 62
     0
 10
3949.2595972728632
 20
-144.76946921232701
 30
0.0
 11
3948.9247933114189
 21
-144.43466525088311
 31
0.0
  0
LINE
  5
1222E5
  8
0
 62
     0
 10
3944.4346652508839
 20
-148.9247933114176
 30
0.0
 11
3939.9445371903498
 21
-144.4346652508832
 31
0.0
  0
LINE
  5
1222E6
  8
0
 62
     0
 10
4057.8170678624638
 20
-262.3071959229984
 30
0.0
 11
4057.509871939465
 21
-261.99999999999852
 31
0.0
  0
LINE
  5
1222E7
  8
0
 62
     0
 10
3935.4544091298148
 20
-148.9247933114176
 30
0.0
 11
3933.5392925284159
 21
-147.00967671001871
 31
0.0
  0
LINE
  5
1222E8
  8
0
 62
     0
 10
3940.6612225988802
 20
-154.1316067804816
 30
0.0
 11
3939.9445371903498
 21
-153.4149213719522
 31
0.0
  0
LINE
  5
1222E9
  8
0
 62
     0
 10
4052.1977387037118
 20
-265.66812288531651
 30
0.0
 11
4048.529615818396
 21
-261.99999999999829
 31
0.0
  0
LINE
  5
1222EA
  8
0
 62
     0
 10
3935.4544091298171
 20
-157.905049432487
 30
0.0
 11
3930.9642810692808
 21
-153.41492137195249
 31
0.0
  0
LINE
  5
1222EB
  8
0
 62
     0
 10
4043.217482582646
 20
-265.66812288531668
 30
0.0
 11
4040.606062113658
 21
-263.0567024163297
 31
0.0
  0
LINE
  5
1222EC
  8
0
 62
     0
 10
4047.8212054661799
 20
-270.27184576885128
 30
0.0
 11
4047.70761064318
 21
-270.15825094585119
 31
0.0
  0
LINE
  5
1222ED
  8
0
 62
     0
 10
3926.4741530087458
 20
-157.90504943248709
 30
0.0
 11
3926.271409419352
 21
-157.7023058430924
 31
0.0
  0
LINE
  5
1222EE
  8
0
 62
     0
 10
3933.6335430370682
 20
-165.0644394608091
 30
0.0
 11
3930.9642810692808
 21
-162.39517749302169
 31
0.0
  0
LINE
  5
1222EF
  8
0
 62
     0
 10
4042.297694156905
 20
-273.72859058064671
 30
0.0
 11
4038.7273545221101
 21
-270.15825094585142
 31
0.0
  0
LINE
  5
1222F0
  8
0
 62
     0
 10
3926.4741530087458
 20
-166.88530555355641
 30
0.0
 11
3923.1884639044451
 21
-163.599616449255
 31
0.0
  0
LINE
  5
1222F1
  8
0
 62
     0
 10
4034.237226461576
 20
-274.64837900638611
 30
0.0
 11
4029.7470984010411
 21
-270.15825094585148
 31
0.0
  0
LINE
  5
1222F2
  8
0
 62
     0
 10
3926.4741530087458
 20
-175.8655616746253
 30
0.0
 11
3921.9840249482122
 21
-171.3754336140907
 31
0.0
  0
LINE
  5
1222F3
  8
0
 62
     0
 10
4025.256970340507
 20
-274.64837900638611
 30
0.0
 11
4022.2363975537201
 21
-271.6278062196007
 31
0.0
  0
LINE
  5
1222F4
  8
0
 62
     0
 10
4030.1004833766069
 20
-279.4918920424866
 30
0.0
 11
4029.7470984010411
 21
-279.13850706692068
 31
0.0
  0
LINE
  5
1222F5
  8
0
 62
     0
 10
3926.4741530087458
 20
-184.84581779569459
 30
0.0
 11
3921.9840249482122
 21
-180.3556897351599
 31
0.0
  0
LINE
  5
1222F6
  8
0
 62
     0
 10
4016.276714219438
 20
-274.64837900638611
 30
0.0
 11
4015.0938151604519
 21
-273.46547994740052
 31
0.0
  0
LINE
  5
1222F7
  8
0
 62
     0
 10
4023.3564095409911
 20
-281.72807432793968
 30
0.0
 11
4020.766842279972
 21
-279.13850706692068
 31
0.0
  0
LINE
  5
1222F8
  8
0
 62
     0
 10
3917.4938968876768
 20
-184.84581779569399
 30
0.0
 11
3916.540209967503
 21
-183.892130875519
 31
0.0
  0
LINE
  5
1222F9
  8
0
 62
     0
 10
3925.3553968115771
 20
-192.70731771959461
 30
0.0
 11
3921.9840249482122
 21
-189.3359458562287
 31
0.0
  0
LINE
  5
1222FA
  8
0
 62
     0
 10
4007.2964580983689
 20
-274.64837900638571
 30
0.0
 11
4007.2926822804038
 21
-274.644603188421
 31
0.0
  0
LINE
  5
1222FB
  8
0
 62
     0
 10
4016.1078691244779
 20
-283.45979003249658
 30
0.0
 11
4011.786586158903
 21
-279.13850706692023
 31
0.0
  0
LINE
  5
1222FC
  8
0
 62
     0
 10
3925.012047226568
 20
-201.34422425565421
 30
0.0
 11
3923.6678229709119
 21
-199.99999999999849
 31
0.0
  0
LINE
  5
1222FD
  8
0
 62
     0
 10
3917.4938968876768
 20
-193.82607391676351
 30
0.0
 11
3915.4027830531209
 21
-191.73496008220741
 31
0.0
  0
LINE
  5
1222FE
  8
0
 62
     0
 10
3923.6678229709119
 20
-199.99999999999841
 30
0.0
 11
3921.9840249482108
 21
-198.31620197729811
 31
0.0
  0
LINE
  5
1222FF
  8
0
 62
     0
 10
4007.2964580983689
 20
-283.6286351274552
 30
0.0
 11
4002.806330037834
 21
-279.13850706692068
 31
0.0
  0
LINE
  5
122300
  8
0
 62
     0
 10
3917.4938968876768
 20
-202.8063300378324
 30
0.0
 11
3915.0005763250811
 21
-200.3130094752365
 31
0.0
  0
LINE
  5
122301
  8
0
 62
     0
 10
3925.8327188999019
 20
-211.14515205005671
 30
0.0
 11
3921.9840249482122
 21
-207.296458098367
 31
0.0
  0
LINE
  5
122302
  8
0
 62
     0
 10
3989.33594585623
 20
-274.64837900638548
 30
0.0
 11
3988.8548479499409
 21
-274.16728110009711
 31
0.0
  0
LINE
  5
122303
  8
0
 62
     0
 10
3998.316201977299
 20
-283.62863512745457
 30
0.0
 11
3993.826073916764
 21
-279.13850706692011
 31
0.0
  0
LINE
  5
122304
  8
0
 62
     0
 10
3917.4938968876768
 20
-211.7865861589018
 30
0.0
 11
3915.5746775417588
 21
-209.8673668129837
 31
0.0
  0
LINE
  5
122305
  8
0
 62
     0
 10
3926.4741530087458
 20
-220.76684227997089
 30
0.0
 11
3921.9840249482122
 21
-216.27671421943629
 31
0.0
  0
LINE
  5
122306
  8
0
 62
     0
 10
3980.3556897351609
 20
-274.64837900638582
 30
0.0
 11
3977.1378516142122
 21
-271.43054088543641
 31
0.0
  0
LINE
  5
122307
  8
0
 62
     0
 10
3989.3359458562309
 20
-283.62863512745508
 30
0.0
 11
3984.8458177956959
 21
-279.1385070669204
 31
0.0
  0
LINE
  5
122308
  8
0
 62
     0
 10
3926.4741530087458
 20
-229.74709840104029
 30
0.0
 11
3921.9840249482122
 21
-225.25697034050569
 31
0.0
  0
LINE
  5
122309
  8
0
 62
     0
 10
3935.4544091298148
 20
-238.72735452210941
 30
0.0
 11
3930.9642810692808
 21
-234.23722646157481
 31
0.0
  0
LINE
  5
12230A
  8
0
 62
     0
 10
3962.3951774930242
 20
-265.6681228853169
 30
0.0
 11
3960.453799736681
 21
-263.72674512897407
 31
0.0
  0
LINE
  5
12230B
  8
0
 62
     0
 10
3971.3754336140919
 20
-274.64837900638599
 30
0.0
 11
3966.8853055535578
 21
-270.15825094585142
 31
0.0
  0
LINE
  5
12230C
  8
0
 62
     0
 10
3979.1234799614899
 20
-282.39642535378198
 30
0.0
 11
3975.8655616746269
 21
-279.13850706692062
 31
0.0
  0
LINE
  5
12230D
  8
0
 62
     0
 10
3926.4741530087472
 20
-238.72735452210949
 30
0.0
 11
3922.3721274786062
 21
-234.62532899196901
 31
0.0
  0
LINE
  5
12230E
  8
0
 62
     0
 10
3935.4544091298171
 20
-247.70761064317861
 30
0.0
 11
3930.9642810692808
 21
-243.21748258264401
 31
0.0
  0
LINE
  5
12230F
  8
0
 62
     0
 10
3944.4346652508848
 20
-256.68786676424781
 30
0.0
 11
3939.9445371903512
 21
-252.19773870371321
 31
0.0
  0
LINE
  5
122310
  8
0
 62
     0
 10
3953.4149213719538
 20
-265.6681228853169
 30
0.0
 11
3948.9247933114189
 21
-261.17799482478227
 31
0.0
  0
LINE
  5
122311
  8
0
 62
     0
 10
3962.3951774930229
 20
-274.64837900638611
 30
0.0
 11
3957.9050494324879
 21
-270.15825094585148
 31
0.0
  0
LINE
  5
122312
  8
0
 62
     0
 10
4050.5139406810131
 20
-132.64807909197981
 30
0.0
 11
4047.1257436625701
 21
-129.25988207353771
 31
0.0
  0
LINE
  5
122313
  8
0
 62
     0
 10
4055.8658615890322
 20
-137.99999999999869
 30
0.0
 11
4055.0040687415481
 21
-137.1382071525145
 31
0.0
  0
LINE
  5
122314
  8
0
 62
     0
 10
4032.5534284388759
 20
-123.6678229709113
 30
0.0
 11
4028.977508106414
 21
-120.09190263845061
 31
0.0
  0
LINE
  5
122315
  8
0
 62
     0
 10
4041.533684559944
 20
-132.64807909198041
 30
0.0
 11
4037.04355649941
 21
-128.1579510314458
 31
0.0
  0
LINE
  5
122316
  8
0
 62
     0
 10
4046.8856054679632
 20
-137.99999999999849
 30
0.0
 11
4046.0238126204799
 21
-137.13820715251501
 31
0.0
  0
LINE
  5
122317
  8
0
 62
     0
 10
4023.573172317806
 20
-123.667822970911
 30
0.0
 11
4019.0830442572701
 21
-119.1776949103764
 31
0.0
  0
LINE
  5
122318
  8
0
 62
     0
 10
4032.1417147619541
 20
-132.23636541505999
 30
0.0
 11
4028.063300378341
 21
-128.15795103144561
 31
0.0
  0
LINE
  5
122319
  8
0
 62
     0
 10
4014.592916196737
 20
-123.6678229709113
 30
0.0
 11
4010.102788136202
 21
-119.1776949103767
 31
0.0
  0
LINE
  5
12231A
  8
0
 62
     0
 10
4005.6126600756679
 20
-123.66782297091081
 30
0.0
 11
4001.1225320151329
 21
-119.1776949103762
 31
0.0
  0
LINE
  5
12231B
  8
0
 62
     0
 10
3996.6324039545989
 20
-123.6678229709109
 30
0.0
 11
3992.1422758940639
 21
-119.1776949103763
 31
0.0
  0
LINE
  5
12231C
  8
0
 62
     0
 10
3987.6521478335299
 20
-123.6678229709109
 30
0.0
 11
3983.1620197729958
 21
-119.1776949103764
 31
0.0
  0
LINE
  5
12231D
  8
0
 62
     0
 10
3978.6718917124608
 20
-123.66782297091071
 30
0.0
 11
3974.1817636519272
 21
-119.1776949103761
 31
0.0
  0
LINE
  5
12231E
  8
0
 62
     0
 10
3969.6916355913918
 20
-123.66782297091061
 30
0.0
 11
3967.4875677912742
 21
-121.46375517079299
 31
0.0
  0
LINE
  5
12231F
  8
0
 62
     0
 10
3975.2316575878999
 20
-129.20784496741811
 30
0.0
 11
3974.1817636519258
 21
-128.15795103144521
 31
0.0
  0
LINE
  5
122320
  8
0
 62
     0
 10
3968.8282803805801
 20
-131.7847238811683
 30
0.0
 11
3965.2015075308568
 21
-128.15795103144501
 31
0.0
  0
LINE
  5
122321
  8
0
 62
     0
 10
3960.7113794703232
 20
-132.64807909197981
 30
0.0
 11
3956.2212514097891
 21
-128.15795103144541
 31
0.0
  0
LINE
  5
122322
  8
0
 62
     0
 10
3951.7311233492551
 20
-132.64807909198001
 30
0.0
 11
3950.1996367906331
 21
-131.11659253335949
 31
0.0
  0
LINE
  5
122323
  8
0
 62
     0
 10
3957.3739138312571
 20
-138.2908695739838
 30
0.0
 11
3956.2212514097891
 21
-137.1382071525147
 31
0.0
  0
LINE
  5
122324
  8
0
 62
     0
 10
3951.7311233492551
 20
-141.6283352130495
 30
0.0
 11
3947.2409952887192
 21
-137.13820715251489
 31
0.0
  0
LINE
  5
122325
  8
0
 62
     0
 10
3942.7508672281838
 20
-141.62833521304921
 30
0.0
 11
3940.459810280865
 21
-139.33727826572931
 31
0.0
  0
LINE
  5
122326
  8
0
 62
     0
 10
3947.5312275343699
 20
-146.4086955192349
 30
0.0
 11
3947.2409952887192
 21
-146.11846327358381
 31
0.0
  0
LINE
  5
122327
  8
0
 62
     0
 10
3942.7508672281838
 20
-150.60859133411839
 30
0.0
 11
3938.2607391676502
 21
-146.11846327358381
 31
0.0
  0
LINE
  5
122328
  8
0
 62
     0
 10
4056.046666648067
 20
-263.90439075400201
 30
0.0
 11
4055.0040687415481
 21
-262.86179284748277
 31
0.0
  0
LINE
  5
122329
  8
0
 62
     0
 10
3933.7706111071152
 20
-150.60859133411819
 30
0.0
 11
3932.069493308034
 21
-148.90747353503721
 31
0.0
  0
LINE
  5
12232A
  8
0
 62
     0
 10
3939.220522823553
 20
-156.05850305055679
 30
0.0
 11
3938.2607391676488
 21
-155.0987193946527
 31
0.0
  0
LINE
  5
12232B
  8
0
 62
     0
 10
4050.5139406810131
 20
-267.35192090801729
 30
0.0
 11
4046.023812620479
 21
-262.86179284748277
 31
0.0
  0
LINE
  5
12232C
  8
0
 62
     0
 10
3933.7706111071152
 20
-159.58884745518731
 30
0.0
 11
3929.2804830465811
 21
-155.0987193946527
 31
0.0
  0
LINE
  5
12232D
  8
0
 62
     0
 10
4041.533684559944
 20
-267.35192090801729
 30
0.0
 11
4038.5287537489799
 21
-264.34699009705332
 31
0.0
  0
LINE
  5
12232E
  8
0
 62
     0
 10
3932.5031866541531
 20
-167.30167912329469
 30
0.0
 11
3929.2804830465811
 21
-164.07897551572231
 31
0.0
  0
LINE
  5
12232F
  8
0
 62
     0
 10
4040.1313215574169
 20
-274.92981402656
 30
0.0
 11
4037.04355649941
 21
-271.84204896855198
 31
0.0
  0
LINE
  5
122330
  8
0
 62
     0
 10
3924.7903549860471
 20
-168.56910357625691
 30
0.0
 11
3922.1342441411598
 21
-165.91299273137071
 31
0.0
  0
LINE
  5
122331
  8
0
 62
     0
 10
3929.8058092476431
 20
-173.58455783785331
 30
0.0
 11
3929.2804830465811
 21
-173.0592316367914
 31
0.0
  0
LINE
  5
122332
  8
0
 62
     0
 10
4032.5534284388759
 20
-276.33217702908678
 30
0.0
 11
4028.063300378341
 21
-271.84204896855232
 31
0.0
  0
LINE
  5
122333
  8
0
 62
     0
 10
3924.7903549860471
 20
-177.54935969732571
 30
0.0
 11
3920.3002269255121
 21
-173.05923163679111
 31
0.0
  0
LINE
  5
122334
  8
0
 62
     0
 10
4023.573172317806
 20
-276.33217702908632
 30
0.0
 11
4019.6272564463952
 21
-272.38626115767528
 31
0.0
  0
LINE
  5
122335
  8
0
 62
     0
 10
3924.7903549860471
 20
-186.529615818395
 30
0.0
 11
3920.3002269255121
 21
-182.0394877578604
 31
0.0
  0
LINE
  5
122336
  8
0
 62
     0
 10
4014.592916196737
 20
-276.33217702908632
 30
0.0
 11
4012.2530540778212
 21
-273.99231491016991
 31
0.0
  0
LINE
  5
122337
  8
0
 62
     0
 10
4020.7013490002441
 20
-282.44060983259322
 30
0.0
 11
4019.0830442572701
 21
-280.82230508962078
 31
0.0
  0
LINE
  5
122338
  8
0
 62
     0
 10
3924.7903549860471
 20
-195.50987193946389
 30
0.0
 11
3920.3002269255121
 21
-191.01974387892929
 31
0.0
  0
LINE
  5
122339
  8
0
 62
     0
 10
4005.6126600756679
 20
-276.33217702908632
 30
0.0
 11
4004.1647589835802
 21
-274.88427593699828
 31
0.0
  0
LINE
  5
12233A
  8
0
 62
     0
 10
4013.2425818009829
 20
-283.96209875440229
 30
0.0
 11
4010.102788136202
 21
-280.8223050896209
 31
0.0
  0
LINE
  5
12233B
  8
0
 62
     0
 10
3924.7903549860471
 20
-204.49012806053321
 30
0.0
 11
3920.3002269255121
 21
-199.99999999999841
 31
0.0
  0
LINE
  5
12233C
  8
0
 62
     0
 10
3996.6324039545989
 20
-276.33217702908638
 30
0.0
 11
3995.1427775935249
 21
-274.84255066801109
 31
0.0
  0
LINE
  5
12233D
  8
0
 62
     0
 10
3915.8100988649771
 20
-195.50987193946389
 30
0.0
 11
3915.15581890257
 21
-194.8555919770572
 31
0.0
  0
LINE
  5
12233E
  8
0
 62
     0
 10
4005.1444080229421
 20
-284.84418109742847
 30
0.0
 11
4001.1225320151329
 21
-280.82230508962112
 31
0.0
  0
LINE
  5
12233F
  8
0
 62
     0
 10
3915.8100988649771
 20
-204.4901280605331
 30
0.0
 11
3915.0833528969388
 21
-203.76338209249491
 31
0.0
  0
LINE
  5
122340
  8
0
 62
     0
 10
3924.7903549860471
 20
-213.47038418160221
 30
0.0
 11
3920.3002269255121
 21
-208.98025612106761
 31
0.0
  0
LINE
  5
122341
  8
0
 62
     0
 10
3987.6521478335312
 20
-276.33217702908689
 30
0.0
 11
3984.7540244045458
 21
-273.43405360010172
 31
0.0
  0
LINE
  5
122342
  8
0
 62
     0
 10
3996.2366179075038
 20
-284.91664710305997
 30
0.0
 11
3992.1422758940648
 21
-280.82230508962152
 31
0.0
  0
LINE
  5
122343
  8
0
 62
     0
 10
3924.7903549860471
 20
-222.4506403026715
 30
0.0
 11
3920.3002269255121
 21
-217.9605122421369
 31
0.0
  0
LINE
  5
122344
  8
0
 62
     0
 10
3930.4788649061188
 20
-228.13915022274401
 30
0.0
 11
3929.2804830465811
 21
-226.9407683632061
 31
0.0
  0
LINE
  5
122345
  8
0
 62
     0
 10
3978.6718917124608
 20
-276.33217702908638
 30
0.0
 11
3974.1817636519272
 21
-271.84204896855181
 31
0.0
  0
LINE
  5
122346
  8
0
 62
     0
 10
3986.214360019977
 20
-283.87464533660312
 30
0.0
 11
3983.1620197729958
 21
-280.8223050896209
 31
0.0
  0
LINE
  5
122347
  8
0
 62
     0
 10
3924.7903549860471
 20
-231.43089642374079
 30
0.0
 11
3920.3002269255121
 21
-226.9407683632061
 31
0.0
  0
LINE
  5
122348
  8
0
 62
     0
 10
3933.7706111071161
 20
-240.41115254480991
 30
0.0
 11
3929.2804830465811
 21
-235.92102448427531
 31
0.0
  0
LINE
  5
122349
  8
0
 62
     0
 10
3942.7508672281838
 20
-249.391408665879
 30
0.0
 11
3938.2607391676502
 21
-244.90128060534451
 31
0.0
  0
LINE
  5
12234A
  8
0
 62
     0
 10
3951.7311233492551
 20
-258.3716647869482
 30
0.0
 11
3947.2409952887192
 21
-253.8815367264136
 31
0.0
  0
LINE
  5
12234B
  8
0
 62
     0
 10
3960.7113794703232
 20
-267.35192090801729
 30
0.0
 11
3956.2212514097891
 21
-262.86179284748277
 31
0.0
  0
LINE
  5
12234C
  8
0
 62
     0
 10
3969.6916355913918
 20
-276.33217702908638
 30
0.0
 11
3965.2015075308582
 21
-271.84204896855192
 31
0.0
  0
LINE
  5
12234D
  8
0
 62
     0
 10
3974.4186681662059
 20
-281.0592096039004
 30
0.0
 11
3974.1817636519272
 21
-280.82230508962112
 31
0.0
  0
LINE
  5
12234E
  8
0
 62
     0
 10
3933.7706111071152
 20
-249.39140866587911
 30
0.0
 11
3929.2804830465811
 21
-244.90128060534451
 31
0.0
  0
LINE
  5
12234F
  8
0
 62
     0
 10
3942.7508672281838
 20
-258.37166478694832
 30
0.0
 11
3938.2607391676502
 21
-253.88153672641371
 31
0.0
  0
LINE
  5
122350
  8
0
 62
     0
 10
3951.7311233492551
 20
-267.35192090801741
 30
0.0
 11
3947.2409952887192
 21
-262.86179284748277
 31
0.0
  0
LINE
  5
122351
  8
0
 62
     0
 10
3958.635202242433
 20
-274.25599980119682
 30
0.0
 11
3956.2212514097891
 21
-271.84204896855198
 31
0.0
  0
LINE
  5
122352
  8
0
 62
     0
 10
4050.9536729964252
 20
-268.03472060773947
 30
0.0
 11
4055.0040687415481
 21
-263.98432486261601
 31
0.0
  0
LINE
  5
122353
  8
0
 62
     0
 10
4041.533684559944
 20
-268.47445292315098
 30
0.0
 11
4046.023812620479
 21
-263.9843248626164
 31
0.0
  0
LINE
  5
122354
  8
0
 62
     0
 10
4032.5534284388759
 20
-277.45470904422012
 30
0.0
 11
4037.04355649941
 21
-272.96458098368549
 31
0.0
  0
LINE
  5
122355
  8
0
 62
     0
 10
4032.5534284388759
 20
-268.47445292315058
 30
0.0
 11
4034.3633432655911
 21
-266.6645380964336
 31
0.0
  0
LINE
  5
122356
  8
0
 62
     0
 10
4023.573172317806
 20
-277.45470904421973
 30
0.0
 11
4028.063300378341
 21
-272.96458098368521
 31
0.0
  0
LINE
  5
122357
  8
0
 62
     0
 10
4017.943374261697
 20
-283.08450710032758
 30
0.0
 11
4019.0830442572701
 21
-281.94483710475441
 31
0.0
  0
LINE
  5
122358
  8
0
 62
     0
 10
4014.592916196737
 20
-277.4547090442195
 30
0.0
 11
4019.0830442572701
 21
-272.96458098368493
 31
0.0
  0
LINE
  5
122359
  8
0
 62
     0
 10
4007.36752371589
 20
-284.68010152506639
 30
0.0
 11
4010.102788136202
 21
-281.94483710475407
 31
0.0
  0
LINE
  5
12235A
  8
0
 62
     0
 10
4005.6126600756679
 20
-277.45470904422001
 30
0.0
 11
4008.5571315733901
 21
-274.51023754649742
 31
0.0
  0
LINE
  5
12235B
  8
0
 62
     0
 10
4000.0
 20
-283.06736911988799
 30
0.0
 11
4001.1225320151329
 21
-281.94483710475453
 31
0.0
  0
LINE
  5
12235C
  8
0
 62
     0
 10
3998.0888569405961
 20
-284.97851217929292
 30
0.0
 11
4000.0
 21
-283.0673691198877
 31
0.0
  0
LINE
  5
12235D
  8
0
 62
     0
 10
3996.6324039545989
 20
-277.45470904422001
 30
0.0
 11
3999.0926023365032
 21
-274.99451066231501
 31
0.0
  0
LINE
  5
12235E
  8
0
 62
     0
 10
3989.7120139313201
 20
-284.37509906749972
 30
0.0
 11
3992.1422758940639
 21
-281.94483710475458
 31
0.0
  0
LINE
  5
12235F
  8
0
 62
     0
 10
3987.6521478335299
 20
-277.45470904421973
 30
0.0
 11
3990.687281053727
 21
-274.4195758240229
 31
0.0
  0
LINE
  5
122360
  8
0
 62
     0
 10
3982.0284415821229
 20
-283.07841529562648
 30
0.0
 11
3983.1620197729958
 21
-281.94483710475441
 31
0.0
  0
LINE
  5
122361
  8
0
 62
     0
 10
3978.6718917124608
 20
-277.45470904421973
 30
0.0
 11
3983.0638429163332
 21
-273.06275784034699
 31
0.0
  0
LINE
  5
122362
  8
0
 62
     0
 10
3969.6916355913918
 20
-277.45470904421973
 30
0.0
 11
3974.1817636519272
 21
-272.9645809836851
 31
0.0
  0
LINE
  5
122363
  8
0
 62
     0
 10
3962.0888566424378
 20
-276.07723187210541
 30
0.0
 11
3965.2015075308568
 21
-272.96458098368538
 31
0.0
  0
LINE
  5
122364
  8
0
 62
     0
 10
3960.7113794703232
 20
-268.47445292315081
 30
0.0
 11
3963.60716527675
 21
-265.57866711672301
 31
0.0
  0
LINE
  5
122365
  8
0
 62
     0
 10
3951.7311233492528
 20
-268.47445292315069
 30
0.0
 11
3956.221251409786
 21
-263.98432486261601
 31
0.0
  0
LINE
  5
122366
  8
0
 62
     0
 10
3951.7311233492551
 20
-259.49419680208132
 30
0.0
 11
3952.8774911001642
 21
-258.34782905117072
 31
0.0
  0
LINE
  5
122367
  8
0
 62
     0
 10
3945.7712191933251
 20
-265.45410095801009
 30
0.0
 11
3947.2409952887192
 21
-263.98432486261572
 31
0.0
  0
LINE
  5
122368
  8
0
 62
     0
 10
3942.7508672281838
 20
-259.49419680208172
 30
0.0
 11
3947.2409952887178
 21
-255.00406874154709
 31
0.0
  0
LINE
  5
122369
  8
0
 62
     0
 10
3942.7508672281838
 20
-250.5139406810124
 30
0.0
 11
3943.7064245411289
 21
-249.55838336806721
 31
0.0
  0
LINE
  5
12236A
  8
0
 62
     0
 10
3936.622743924941
 20
-256.64206398425438
 30
0.0
 11
3938.2607391676488
 21
-255.004068741547
 31
0.0
  0
LINE
  5
12236B
  8
0
 62
     0
 10
4050.5139406810131
 20
-133.77061110711341
 30
0.0
 11
4051.7304976486612
 21
-132.55405413946619
 31
0.0
  0
LINE
  5
12236C
  8
0
 62
     0
 10
3933.7706111071152
 20
-250.5139406810124
 30
0.0
 11
3938.2607391676488
 21
-246.0238126204778
 31
0.0
  0
LINE
  5
12236D
  8
0
 62
     0
 10
4041.533684559944
 20
-133.77061110711381
 30
0.0
 11
4046.023812620479
 21
-129.28048304657921
 31
0.0
  0
LINE
  5
12236E
  8
0
 62
     0
 10
3933.7706111071152
 20
-241.5336845599434
 30
0.0
 11
3936.0766638622199
 21
-239.2276318048396
 31
0.0
  0
LINE
  5
12236F
  8
0
 62
     0
 10
3928.8301234984651
 20
-246.4741721685935
 30
0.0
 11
3929.2804830465811
 21
-246.023812620478
 31
0.0
  0
LINE
  5
122370
  8
0
 62
     0
 10
4033.4510088449092
 20
-132.87303070108069
 30
0.0
 11
4037.04355649941
 21
-129.28048304657869
 31
0.0
  0
LINE
  5
122371
  8
0
 62
     0
 10
3925.4646851562661
 20
-240.85935438972459
 30
0.0
 11
3929.2804830465811
 21
-237.04355649940891
 31
0.0
  0
LINE
  5
122372
  8
0
 62
     0
 10
4032.5534284388759
 20
-124.79035498604399
 30
0.0
 11
4034.864522874162
 21
-122.479260550758
 31
0.0
  0
LINE
  5
122373
  8
0
 62
     0
 10
4027.2271365051188
 20
-130.1166469198007
 30
0.0
 11
4028.063300378341
 21
-129.2804830465785
 31
0.0
  0
LINE
  5
122374
  8
0
 62
     0
 10
3924.7903549860471
 20
-232.55342843887399
 30
0.0
 11
3929.2804830465811
 21
-228.06330037833939
 31
0.0
  0
LINE
  5
122375
  8
0
 62
     0
 10
4023.573172317806
 20
-124.79035498604431
 30
0.0
 11
4028.063300378341
 21
-120.3002269255097
 31
0.0
  0
LINE
  5
122376
  8
0
 62
     0
 10
3924.7903549860471
 20
-223.5731723178051
 30
0.0
 11
3927.8577021733058
 21
-220.50582513054511
 31
0.0
  0
LINE
  5
122377
  8
0
 62
     0
 10
3919.905445870826
 20
-228.458081433025
 30
0.0
 11
3920.3002269255112
 21
-228.0633003783397
 31
0.0
  0
LINE
  5
122378
  8
0
 62
     0
 10
4014.592916196737
 20
-124.79035498604441
 30
0.0
 11
4019.0830442572701
 21
-120.3002269255099
 31
0.0
  0
LINE
  5
122379
  8
0
 62
     0
 10
3924.7903549860471
 20
-214.5929161967359
 30
0.0
 11
3926.1726392004471
 21
-213.21063198233409
 31
0.0
  0
LINE
  5
12237A
  8
0
 62
     0
 10
3917.788812480554
 20
-221.59445870222851
 30
0.0
 11
3920.3002269255112
 21
-219.0830442572705
 31
0.0
  0
LINE
  5
12237B
  8
0
 62
     0
 10
4005.6126600756679
 20
-124.79035498604441
 30
0.0
 11
4010.102788136202
 21
-120.3002269255099
 31
0.0
  0
LINE
  5
12237C
  8
0
 62
     0
 10
3924.7903549860471
 20
-205.6126600756665
 30
0.0
 11
3925.1819507882478
 21
-205.2210642734654
 31
0.0
  0
LINE
  5
12237D
  8
0
 62
     0
 10
3916.1957433609659
 20
-214.2072717007467
 30
0.0
 11
3920.3002269255121
 21
-210.1027881362011
 31
0.0
  0
LINE
  5
12237E
  8
0
 62
     0
 10
3996.6324039545989
 20
-124.79035498604431
 30
0.0
 11
4000.0
 21
-121.4227589406435
 31
0.0
  0
LINE
  5
12237F
  8
0
 62
     0
 10
3924.7903549860471
 20
-196.63240395459741
 30
0.0
 11
3925.0896965107122
 21
-196.33306242993109
 31
0.0
  0
LINE
  5
122380
  8
0
 62
     0
 10
4005.6126600756679
 20
-115.8100988649749
 30
0.0
 11
4006.1965891199989
 21
-115.2261698206446
 31
0.0
  0
LINE
  5
122381
  8
0
 62
     0
 10
4000.0
 20
-121.42275894064321
 30
0.0
 11
4001.1225320151329
 21
-120.30022692550941
 31
0.0
  0
LINE
  5
122382
  8
0
 62
     0
 10
3915.8100988649771
 20
-205.6126600756665
 30
0.0
 11
3920.3002269255121
 21
-201.12253201513201
 31
0.0
  0
LINE
  5
122383
  8
0
 62
     0
 10
3996.6324039545989
 20
-115.8100988649753
 30
0.0
 11
3997.4028149045721
 21
-115.03968791500211
 31
0.0
  0
LINE
  5
122384
  8
0
 62
     0
 10
3987.6521478335299
 20
-124.79035498604451
 30
0.0
 11
3992.1422758940639
 21
-120.3002269255099
 31
0.0
  0
LINE
  5
122385
  8
0
 62
     0
 10
3924.7903549860471
 20
-187.6521478335286
 30
0.0
 11
3926.2893090759699
 21
-186.15319374360431
 31
0.0
  0
LINE
  5
122386
  8
0
 62
     0
 10
3915.8100988649771
 20
-196.63240395459781
 30
0.0
 11
3920.3002269255112
 21
-192.1422758940632
 31
0.0
  0
LINE
  5
122387
  8
0
 62
     0
 10
3978.6718917124599
 20
-124.79035498604431
 30
0.0
 11
3983.1620197729949
 21
-120.3002269255097
 31
0.0
  0
LINE
  5
122388
  8
0
 62
     0
 10
3973.6996359724371
 20
-129.76261072606781
 30
0.0
 11
3974.1817636519258
 21
-129.28048304657889
 31
0.0
  0
LINE
  5
122389
  8
0
 62
     0
 10
3924.7903549860471
 20
-178.67189171245951
 30
0.0
 11
3929.2804830465811
 21
-174.18176365192491
 31
0.0
  0
LINE
  5
12238A
  8
0
 62
     0
 10
3915.9175009846422
 20
-187.54474571386311
 30
0.0
 11
3920.3002269255121
 21
-183.16201977299411
 31
0.0
  0
LINE
  5
12238B
  8
0
 62
     0
 10
3969.6916355913918
 20
-124.79035498604451
 30
0.0
 11
3974.1817636519258
 21
-120.3002269255099
 31
0.0
  0
LINE
  5
12238C
  8
0
 62
     0
 10
3960.7113794703232
 20
-133.77061110711361
 30
0.0
 11
3965.2015075308568
 21
-129.28048304657901
 31
0.0
  0
LINE
  5
12238D
  8
0
 62
     0
 10
3952.6249921196049
 20
-141.8569984578312
 30
0.0
 11
3956.2212514097891
 21
-138.26073916764821
 31
0.0
  0
LINE
  5
12238E
  8
0
 62
     0
 10
3933.7706111071152
 20
-160.71137947032111
 30
0.0
 11
3938.2607391676488
 21
-156.22125140978659
 31
0.0
  0
LINE
  5
12238F
  8
0
 62
     0
 10
3924.7903549860471
 20
-169.69163559139031
 30
0.0
 11
3929.2804830465811
 21
-165.20150753085571
 31
0.0
  0
LINE
  5
122390
  8
0
 62
     0
 10
3918.448853619941
 20
-176.0331369574952
 30
0.0
 11
3920.3002269255121
 21
-174.18176365192491
 31
0.0
  0
LINE
  5
122391
  8
0
 62
     0
 10
3960.7113794703218
 20
-124.79035498604451
 30
0.0
 11
3961.0548776323271
 21
-124.4468568240393
 31
0.0
  0
LINE
  5
122392
  8
0
 62
     0
 10
3951.7311233492528
 20
-133.77061110711369
 30
0.0
 11
3956.221251409786
 21
-129.28048304657901
 31
0.0
  0
LINE
  5
122393
  8
0
 62
     0
 10
3942.7508672281829
 20
-142.75086722818281
 30
0.0
 11
3947.2409952887178
 21
-138.26073916764821
 31
0.0
  0
LINE
  5
122394
  8
0
 62
     0
 10
3933.7706111071138
 20
-151.7311233492519
 30
0.0
 11
3938.2607391676488
 21
-147.24099528871739
 31
0.0
  0
LINE
  5
122395
  8
0
 62
     0
 10
3924.7903549860471
 20
-160.71137947032111
 30
0.0
 11
3929.2804830465811
 21
-156.2212514097865
 31
0.0
  0
LINE
  5
122396
  8
0
 62
     0
 10
4043.2174825826451
 20
-270.15825094585131
 30
0.0
 11
4047.7076106431782
 21
-265.66812288531668
 31
0.0
  0
LINE
  5
122397
  8
0
 62
     0
 10
4036.7132388148038
 20
-276.66249471369269
 30
0.0
 11
4038.7273545221101
 21
-274.64837900638588
 31
0.0
  0
LINE
  5
122398
  8
0
 62
     0
 10
4034.2372264615742
 20
-270.15825094585159
 30
0.0
 11
4038.7273545221101
 21
-265.66812288531702
 31
0.0
  0
LINE
  5
122399
  8
0
 62
     0
 10
4025.2569703405052
 20
-279.13850706692068
 30
0.0
 11
4029.7470984010411
 21
-274.64837900638628
 31
0.0
  0
LINE
  5
12239A
  8
0
 62
     0
 10
4016.2767142194361
 20
-279.13850706692051
 30
0.0
 11
4020.766842279972
 21
-274.64837900638588
 31
0.0
  0
LINE
  5
12239B
  8
0
 62
     0
 10
4011.1496582016271
 20
-284.2655630847301
 30
0.0
 11
4011.786586158903
 21
-283.62863512745508
 31
0.0
  0
LINE
  5
12239C
  8
0
 62
     0
 10
4007.296458098368
 20
-279.13850706692068
 30
0.0
 11
4011.7865861589021
 21
-274.64837900638628
 31
0.0
  0
LINE
  5
12239D
  8
0
 62
     0
 10
4001.447287476341
 20
-284.98767768894839
 30
0.0
 11
4002.806330037834
 21
-283.6286351274552
 31
0.0
  0
LINE
  5
12239E
  8
0
 62
     0
 10
4000.0
 20
-277.4547090442199
 30
0.0
 11
4002.4962627400691
 21
-274.95844630415121
 31
0.0
  0
LINE
  5
12239F
  8
0
 62
     0
 10
3998.3162019772999
 20
-279.13850706692062
 30
0.0
 11
4000.0
 21
-277.45470904422018
 31
0.0
  0
LINE
  5
1223A0
  8
0
 62
     0
 10
3992.7633249803198
 20
-284.69138406390152
 30
0.0
 11
3993.8260739167658
 21
-283.62863512745508
 31
0.0
  0
LINE
  5
1223A1
  8
0
 62
     0
 10
3989.3359458562309
 20
-279.1385070669204
 30
0.0
 11
3993.7364570340851
 21
-274.7379958890653
 31
0.0
  0
LINE
  5
1223A2
  8
0
 62
     0
 10
3984.8377090123272
 20
-283.63674391082452
 30
0.0
 11
3984.8458177956959
 21
-283.62863512745508
 31
0.0
  0
LINE
  5
1223A3
  8
0
 62
     0
 10
3980.3556897351609
 20
-279.13850706692062
 30
0.0
 11
3984.8458177956959
 21
-274.64837900638599
 31
0.0
  0
LINE
  5
1223A4
  8
0
 62
     0
 10
3971.3754336140919
 20
-279.13850706692068
 30
0.0
 11
3975.8655616746269
 21
-274.64837900638628
 31
0.0
  0
LINE
  5
1223A5
  8
0
 62
     0
 10
3971.3754336140919
 20
-270.15825094585159
 30
0.0
 11
3971.9689093143361
 21
-269.56477524560739
 31
0.0
  0
LINE
  5
1223A6
  8
0
 62
     0
 10
3964.3643754747118
 20
-277.16930908523352
 30
0.0
 11
3966.8853055535569
 21
-274.64837900638628
 31
0.0
  0
LINE
  5
1223A7
  8
0
 62
     0
 10
3962.3951774930229
 20
-270.15825094585131
 30
0.0
 11
3965.803269971806
 21
-266.75015846706788
 31
0.0
  0
LINE
  5
1223A8
  8
0
 62
     0
 10
3953.4149213719538
 20
-270.15825094585142
 30
0.0
 11
3957.9050494324879
 21
-265.6681228853169
 31
0.0
  0
LINE
  5
1223A9
  8
0
 62
     0
 10
3953.4149213719538
 20
-261.17799482478227
 30
0.0
 11
3954.767783079682
 21
-259.82513311705333
 31
0.0
  0
LINE
  5
1223AA
  8
0
 62
     0
 10
3947.636909833077
 20
-266.95600636365958
 30
0.0
 11
3948.9247933114189
 21
-265.6681228853169
 31
0.0
  0
LINE
  5
1223AB
  8
0
 62
     0
 10
3944.4346652508839
 20
-261.1779948247825
 30
0.0
 11
3948.9247933114189
 21
-256.68786676424799
 31
0.0
  0
LINE
  5
1223AC
  8
0
 62
     0
 10
3944.4346652508839
 20
-252.1977387037135
 30
0.0
 11
3945.3099304217681
 21
-251.32247353282949
 31
0.0
  0
LINE
  5
1223AD
  8
0
 62
     0
 10
3938.2357157590709
 20
-258.39668819552662
 30
0.0
 11
3939.9445371903498
 21
-256.6878667642481
 31
0.0
  0
LINE
  5
1223AE
  8
0
 62
     0
 10
4052.1977387037132
 20
-135.45440912981371
 30
0.0
 11
4053.612214758256
 21
-134.03993307527111
 31
0.0
  0
LINE
  5
1223AF
  8
0
 62
     0
 10
3935.4544091298148
 20
-252.1977387037129
 30
0.0
 11
3939.9445371903498
 21
-247.7076106431783
 31
0.0
  0
LINE
  5
1223B0
  8
0
 62
     0
 10
4043.217482582646
 20
-135.45440912981391
 30
0.0
 11
4047.70761064318
 21
-130.96428106927931
 31
0.0
  0
LINE
  5
1223B1
  8
0
 62
     0
 10
3935.4544091298148
 20
-243.21748258264421
 30
0.0
 11
3937.3861821491769
 21
-241.28570956328289
 31
0.0
  0
LINE
  5
1223B2
  8
0
 62
     0
 10
3930.1854771411081
 20
-248.4864145713519
 30
0.0
 11
3930.9642810692808
 21
-247.70761064317881
 31
0.0
  0
LINE
  5
1223B3
  8
0
 62
     0
 10
4035.6675726032449
 20
-134.0240629881441
 30
0.0
 11
4038.7273545221101
 21
-130.96428106927971
 31
0.0
  0
LINE
  5
1223B4
  8
0
 62
     0
 10
3926.683538252003
 20
-243.0080973393878
 30
0.0
 11
3930.9642810692808
 21
-238.72735452210961
 31
0.0
  0
LINE
  5
1223B5
  8
0
 62
     0
 10
4034.2372264615742
 20
-126.47415300874501
 30
0.0
 11
4037.158868116469
 21
-123.5525113538514
 31
0.0
  0
LINE
  5
1223B6
  8
0
 62
     0
 10
4029.6162325074311
 20
-131.09514696288869
 30
0.0
 11
4029.7470984010411
 21
-130.96428106927951
 31
0.0
  0
LINE
  5
1223B7
  8
0
 62
     0
 10
3926.4741530087458
 20
-234.23722646157481
 30
0.0
 11
3930.9642810692808
 21
-229.74709840104029
 31
0.0
  0
LINE
  5
1223B8
  8
0
 62
     0
 10
4025.2569703405052
 20
-126.47415300874501
 30
0.0
 11
4029.7470984010411
 21
-121.9840249482104
 31
0.0
  0
LINE
  5
1223B9
  8
0
 62
     0
 10
3926.4741530087458
 20
-225.2569703405058
 30
0.0
 11
3928.6423800080051
 21
-223.08874334124701
 31
0.0
  0
LINE
  5
1223BA
  8
0
 62
     0
 10
3920.8198635073882
 20
-230.9112598418638
 30
0.0
 11
3921.9840249482108
 21
-229.7470984010404
 31
0.0
  0
LINE
  5
1223BB
  8
0
 62
     0
 10
4016.276714219438
 20
-126.47415300874459
 30
0.0
 11
4020.766842279972
 21
-121.98402494821011
 31
0.0
  0
LINE
  5
1223BC
  8
0
 62
     0
 10
3926.4741530087458
 20
-216.27671421943651
 30
0.0
 11
3926.7309020428152
 21
-216.0199651853674
 31
0.0
  0
LINE
  5
1223BD
  8
0
 62
     0
 10
3918.5253229309651
 20
-224.22554429721731
 30
0.0
 11
3921.9840249482108
 21
-220.766842279971
 31
0.0
  0
LINE
  5
1223BE
  8
0
 62
     0
 10
4016.276714219438
 20
-117.4938968876756
 30
0.0
 11
4017.0442231228071
 21
-116.7263879843066
 31
0.0
  0
LINE
  5
1223BF
  8
0
 62
     0
 10
4008.3089342178669
 20
-125.4616768892448
 30
0.0
 11
4011.7865861589039
 21
-121.98402494821021
 31
0.0
  0
LINE
  5
1223C0
  8
0
 62
     0
 10
3917.4938968876768
 20
-216.27671421943651
 30
0.0
 11
3921.9840249482108
 21
-211.786586158902
 31
0.0
  0
LINE
  5
1223C1
  8
0
 62
     0
 10
3999.7900611566838
 20
-125.0002938293603
 30
0.0
 11
4000.0
 21
-124.79035498604431
 31
0.0
  0
LINE
  5
1223C2
  8
0
 62
     0
 10
4007.2964580983689
 20
-117.4938968876757
 30
0.0
 11
4009.2820341185061
 21
-115.5083208675366
 31
0.0
  0
LINE
  5
1223C3
  8
0
 62
     0
 10
4000.0
 20
-124.79035498604421
 30
0.0
 11
4002.806330037834
 21
-121.9840249482103
 31
0.0
  0
LINE
  5
1223C4
  8
0
 62
     0
 10
3917.4938968876768
 20
-207.29645809836731
 30
0.0
 11
3921.9840249482108
 21
-202.80633003783271
 31
0.0
  0
LINE
  5
1223C5
  8
0
 62
     0
 10
3998.316201977299
 20
-117.4938968876759
 30
0.0
 11
4000.0
 21
-115.8100988649752
 31
0.0
  0
LINE
  5
1223C6
  8
0
 62
     0
 10
3990.1620662926812
 20
-125.6480325722943
 30
0.0
 11
3993.826073916764
 21
-121.9840249482105
 31
0.0
  0
LINE
  5
1223C7
  8
0
 62
     0
 10
3917.4938968876768
 20
-198.31620197729811
 30
0.0
 11
3921.9840249482122
 21
-193.82607391676359
 31
0.0
  0
LINE
  5
1223C8
  8
0
 62
     0
 10
4000.0
 20
-115.8100988649751
 30
0.0
 11
4000.8062747846711
 21
-115.0038240803043
 31
0.0
  0
LINE
  5
1223C9
  8
0
 62
     0
 10
3989.33594585623
 20
-117.4938968876758
 30
0.0
 11
3991.3929472450659
 21
-115.4368954988406
 31
0.0
  0
LINE
  5
1223CA
  8
0
 62
     0
 10
3980.3556897351609
 20
-126.47415300874501
 30
0.0
 11
3984.8458177956959
 21
-121.9840249482104
 31
0.0
  0
LINE
  5
1223CB
  8
0
 62
     0
 10
3926.4741530087458
 20
-180.3556897351603
 30
0.0
 11
3928.0706823970172
 21
-178.7591603468899
 31
0.0
  0
LINE
  5
1223CC
  8
0
 62
     0
 10
3917.4938968876768
 20
-189.3359458562293
 30
0.0
 11
3921.9840249482108
 21
-184.84581779569481
 31
0.0
  0
LINE
  5
1223CD
  8
0
 62
     0
 10
3980.3556897351609
 20
-117.4938968876758
 30
0.0
 11
3980.6079633188342
 21
-117.2416233040027
 31
0.0
  0
LINE
  5
1223CE
  8
0
 62
     0
 10
3971.3754336140919
 20
-126.47415300874491
 30
0.0
 11
3975.8655616746269
 21
-121.9840249482103
 31
0.0
  0
LINE
  5
1223CF
  8
0
 62
     0
 10
3963.201461750476
 20
-134.64812487236139
 30
0.0
 11
3966.8853055535569
 21
-130.96428106927951
 31
0.0
  0
LINE
  5
1223D0
  8
0
 62
     0
 10
3926.4741530087458
 20
-171.37543361409041
 30
0.0
 11
3930.9642810692808
 21
-166.88530555355581
 31
0.0
  0
LINE
  5
1223D1
  8
0
 62
     0
 10
3917.4938968876768
 20
-180.3556897351595
 30
0.0
 11
3921.9840249482122
 21
-175.86556167462501
 31
0.0
  0
LINE
  5
1223D2
  8
0
 62
     0
 10
3962.395177493021
 20
-126.47415300874481
 30
0.0
 11
3966.8853055535569
 21
-121.98402494821021
 31
0.0
  0
LINE
  5
1223D3
  8
0
 62
     0
 10
3953.4149213719529
 20
-135.45440912981391
 30
0.0
 11
3957.9050494324879
 21
-130.96428106927939
 31
0.0
  0
LINE
  5
1223D4
  8
0
 62
     0
 10
3944.4346652508839
 20
-144.43466525088311
 30
0.0
 11
3948.9247933114189
 21
-139.94453719034851
 31
0.0
  0
LINE
  5
1223D5
  8
0
 62
     0
 10
3935.4544091298148
 20
-153.4149213719522
 30
0.0
 11
3939.9445371903498
 21
-148.9247933114176
 31
0.0
  0
LINE
  5
1223D6
  8
0
 62
     0
 10
3926.4741530087458
 20
-162.39517749302141
 30
0.0
 11
3930.9642810692808
 21
-157.90504943248681
 31
0.0
  0
LINE
  5
1223D7
  8
0
 62
     0
 10
3921.5219269985778
 20
-167.34740350319041
 30
0.0
 11
3921.9840249482108
 21
-166.88530555355601
 31
0.0
  0
LINE
  5
1223D8
  8
0
 62
     0
 10
3937.527641098512
 20
-142.36143328218739
 30
0.0
 11
3939.9445371903498
 21
-139.94453719034871
 31
0.0
  0
LINE
  5
1223D9
  8
0
 62
     0
 10
4053.8815367264142
 20
-262.8617928474826
 30
0.0
 11
4054.7433295738979
 21
-261.99999999999841
 31
0.0
  0
LINE
  5
1223DA
  8
0
 62
     0
 10
4044.9012806053461
 20
-271.84204896855169
 30
0.0
 11
4049.3914086658801
 21
-267.35192090801712
 31
0.0
  0
LINE
  5
1223DB
  8
0
 62
     0
 10
4044.9012806053461
 20
-262.86179284748277
 30
0.0
 11
4045.7630734528302
 21
-261.99999999999852
 31
0.0
  0
LINE
  5
1223DC
  8
0
 62
     0
 10
4035.9210244842761
 20
-271.84204896855198
 30
0.0
 11
4040.4111525448111
 21
-267.35192090801741
 31
0.0
  0
LINE
  5
1223DD
  8
0
 62
     0
 10
4027.2492255236671
 20
-280.51384792916122
 30
0.0
 11
4031.4308964237398
 21
-276.33217702908661
 31
0.0
  0
LINE
  5
1223DE
  8
0
 62
     0
 10
4026.9407683632062
 20
-271.84204896855192
 30
0.0
 11
4030.0784920037072
 21
-268.7043253280512
 31
0.0
  0
LINE
  5
1223DF
  8
0
 62
     0
 10
4017.9605122421381
 20
-280.82230508962101
 30
0.0
 11
4022.450640302673
 21
-276.33217702908638
 31
0.0
  0
LINE
  5
1223E0
  8
0
 62
     0
 10
4008.980256121069
 20
-280.82230508962078
 30
0.0
 11
4013.4703841816022
 21
-276.33217702908632
 31
0.0
  0
LINE
  5
1223E1
  8
0
 62
     0
 10
4000.0
 20
-280.82230508962078
 30
0.0
 11
4004.4901280605341
 21
-276.33217702908632
 31
0.0
  0
LINE
  5
1223E2
  8
0
 62
     0
 10
3991.0197438789319
 20
-280.8223050896209
 30
0.0
 11
3995.5098719394659
 21
-276.33217702908632
 31
0.0
  0
LINE
  5
1223E3
  8
0
 62
     0
 10
3982.039487757861
 20
-280.8223050896209
 30
0.0
 11
3986.529615818396
 21
-276.33217702908638
 31
0.0
  0
LINE
  5
1223E4
  8
0
 62
     0
 10
3973.212796132721
 20
-280.6687405936932
 30
0.0
 11
3977.5493596973279
 21
-276.33217702908638
 31
0.0
  0
LINE
  5
1223E5
  8
0
 62
     0
 10
3973.059231636792
 20
-271.84204896855192
 30
0.0
 11
3974.4041133730389
 21
-270.49716723230517
 31
0.0
  0
LINE
  5
1223E6
  8
0
 62
     0
 10
3966.6969969239681
 20
-278.20428368137812
 30
0.0
 11
3968.569103576257
 21
-276.33217702908638
 31
0.0
  0
LINE
  5
1223E7
  8
0
 62
     0
 10
3964.0789755157239
 20
-271.84204896855232
 30
0.0
 11
3968.0614140538951
 21
-267.85961043038088
 31
0.0
  0
LINE
  5
1223E8
  8
0
 62
     0
 10
3955.098719394653
 20
-271.84204896855192
 30
0.0
 11
3959.5888474551889
 21
-267.35192090801729
 31
0.0
  0
LINE
  5
1223E9
  8
0
 62
     0
 10
3955.098719394653
 20
-262.86179284748277
 30
0.0
 11
3956.7131058256882
 21
-261.24740641644928
 31
0.0
  0
LINE
  5
1223EA
  8
0
 62
     0
 10
3949.550844210803
 20
-268.40966803133318
 30
0.0
 11
3950.6085913341199
 21
-267.35192090801729
 31
0.0
  0
LINE
  5
1223EB
  8
0
 62
     0
 10
3946.1184632735858
 20
-262.8617928474826
 30
0.0
 11
3950.6085913341199
 21
-258.37166478694797
 31
0.0
  0
LINE
  5
1223EC
  8
0
 62
     0
 10
3946.1184632735858
 20
-253.88153672641349
 30
0.0
 11
3946.9669914110091
 21
-253.03300858898959
 31
0.0
  0
LINE
  5
1223ED
  8
0
 62
     0
 10
3939.8959235991442
 20
-260.10407640085509
 30
0.0
 11
3941.6283352130508
 21
-258.37166478694797
 31
0.0
  0
LINE
  5
1223EE
  8
0
 62
     0
 10
4053.8815367264142
 20
-137.1382071525147
 30
0.0
 11
4055.4459941864038
 21
-135.57374969252521
 31
0.0
  0
LINE
  5
1223EF
  8
0
 62
     0
 10
3937.1382071525159
 20
-253.88153672641349
 30
0.0
 11
3941.6283352130508
 21
-249.391408665879
 31
0.0
  0
LINE
  5
1223F0
  8
0
 62
     0
 10
4044.9012806053461
 20
-137.1382071525147
 30
0.0
 11
4049.3914086658801
 21
-132.64807909198001
 31
0.0
  0
LINE
  5
1223F1
  8
0
 62
     0
 10
3937.1382071525159
 20
-244.90128060534451
 30
0.0
 11
3938.7525935835511
 21
-243.2868941743107
 31
0.0
  0
LINE
  5
1223F2
  8
0
 62
     0
 10
3931.5903319686659
 20
-250.44915578919489
 30
0.0
 11
3932.6480790919818
 21
-249.391408665879
 31
0.0
  0
LINE
  5
1223F3
  8
0
 62
     0
 10
4044.9012806053461
 20
-128.15795103144561
 30
0.0
 11
4045.1047705343681
 21
-127.95446110242329
 31
0.0
  0
LINE
  5
1223F4
  8
0
 62
     0
 10
4037.8233654376231
 20
-135.23586619916739
 30
0.0
 11
4040.4111525448111
 21
-132.64807909198001
 31
0.0
  0
LINE
  5
1223F5
  8
0
 62
     0
 10
3928.1579510314468
 20
-244.90128060534479
 30
0.0
 11
3932.6480790919818
 21
-240.41115254481031
 31
0.0
  0
LINE
  5
1223F6
  8
0
 62
     0
 10
4035.9210244842761
 20
-128.15795103144501
 30
0.0
 11
4039.3973119843781
 21
-124.6816635313433
 31
0.0
  0
LINE
  5
1223F7
  8
0
 62
     0
 10
3928.1579510314468
 20
-235.92102448427519
 30
0.0
 11
3932.140389569618
 21
-231.93858594610461
 31
0.0
  0
LINE
  5
1223F8
  8
0
 62
     0
 10
4026.9407683632062
 20
-128.15795103144541
 30
0.0
 11
4031.4308964237398
 21
-123.6678229709109
 31
0.0
  0
LINE
  5
1223F9
  8
0
 62
     0
 10
3928.1579510314468
 20
-226.94076836320579
 30
0.0
 11
3929.5028327676951
 21
-225.5958866269591
 31
0.0
  0
LINE
  5
1223FA
  8
0
 62
     0
 10
3921.795716318622
 20
-233.3030030760323
 30
0.0
 11
3923.6678229709119
 21
-231.43089642374039
 31
0.0
  0
LINE
  5
1223FB
  8
0
 62
     0
 10
4018.7395884655198
 20
-127.37887480806221
 30
0.0
 11
4022.450640302673
 21
-123.66782297091071
 31
0.0
  0
LINE
  5
1223FC
  8
0
 62
     0
 10
3919.331259406305
 20
-226.78720386727829
 30
0.0
 11
3923.6678229709119
 21
-222.45064030267159
 31
0.0
  0
LINE
  5
1223FD
  8
0
 62
     0
 10
4017.9605122421381
 20
-119.1776949103763
 30
0.0
 11
4019.799941457361
 21
-117.3382656951522
 31
0.0
  0
LINE
  5
1223FE
  8
0
 62
     0
 10
4011.284425768652
 20
-125.8537813838628
 30
0.0
 11
4013.4703841816022
 21
-123.66782297091081
 31
0.0
  0
LINE
  5
1223FF
  8
0
 62
     0
 10
3919.1776949103769
 20
-217.96051224213721
 30
0.0
 11
3923.6678229709119
 21
-213.47038418160261
 31
0.0
  0
LINE
  5
122400
  8
0
 62
     0
 10
4008.980256121069
 20
-119.1776949103763
 30
0.0
 11
4012.2679784105749
 21
-115.88997262087049
 31
0.0
  0
LINE
  5
122401
  8
0
 62
     0
 10
4003.0941007878541
 20
-125.0638502435919
 30
0.0
 11
4004.4901280605341
 21
-123.6678229709109
 31
0.0
  0
LINE
  5
122402
  8
0
 62
     0
 10
3919.1776949103769
 20
-208.98025612106801
 30
0.0
 11
3923.6678229709119
 21
-204.49012806053349
 31
0.0
  0
LINE
  5
122403
  8
0
 62
     0
 10
4000.0
 20
-119.1776949103761
 30
0.0
 11
4000.0
 21
-119.17769491037581
 31
0.0
  0
LINE
  5
122404
  8
0
 62
     0
 10
3993.9318052486001
 20
-125.2458896617765
 30
0.0
 11
3995.5098719394659
 21
-123.66782297091071
 31
0.0
  0
LINE
  5
122405
  8
0
 62
     0
 10
3919.1776949103769
 20
-199.99999999999841
 30
0.0
 11
3923.6678229709119
 21
-195.50987193946401
 31
0.0
  0
LINE
  5
122406
  8
0
 62
     0
 10
4000.0
 20
-119.177694910376
 30
0.0
 11
4004.0797313529042
 21
-115.0979635574721
 31
0.0
  0
LINE
  5
122407
  8
0
 62
     0
 10
3991.0197438789319
 20
-119.1776949103763
 30
0.0
 11
3995.0533812002559
 21
-115.1440575890512
 31
0.0
  0
LINE
  5
122408
  8
0
 62
     0
 10
3983.3188363327549
 20
-126.87860245655349
 30
0.0
 11
3986.529615818396
 21
-123.6678229709109
 31
0.0
  0
LINE
  5
122409
  8
0
 62
     0
 10
3919.1776949103769
 20
-191.0197438789296
 30
0.0
 11
3923.6678229709119
 21
-186.52961581839509
 31
0.0
  0
LINE
  5
12240A
  8
0
 62
     0
 10
3982.039487757861
 20
-119.1776949103764
 30
0.0
 11
3984.8575146748631
 21
-116.3596679933765
 31
0.0
  0
LINE
  5
12240B
  8
0
 62
     0
 10
3973.059231636792
 20
-128.15795103144561
 30
0.0
 11
3977.5493596973279
 21
-123.667822970911
 31
0.0
  0
LINE
  5
12240C
  8
0
 62
     0
 10
3928.1579510314468
 20
-173.05923163679131
 30
0.0
 11
3931.2956746719469
 21
-169.92150799629019
 31
0.0
  0
LINE
  5
12240D
  8
0
 62
     0
 10
3919.1776949103769
 20
-182.0394877578604
 30
0.0
 11
3923.6678229709119
 21
-177.5493596973258
 31
0.0
  0
LINE
  5
12240E
  8
0
 62
     0
 10
3964.0789755157239
 20
-128.15795103144541
 30
0.0
 11
3968.569103576257
 21
-123.66782297091081
 31
0.0
  0
LINE
  5
12240F
  8
0
 62
     0
 10
3955.098719394653
 20
-137.13820715251461
 30
0.0
 11
3959.588847455188
 21
-132.64807909198001
 31
0.0
  0
LINE
  5
122410
  8
0
 62
     0
 10
3946.1184632735858
 20
-146.11846327358359
 30
0.0
 11
3950.6085913341199
 21
-141.6283352130491
 31
0.0
  0
LINE
  5
122411
  8
0
 62
     0
 10
3937.1382071525159
 20
-155.09871939465279
 30
0.0
 11
3941.6283352130499
 21
-150.6085913341183
 31
0.0
  0
LINE
  5
122412
  8
0
 62
     0
 10
3928.1579510314468
 20
-164.07897551572199
 30
0.0
 11
3932.6480790919818
 21
-159.58884745518739
 31
0.0
  0
LINE
  5
122413
  8
0
 62
     0
 10
3919.4861520708369
 20
-172.75077447633129
 30
0.0
 11
3923.6678229709119
 21
-168.56910357625659
 31
0.0
  0
LINE
  5
122414
  8
0
 62
     0
 10
3955.098719394653
 20
-128.15795103144521
 30
0.0
 11
3955.9548403695781
 21
-127.30183005652179
 31
0.0
  0
LINE
  5
122415
  8
0
 62
     0
 10
3946.1184632735858
 20
-137.1382071525145
 30
0.0
 11
3950.6085913341199
 21
-132.64807909197981
 31
0.0
  0
LINE
  5
122416
  8
0
 62
     0
 10
3937.1382071525159
 20
-146.11846327358359
 30
0.0
 11
3941.6283352130508
 21
-141.62833521304901
 31
0.0
  0
LINE
  5
122417
  8
0
 62
     0
 10
3928.1579510314468
 20
-155.09871939465279
 30
0.0
 11
3932.6480790919818
 21
-150.60859133411819
 31
0.0
  0
ENDBLK
  5
122419
  8
0
  0
ENDSEC
  0
SECTION
  2
ENTITIES
  0
LINE
  5
1215B0
  8
SLIM
 10
3914.9999999999941
 20
-659.47385309434651
 30
0.0
 11
3919.47385309434
 21
-654.99999999999898
 31
0.0
1001
ACAD
1010
0.0
1020
0.0
1030
0.0
1001
ACDBBLOCKREPETAG
1070
     1
1071
        0
1005
0
  0
LINE
  5
1215B1
  8
SLIM
 10
3914.9999999999941
 20
-677.43436533648412
 30
0.0
 11
3937.434365336479
 21
-654.99999999999898
 31
0.0
1001
ACAD
1010
0.0
1020
0.0
1030
0.0
1001
ACDBBLOCKREPETAG
1070
     1
1071
       11
1005
1215B1
  0
LINE
  5
1215B2
  8
SLIM
 10
3914.9999999999941
 20
-695.39487757862184
 30
0.0
 11
3955.394877578618
 21
-654.99999999999898
 31
0.0
1001
ACAD
1010
0.0
1020
0.0
1030
0.0
1001
ACDBBLOCKREPETAG
1070
     1
1071
       12
1005
1215B2
  0
LINE
  5
1215B3
  8
SLIM
 10
3914.999999999995
 20
-713.35538982075946
 30
0.0
 11
3973.3553898207551
 21
-654.99999999999898
 31
0.0
1001
ACAD
1010
0.0
1020
0.0
1030
0.0
1001
ACDBBLOCKREPETAG
1070
     1
1071
       13
1005
1215B3
  0
LINE
  5
1215B4
  8
SLIM
 10
3914.999999999995
 20
-731.31590206289752
 30
0.0
 11
3991.3159020628941
 21
-654.99999999999898
 31
0.0
1001
ACAD
1010
0.0
1020
0.0
1030
0.0
1001
ACDBBLOCKREPETAG
1070
     1
1071
       14
1005
1215B4
  0
LINE
  5
1215B5
  8
SLIM
 10
3914.9999999999968
 20
-749.2764143050349
 30
0.0
 11
4009.2764143050308
 21
-654.99999999999898
 31
0.0
1001
ACAD
1010
0.0
1020
0.0
1030
0.0
1001
ACDBBLOCKREPETAG
1070
     1
1071
       15
1005
1215B5
  0
LINE
  5
1215B6
  8
SLIM
 10
3914.9999999999968
 20
-767.23692654717274
 30
0.0
 11
4027.2369265471689
 21
-654.99999999999898
 31
0.0
1001
ACAD
1010
0.0
1020
0.0
1030
0.0
1001
ACDBBLOCKREPETAG
1070
     1
1071
       16
1005
1215B6
  0
LINE
  5
1215B7
  8
SLIM
 10
3914.9999999999968
 20
-785.19743878931035
 30
0.0
 11
4045.1974387893069
 21
-654.99999999999898
 31
0.0
1001
ACAD
1010
0.0
1020
0.0
1030
0.0
1001
ACDBBLOCKREPETAG
1070
     1
1071
       17
1005
1215B7
  0
LINE
  5
1215B8
  8
SLIM
 10
3914.9999999999991
 20
-803.15795103144842
 30
0.0
 11
4063.157951031445
 21
-654.99999999999898
 31
0.0
1001
ACAD
1010
0.0
1020
0.0
1030
0.0
1001
ACDBBLOCKREPETAG
1070
     1
1071
       18
1005
1215B8
  0
LINE
  5
1215B9
  8
SLIM
 10
3914.9999999999991
 20
-821.11846327358569
 30
0.0
 11
4081.1184632735849
 21
-654.99999999999898
 31
0.0
1001
ACAD
1010
0.0
1020
0.0
1030
0.0
1001
ACDBBLOCKREPETAG
1070
     1
1071
       19
1005
1215B9
  0
LINE
  5
1215BA
  8
SLIM
 10
3914.9999999999991
 20
-839.07897551572364
 30
0.0
 11
4085.0000000000068
 21
-669.07897551571557
 31
0.0
1001
ACAD
1010
0.0
1020
0.0
1030
0.0
1001
ACDBBLOCKREPETAG
1070
     1
1071
       20
1005
1215BA
  0
LINE
  5
1215BB
  8
SLIM
 10
3915.0
 20
-857.03948775786102
 30
0.0
 11
4085.0000000000068
 21
-687.03948775785454
 31
0.0
1001
ACAD
1010
0.0
1020
0.0
1030
0.0
1001
ACDBBLOCKREPETAG
1070
     1
1071
       21
1005
1215BB
  0
LINE
  5
1215BC
  8
SLIM
 10
3915.283600749558
 20
-874.7163992504411
 30
0.0
 11
4085.0000000000059
 21
-704.99999999999341
 31
0.0
1001
ACAD
1010
0.0
1020
0.0
1030
0.0
1001
ACDBBLOCKREPETAG
1070
     1
1071
       22
1005
1215BC
  0
LINE
  5
1215BD
  8
SLIM
 10
3917.4979104780409
 20
-890.46260176409623
 30
0.0
 11
4085.000000000005
 21
-722.96051224213249
 31
0.0
1001
ACAD
1010
0.0
1020
0.0
1030
0.0
1001
ACDBBLOCKREPETAG
1070
     1
1071
       23
1005
1215BD
  0
LINE
  5
1215BE
  8
SLIM
 10
3919.7122202065239
 20
-906.20880427775148
 30
0.0
 11
4085.0000000000041
 21
-740.92102448427136
 31
0.0
1001
ACAD
1010
0.0
1020
0.0
1030
0.0
1001
ACDBBLOCKREPETAG
1070
     1
1071
       24
1005
1215BE
  0
LINE
  5
1215BF
  8
SLIM
 10
3921.9265299350068
 20
-921.95500679140673
 30
0.0
 11
4085.0000000000032
 21
-758.88153672641022
 31
0.0
1001
ACAD
1010
0.0
1020
0.0
1030
0.0
1001
ACDBBLOCKREPETAG
1070
     1
1071
       25
1005
1215BF
  0
LINE
  5
1215C0
  8
SLIM
 10
3924.1408396634902
 20
-937.70120930506232
 30
0.0
 11
4085.0000000000032
 21
-776.84204896854919
 31
0.0
1001
ACAD
1010
0.0
1020
0.0
1030
0.0
1001
ACDBBLOCKREPETAG
1070
     1
1071
       26
1005
1215C0
  0
LINE
  5
1215C1
  8
SLIM
 10
3926.3551493919731
 20
-953.44741181871746
 30
0.0
 11
4085.0000000000032
 21
-794.80256121068805
 31
0.0
1001
ACAD
1010
0.0
1020
0.0
1030
0.0
1001
ACDBBLOCKREPETAG
1070
     1
1071
       27
1005
1215C1
  0
LINE
  5
1215C2
  8
SLIM
 10
3928.569459120456
 20
-969.19361433237282
 30
0.0
 11
4085.0000000000009
 21
-812.76307345282669
 31
0.0
1001
ACAD
1010
0.0
1020
0.0
1030
0.0
1001
ACDBBLOCKREPETAG
1070
     1
1071
       28
1005
1215C2
  0
LINE
  5
1215C3
  8
SLIM
 10
3930.783768848939
 20
-984.93981684602795
 30
0.0
 11
4085.0000000000009
 21
-830.72358569496578
 31
0.0
1001
ACAD
1010
0.0
1020
0.0
1030
0.0
1001
ACDBBLOCKREPETAG
1070
     1
1071
       29
1005
1215C3
  0
LINE
  5
1215C4
  8
SLIM
 10
3932.9980785774228
 20
-1000.686019359683
 30
0.0
 11
4085.0
 21
-848.68409793710475
 31
0.0
1001
ACAD
1010
0.0
1020
0.0
1030
0.0
1001
ACDBBLOCKREPETAG
1070
     1
1071
       30
1005
1215C4
  0
LINE
  5
1215C5
  8
SLIM
 10
3943.0
 20
-1008.644610179244
 30
0.0
 11
3946.6446101792471
 21
-1004.999999999997
 31
0.0
1001
ACAD
1010
0.0
1020
0.0
1030
0.0
1001
ACDBBLOCKREPETAG
1070
     1
1071
       31
1005
1215C5
  0
LINE
  5
1215C6
  8
SLIM
 10
3946.6446101792471
 20
-1004.999999999997
 30
0.0
 11
4085.0
 21
-866.64461017924339
 31
0.0
1001
ACAD
1010
0.0
1020
0.0
1030
0.0
1001
ACDBBLOCKREPETAG
1070
     1
1071
       32
1005
1215C6
  0
LINE
  5
1215C7
  8
SLIM
 10
3944.6051224213852
 20
-1024.999999999997
 30
0.0
 11
3964.6051224213852
 21
-1004.999999999997
 31
0.0
1001
ACAD
1010
0.0
1020
0.0
1030
0.0
1001
ACDBBLOCKREPETAG
1070
     1
1071
       33
1005
1215C7
  0
LINE
  5
1215C8
  8
SLIM
 10
3964.6051224213852
 20
-1004.999999999997
 30
0.0
 11
4083.0518371543649
 21
-886.55328526701646
 31
0.0
1001
ACAD
1010
0.0
1020
0.0
1030
0.0
1001
ACDBBLOCKREPETAG
1070
     1
1071
       34
1005
1215C8
  0
LINE
  5
1215C9
  8
SLIM
 10
3962.5656346635228
 20
-1024.999999999997
 30
0.0
 11
3982.5656346635242
 21
-1004.999999999997
 31
0.0
1001
ACAD
1010
0.0
1020
0.0
1030
0.0
1001
ACDBBLOCKREPETAG
1070
     1
1071
       35
1005
1215C9
  0
LINE
  5
1215CA
  8
SLIM
 10
3982.5656346635242
 20
-1004.999999999997
 30
0.0
 11
4080.1128442420149
 21
-907.45279042150435
 31
0.0
1001
ACAD
1010
0.0
1020
0.0
1030
0.0
1001
ACDBBLOCKREPETAG
1070
     1
1071
       36
1005
1215CA
  0
LINE
  5
1215CB
  8
SLIM
 10
3980.5261469056618
 20
-1024.999999999997
 30
0.0
 11
4000.5261469056609
 21
-1004.999999999997
 31
0.0
1001
ACAD
1010
0.0
1020
0.0
1030
0.0
1001
ACDBBLOCKREPETAG
1070
     1
1071
       37
1005
1215CB
  0
LINE
  5
1215CC
  8
SLIM
 10
4000.5261469056609
 20
-1004.999999999997
 30
0.0
 11
4077.173851329665
 21
-928.35229557599246
 31
0.0
1001
ACAD
1010
0.0
1020
0.0
1030
0.0
1001
ACDBBLOCKREPETAG
1070
     1
1071
       38
1005
1215CC
  0
LINE
  5
1215CD
  8
SLIM
 10
3998.4866591477999
 20
-1024.999999999997
 30
0.0
 11
4018.4866591477989
 21
-1004.999999999997
 31
0.0
1001
ACAD
1010
0.0
1020
0.0
1030
0.0
1001
ACDBBLOCKREPETAG
1070
     1
1071
       39
1005
1215CD
  0
LINE
  5
1215CE
  8
SLIM
 10
4018.4866591477989
 20
-1004.999999999997
 30
0.0
 11
4074.234858417316
 21
-949.25180073048068
 31
0.0
1001
ACAD
1010
0.0
1020
0.0
1030
0.0
1001
ACDBBLOCKREPETAG
1070
     1
1071
       40
1005
1215CE
  0
LINE
  5
1215CF
  8
SLIM
 10
4016.4471713899379
 20
-1024.999999999997
 30
0.0
 11
4036.4471713899361
 21
-1004.999999999997
 31
0.0
1001
ACAD
1010
0.0
1020
0.0
1030
0.0
1001
ACDBBLOCKREPETAG
1070
     1
1071
       41
1005
1215CF
  0
LINE
  5
1215D0
  8
SLIM
 10
4036.4471713899361
 20
-1004.999999999997
 30
0.0
 11
4071.295865504967
 21
-970.15130588496891
 31
0.0
1001
ACAD
1010
0.0
1020
0.0
1030
0.0
1001
ACDBBLOCKREPETAG
1070
     1
1071
       42
1005
1215D0
  0
LINE
  5
1215D1
  8
SLIM
 10
4034.4076836320769
 20
-1024.999999999997
 30
0.0
 11
4054.407683632076
 21
-1004.999999999997
 31
0.0
1001
ACAD
1010
0.0
1020
0.0
1030
0.0
1001
ACDBBLOCKREPETAG
1070
     1
1071
       43
1005
1215D1
  0
LINE
  5
1215D2
  8
SLIM
 10
4054.407683632076
 20
-1004.999999999997
 30
0.0
 11
4068.3568725926161
 21
-991.05081103945702
 31
0.0
1001
ACAD
1010
0.0
1020
0.0
1030
0.0
1001
ACDBBLOCKREPETAG
1070
     1
1071
       44
1005
1215D2
  0
LINE
  5
1215D3
  8
SLIM
 10
4052.368195874215
 20
-1024.999999999997
 30
0.0
 11
4057.0
 21
-1020.368195874212
 31
0.0
1001
ACAD
1010
0.0
1020
0.0
1030
0.0
1001
ACDBBLOCKREPETAG
1070
     1
1071
       45
1005
1215D3
  0
LINE
  5
1215D4
  8
OBJECT
 10
3943.0
 20
-1024.999999999997
 30
0.0
 11
4057.0
 21
-1024.999999999997
 31
0.0
1001
ACDBBLOCKREPETAG
1070
     1
1071
        1
1005
1215D4
  0
LINE
  5
1215D5
  8
OBJECT
 10
3933.604732104965
 20
-1004.999999999997
 30
0.0
 11
4066.3952678950409
 21
-1004.999999999997
 31
0.0
1001
ACDBBLOCKREPETAG
1070
     1
1071
        2
1005
1215D5
  0
LINE
  5
1215D6
  8
OBJECT
 10
3943.0
 20
-1024.999999999997
 30
0.0
 11
3943.0
 21
-1004.999999999997
 31
0.0
1001
ACDBBLOCKREPETAG
1070
     1
1071
        3
1005
1215D6
  0
LINE
  5
1215D7
  8
OBJECT
 10
4057.0
 20
-1024.999999999997
 30
0.0
 11
4057.0
 21
-1004.999999999997
 31
0.0
1001
ACDBBLOCKREPETAG
1070
     1
1071
        4
1005
1215D7
  0
LINE
  5
1215D8
  8
OBJECT
 10
3914.9999999999941
 20
-654.99999999999898
 30
0.0
 11
3915.0
 21
-872.69968280914043
 31
0.0
1001
ACDBBLOCKREPETAG
1070
     1
1071
        5
1005
1215D8
  0
LINE
  5
1215D9
  8
OBJECT
 10
4085.0000000000068
 20
-654.99999999999898
 30
0.0
 11
4085.0
 21
-872.69968280917135
 31
0.0
1001
ACDBBLOCKREPETAG
1070
     1
1071
        6
1005
1215D9
  0
LINE
  5
1215DA
  8
OBJECT
 10
3915.0
 20
-872.69968280914043
 30
0.0
 11
3933.604732104965
 21
-1004.999999999997
 31
0.0
1001
ACDBBLOCKREPETAG
1070
     1
1071
        7
1005
1215DA
  0
LINE
  5
1215DB
  8
OBJECT
 10
4066.3952678950409
 20
-1004.999999999997
 30
0.0
 11
4085.0
 21
-872.69968280917135
 31
0.0
1001
ACDBBLOCKREPETAG
1070
     1
1071
        8
1005
1215DB
  0
LINE
  5
1215DC
  8
OBJECT
 10
4085.0000000000068
 20
-654.99999999999898
 30
0.0
 11
3914.9999999999941
 21
-654.99999999999898
 31
0.0
1001
ACDBBLOCKREPETAG
1070
     1
1071
        9
1005
1215DC
  0
ARC
  5
1215DD
  8
OBJECT
 10
4000.0
 20
-199.99999999999841
 30
0.0
 40
50.0
 50
298.81994300000417
 51
228.52376955964741
1001
ACDBBLOCKREPETAG
1070
     1
1071
      185
1005
1215DD
  0
INSERT
  5
1215DE
  8
SLIM
  6
CONTINUOUS
  2
*X117
 10
0.0
 20
0.0
 30
0.0
1001
GRADIENTCOLOR1ACI
1070
     5
1001
GRADIENTCOLOR2ACI
1070
     2
1001
ACDBBLOCKREPETAG
1070
     1
1071
      410
1005
1215DE
1001
ACAD
1000
HATCH
1002
{
1070
    19
1000
EARTH
1040
1.0
1040
0.7853981633974483
1000
R14_HATCH_DATA
1000
1215DE
1011
1.0
1021
-0.0
1031
-0.0
1021
0.0
1031
0.0
1011
0.0
1021
-0.0
1031
-0.0
1021
1.0
1031
0.0
1011
0.0
1021
-0.0
1031
-0.0
1021
0.0
1031
1.0
1040
0.0
1010
0.0
1020
0.0
1030
1.0
1000
EARTH
1070
     0
1070
     0
1071
        4
1071
        7
1070
     1
1070
     1
1071
        4
1040
4000.0
1040
-124.99999999999859
1040
0.0
1040
4000.0
1040
-114.99999999999849
1040
0.4142135623730951
1040
3915.0
1040
-199.99999999999841
1040
0.0
1040
3925.0
1040
-199.99999999999841
1040
-0.4142135623730951
1071
        0
1071
        7
1070
     1
1070
     1
1071
        4
1040
4000.0
1040
-114.99999999999849
1040
0.0
1040
4000.0
1040
-124.99999999999859
1040
-0.1505314338169883
1040
4042.2018956920169
1040
-137.99999999999861
1040
0.0
1040
4058.1463670404269
1040
-137.99999999999861
1040
0.1905924244794523
1071
        0
1071
        7
1070
     1
1070
     1
1071
        4
1040
3925.0
1040
-199.99999999999841
1040
0.0
1040
3915.0
1040
-199.99999999999841
1040
0.4142135623730951
1040
4000.0
1040
-284.99999999999852
1040
0.0
1040
4000.0
1040
-274.99999999999852
1040
-0.4142135623730951
1071
        0
1071
        7
1070
     1
1070
     1
1071
        4
1040
4058.1463670404269
1040
-261.99999999999852
1040
0.0
1040
4042.2018956920169
1040
-261.99999999999852
1040
-0.1505314338169883
1040
4000.0
1040
-274.99999999999852
1040
0.0
1040
4000.0
1040
-284.99999999999852
1040
0.1905924244794523
1071
        0
1070
     0
1070
     1
1040
0.7853981633974483
1040
1.0
1070
     0
1070
     6
1040
0.7853981633974483
1040
4000.0
1040
-199.99999999999841
1040
0.0000000000000009
1040
8.9802561210691536
1070
     2
1040
6.3499999999999979
1040
-6.3499999999999979
1040
0.7853981633974483
1040
3998.3162019772999
1040
-198.31620197729811
1040
0.0000000000000009
1040
8.9802561210691536
1070
     2
1040
6.3499999999999979
1040
-6.3499999999999979
1040
0.7853981633974483
1040
3996.6324039545989
1040
-196.63240395459749
1040
0.0000000000000009
1040
8.9802561210691536
1070
     2
1040
6.3499999999999979
1040
-6.3499999999999979
1040
2.3561944901923431
1040
3996.6324039545989
1040
-195.50987193946401
1040
-8.9802561210691536
1040
0.0000000000000009
1070
     2
1040
6.3499999999999979
1040
-6.3499999999999979
1040
2.3561944901923431
1040
3998.3162019772999
1040
-193.82607391676351
1040
-8.9802561210691536
1040
0.0000000000000009
1070
     2
1040
6.3499999999999979
1040
-6.3499999999999979
1040
2.3561944901923431
1040
4000.0
1040
-192.142275894063
1040
-8.9802561210691536
1040
0.0000000000000009
1070
     2
1040
6.3499999999999979
1040
-6.3499999999999979
1040
0.3053229869521416
1071
        4
1040
3959.5892010489192
1040
-130.87127385446729
1040
0.0
1040
4014.281180558874
1040
-123.8488453063094
1040
0.0
1040
3923.229726966516
1040
-221.55220093307119
1040
0.0
1040
4010.920221300692
1040
-281.09018404738413
1040
0.0
1002
}
  0
LINE
  5
1215DF
  8
CENTER
 10
4080.0
 20
-199.99999999999841
 30
0.0
 11
3900.0
 21
-199.99999999999841
 31
0.0
1001
ACDBBLOCKREPETAG
1070
     1
1071
      187
1005
1215DF
  0
LINE
  5
1215E0
  8
CENTER
 10
4000.0
 20
-299.99999999999852
 30
0.0
 11
4000.0
 21
-99.999999999998565
 31
0.0
1001
ACDBBLOCKREPETAG
1070
     1
1071
      188
1005
1215E0
  0
LINE
  5
1215E1
  8
OBJECT
 10
4042.2018956920169
 20
-137.99999999999861
 30
0.0
 11
4080.0
 21
-137.99999999999861
 31
0.0
1001
ACDBBLOCKREPETAG
1070
     1
1071
      192
1005
1215E1
  0
LINE
  5
1215E2
  8
OBJECT
 10
4042.2018956920169
 20
-261.99999999999852
 30
0.0
 11
4080.0
 21
-261.99999999999852
 31
0.0
1001
ACDBBLOCKREPETAG
1070
     1
1071
      193
1005
1215E2
  0
ARC
  5
1215E3
  8
OBJECT
 10
4000.0
 20
-199.99999999999841
 30
0.0
 40
85.0
 50
46.837102859834147
 51
313.16289714016602
1001
ACDBBLOCKREPETAG
1070
     1
1071
      202
1005
1215E3
  0
CIRCLE
  5
1215E4
  8
OBJECT
 10
4000.0
 20
-199.99999999999841
 30
0.0
 40
75.0
1001
ACDBBLOCKREPETAG
1070
     1
1071
      372
1005
1215E4
  0
CIRCLE
  5
1215E5
  8
OBJECT
 10
4000.0
 20
-199.99999999999841
 30
0.0
 40
52.5
1001
ACDBBLOCKREPETAG
1070
     1
1071
      373
1005
1215E5
  0
CIRCLE
  5
1215E6
  8
OBJECT
 10
4000.0
 20
-199.99999999999841
 30
0.0
 40
57.0
1001
ACDBBLOCKREPETAG
1070
     1
1071
      374
1005
1215E6
  0
LINE
  5
1215E7
  8
OBJECT
 10
3969.8635289348599
 20
-242.98887195239931
 30
0.0
 11
3979.8564918232369
 21
-222.48688253356741
 31
0.0
1001
ACDBBLOCKREPETAG
1070
     1
1071
      402
1005
1215E7
  0
LINE
  5
1215E8
  8
OBJECT
 10
3965.7499660391568
 20
-239.78925952667359
 30
0.0
 11
3973.9071022665089
 21
-223.053730044307
 31
0.0
1001
ACDBBLOCKREPETAG
1070
     1
1071
      403
1005
1215E8
  0
LINE
  5
1215E9
  8
OBJECT
 10
4024.102933093302
 20
-243.8069471237163
 30
0.0
 11
4020.6596569999951
 21
-232.5546219999982
 31
0.0
1001
ACDBBLOCKREPETAG
1070
     1
1071
      404
1005
1215E9
  0
ARC
  5
1215EA
  8
OBJECT
 10
3976.579695307315
 20
-207.12893698284319
 30
0.0
 40
60.031113246032611
 50
316.41744226774563
 51
322.33936106091278
1001
ACDBBLOCKREPETAG
1070
     1
1071
      405
1005
1215EA
  0
LINE
  5
1215EB
  8
OBJECT
 10
3986.7927499013749
 20
-218.2255337420797
 30
0.0
 11
4020.6596569999951
 21
-232.55462199999641
 31
0.0
1001
ACDBBLOCKREPETAG
1070
     1
1071
      406
1005
1215EB
  0
ARC
  5
1215EC
  8
OBJECT
 10
3982.896169761902
 20
-227.4351299990561
 30
0.0
 40
10.0
 50
67.066778292911366
 51
154.0147343702935
1001
ACDBBLOCKREPETAG
1070
     1
1071
      407
1005
1215EC
  0
ARC
  5
1215ED
  8
OBJECT
 10
3986.1488390381278
 20
-225.55386256729111
 30
0.0
 40
7.0
 50
67.066778292911366
 51
154.01473377497121
1001
ACDBBLOCKREPETAG
1070
     1
1071
      408
1005
1215ED
  0
POINT
  5
1215EE
  8
DOTS
 10
4000.0
 20
-199.99999999999841
 30
0.0
1001
ACDBBLOCKREPETAG
1070
     1
1071
      413
1005
1215EE
  0
LINE
  5
1215EF
  8
OBJECT
 10
4083.0
 20
-533.99999999999955
 30
0.0
 11
4080.0
 21
-533.99999999999955
 31
0.0
1001
ACDBBLOCKREPETAG
1070
     1
1071
        1
1005
1215EF
  0
ARC
  5
1215F0
  8
OBJECT
 10
4083.0
 20
-536.99999999999955
 30
0.0
 40
3.0
 50
0.0
 51
90.0
1001
ACDBBLOCKREPETAG
1070
     1
1071
        2
1005
1215F0
  0
LINE
  5
1215F1
  8
OBJECT
 10
4080.0
 20
-657.99999999999955
 30
0.0
 11
4083.0
 21
-657.99999999999955
 31
0.0
1001
ACDBBLOCKREPETAG
1070
     1
1071
        3
1005
1215F1
  0
ARC
  5
1215F2
  8
OBJECT
 10
4083.0
 20
-654.99999999999966
 30
0.0
 40
3.0
 50
270.0
 51
0.0
1001
ACDBBLOCKREPETAG
1070
     1
1071
        4
1005
1215F2
  0
LINE
  5
1215F3
  8
OBJECT
 10
4086.0
 20
-654.99999999999966
 30
0.0
 11
4086.0
 21
-536.99999999999955
 31
0.0
1001
ACDBBLOCKREPETAG
1070
     1
1071
        5
1005
1215F3
  0
LINE
  5
1215F4
  8
CENTER
 10
4101.0
 20
-199.99999999999841
 30
0.0
 11
4080.0
 21
-199.99999999999841
 31
0.0
1001
ACDBBLOCKREPETAG
1070
     1
1071
        0
1005
1215F4
  0
LINE
  5
1215F5
  8
OBJECT
 10
4083.0
 20
-137.99999999999861
 30
0.0
 11
4080.0
 21
-137.99999999999861
 31
0.0
1001
ACDBBLOCKREPETAG
1070
     1
1071
        1
1005
1215F5
  0
ARC
  5
1215F6
  8
OBJECT
 10
4083.0
 20
-140.99999999999841
 30
0.0
 40
3.0
 50
0.0
 51
90.0
1001
ACDBBLOCKREPETAG
1070
     1
1071
        2
1005
1215F6
  0
LINE
  5
1215F7
  8
OBJECT
 10
4080.0
 20
-261.99999999999852
 30
0.0
 11
4083.0
 21
-261.99999999999852
 31
0.0
1001
ACDBBLOCKREPETAG
1070
     1
1071
        3
1005
1215F7
  0
ARC
  5
1215F8
  8
OBJECT
 10
4083.0
 20
-258.99999999999852
 30
0.0
 40
3.0
 50
270.0
 51
0.0
1001
ACDBBLOCKREPETAG
1070
     1
1071
        4
1005
1215F8
  0
LINE
  5
1215F9
  8
OBJECT
 10
4086.0
 20
-258.99999999999852
 30
0.0
 11
4086.0
 21
-140.99999999999841
 31
0.0
1001
ACDBBLOCKREPETAG
1070
     1
1071
        5
1005
1215F9
  0
LINE
  5
1215FA
  8
OBJECT
 10
4060.0
 20
-527.9999999999992
 30
0.0
 11
3940.0
 21
-527.9999999999992
 31
0.0
1001
ACDBBLOCKREPETAG
1070
     1
1071
      136
1005
1215FA
  0
ARC
  5
1215FB
  8
OBJECT
 10
3940.0
 20
-530.99999999999886
 30
0.0
 40
3.0
 50
90.0
 51
180.0
1001
ACDBBLOCKREPETAG
1070
     1
1071
      137
1005
1215FB
  0
LINE
  5
1215FC
  8
OBJECT
 10
3937.0
 20
-530.99999999999886
 30
0.0
 11
3937.0
 21
-533.99999999999898
 31
0.0
1001
ACDBBLOCKREPETAG
1070
     1
1071
      138
1005
1215FC
  0
LINE
  5
1215FD
  8
OBJECT
 10
4063.0
 20
-530.99999999999886
 30
0.0
 11
4063.0
 21
-533.99999999999898
 31
0.0
1001
ACDBBLOCKREPETAG
1070
     1
1071
      139
1005
1215FD
  0
ARC
  5
1215FE
  8
OBJECT
 10
4060.0
 20
-530.99999999999886
 30
0.0
 40
3.0
 50
0.0
 51
90.0
1001
ACDBBLOCKREPETAG
1070
     1
1071
      140
1005
1215FE
  0
LINE
  5
1215FF
  8
OBJECT
 10
3943.0
 20
-459.99999999999881
 30
0.0
 11
3943.0
 21
-527.9999999999992
 31
0.0
1001
ACDBBLOCKREPETAG
1070
     1
1071
      141
1005
1215FF
  0
LINE
  5
121600
  8
OBJECT
 10
4057.0
 20
-459.99999999999881
 30
0.0
 11
3943.0
 21
-459.99999999999881
 31
0.0
1001
ACDBBLOCKREPETAG
1070
     1
1071
      142
1005
121600
  0
LINE
  5
121601
  8
OBJECT
 10
4057.0
 20
-459.99999999999881
 30
0.0
 11
4057.0
 21
-527.9999999999992
 31
0.0
1001
ACDBBLOCKREPETAG
1070
     1
1071
      143
1005
121601
  0
LINE
  5
121602
  8
CENTER
 10
4000.0
 20
-444.99999999999909
 30
0.0
 11
4000.0
 21
-789.9999999999992
 31
0.0
1001
ACDBBLOCKREPETAG
1070
     1
1071
        0
1005
121602
  0
LINE
  5
121603
  8
OBJECT
 10
3925.0
 20
-533.99999999999898
 30
0.0
 11
3925.0
 21
-777.9999999999992
 31
0.0
1001
ACDBBLOCKREPETAG
1070
     1
1071
        1
1005
121603
  0
LINE
  5
121604
  8
OBJECT
 10
3920.0
 20
-777.9999999999992
 30
0.0
 11
4080.0
 21
-777.9999999999992
 31
0.0
1001
ACDBBLOCKREPETAG
1070
     1
1071
        2
1005
121604
  0
LINE
  5
121605
  8
OBJECT
 10
4080.0
 20
-533.99999999999898
 30
0.0
 11
3925.0
 21
-533.99999999999898
 31
0.0
1001
ACDBBLOCKREPETAG
1070
     1
1071
        3
1005
121605
  0
LINE
  5
121606
  8
OBJECT
 10
3920.0
 20
-777.9999999999992
 30
0.0
 11
3920.0
 21
-789.9999999999992
 31
0.0
1001
ACDBBLOCKREPETAG
1070
     1
1071
        4
1005
121606
  0
LINE
  5
121607
  8
OBJECT
 10
3920.0
 20
-789.9999999999992
 30
0.0
 11
4080.0
 21
-789.9999999999992
 31
0.0
1001
ACDBBLOCKREPETAG
1070
     1
1071
        5
1005
121607
  0
LINE
  5
121608
  8
OBJECT
 10
4080.0
 20
-789.9999999999992
 30
0.0
 11
4080.0
 21
-777.9999999999992
 31
0.0
1001
ACDBBLOCKREPETAG
1070
     1
1071
        6
1005
121608
  0
LINE
  5
121609
  8
OBJECT
 10
4074.9999999998631
 20
-657.99999999984982
 30
0.0
 11
4075.0
 21
-777.9999999999992
 31
0.0
1001
ACDBBLOCKREPETAG
1070
     1
1071
        8
1005
121609
  0
LINE
  5
12160A
  8
OBJECT
 10
4074.9999908029849
 20
-657.99998602702067
 30
0.0
 11
4080.0
 21
-657.99998602702067
 31
0.0
1001
ACDBBLOCKREPETAG
1070
     1
1071
        9
1005
12160A
  0
ARC
  5
12160B
  8
OBJECT
 10
4200.6872746716726
 20
-649.40809941010684
 30
0.0
 40
170.6350503965856
 50
137.44134459184301
 51
149.91949581337221
1001
ACDBBLOCKREPETAG
1070
     1
1071
       15
1005
12160B
  0
ARC
  5
12160C
  8
OBJECT
 10
4118.8455987040506
 20
-605.882726695364
 30
0.0
 40
78.072222021763665
 50
147.4551531038623
 51
164.66365997719231
1001
ACDBBLOCKREPETAG
1070
     1
1071
       16
1005
12160C
  0
ARC
  5
12160D
  8
OBJECT
 10
4085.7554349608722
 20
-595.99999999999909
 30
0.0
 40
43.55353926885617
 50
165.68845230068339
 51
194.31154769931649
1001
ACDBBLOCKREPETAG
1070
     1
1071
       17
1005
12160D
  0
ARC
  5
12160E
  8
OBJECT
 10
4200.6872746716726
 20
-542.59190058989134
 30
0.0
 40
170.6350503965856
 50
210.08050418662771
 51
222.55865540815699
1001
ACDBBLOCKREPETAG
1070
     1
1071
       18
1005
12160E
  0
ARC
  5
12160F
  8
OBJECT
 10
4118.8455987040506
 20
-586.11727330463395
 30
0.0
 40
78.072222021763665
 50
195.33634002280749
 51
212.5448468961377
1001
ACDBBLOCKREPETAG
1070
     1
1071
       19
1005
12160F
  0
LINE
  5
121610
  8
HIDDEN
 10
4052.5
 20
-459.99999999999881
 30
0.0
 11
4052.5
 21
-533.99999999999898
 31
0.0
1001
ACDBBLOCKREPETAG
1070
     1
1071
      180
1005
121610
  0
LINE
  5
121611
  8
HIDDEN
 10
3947.5
 20
-459.99999999999881
 30
0.0
 11
3947.5
 21
-533.99999999999898
 31
0.0
1001
ACDBBLOCKREPETAG
1070
     1
1071
      181
1005
121611
  0
POINT
  5
121612
  8
DOTS
 10
4000.0
 20
-654.99999999999898
 30
0.0
1001
ACDBBLOCKREPETAG
1070
     1
1071
      189
1005
121612
  0
LINE
  5
121613
  8
OBJECT
 10
2060.0
 20
-527.99999999999955
 30
0.0
 11
1940.0
 21
-527.99999999999955
 31
0.0
1001
ACDBBLOCKREPETAG
1070
     1
1071
      136
1005
121613
  0
ARC
  5
121614
  8
OBJECT
 10
1940.0
 20
-530.99999999999955
 30
0.0
 40
3.0
 50
90.0
 51
180.0
1001
ACDBBLOCKREPETAG
1070
     1
1071
      137
1005
121614
  0
LINE
  5
121615
  8
OBJECT
 10
1937.0
 20
-530.99999999999955
 30
0.0
 11
1937.0
 21
-533.99999999999955
 31
0.0
1001
ACDBBLOCKREPETAG
1070
     1
1071
      138
1005
121615
  0
LINE
  5
121616
  8
OBJECT
 10
2063.0
 20
-530.99999999999955
 30
0.0
 11
2063.0
 21
-533.99999999999955
 31
0.0
1001
ACDBBLOCKREPETAG
1070
     1
1071
      139
1005
121616
  0
ARC
  5
121617
  8
OBJECT
 10
2060.0
 20
-530.99999999999955
 30
0.0
 40
3.0
 50
0.0
 51
90.0
1001
ACDBBLOCKREPETAG
1070
     1
1071
      140
1005
121617
  0
LINE
  5
121618
  8
OBJECT
 10
1943.0
 20
-459.99999999999949
 30
0.0
 11
1943.0
 21
-527.99999999999955
 31
0.0
1001
ACDBBLOCKREPETAG
1070
     1
1071
      141
1005
121618
  0
LINE
  5
121619
  8
OBJECT
 10
2057.0
 20
-459.99999999999949
 30
0.0
 11
1943.0
 21
-459.99999999999949
 31
0.0
1001
ACDBBLOCKREPETAG
1070
     1
1071
      142
1005
121619
  0
LINE
  5
12161A
  8
OBJECT
 10
2057.0
 20
-459.99999999999949
 30
0.0
 11
2057.0
 21
-527.99999999999955
 31
0.0
1001
ACDBBLOCKREPETAG
1070
     1
1071
      143
1005
12161A
  0
LINE
  5
12161B
  8
CENTER
 10
2000.0
 20
-444.99999999999937
 30
0.0
 11
2000.0
 21
-789.99999999999955
 31
0.0
1001
ACDBBLOCKREPETAG
1070
     1
1071
        0
1005
12161B
  0
LINE
  5
12161C
  8
OBJECT
 10
1925.0
 20
-533.99999999999955
 30
0.0
 11
1925.0
 21
-777.99999999999955
 31
0.0
1001
ACDBBLOCKREPETAG
1070
     1
1071
        1
1005
12161C
  0
LINE
  5
12161D
  8
OBJECT
 10
1920.0
 20
-777.99999999999955
 30
0.0
 11
2080.0
 21
-777.99999999999955
 31
0.0
1001
ACDBBLOCKREPETAG
1070
     1
1071
        2
1005
12161D
  0
LINE
  5
12161E
  8
OBJECT
 10
2080.0
 20
-533.99999999999955
 30
0.0
 11
1925.0
 21
-533.99999999999955
 31
0.0
1001
ACDBBLOCKREPETAG
1070
     1
1071
        3
1005
12161E
  0
LINE
  5
12161F
  8
OBJECT
 10
1920.0
 20
-777.99999999999955
 30
0.0
 11
1920.0
 21
-789.99999999999955
 31
0.0
1001
ACDBBLOCKREPETAG
1070
     1
1071
        4
1005
12161F
  0
LINE
  5
121620
  8
OBJECT
 10
1920.0
 20
-789.99999999999955
 30
0.0
 11
2080.0
 21
-789.99999999999955
 31
0.0
1001
ACDBBLOCKREPETAG
1070
     1
1071
        5
1005
121620
  0
LINE
  5
121621
  8
OBJECT
 10
2080.0
 20
-789.99999999999955
 30
0.0
 11
2080.0
 21
-777.99999999999955
 31
0.0
1001
ACDBBLOCKREPETAG
1070
     1
1071
        6
1005
121621
  0
LINE
  5
121622
  8
OBJECT
 10
2074.9999999998622
 20
-657.99999999985039
 30
0.0
 11
2075.0
 21
-777.99999999999955
 31
0.0
1001
ACDBBLOCKREPETAG
1070
     1
1071
        8
1005
121622
  0
LINE
  5
121623
  8
OBJECT
 10
2074.9999908029849
 20
-657.99998602702135
 30
0.0
 11
2080.0
 21
-657.99998602702135
 31
0.0
1001
ACDBBLOCKREPETAG
1070
     1
1071
        9
1005
121623
  0
ARC
  5
121624
  8
OBJECT
 10
2200.6872746716731
 20
-649.40809941010718
 30
0.0
 40
170.6350503965856
 50
137.44134459184301
 51
149.91949581336559
1001
ACDBBLOCKREPETAG
1070
     1
1071
       15
1005
121624
  0
ARC
  5
121625
  8
OBJECT
 10
2118.8455987040511
 20
-605.88272669536445
 30
0.0
 40
78.072222021763665
 50
147.4551531038623
 51
164.66365997719581
1001
ACDBBLOCKREPETAG
1070
     1
1071
       16
1005
121625
  0
ARC
  5
121626
  8
OBJECT
 10
2085.7554349608731
 20
-595.99999999999955
 30
0.0
 40
43.55353926885617
 50
165.6884523006803
 51
194.3115476993197
1001
ACDBBLOCKREPETAG
1070
     1
1071
       17
1005
121626
  0
ARC
  5
121627
  8
OBJECT
 10
2200.6872746716731
 20
-542.59190058989179
 30
0.0
 40
170.6350503965856
 50
210.0805041866343
 51
222.55865540815699
1001
ACDBBLOCKREPETAG
1070
     1
1071
       18
1005
121627
  0
ARC
  5
121628
  8
OBJECT
 10
2118.8455987040511
 20
-586.11727330463452
 30
0.0
 40
78.072222021763665
 50
195.33634002280411
 51
212.5448468961377
1001
ACDBBLOCKREPETAG
1070
     1
1071
       19
1005
121628
  0
LINE
  5
121629
  8
HIDDEN
 10
2052.5
 20
-459.99999999999949
 30
0.0
 11
2052.5
 21
-533.99999999999955
 31
0.0
1001
ACDBBLOCKREPETAG
1070
     1
1071
      180
1005
121629
  0
LINE
  5
12162A
  8
HIDDEN
 10
1947.5
 20
-459.99999999999949
 30
0.0
 11
1947.5
 21
-533.99999999999955
 31
0.0
1001
ACDBBLOCKREPETAG
1070
     1
1071
      181
1005
12162A
  0
POINT
  5
12162B
  8
DOTS
 10
2000.0
 20
-654.99999999999966
 30
0.0
1001
ACDBBLOCKREPETAG
1070
     1
1071
      189
1005
12162B
  0
CIRCLE
  5
12162C
  8
OBJECT
 10
2000.0
 20
-199.99999999999909
 30
0.0
 40
75.0
1001
ACDBBLOCKREPETAG
1070
     1
1071
      363
1005
12162C
  0
CIRCLE
  5
12162D
  8
OBJECT
 10
2000.0
 20
-199.99999999999909
 30
0.0
 40
52.5
1001
ACDBBLOCKREPETAG
1070
     1
1071
      364
1005
12162D
  0
CIRCLE
  5
12162E
  8
OBJECT
 10
2000.0
 20
-199.99999999999909
 30
0.0
 40
57.0
1001
ACDBBLOCKREPETAG
1070
     1
1071
      365
1005
12162E
  0
LINE
  5
12162F
  8
OBJECT
 10
1969.8635289348581
 20
-242.98887195239979
 30
0.0
 11
1979.856491823236
 21
-222.48688253356801
 31
0.0
1001
ACDBBLOCKREPETAG
1070
     1
1071
      381
1005
12162F
  0
LINE
  5
121630
  8
OBJECT
 10
1965.749966039157
 20
-239.7892595266741
 30
0.0
 11
1973.907102266508
 21
-223.05373004430751
 31
0.0
1001
ACDBBLOCKREPETAG
1070
     1
1071
      382
1005
121630
  0
LINE
  5
121631
  8
OBJECT
 10
2024.102933093302
 20
-243.80694712371681
 30
0.0
 11
2020.659656999997
 21
-232.55462199999889
 31
0.0
1001
ACDBBLOCKREPETAG
1070
     1
1071
      383
1005
121631
  0
ARC
  5
121632
  8
OBJECT
 10
1976.579695307315
 20
-207.1289369828437
 30
0.0
 40
60.031113246032611
 50
316.4174422677545
 51
322.33936106091278
1001
ACDBBLOCKREPETAG
1070
     1
1071
      384
1005
121632
  0
LINE
  5
121633
  8
OBJECT
 10
1986.7927499013749
 20
-218.22553374208019
 30
0.0
 11
2020.659656999997
 21
-232.5546219999969
 31
0.0
1001
ACDBBLOCKREPETAG
1070
     1
1071
      385
1005
121633
  0
ARC
  5
121634
  8
OBJECT
 10
1982.8961697619
 20
-227.4351299990567
 30
0.0
 40
10.0
 50
67.066778292923374
 51
154.0147343702935
1001
ACDBBLOCKREPETAG
1070
     1
1071
      386
1005
121634
  0
ARC
  5
121635
  8
OBJECT
 10
1986.1488390381271
 20
-225.55386256729159
 30
0.0
 40
7.0
 50
67.066778292923374
 51
154.01473377497121
1001
ACDBBLOCKREPETAG
1070
     1
1071
      387
1005
121635
  0
ARC
  5
121636
  8
OBJECT
 10
2000.0
 20
-199.99999999999909
 30
0.0
 40
50.0
 50
298.81994300000417
 51
228.52376955967449
1001
ACDBBLOCKREPETAG
1070
     1
1071
        7
1005
121636
  0
LINE
  5
121637
  8
CENTER
 10
2080.0
 20
-199.99999999999909
 30
0.0
 11
1905.0
 21
-199.99999999999909
 31
0.0
1001
ACDBBLOCKREPETAG
1070
     1
1071
       14
1005
121637
  0
LINE
  5
121638
  8
CENTER
 10
2000.0
 20
-294.99999999999898
 30
0.0
 11
2000.0
 21
-104.9999999999991
 31
0.0
1001
ACDBBLOCKREPETAG
1070
     1
1071
       15
1005
121638
  0
ARC
  5
121639
  8
OBJECT
 10
2000.0
 20
-199.99999999999909
 30
0.0
 40
80.0
 50
50.805032573864182
 51
309.1949674261358
1001
ACDBBLOCKREPETAG
1070
     1
1071
       18
1005
121639
  0
LINE
  5
12163A
  8
OBJECT
 10
2042.2018956920181
 20
-137.99999999999909
 30
0.0
 11
2080.0
 21
-137.99999999999909
 31
0.0
1001
ACDBBLOCKREPETAG
1070
     1
1071
       19
1005
12163A
  0
LINE
  5
12163B
  8
OBJECT
 10
2042.2018956920181
 20
-261.99999999999909
 30
0.0
 11
2080.0
 21
-261.99999999999909
 31
0.0
1001
ACDBBLOCKREPETAG
1070
     1
1071
       20
1005
12163B
  0
POINT
  5
12163C
  8
DOTS
 10
2000.0
 20
-199.99999999999909
 30
0.0
1001
ACDBBLOCKREPETAG
1070
     1
1071
      417
1005
12163C
  0
LINE
  5
12163D
  8
OBJECT
 10
3943.0
 20
-1099.999999999995
 30
0.0
 11
4057.0
 21
-1099.999999999995
 31
0.0
1001
ACDBBLOCKREPETAG
1070
     1
1071
        0
1005
12163D
  0
LINE
  5
12163E
  8
OBJECT
 10
3943.0
 20
-1099.999999999995
 30
0.0
 11
3943.0
 21
-999.99999999999545
 31
0.0
1001
ACDBBLOCKREPETAG
1070
     1
1071
        1
1005
12163E
  0
LINE
  5
12163F
  8
OBJECT
 10
4057.0
 20
-1099.999999999995
 30
0.0
 11
4057.0
 21
-999.99999999999545
 31
0.0
1001
ACDBBLOCKREPETAG
1070
     1
1071
        2
1005
12163F
  0
LINE
  5
121640
  8
OBJECT
 10
3943.0
 20
-999.99999999999545
 30
0.0
 11
4057.0
 21
-999.99999999999545
 31
0.0
1001
ACDBBLOCKREPETAG
1070
     1
1071
        3
1005
121640
  0
LINE
  5
121641
  8
HIDDEN
 10
3950.0
 20
-999.99999999999545
 30
0.0
 11
3950.0
 21
-1099.999999999995
 31
0.0
1001
ACDBBLOCKREPETAG
1070
     1
1071
        4
1005
121641
  0
LINE
  5
121642
  8
HIDDEN
 10
4050.0
 20
-999.99999999999545
 30
0.0
 11
4050.0
 21
-1099.999999999995
 31
0.0
1001
ACDBBLOCKREPETAG
1070
     1
1071
        5
1005
121642
  0
LINE
  5
121643
  8
CENTER
 10
4000.0
 20
-789.9999999999992
 30
0.0
 11
4000.0
 21
-1114.999999999995
 31
0.0
1001
ACDBBLOCKREPETAG
1070
     1
1071
        6
1005
121643
  0
LINE
  5
121644
  8
OBJECT
 10
3925.0
 20
-789.9999999999992
 30
0.0
 11
3925.0
 21
-871.99999999999545
 31
0.0
1001
ACDBBLOCKREPETAG
1070
     1
1071
        7
1005
121644
  0
LINE
  5
121645
  8
OBJECT
 10
4075.0
 20
-789.9999999999992
 30
0.0
 11
4075.0
 21
-871.99999999999545
 31
0.0
1001
ACDBBLOCKREPETAG
1070
     1
1071
        8
1005
121645
  0
LINE
  5
121646
  8
OBJECT
 10
3925.0
 20
-871.99999999999545
 30
0.0
 11
4075.0
 21
-871.99999999999545
 31
0.0
1001
ACDBBLOCKREPETAG
1070
     1
1071
        9
1005
121646
  0
LINE
  5
121647
  8
OBJECT
 10
3925.0
 20
-871.99999999999545
 30
0.0
 11
3943.0
 21
-999.99999999999545
 31
0.0
1001
ACDBBLOCKREPETAG
1070
     1
1071
       10
1005
121647
  0
LINE
  5
121648
  8
OBJECT
 10
4057.0
 20
-999.99999999999545
 30
0.0
 11
4075.0
 21
-871.99999999999545
 31
0.0
1001
ACDBBLOCKREPETAG
1070
     1
1071
       11
1005
121648
  0
LINE
  5
121649
  8
OBJECT
 10
1943.0
 20
-1099.9999999999959
 30
0.0
 11
2057.0
 21
-1099.9999999999959
 31
0.0
1001
ACDBBLOCKREPETAG
1070
     1
1071
        0
1005
121649
  0
LINE
  5
12164A
  8
OBJECT
 10
1943.0
 20
-1099.9999999999959
 30
0.0
 11
1943.0
 21
-999.99999999999602
 31
0.0
1001
ACDBBLOCKREPETAG
1070
     1
1071
        1
1005
12164A
  0
LINE
  5
12164B
  8
OBJECT
 10
2057.0
 20
-1099.9999999999959
 30
0.0
 11
2057.0
 21
-999.99999999999602
 31
0.0
1001
ACDBBLOCKREPETAG
1070
     1
1071
        2
1005
12164B
  0
LINE
  5
12164C
  8
OBJECT
 10
1943.0
 20
-999.99999999999602
 30
0.0
 11
2057.0
 21
-999.99999999999602
 31
0.0
1001
ACDBBLOCKREPETAG
1070
     1
1071
        3
1005
12164C
  0
LINE
  5
12164D
  8
HIDDEN
 10
1950.0
 20
-999.99999999999602
 30
0.0
 11
1950.0
 21
-1099.9999999999959
 31
0.0
1001
ACDBBLOCKREPETAG
1070
     1
1071
        4
1005
12164D
  0
LINE
  5
12164E
  8
HIDDEN
 10
2050.0
 20
-999.99999999999602
 30
0.0
 11
2050.0
 21
-1099.9999999999959
 31
0.0
1001
ACDBBLOCKREPETAG
1070
     1
1071
        5
1005
12164E
  0
LINE
  5
12164F
  8
CENTER
 10
2000.0
 20
-789.99999999999955
 30
0.0
 11
2000.0
 21
-1114.9999999999959
 31
0.0
1001
ACDBBLOCKREPETAG
1070
     1
1071
        6
1005
12164F
  0
LINE
  5
121650
  8
OBJECT
 10
1925.0
 20
-789.99999999999955
 30
0.0
 11
1925.0
 21
-871.99999999999591
 31
0.0
1001
ACDBBLOCKREPETAG
1070
     1
1071
        7
1005
121650
  0
LINE
  5
121651
  8
OBJECT
 10
2075.0
 20
-789.99999999999955
 30
0.0
 11
2075.0
 21
-871.99999999999591
 31
0.0
1001
ACDBBLOCKREPETAG
1070
     1
1071
        8
1005
121651
  0
LINE
  5
121652
  8
OBJECT
 10
1925.0
 20
-871.99999999999591
 30
0.0
 11
2075.0
 21
-871.99999999999591
 31
0.0
1001
ACDBBLOCKREPETAG
1070
     1
1071
        9
1005
121652
  0
LINE
  5
121653
  8
OBJECT
 10
1925.0
 20
-871.99999999999591
 30
0.0
 11
1943.0
 21
-999.99999999999602
 31
0.0
1001
ACDBBLOCKREPETAG
1070
     1
1071
       10
1005
121653
  0
LINE
  5
121654
  8
OBJECT
 10
2057.0
 20
-999.99999999999602
 30
0.0
 11
2075.0
 21
-871.99999999999591
 31
0.0
1001
ACDBBLOCKREPETAG
1070
     1
1071
       11
1005
121654
  0
LINE
  5
121655
  8
OBJECT
 10
2083.0
 20
-534.0
 30
0.0
 11
2080.0
 21
-534.0
 31
0.0
1001
ACDBBLOCKREPETAG
1070
     1
1071
        1
1005
121655
  0
ARC
  5
121656
  8
OBJECT
 10
2083.0
 20
-537.0
 30
0.0
 40
3.0
 50
0.0
 51
90.0
1001
ACDBBLOCKREPETAG
1070
     1
1071
        2
1005
121656
  0
LINE
  5
121657
  8
OBJECT
 10
2080.0
 20
-658.0
 30
0.0
 11
2083.0
 21
-658.0
 31
0.0
1001
ACDBBLOCKREPETAG
1070
     1
1071
        3
1005
121657
  0
ARC
  5
121658
  8
OBJECT
 10
2083.0
 20
-655.0
 30
0.0
 40
3.0
 50
270.0
 51
0.0
1001
ACDBBLOCKREPETAG
1070
     1
1071
        4
1005
121658
  0
LINE
  5
121659
  8
OBJECT
 10
2086.0
 20
-655.0
 30
0.0
 11
2086.0
 21
-537.0
 31
0.0
1001
ACDBBLOCKREPETAG
1070
     1
1071
        5
1005
121659
  0
LINE
  5
12165A
  8
CENTER
 10
2101.0
 20
-199.99999999999909
 30
0.0
 11
2080.0
 21
-199.99999999999909
 31
0.0
1001
ACDBBLOCKREPETAG
1070
     1
1071
        0
1005
12165A
  0
LINE
  5
12165B
  8
OBJECT
 10
2083.0
 20
-137.99999999999909
 30
0.0
 11
2080.0
 21
-137.99999999999909
 31
0.0
1001
ACDBBLOCKREPETAG
1070
     1
1071
        1
1005
12165B
  0
ARC
  5
12165C
  8
OBJECT
 10
2083.0
 20
-140.99999999999909
 30
0.0
 40
3.0
 50
0.0
 51
90.0
1001
ACDBBLOCKREPETAG
1070
     1
1071
        2
1005
12165C
  0
LINE
  5
12165D
  8
OBJECT
 10
2080.0
 20
-261.99999999999909
 30
0.0
 11
2083.0
 21
-261.99999999999909
 31
0.0
1001
ACDBBLOCKREPETAG
1070
     1
1071
        3
1005
12165D
  0
ARC
  5
12165E
  8
OBJECT
 10
2083.0
 20
-258.99999999999909
 30
0.0
 40
3.0
 50
270.0
 51
0.0
1001
ACDBBLOCKREPETAG
1070
     1
1071
        4
1005
12165E
  0
LINE
  5
12165F
  8
OBJECT
 10
2086.0
 20
-258.99999999999909
 30
0.0
 11
2086.0
 21
-140.99999999999909
 31
0.0
1001
ACDBBLOCKREPETAG
1070
     1
1071
        5
1005
12165F
  0
TEXT
  5
121660
  8
SLIM
 10
3771.4000000000001
 20
-1430.666666666664
 30
0.0
 40
28.0
  1
※ 対応スラブ厚　180｛150｝～340
 41
0.75
  0
TEXT
  5
121661
  8
SLIM
 10
3733.3000000000011
 20
-1477.333333333331
 30
0.0
 40
28.0
  1
｛｝内はカンペイ立て管との組み合わせの場合
 41
0.75
  0
TEXT
  5
121662
  8
SLIM
 10
3611.4999999999991
 20
-1570.666666666664
 30
0.0
 40
28.0
  1
国土交通大臣認定・（財）日本消防設備安全センター性能評定取得品
 41
0.75
  0
TEXT
  5
121663
  8
SLIM
 10
3631.1000000000022
 20
-1617.333333333331
 30
0.0
 40
28.0
  1
注）ご採用にあたり、認定書及び評定書の内容をご確認ください。
 41
0.75
  0
TEXT
  5
121664
  8
SLIM
 10
3741.625
 20
-1367.499999999997
 30
0.0
 40
35.0
  1
片受けスタイル（S）＋シンドカット
 41
0.75
  0
TEXT
  5
121665
  8
SLIM
 10
1856.25
 20
-1367.499999999998
 30
0.0
 40
35.0
  1
片受けスタイル（S）
 41
0.75
  0
TEXT
  5
121666
  8
SLIM
 10
0.0
 20
370.0
 30
0.0
 40
100.0
  1
4SSLT-0-S
 41
0.75
  0
VIEWPORT
  5
F6BA7
 67
     1
  8
0
 10
163.0024027789494
 20
101.8328354358673
 30
0.0
 40
369.34663245053321
 41
222.19657968139651
 68
     1
 69
     1
1001
ACAD
1000
MVIEW
1002
{
1070
    16
1010
0.0
1020
0.0
1030
0.0
1010
0.0
1020
0.0
1030
1.0
1040
0.0
1040
222.19657968139651
1040
163.0024027789494
1040
101.8328354358673
1040
50.0
1040
0.0
1040
0.0
1070
     0
1070
     0
1070
     1
1070
     1
1070
     0
1070
     0
1070
     0
1070
     0
1040
0.0
1040
0.0
1040
0.0
1040
10.0
1040
10.0
1040
10.0
1040
10.0
1070
     0
1002
{
1002
}
1002
}
  0
VIEWPORT
  5
F6BA9
 67
     1
  8
OBJECT
 10
145.3303314447403
 20
101.8328338861465
 30
0.0
 40
232.5285303115844
 41
162.93253421783439
 68
     2
 69
     2
1001
ACAD
1000
MVIEW
1002
{
1070
    16
1010
0.0
1020
0.0
1030
0.0
1010
0.0
1020
0.0
1030
1.0
1040
0.0
1040
25942.55904403147
1040
2377.604457077377
1040
-7591.5176687056619
1040
50.0
1040
0.0
1040
0.0
1070
     0
1070
   600
1070
     1
1070
     1
1070
     0
1070
     0
1070
     0
1070
     0
1040
0.0
1040
0.0
1040
0.0
1040
1.0
1040
1.0
1040
0.0
1040
0.0
1070
     0
1002
{
1002
}
1002
}
  0
ENDSEC
  0
EOF
