  0
SECTION
  2
HEADER
  9
$ACADVER
  1
AC1009
  9
$INSBASE
 10
0.0
 20
0.0
 30
0.0
  9
$EXTMIN
 10
0.0
 20
-1878.9999999999991
 30
0.0
  9
$EXTMAX
 10
12590.0
 20
770.0
 30
0.0
  9
$LIMMIN
 10
0.0
 20
0.0
  9
$LIMMAX
 10
210.0
 20
297.0
  9
$ORTHOMODE
 70
     0
  9
$REGENMODE
 70
     1
  9
$FILLMODE
 70
     1
  9
$QTEXTMODE
 70
     0
  9
$MIRRTEXT
 70
     0
  9
$DRAGMODE
 70
     2
  9
$LTSCALE
 40
1.0
  9
$OSMODE
 70
  2557
  9
$ATTMODE
 70
     1
  9
$TEXTSIZE
 40
4.0
  9
$TRACEWID
 40
0.05
  9
$TEXTSTYLE
  7
STANDARD
  9
$CLAYER
  8
OBJECT
  9
$CELTYPE
  6
BYLAYER
  9
$CECOLOR
 62
   256
  9
$DIMSCALE
 40
10.0
  9
$DIMASZ
 40
2.0
  9
$DIMEXO
 40
1.0
  9
$DIMDLI
 40
10.0
  9
$DIMRND
 40
0.0
  9
$DIMDLE
 40
0.0
  9
$DIMEXE
 40
1.0
  9
$DIMTP
 40
0.0
  9
$DIMTM
 40
0.0
  9
$DIMTXT
 40
3.2000000000000002
  9
$DIMCEN
 40
0.0
  9
$DIMTSZ
 40
0.0
  9
$DIMTOL
 70
     0
  9
$DIMLIM
 70
     0
  9
$DIMTIH
 70
     0
  9
$DIMTOH
 70
     0
  9
$DIMSE1
 70
     0
  9
$DIMSE2
 70
     0
  9
$DIMTAD
 70
     1
  9
$DIMZIN
 70
     8
  9
$DIMBLK
  1
OPEN30
  9
$DIMASO
 70
     1
  9
$DIMSHO
 70
     1
  9
$DIMPOST
  1

  9
$DIMAPOST
  1

  9
$DIMALT
 70
     0
  9
$DIMALTD
 70
     2
  9
$DIMALTF
 40
25.399999999999999
  9
$DIMLFAC
 40
1.0
  9
$DIMTOFL
 70
     1
  9
$DIMTVP
 40
0.0
  9
$DIMTIX
 70
     0
  9
$DIMSOXD
 70
     0
  9
$DIMSAH
 70
     0
  9
$DIMBLK1
  1

  9
$DIMBLK2
  1

  9
$DIMSTYLE
  2
S10
  9
$DIMCLRD
 70
   256
  9
$DIMCLRE
 70
   256
  9
$DIMCLRT
 70
   256
  9
$DIMTFAC
 40
1.0
  9
$DIMGAP
 40
0.9
  9
$LUNITS
 70
     2
  9
$LUPREC
 70
     2
  9
$SKETCHINC
 40
0.1
  9
$FILLETRAD
 40
0.0
  9
$AUNITS
 70
     0
  9
$AUPREC
 70
     2
  9
$MENU
  1
ACAD
  9
$ELEVATION
 40
0.0
  9
$PELEVATION
 40
0.0
  9
$THICKNESS
 40
0.0
  9
$LIMCHECK
 70
     0
  9
$BLIPMODE
 70
     0
  9
$CHAMFERA
 40
2.0
  9
$CHAMFERB
 40
2.0
  9
$SKPOLY
 70
     0
  9
$TDCREATE
 40
2453095.4929404748
  9
$TDUPDATE
 40
2456568.6818845491
  9
$TDINDWG
 40
18.366441851899999
  9
$TDUSRTIMER
 40
18.366440219899999
  9
$USRTIMER
 70
     1
  9
$ANGBASE
 50
0.0
  9
$ANGDIR
 70
     0
  9
$PDMODE
 70
    35
  9
$PDSIZE
 40
2.0
  9
$PLINEWID
 40
0.0
  9
$COORDS
 70
     1
  9
$SPLFRAME
 70
     0
  9
$SPLINETYPE
 70
     6
  9
$SPLINESEGS
 70
     8
  9
$ATTDIA
 70
     1
  9
$ATTREQ
 70
     1
  9
$HANDLING
 70
     1
  9
$HANDSEED
  5
1275B4
  9
$SURFTAB1
 70
     6
  9
$SURFTAB2
 70
     6
  9
$SURFTYPE
 70
     6
  9
$SURFU
 70
     6
  9
$SURFV
 70
     6
  9
$UCSNAME
  2

  9
$UCSORG
 10
0.0
 20
0.0
 30
0.0
  9
$UCSXDIR
 10
1.0
 20
0.0
 30
0.0
  9
$UCSYDIR
 10
0.0
 20
1.0
 30
0.0
  9
$PUCSNAME
  2

  9
$PUCSORG
 10
0.0
 20
0.0
 30
0.0
  9
$PUCSXDIR
 10
1.0
 20
0.0
 30
0.0
  9
$PUCSYDIR
 10
0.0
 20
1.0
 30
0.0
  9
$USERI1
 70
     0
  9
$USERI2
 70
     0
  9
$USERI3
 70
     0
  9
$USERI4
 70
     0
  9
$USERI5
 70
     0
  9
$USERR1
 40
0.0
  9
$USERR2
 40
0.0
  9
$USERR3
 40
0.0
  9
$USERR4
 40
0.0
  9
$USERR5
 40
0.0
  9
$WORLDVIEW
 70
     1
  9
$SHADEDGE
 70
     3
  9
$SHADEDIF
 70
    70
  9
$TILEMODE
 70
     1
  9
$MAXACTVP
 70
    64
  9
$PLIMCHECK
 70
     0
  9
$PEXTMIN
 10
29.066066288948051
 20
20.366566777229309
 30
0.0
  9
$PEXTMAX
 10
261.5945966005325
 20
183.29910099506381
 30
0.0
  9
$PLIMMIN
 10
-3.17498779296875
 20
-3.1749999523162842
  9
$PLIMMAX
 10
293.83566284179687
 20
206.8406708240509
  9
$UNITMODE
 70
     0
  9
$VISRETAIN
 70
     1
  9
$PLINEGEN
 70
     0
  9
$PSLTSCALE
 70
     1
  0
ENDSEC
  0
SECTION
  2
TABLES
  0
TABLE
  2
VPORT
 70
     1
  0
VPORT
  2
*ACTIVE
 70
     0
 10
0.0
 20
0.0
 11
1.0
 21
1.0
 12
9409.2264104665646
 22
-2099.300206875947
 13
0.0
 23
0.0
 14
1.0
 24
1.0
 15
0.0
 25
0.0
 16
0.0
 26
0.0
 36
1.0
 17
0.0
 27
0.0
 37
0.0
 40
16728.321075353659
 41
1.958525345622119
 42
50.0
 43
0.0
 44
0.0
 50
0.0
 51
0.0
 71
     0
 72
   600
 73
     1
 74
     1
 75
     0
 76
     0
 77
     0
 78
     0
  0
ENDTAB
  0
TABLE
  2
LTYPE
 70
     3
  0
LTYPE
  2
CONTINUOUS
 70
     0
  3
Solid line
 72
    65
 73
     0
 40
0.0
  0
LTYPE
  2
ACAD_ISO08W100
 70
     0
  3
ISO long-dash short-dash ____ __ ____ __ ____ _
 72
    65
 73
     4
 40
36.0
 49
24.0
 49
-3.0
 49
6.0
 49
-3.0
  0
LTYPE
  2
ACAD_ISO02W100
 70
     0
  3
ISO dash __ __ __ __ __ __ __ __ __ __ __ __ __
 72
    65
 73
     2
 40
15.0
 49
12.0
 49
-3.0
  0
ENDTAB
  0
TABLE
  2
LAYER
 70
     7
  0
LAYER
  2
0
 70
     0
 62
     7
  6
CONTINUOUS
  0
LAYER
  2
OBJECT
 70
     0
 62
     4
  6
CONTINUOUS
  0
LAYER
  2
DEFPOINTS
 70
     0
 62
     7
  6
CONTINUOUS
  0
LAYER
  2
HIDDEN
 70
     0
 62
     2
  6
ACAD_ISO02W100
  0
LAYER
  2
CENTER
 70
     0
 62
     2
  6
ACAD_ISO08W100
  0
LAYER
  2
DOTS
 70
     0
 62
     1
  6
CONTINUOUS
  0
LAYER
  2
SLIM
 70
     0
 62
     2
  6
CONTINUOUS
  0
ENDTAB
  0
TABLE
  2
STYLE
 70
     2
  0
STYLE
  2
STANDARD
 70
     0
 40
0.0
 41
0.75
 50
0.0
 71
     0
 42
4.0
  3
simplex.shx
  4
bigfont.shx
  0
ENDTAB
  0
TABLE
  2
VIEW
 70
     0
  0
ENDTAB
  0
TABLE
  2
UCS
 70
     0
  0
ENDTAB
  0
TABLE
  2
APPID
 70
    18
  0
APPID
  2
ACAD
 70
     0
  0
APPID
  2
ACADANNOTATIVE
 70
     0
  0
APPID
  2
ACAD_PSEXT
 70
     0
  0
APPID
  2
ACAD_EXEMPT_FROM_CAD_STANDARDS
 70
     0
  0
APPID
  2
ACAECLAYERSTANDARD
 70
     0
  0
APPID
  2
ACAUTHENVIRON
 70
     0
  0
APPID
  2
ACDBDYNAMICBLOCKTRUENAME
 70
     0
  0
APPID
  2
ACDBDYNAMICBLOCKGUID
 70
     0
  0
APPID
  2
ACDBBLOCKREPETAG
 70
     0
  0
APPID
  2
ACDBBLOCKREPBTAG
 70
     0
  0
APPID
  2
ACAD_NAV_VCDISPLAY
 70
     0
  0
APPID
  2
ACAD_DSTYLE_DIMRADIAL_EXTENSION
 70
     0
  0
APPID
  2
ACAD_DSTYLE_DIMJAG
 70
     0
  0
APPID
  2
ACAD_DSTYLE_DIMTALN
 70
     0
  0
APPID
  2
ACADANNOPO
 70
     0
  0
APPID
  2
GRADIENTCOLOR1ACI
 70
     0
  0
APPID
  2
GRADIENTCOLOR2ACI
 70
     0
  0
APPID
  2
ACAD_MLEADERVER
 70
     0
  0
ENDTAB
  0
TABLE
  2
DIMSTYLE
 70
     3
  0
DIMSTYLE
  2
STANDARD
 70
     0
  3

  4

  5

  6

  7

 40
1.0
 41
0.18
 42
0.0625
 43
0.38
 44
0.18
 45
0.0
 46
0.0
 47
0.0
 48
0.0
140
0.18
141
0.09
142
0.0
143
25.399999999999999
144
1.0
145
0.0
146
1.0
147
0.09
 71
     0
 72
     0
 73
     1
 74
     1
 75
     0
 76
     0
 77
     0
 78
     0
170
     0
171
     2
172
     0
173
     0
174
     0
175
     0
176
     0
177
     0
178
     0
  0
DIMSTYLE
  2
S10
 70
     0
  3

  4

  5

  6

  7

 40
10.0
 41
2.0
 42
1.0
 43
10.0
 44
1.0
 45
0.0
 46
0.0
 47
0.0
 48
0.0
140
3.2000000000000002
141
0.0
142
0.0
143
25.399999999999999
144
1.0
145
0.0
146
1.0
147
0.9
 71
     0
 72
     0
 73
     0
 74
     0
 75
     0
 76
     0
 77
     1
 78
     8
170
     0
171
     2
172
     1
173
     0
174
     0
175
     0
176
   256
177
   256
178
   256
  0
ENDTAB
  0
ENDSEC
  0
SECTION
  2
BLOCKS
  0
BLOCK
  8
0
  2
$MODEL_SPACE
 70
     0
 10
0.0
 20
0.0
 30
0.0
  3
$MODEL_SPACE
  1

  0
ENDBLK
  5
1274D9
  8
0
  0
BLOCK
 67
     1
  8
0
  2
$PAPER_SPACE
 70
     0
 10
0.0
 20
0.0
 30
0.0
  3
$PAPER_SPACE
  1

  0
ENDBLK
  5
1274D5
 67
     1
  8
0
  0
BLOCK
  8
0
  2
_OPEN30
 70
     0
 10
0.0
 20
0.0
 30
0.0
  3
_OPEN30
  1

  0
LINE
  5
202
  8
0
  6
BYBLOCK
 62
     0
 10
-1.0
 20
0.26794919
 30
0.0
 11
0.0
 21
0.0
 31
0.0
  0
LINE
  5
203
  8
0
  6
BYBLOCK
 62
     0
 10
0.0
 20
0.0
 30
0.0
 11
-1.0
 21
-0.26794919
 31
0.0
  0
LINE
  5
204
  8
0
  6
BYBLOCK
 62
     0
 10
0.0
 20
0.0
 30
0.0
 11
-1.0
 21
0.0
 31
0.0
  0
ENDBLK
  5
206
  8
0
  0
ENDSEC
  0
SECTION
  2
ENTITIES
  0
LINE
  5
126453
  8
CENTER
 10
2500.0
 20
-475.0
 30
0.0
 11
2500.0
 21
-789.99999999999955
 31
0.0
1001
ACDBBLOCKREPETAG
1070
     1
1071
       27
1005
126453
  0
LINE
  5
126454
  8
OBJECT
 10
2425.0
 20
-533.99999999999955
 30
0.0
 11
2425.0
 21
-777.99999999999955
 31
0.0
1001
ACDBBLOCKREPETAG
1070
     1
1071
       28
1005
126454
  0
LINE
  5
126457
  8
OBJECT
 10
2420.0
 20
-777.99999999999955
 30
0.0
 11
2580.0
 21
-777.99999999999955
 31
0.0
1001
ACDBBLOCKREPETAG
1070
     1
1071
       31
1005
126457
  0
LINE
  5
126458
  8
OBJECT
 10
2574.9999999997199
 20
-533.99999999999955
 30
0.0
 11
2568.2934843158559
 21
-533.99999999999955
 31
0.0
1001
ACDBBLOCKREPETAG
1070
     1
1071
       32
1005
126458
  0
LINE
  5
126459
  8
OBJECT
 10
2420.0
 20
-777.99999999999955
 30
0.0
 11
2420.0
 21
-789.99999999999955
 31
0.0
1001
ACDBBLOCKREPETAG
1070
     1
1071
       33
1005
126459
  0
LINE
  5
12645A
  8
OBJECT
 10
2420.0
 20
-789.99999999999955
 30
0.0
 11
2580.0
 21
-789.99999999999955
 31
0.0
1001
ACDBBLOCKREPETAG
1070
     1
1071
       34
1005
12645A
  0
LINE
  5
12645B
  8
OBJECT
 10
2580.0
 20
-789.99999999999955
 30
0.0
 11
2580.0
 21
-777.99999999999955
 31
0.0
1001
ACDBBLOCKREPETAG
1070
     1
1071
       35
1005
12645B
  0
LINE
  5
12645C
  8
OBJECT
 10
2574.9999999997199
 20
-533.99999999999955
 30
0.0
 11
2575.0
 21
-777.99999999999955
 31
0.0
1001
ACDBBLOCKREPETAG
1070
     1
1071
       37
1005
12645C
  0
POINT
  5
12645D
  8
DOTS
 10
2500.0
 20
-654.99999999999966
 30
0.0
1001
ACDBBLOCKREPETAG
1070
     1
1071
      188
1005
12645D
  0
LINE
  5
12645E
  8
CENTER
 10
2410.0
 20
-565.0
 30
0.0
 11
2590.0
 21
-565.0
 31
0.0
1001
ACDBBLOCKREPETAG
1070
     1
1071
       47
1005
12645E
  0
CIRCLE
  5
12645F
  8
OBJECT
 10
2500.0
 20
-565.0
 30
0.0
 40
53.5
1001
ACDBBLOCKREPETAG
1070
     1
1071
       48
1005
12645F
  0
CIRCLE
  5
126460
  8
OBJECT
 10
2500.0
 20
-565.0
 30
0.0
 40
67.0
1001
ACDBBLOCKREPETAG
1070
     1
1071
       49
1005
126460
  0
ARC
  5
126461
  8
OBJECT
 10
2500.0
 20
-565.0
 30
0.0
 40
75.0
 50
286.26020470824369
 51
253.73979529175631
1001
ACDBBLOCKREPETAG
1070
     1
1071
       51
1005
126461
  0
LINE
  5
126462
  8
OBJECT
 10
2479.0
 20
-637.0
 30
0.0
 11
2521.0
 21
-637.0
 31
0.0
1001
ACDBBLOCKREPETAG
1070
     1
1071
       52
1005
126462
  0
ARC
  5
126463
  8
OBJECT
 10
2500.0
 20
-596.0
 30
0.0
 40
62.0
 50
192.31695230615171
 51
347.68304769384832
1001
ACDBBLOCKREPETAG
1070
     1
1071
       53
1005
126463
  0
LINE
  5
126464
  8
OBJECT
 10
2431.7065156841441
 20
-533.99999999999955
 30
0.0
 11
2425.0
 21
-533.99999999999955
 31
0.0
1001
ACDBBLOCKREPETAG
1070
     1
1071
       32
1005
126458
  0
LINE
  5
126794
  8
CENTER
 10
4500.0
 20
-475.0
 30
0.0
 11
4500.0
 21
-789.99999999999955
 31
0.0
1001
ACDBBLOCKREPETAG
1070
     1
1071
       27
1005
126453
  0
LINE
  5
126795
  8
OBJECT
 10
4425.0
 20
-533.99999999999955
 30
0.0
 11
4425.0
 21
-777.99999999999955
 31
0.0
1001
ACDBBLOCKREPETAG
1070
     1
1071
       28
1005
126454
  0
LINE
  5
126796
  8
OBJECT
 10
4420.0
 20
-777.99999999999955
 30
0.0
 11
4580.0
 21
-777.99999999999955
 31
0.0
1001
ACDBBLOCKREPETAG
1070
     1
1071
       31
1005
126457
  0
LINE
  5
126797
  8
OBJECT
 10
4574.9999999997199
 20
-533.99999999999955
 30
0.0
 11
4568.2934843158546
 21
-533.99999999999955
 31
0.0
1001
ACDBBLOCKREPETAG
1070
     1
1071
       32
1005
126458
  0
LINE
  5
126798
  8
OBJECT
 10
4431.7065156841436
 20
-533.99999999999955
 30
0.0
 11
4425.0
 21
-533.99999999999955
 31
0.0
1001
ACDBBLOCKREPETAG
1070
     1
1071
       32
1005
126458
  0
LINE
  5
126799
  8
OBJECT
 10
4420.0
 20
-777.99999999999955
 30
0.0
 11
4420.0
 21
-789.99999999999955
 31
0.0
1001
ACDBBLOCKREPETAG
1070
     1
1071
       33
1005
126459
  0
LINE
  5
12679A
  8
OBJECT
 10
4420.0
 20
-789.99999999999955
 30
0.0
 11
4580.0
 21
-789.99999999999955
 31
0.0
1001
ACDBBLOCKREPETAG
1070
     1
1071
       34
1005
12645A
  0
LINE
  5
12679B
  8
OBJECT
 10
4580.0
 20
-789.99999999999955
 30
0.0
 11
4580.0
 21
-777.99999999999955
 31
0.0
1001
ACDBBLOCKREPETAG
1070
     1
1071
       35
1005
12645B
  0
LINE
  5
12679C
  8
OBJECT
 10
4574.9999999997199
 20
-533.99999999999955
 30
0.0
 11
4575.0
 21
-777.99999999999955
 31
0.0
1001
ACDBBLOCKREPETAG
1070
     1
1071
       37
1005
12645C
  0
POINT
  5
12679D
  8
DOTS
 10
4500.0
 20
-654.99999999999966
 30
0.0
1001
ACDBBLOCKREPETAG
1070
     1
1071
      188
1005
12645D
  0
LINE
  5
12679E
  8
CENTER
 10
4410.0
 20
-565.0
 30
0.0
 11
4590.0
 21
-565.0
 31
0.0
1001
ACDBBLOCKREPETAG
1070
     1
1071
       47
1005
12645E
  0
CIRCLE
  5
12679F
  8
OBJECT
 10
4500.0
 20
-565.0
 30
0.0
 40
53.5
1001
ACDBBLOCKREPETAG
1070
     1
1071
       48
1005
12645F
  0
CIRCLE
  5
1267A0
  8
OBJECT
 10
4500.0
 20
-565.0
 30
0.0
 40
67.0
1001
ACDBBLOCKREPETAG
1070
     1
1071
       49
1005
126460
  0
ARC
  5
1267A1
  8
OBJECT
 10
4500.0
 20
-565.0
 30
0.0
 40
75.0
 50
286.2602047082425
 51
253.73979529175739
1001
ACDBBLOCKREPETAG
1070
     1
1071
       51
1005
126461
  0
LINE
  5
1267A2
  8
OBJECT
 10
4479.0
 20
-637.0
 30
0.0
 11
4521.0
 21
-637.0
 31
0.0
1001
ACDBBLOCKREPETAG
1070
     1
1071
       52
1005
126462
  0
ARC
  5
1267A3
  8
OBJECT
 10
4500.0
 20
-596.0
 30
0.0
 40
62.0
 50
192.3169523061519
 51
347.68304769384798
1001
ACDBBLOCKREPETAG
1070
     1
1071
       53
1005
126463
  0
LINE
  5
1267AB
  8
CENTER
 10
6500.0
 20
-475.0
 30
0.0
 11
6500.0
 21
-789.99999999999955
 31
0.0
1001
ACDBBLOCKREPETAG
1070
     1
1071
       27
1005
126453
  0
LINE
  5
1267AC
  8
OBJECT
 10
6425.0
 20
-533.99999999999955
 30
0.0
 11
6425.0
 21
-777.99999999999955
 31
0.0
1001
ACDBBLOCKREPETAG
1070
     1
1071
       28
1005
126454
  0
LINE
  5
1267AD
  8
OBJECT
 10
6420.0
 20
-777.99999999999955
 30
0.0
 11
6580.0
 21
-777.99999999999955
 31
0.0
1001
ACDBBLOCKREPETAG
1070
     1
1071
       31
1005
126457
  0
LINE
  5
1267AE
  8
OBJECT
 10
6574.9999999997217
 20
-533.99999999999955
 30
0.0
 11
6568.2934843158564
 21
-533.99999999999955
 31
0.0
1001
ACDBBLOCKREPETAG
1070
     1
1071
       32
1005
126458
  0
LINE
  5
1267AF
  8
OBJECT
 10
6431.7065156841454
 20
-533.99999999999955
 30
0.0
 11
6425.0
 21
-533.99999999999955
 31
0.0
1001
ACDBBLOCKREPETAG
1070
     1
1071
       32
1005
126458
  0
LINE
  5
1267B0
  8
OBJECT
 10
6420.0
 20
-777.99999999999955
 30
0.0
 11
6420.0
 21
-789.99999999999955
 31
0.0
1001
ACDBBLOCKREPETAG
1070
     1
1071
       33
1005
126459
  0
LINE
  5
1267B1
  8
OBJECT
 10
6420.0
 20
-789.99999999999955
 30
0.0
 11
6580.0
 21
-789.99999999999955
 31
0.0
1001
ACDBBLOCKREPETAG
1070
     1
1071
       34
1005
12645A
  0
LINE
  5
1267B2
  8
OBJECT
 10
6580.0
 20
-789.99999999999955
 30
0.0
 11
6580.0
 21
-777.99999999999955
 31
0.0
1001
ACDBBLOCKREPETAG
1070
     1
1071
       35
1005
12645B
  0
LINE
  5
1267B3
  8
OBJECT
 10
6574.9999999997217
 20
-533.99999999999955
 30
0.0
 11
6575.0
 21
-777.99999999999955
 31
0.0
1001
ACDBBLOCKREPETAG
1070
     1
1071
       37
1005
12645C
  0
POINT
  5
1267B4
  8
DOTS
 10
6500.0
 20
-654.99999999999966
 30
0.0
1001
ACDBBLOCKREPETAG
1070
     1
1071
      188
1005
12645D
  0
LINE
  5
1267B5
  8
CENTER
 10
6410.0
 20
-565.0
 30
0.0
 11
6590.0
 21
-565.0
 31
0.0
1001
ACDBBLOCKREPETAG
1070
     1
1071
       47
1005
12645E
  0
CIRCLE
  5
1267B6
  8
OBJECT
 10
6500.0
 20
-565.0
 30
0.0
 40
53.5
1001
ACDBBLOCKREPETAG
1070
     1
1071
       48
1005
12645F
  0
CIRCLE
  5
1267B7
  8
OBJECT
 10
6500.0
 20
-565.0
 30
0.0
 40
67.0
1001
ACDBBLOCKREPETAG
1070
     1
1071
       49
1005
126460
  0
ARC
  5
1267B8
  8
OBJECT
 10
6500.0
 20
-565.0
 30
0.0
 40
75.0
 50
286.2602047082425
 51
253.73979529175739
1001
ACDBBLOCKREPETAG
1070
     1
1071
       51
1005
126461
  0
LINE
  5
1267B9
  8
OBJECT
 10
6479.0
 20
-637.0
 30
0.0
 11
6521.0
 21
-637.0
 31
0.0
1001
ACDBBLOCKREPETAG
1070
     1
1071
       52
1005
126462
  0
ARC
  5
1267BA
  8
OBJECT
 10
6500.0
 20
-596.0
 30
0.0
 40
62.0
 50
192.3169523061519
 51
347.68304769384798
1001
ACDBBLOCKREPETAG
1070
     1
1071
       53
1005
126463
  0
LINE
  5
1267C2
  8
CENTER
 10
8500.0
 20
-475.0
 30
0.0
 11
8500.0
 21
-789.99999999999955
 31
0.0
1001
ACDBBLOCKREPETAG
1070
     1
1071
       27
1005
126453
  0
LINE
  5
1267C3
  8
OBJECT
 10
8425.0
 20
-533.99999999999955
 30
0.0
 11
8425.0
 21
-777.99999999999955
 31
0.0
1001
ACDBBLOCKREPETAG
1070
     1
1071
       28
1005
126454
  0
LINE
  5
1267C4
  8
OBJECT
 10
8420.0
 20
-777.99999999999955
 30
0.0
 11
8580.0
 21
-777.99999999999955
 31
0.0
1001
ACDBBLOCKREPETAG
1070
     1
1071
       31
1005
126457
  0
LINE
  5
1267C5
  8
OBJECT
 10
8574.9999999997199
 20
-533.99999999999955
 30
0.0
 11
8568.2934843158546
 21
-533.99999999999955
 31
0.0
1001
ACDBBLOCKREPETAG
1070
     1
1071
       32
1005
126458
  0
LINE
  5
1267C6
  8
OBJECT
 10
8431.7065156841454
 20
-533.99999999999955
 30
0.0
 11
8425.0
 21
-533.99999999999955
 31
0.0
1001
ACDBBLOCKREPETAG
1070
     1
1071
       32
1005
126458
  0
LINE
  5
1267C7
  8
OBJECT
 10
8420.0
 20
-777.99999999999955
 30
0.0
 11
8420.0
 21
-789.99999999999955
 31
0.0
1001
ACDBBLOCKREPETAG
1070
     1
1071
       33
1005
126459
  0
LINE
  5
1267C8
  8
OBJECT
 10
8420.0
 20
-789.99999999999955
 30
0.0
 11
8580.0
 21
-789.99999999999955
 31
0.0
1001
ACDBBLOCKREPETAG
1070
     1
1071
       34
1005
12645A
  0
LINE
  5
1267C9
  8
OBJECT
 10
8580.0
 20
-789.99999999999955
 30
0.0
 11
8580.0
 21
-777.99999999999955
 31
0.0
1001
ACDBBLOCKREPETAG
1070
     1
1071
       35
1005
12645B
  0
LINE
  5
1267CA
  8
OBJECT
 10
8574.9999999997199
 20
-533.99999999999955
 30
0.0
 11
8575.0
 21
-777.99999999999955
 31
0.0
1001
ACDBBLOCKREPETAG
1070
     1
1071
       37
1005
12645C
  0
POINT
  5
1267CB
  8
DOTS
 10
8500.0
 20
-654.99999999999966
 30
0.0
1001
ACDBBLOCKREPETAG
1070
     1
1071
      188
1005
12645D
  0
LINE
  5
1267CC
  8
CENTER
 10
8410.0
 20
-565.0
 30
0.0
 11
8590.0
 21
-565.0
 31
0.0
1001
ACDBBLOCKREPETAG
1070
     1
1071
       47
1005
12645E
  0
CIRCLE
  5
1267CD
  8
OBJECT
 10
8500.0
 20
-565.0
 30
0.0
 40
53.5
1001
ACDBBLOCKREPETAG
1070
     1
1071
       48
1005
12645F
  0
CIRCLE
  5
1267CE
  8
OBJECT
 10
8500.0
 20
-565.0
 30
0.0
 40
67.0
1001
ACDBBLOCKREPETAG
1070
     1
1071
       49
1005
126460
  0
ARC
  5
1267CF
  8
OBJECT
 10
8500.0
 20
-565.0
 30
0.0
 40
75.0
 50
286.2602047082425
 51
253.73979529175739
1001
ACDBBLOCKREPETAG
1070
     1
1071
       51
1005
126461
  0
LINE
  5
1267D0
  8
OBJECT
 10
8479.0
 20
-637.0
 30
0.0
 11
8521.0
 21
-637.0
 31
0.0
1001
ACDBBLOCKREPETAG
1070
     1
1071
       52
1005
126462
  0
ARC
  5
1267D1
  8
OBJECT
 10
8500.0
 20
-596.0
 30
0.0
 40
62.0
 50
192.3169523061519
 51
347.68304769384798
1001
ACDBBLOCKREPETAG
1070
     1
1071
       53
1005
126463
  0
LINE
  5
1267D9
  8
CENTER
 10
10500.0
 20
-475.0
 30
0.0
 11
10500.0
 21
-789.99999999999955
 31
0.0
1001
ACDBBLOCKREPETAG
1070
     1
1071
       27
1005
126453
  0
LINE
  5
1267DA
  8
OBJECT
 10
10425.0
 20
-533.99999999999955
 30
0.0
 11
10425.0
 21
-777.99999999999955
 31
0.0
1001
ACDBBLOCKREPETAG
1070
     1
1071
       28
1005
126454
  0
LINE
  5
1267DB
  8
OBJECT
 10
10420.0
 20
-777.99999999999955
 30
0.0
 11
10580.0
 21
-777.99999999999955
 31
0.0
1001
ACDBBLOCKREPETAG
1070
     1
1071
       31
1005
126457
  0
LINE
  5
1267DC
  8
OBJECT
 10
10574.99999999972
 20
-533.99999999999955
 30
0.0
 11
10568.293484315849
 21
-533.99999999999955
 31
0.0
1001
ACDBBLOCKREPETAG
1070
     1
1071
       32
1005
126458
  0
LINE
  5
1267DD
  8
OBJECT
 10
10431.70651568414
 20
-533.99999999999955
 30
0.0
 11
10425.0
 21
-533.99999999999955
 31
0.0
1001
ACDBBLOCKREPETAG
1070
     1
1071
       32
1005
126458
  0
LINE
  5
1267DE
  8
OBJECT
 10
10420.0
 20
-777.99999999999955
 30
0.0
 11
10420.0
 21
-789.99999999999955
 31
0.0
1001
ACDBBLOCKREPETAG
1070
     1
1071
       33
1005
126459
  0
LINE
  5
1267DF
  8
OBJECT
 10
10420.0
 20
-789.99999999999955
 30
0.0
 11
10580.0
 21
-789.99999999999955
 31
0.0
1001
ACDBBLOCKREPETAG
1070
     1
1071
       34
1005
12645A
  0
LINE
  5
1267E0
  8
OBJECT
 10
10580.0
 20
-789.99999999999955
 30
0.0
 11
10580.0
 21
-777.99999999999955
 31
0.0
1001
ACDBBLOCKREPETAG
1070
     1
1071
       35
1005
12645B
  0
LINE
  5
1267E1
  8
OBJECT
 10
10574.99999999972
 20
-533.99999999999955
 30
0.0
 11
10575.0
 21
-777.99999999999955
 31
0.0
1001
ACDBBLOCKREPETAG
1070
     1
1071
       37
1005
12645C
  0
POINT
  5
1267E2
  8
DOTS
 10
10500.0
 20
-654.99999999999966
 30
0.0
1001
ACDBBLOCKREPETAG
1070
     1
1071
      188
1005
12645D
  0
LINE
  5
1267E3
  8
CENTER
 10
10410.0
 20
-565.0
 30
0.0
 11
10590.0
 21
-565.0
 31
0.0
1001
ACDBBLOCKREPETAG
1070
     1
1071
       47
1005
12645E
  0
CIRCLE
  5
1267E4
  8
OBJECT
 10
10500.0
 20
-565.0
 30
0.0
 40
53.5
1001
ACDBBLOCKREPETAG
1070
     1
1071
       48
1005
12645F
  0
CIRCLE
  5
1267E5
  8
OBJECT
 10
10500.0
 20
-565.0
 30
0.0
 40
67.0
1001
ACDBBLOCKREPETAG
1070
     1
1071
       49
1005
126460
  0
ARC
  5
1267E6
  8
OBJECT
 10
10500.0
 20
-565.0
 30
0.0
 40
75.0
 50
286.2602047082425
 51
253.73979529175739
1001
ACDBBLOCKREPETAG
1070
     1
1071
       51
1005
126461
  0
LINE
  5
1267E7
  8
OBJECT
 10
10479.0
 20
-637.0
 30
0.0
 11
10521.0
 21
-637.0
 31
0.0
1001
ACDBBLOCKREPETAG
1070
     1
1071
       52
1005
126462
  0
ARC
  5
1267E8
  8
OBJECT
 10
10500.0
 20
-596.0
 30
0.0
 40
62.0
 50
192.3169523061519
 51
347.68304769384798
1001
ACDBBLOCKREPETAG
1070
     1
1071
       53
1005
126463
  0
LINE
  5
1267F0
  8
CENTER
 10
12500.0
 20
-475.0
 30
0.0
 11
12500.0
 21
-789.99999999999955
 31
0.0
1001
ACDBBLOCKREPETAG
1070
     1
1071
       27
1005
126453
  0
LINE
  5
1267F1
  8
OBJECT
 10
12425.0
 20
-533.99999999999955
 30
0.0
 11
12425.0
 21
-777.99999999999955
 31
0.0
1001
ACDBBLOCKREPETAG
1070
     1
1071
       28
1005
126454
  0
LINE
  5
1267F2
  8
OBJECT
 10
12420.0
 20
-777.99999999999955
 30
0.0
 11
12580.0
 21
-777.99999999999955
 31
0.0
1001
ACDBBLOCKREPETAG
1070
     1
1071
       31
1005
126457
  0
LINE
  5
1267F3
  8
OBJECT
 10
12574.99999999972
 20
-533.99999999999955
 30
0.0
 11
12568.293484315849
 21
-533.99999999999955
 31
0.0
1001
ACDBBLOCKREPETAG
1070
     1
1071
       32
1005
126458
  0
LINE
  5
1267F4
  8
OBJECT
 10
12431.70651568414
 20
-533.99999999999955
 30
0.0
 11
12425.0
 21
-533.99999999999955
 31
0.0
1001
ACDBBLOCKREPETAG
1070
     1
1071
       32
1005
126458
  0
LINE
  5
1267F5
  8
OBJECT
 10
12420.0
 20
-777.99999999999955
 30
0.0
 11
12420.0
 21
-789.99999999999955
 31
0.0
1001
ACDBBLOCKREPETAG
1070
     1
1071
       33
1005
126459
  0
LINE
  5
1267F6
  8
OBJECT
 10
12420.0
 20
-789.99999999999955
 30
0.0
 11
12580.0
 21
-789.99999999999955
 31
0.0
1001
ACDBBLOCKREPETAG
1070
     1
1071
       34
1005
12645A
  0
LINE
  5
1267F7
  8
OBJECT
 10
12580.0
 20
-789.99999999999955
 30
0.0
 11
12580.0
 21
-777.99999999999955
 31
0.0
1001
ACDBBLOCKREPETAG
1070
     1
1071
       35
1005
12645B
  0
LINE
  5
1267F8
  8
OBJECT
 10
12574.99999999972
 20
-533.99999999999955
 30
0.0
 11
12575.0
 21
-777.99999999999955
 31
0.0
1001
ACDBBLOCKREPETAG
1070
     1
1071
       37
1005
12645C
  0
POINT
  5
1267F9
  8
DOTS
 10
12500.0
 20
-654.99999999999966
 30
0.0
1001
ACDBBLOCKREPETAG
1070
     1
1071
      188
1005
12645D
  0
LINE
  5
1267FA
  8
CENTER
 10
12410.0
 20
-565.0
 30
0.0
 11
12590.0
 21
-565.0
 31
0.0
1001
ACDBBLOCKREPETAG
1070
     1
1071
       47
1005
12645E
  0
CIRCLE
  5
1267FB
  8
OBJECT
 10
12500.0
 20
-565.0
 30
0.0
 40
53.5
1001
ACDBBLOCKREPETAG
1070
     1
1071
       48
1005
12645F
  0
CIRCLE
  5
1267FC
  8
OBJECT
 10
12500.0
 20
-565.0
 30
0.0
 40
67.0
1001
ACDBBLOCKREPETAG
1070
     1
1071
       49
1005
126460
  0
ARC
  5
1267FD
  8
OBJECT
 10
12500.0
 20
-565.0
 30
0.0
 40
75.0
 50
286.2602047082425
 51
253.73979529175739
1001
ACDBBLOCKREPETAG
1070
     1
1071
       51
1005
126461
  0
LINE
  5
1267FE
  8
OBJECT
 10
12479.0
 20
-637.0
 30
0.0
 11
12521.0
 21
-637.0
 31
0.0
1001
ACDBBLOCKREPETAG
1070
     1
1071
       52
1005
126462
  0
ARC
  5
1267FF
  8
OBJECT
 10
12500.0
 20
-596.0
 30
0.0
 40
62.0
 50
192.3169523061519
 51
347.68304769384798
1001
ACDBBLOCKREPETAG
1070
     1
1071
       53
1005
126463
  0
LINE
  5
126E3F
  8
SLIM
 10
11927.30183005652
 20
-155.95484036957691
 30
0.0
 11
11955.954840369581
 21
-127.30183005652231
 31
0.0
1001
GRADIENTCOLOR1ACI
1070
     5
1001
GRADIENTCOLOR2ACI
1070
     2
1001
ACAD
1010
0.0
1020
0.0
1030
0.0
1001
ACDBBLOCKREPETAG
1070
     1
1071
      499
1005
126E3F
  0
LINE
  5
126E40
  8
SLIM
 10
11919.48615207084
 20
-172.75077447633191
 30
0.0
 11
11972.75077447633
 21
-119.4861520708364
 31
0.0
1001
GRADIENTCOLOR1ACI
1070
     5
1001
GRADIENTCOLOR2ACI
1070
     2
1001
ACAD
1010
0.0
1020
0.0
1030
0.0
1001
ACDBBLOCKREPETAG
1070
     1
1071
      454
1005
126E40
  0
LINE
  5
126E41
  8
SLIM
 10
11916.35966799338
 20
-184.8575146748604
 30
0.0
 11
11931.29567467195
 21
-169.92150799629059
 31
0.0
1001
GRADIENTCOLOR1ACI
1070
     5
1001
GRADIENTCOLOR2ACI
1070
     2
1001
ACAD
1010
0.0
1020
0.0
1030
0.0
1001
ACDBBLOCKREPETAG
1070
     1
1071
      455
1005
126E41
  0
LINE
  5
126E42
  8
SLIM
 10
11969.921507996291
 20
-131.2956746719467
 30
0.0
 11
11984.857514674861
 21
-116.359667993377
 31
0.0
1001
GRADIENTCOLOR1ACI
1070
     5
1001
GRADIENTCOLOR2ACI
1070
     2
1001
ACAD
1010
0.0
1020
0.0
1030
0.0
1001
ACDBBLOCKREPETAG
1070
     1
1071
      456
1005
126E42
  0
LINE
  5
126E43
  8
SLIM
 10
11915.14405758905
 20
-195.0533812002549
 30
0.0
 11
11926.878602456551
 21
-183.3188363327526
 31
0.0
1001
GRADIENTCOLOR1ACI
1070
     5
1001
GRADIENTCOLOR2ACI
1070
     2
1001
ACAD
1010
0.0
1020
0.0
1030
0.0
1001
ACDBBLOCKREPETAG
1070
     1
1071
      457
1005
126E43
  0
LINE
  5
126E44
  8
SLIM
 10
11983.31883633275
 20
-126.87860245655401
 30
0.0
 11
11995.05338120025
 21
-115.1440575890517
 31
0.0
1001
GRADIENTCOLOR1ACI
1070
     5
1001
GRADIENTCOLOR2ACI
1070
     2
1001
ACAD
1010
0.0
1020
0.0
1030
0.0
1001
ACDBBLOCKREPETAG
1070
     1
1071
      458
1005
126E44
  0
LINE
  5
126E45
  8
SLIM
 10
11915.097963557469
 20
-204.07973135290339
 30
0.0
 11
11919.17769491037
 21
-199.99999999999909
 31
0.0
1001
GRADIENTCOLOR1ACI
1070
     5
1001
GRADIENTCOLOR2ACI
1070
     2
1001
ACAD
1010
0.0
1020
0.0
1030
0.0
1001
ACDBBLOCKREPETAG
1070
     1
1071
      459
1005
126E45
  0
LINE
  5
126E46
  8
SLIM
 10
12000.0
 20
-119.1776949103767
 30
0.0
 11
12004.0797313529
 21
-115.0979635574723
 31
0.0
1001
GRADIENTCOLOR1ACI
1070
     5
1001
GRADIENTCOLOR2ACI
1070
     2
1001
ACAD
1010
0.0
1020
0.0
1030
0.0
1001
ACDBBLOCKREPETAG
1070
     1
1071
      460
1005
126E46
  0
LINE
  5
126E47
  8
SLIM
 10
11919.17769491037
 20
-199.99999999999909
 30
0.0
 11
11925.24588966177
 21
-193.93180524859881
 31
0.0
1001
GRADIENTCOLOR1ACI
1070
     5
1001
GRADIENTCOLOR2ACI
1070
     2
1001
ACAD
1010
0.0
1020
0.0
1030
0.0
1001
ACDBBLOCKREPETAG
1070
     1
1071
      461
1005
126E47
  0
LINE
  5
126E48
  8
SLIM
 10
11993.9318052486
 20
-125.245889661777
 30
0.0
 11
12000.0
 21
-119.1776949103767
 31
0.0
1001
GRADIENTCOLOR1ACI
1070
     5
1001
GRADIENTCOLOR2ACI
1070
     2
1001
ACAD
1010
0.0
1020
0.0
1030
0.0
1001
ACDBBLOCKREPETAG
1070
     1
1071
      462
1005
126E48
  0
LINE
  5
126E49
  8
SLIM
 10
11915.889972620869
 20
-212.26797841057399
 30
0.0
 11
11925.06385024359
 21
-203.09410078785251
 31
0.0
1001
GRADIENTCOLOR1ACI
1070
     5
1001
GRADIENTCOLOR2ACI
1070
     2
1001
ACAD
1010
0.0
1020
0.0
1030
0.0
1001
ACDBBLOCKREPETAG
1070
     1
1071
      463
1005
126E49
  0
LINE
  5
126E4A
  8
SLIM
 10
12003.094100787839
 20
-125.0638502435924
 30
0.0
 11
12012.267978410569
 21
-115.88997262087101
 31
0.0
1001
GRADIENTCOLOR1ACI
1070
     5
1001
GRADIENTCOLOR2ACI
1070
     2
1001
ACAD
1010
0.0
1020
0.0
1030
0.0
1001
ACDBBLOCKREPETAG
1070
     1
1071
      464
1005
126E4A
  0
LINE
  5
126E4B
  8
SLIM
 10
11917.338265695151
 20
-219.79994145736151
 30
0.0
 11
11925.853781383859
 21
-211.28442576865081
 31
0.0
1001
GRADIENTCOLOR1ACI
1070
     5
1001
GRADIENTCOLOR2ACI
1070
     2
1001
ACAD
1010
0.0
1020
0.0
1030
0.0
1001
ACDBBLOCKREPETAG
1070
     1
1071
      465
1005
126E4B
  0
LINE
  5
126E4C
  8
SLIM
 10
12011.28442576865
 20
-125.85378138386341
 30
0.0
 11
12019.799941457361
 21
-117.3382656951526
 31
0.0
1001
GRADIENTCOLOR1ACI
1070
     5
1001
GRADIENTCOLOR2ACI
1070
     2
1001
ACAD
1010
0.0
1020
0.0
1030
0.0
1001
ACDBBLOCKREPETAG
1070
     1
1071
      466
1005
126E4C
  0
LINE
  5
126E4D
  8
SLIM
 10
11919.331259406301
 20
-226.78720386727881
 30
0.0
 11
11927.378874808061
 21
-218.7395884655206
 31
0.0
1001
GRADIENTCOLOR1ACI
1070
     5
1001
GRADIENTCOLOR2ACI
1070
     2
1001
ACAD
1010
0.0
1020
0.0
1030
0.0
1001
ACDBBLOCKREPETAG
1070
     1
1071
      467
1005
126E4D
  0
LINE
  5
126E4E
  8
SLIM
 10
12018.73958846552
 20
-127.3788748080627
 30
0.0
 11
12026.787203867279
 21
-119.3312594063044
 31
0.0
1001
GRADIENTCOLOR1ACI
1070
     5
1001
GRADIENTCOLOR2ACI
1070
     2
1001
ACAD
1010
0.0
1020
0.0
1030
0.0
1001
ACDBBLOCKREPETAG
1070
     1
1071
      468
1005
126E4E
  0
LINE
  5
126E4F
  8
SLIM
 10
11921.79571631862
 20
-233.30300307603289
 30
0.0
 11
11929.50283276769
 21
-225.5958866269597
 31
0.0
1001
GRADIENTCOLOR1ACI
1070
     5
1001
GRADIENTCOLOR2ACI
1070
     2
1001
ACAD
1010
0.0
1020
0.0
1030
0.0
1001
ACDBBLOCKREPETAG
1070
     1
1071
      469
1005
126E4F
  0
LINE
  5
126E50
  8
SLIM
 10
12025.595886626959
 20
-129.50283276769261
 30
0.0
 11
12033.303003076029
 21
-121.7957163186195
 31
0.0
1001
GRADIENTCOLOR1ACI
1070
     5
1001
GRADIENTCOLOR2ACI
1070
     2
1001
ACAD
1010
0.0
1020
0.0
1030
0.0
1001
ACDBBLOCKREPETAG
1070
     1
1071
      470
1005
126E50
  0
LINE
  5
126E51
  8
SLIM
 10
11924.681663531341
 20
-239.39731198437761
 30
0.0
 11
11932.14038956962
 21
-231.93858594610461
 31
0.0
1001
GRADIENTCOLOR1ACI
1070
     5
1001
GRADIENTCOLOR2ACI
1070
     2
1001
ACAD
1010
0.0
1020
0.0
1030
0.0
1001
ACDBBLOCKREPETAG
1070
     1
1071
      471
1005
126E51
  0
LINE
  5
126E52
  8
SLIM
 10
12031.9385859461
 20
-132.1403895696169
 30
0.0
 11
12039.397311984379
 21
-124.681663531344
 31
0.0
1001
GRADIENTCOLOR1ACI
1070
     5
1001
GRADIENTCOLOR2ACI
1070
     2
1001
ACAD
1010
0.0
1020
0.0
1030
0.0
1001
ACDBBLOCKREPETAG
1070
     1
1071
      472
1005
126E52
  0
LINE
  5
126E53
  8
SLIM
 10
11927.954461102419
 20
-245.10477053436691
 30
0.0
 11
11935.23586619916
 21
-237.8233654376229
 31
0.0
1001
GRADIENTCOLOR1ACI
1070
     5
1001
GRADIENTCOLOR2ACI
1070
     2
1001
ACAD
1010
0.0
1020
0.0
1030
0.0
1001
ACDBBLOCKREPETAG
1070
     1
1071
      473
1005
126E53
  0
LINE
  5
126E54
  8
SLIM
 10
12037.82336543762
 20
-135.2358661991679
 30
0.0
 11
12045.10477053437
 21
-127.95446110242381
 31
0.0
1001
GRADIENTCOLOR1ACI
1070
     5
1001
GRADIENTCOLOR2ACI
1070
     2
1001
ACAD
1010
0.0
1020
0.0
1030
0.0
1001
ACDBBLOCKREPETAG
1070
     1
1071
      474
1005
126E54
  0
LINE
  5
126E55
  8
SLIM
 10
11931.59033196866
 20
-250.4491557891954
 30
0.0
 11
11938.752593583549
 21
-243.2868941743115
 31
0.0
1001
GRADIENTCOLOR1ACI
1070
     5
1001
GRADIENTCOLOR2ACI
1070
     2
1001
ACAD
1010
0.0
1020
0.0
1030
0.0
1001
ACDBBLOCKREPETAG
1070
     1
1071
      475
1005
126E55
  0
LINE
  5
126E56
  8
SLIM
 10
12044.03948775786
 20
-137.99999999999909
 30
0.0
 11
12050.449155789191
 21
-131.59033196866449
 31
0.0
1001
GRADIENTCOLOR1ACI
1070
     5
1001
GRADIENTCOLOR2ACI
1070
     2
1001
ACAD
1010
0.0
1020
0.0
1030
0.0
1001
ACDBBLOCKREPETAG
1070
     1
1071
      476
1005
126E56
  0
LINE
  5
126E57
  8
SLIM
 10
11935.573749692519
 20
-255.4459941864034
 30
0.0
 11
11942.66728731305
 21
-248.35245656588111
 31
0.0
1001
GRADIENTCOLOR1ACI
1070
     5
1001
GRADIENTCOLOR2ACI
1070
     2
1001
ACAD
1010
0.0
1020
0.0
1030
0.0
1001
ACDBBLOCKREPETAG
1070
     1
1071
      477
1005
126E57
  0
LINE
  5
126E58
  8
SLIM
 10
12053.01974387892
 20
-137.99999999999909
 30
0.0
 11
12055.445994186401
 21
-135.57374969252561
 31
0.0
1001
GRADIENTCOLOR1ACI
1070
     5
1001
GRADIENTCOLOR2ACI
1070
     2
1001
ACAD
1010
0.0
1020
0.0
1030
0.0
1001
ACDBBLOCKREPETAG
1070
     1
1071
      478
1005
126E58
  0
LINE
  5
126E59
  8
SLIM
 10
11939.895923599141
 20
-260.10407640085572
 30
0.0
 11
11946.966991411011
 21
-253.03300858899021
 31
0.0
1001
GRADIENTCOLOR1ACI
1070
     5
1001
GRADIENTCOLOR2ACI
1070
     2
1001
ACAD
1010
0.0
1020
0.0
1030
0.0
1001
ACDBBLOCKREPETAG
1070
     1
1071
      479
1005
126E59
  0
LINE
  5
126E5A
  8
SLIM
 10
11944.55400581359
 20
-264.4262503074724
 30
0.0
 11
11951.647543434119
 21
-257.33271268695029
 31
0.0
1001
GRADIENTCOLOR1ACI
1070
     5
1001
GRADIENTCOLOR2ACI
1070
     2
1001
ACAD
1010
0.0
1020
0.0
1030
0.0
1001
ACDBBLOCKREPETAG
1070
     1
1071
      480
1005
126E5A
  0
LINE
  5
126E5B
  8
SLIM
 10
11949.5508442108
 20
-268.40966803133369
 30
0.0
 11
11956.71310582568
 21
-261.24740641644968
 31
0.0
1001
GRADIENTCOLOR1ACI
1070
     5
1001
GRADIENTCOLOR2ACI
1070
     2
1001
ACAD
1010
0.0
1020
0.0
1030
0.0
1001
ACDBBLOCKREPETAG
1070
     1
1071
      481
1005
126E5B
  0
LINE
  5
126E5C
  8
SLIM
 10
11954.89522946563
 20
-272.04553889757432
 30
0.0
 11
11962.17663456236
 21
-264.76413380083028
 31
0.0
1001
GRADIENTCOLOR1ACI
1070
     5
1001
GRADIENTCOLOR2ACI
1070
     2
1001
ACAD
1010
0.0
1020
0.0
1030
0.0
1001
ACDBBLOCKREPETAG
1070
     1
1071
      482
1005
126E5C
  0
LINE
  5
126E5D
  8
SLIM
 10
11960.602688015621
 20
-275.31833646865419
 30
0.0
 11
11968.061414053889
 21
-267.85961043038128
 31
0.0
1001
GRADIENTCOLOR1ACI
1070
     5
1001
GRADIENTCOLOR2ACI
1070
     2
1001
ACAD
1010
0.0
1020
0.0
1030
0.0
1001
ACDBBLOCKREPETAG
1070
     1
1071
      483
1005
126E5D
  0
LINE
  5
126E5E
  8
SLIM
 10
11966.69699692396
 20
-278.20428368137863
 30
0.0
 11
11974.404113373041
 21
-270.49716723230551
 31
0.0
1001
GRADIENTCOLOR1ACI
1070
     5
1001
GRADIENTCOLOR2ACI
1070
     2
1001
ACAD
1010
0.0
1020
0.0
1030
0.0
1001
ACDBBLOCKREPETAG
1070
     1
1071
      484
1005
126E5E
  0
LINE
  5
126E5F
  8
SLIM
 10
11973.212796132721
 20
-280.66874059369371
 30
0.0
 11
11981.26041153448
 21
-272.6211251919355
 31
0.0
1001
GRADIENTCOLOR1ACI
1070
     5
1001
GRADIENTCOLOR2ACI
1070
     2
1001
ACAD
1010
0.0
1020
0.0
1030
0.0
1001
ACDBBLOCKREPETAG
1070
     1
1071
      485
1005
126E5F
  0
LINE
  5
126E60
  8
SLIM
 10
11980.200058542639
 20
-282.66173430484548
 30
0.0
 11
11988.715574231341
 21
-274.14621861613477
 31
0.0
1001
GRADIENTCOLOR1ACI
1070
     5
1001
GRADIENTCOLOR2ACI
1070
     2
1001
ACAD
1010
0.0
1020
0.0
1030
0.0
1001
ACDBBLOCKREPETAG
1070
     1
1071
      486
1005
126E60
  0
LINE
  5
126E61
  8
SLIM
 10
11987.73202158942
 20
-284.11002737912702
 30
0.0
 11
11996.905899212141
 21
-274.93614975640583
 31
0.0
1001
GRADIENTCOLOR1ACI
1070
     5
1001
GRADIENTCOLOR2ACI
1070
     2
1001
ACAD
1010
0.0
1020
0.0
1030
0.0
1001
ACDBBLOCKREPETAG
1070
     1
1071
      487
1005
126E61
  0
LINE
  5
126E62
  8
SLIM
 10
11995.9202686471
 20
-284.90203644252568
 30
0.0
 11
12000.0
 21
-280.82230508962152
 31
0.0
1001
GRADIENTCOLOR1ACI
1070
     5
1001
GRADIENTCOLOR2ACI
1070
     2
1001
ACAD
1010
0.0
1020
0.0
1030
0.0
1001
ACDBBLOCKREPETAG
1070
     1
1071
      488
1005
126E62
  0
LINE
  5
126E63
  8
SLIM
 10
12000.0
 20
-280.82230508962152
 30
0.0
 11
12006.0681947514
 21
-274.75411033822121
 31
0.0
1001
GRADIENTCOLOR1ACI
1070
     5
1001
GRADIENTCOLOR2ACI
1070
     2
1001
ACAD
1010
0.0
1020
0.0
1030
0.0
1001
ACDBBLOCKREPETAG
1070
     1
1071
      489
1005
126E63
  0
LINE
  5
126E64
  8
SLIM
 10
12004.94661879974
 20
-284.85594241094651
 30
0.0
 11
12016.681163667239
 21
-273.12139754344412
 31
0.0
1001
GRADIENTCOLOR1ACI
1070
     5
1001
GRADIENTCOLOR2ACI
1070
     2
1001
ACAD
1010
0.0
1020
0.0
1030
0.0
1001
ACDBBLOCKREPETAG
1070
     1
1071
      490
1005
126E64
  0
LINE
  5
126E65
  8
SLIM
 10
12015.142485325139
 20
-283.64033200662112
 30
0.0
 11
12030.078492003709
 21
-268.70432532805143
 31
0.0
1001
GRADIENTCOLOR1ACI
1070
     5
1001
GRADIENTCOLOR2ACI
1070
     2
1001
ACAD
1010
0.0
1020
0.0
1030
0.0
1001
ACDBBLOCKREPETAG
1070
     1
1071
      491
1005
126E65
  0
LINE
  5
126E66
  8
SLIM
 10
12027.249225523659
 20
-280.51384792916173
 30
0.0
 11
12045.76307345283
 21
-261.99999999999909
 31
0.0
1001
GRADIENTCOLOR1ACI
1070
     5
1001
GRADIENTCOLOR2ACI
1070
     2
1001
ACAD
1010
0.0
1020
0.0
1030
0.0
1001
ACDBBLOCKREPETAG
1070
     1
1071
      492
1005
126E66
  0
LINE
  5
126E67
  8
SLIM
 10
12044.045159630419
 20
-272.69816994347582
 30
0.0
 11
12054.743329573899
 21
-261.99999999999909
 31
0.0
1001
GRADIENTCOLOR1ACI
1070
     5
1001
GRADIENTCOLOR2ACI
1070
     2
1001
ACAD
1010
0.0
1020
0.0
1030
0.0
1001
ACDBBLOCKREPETAG
1070
     1
1071
      493
1005
126E67
  0
LINE
  5
126E68
  8
CENTER
 10
12080.0
 20
-199.99999999999909
 30
0.0
 11
11900.0
 21
-199.99999999999909
 31
0.0
1001
ACDBBLOCKREPETAG
1070
     1
1071
      187
1005
126E68
  0
LINE
  5
126E69
  8
CENTER
 10
12000.0
 20
-299.99999999999898
 30
0.0
 11
12000.0
 21
-99.999999999999091
 31
0.0
1001
ACDBBLOCKREPETAG
1070
     1
1071
      188
1005
126E69
  0
LINE
  5
126E6A
  8
OBJECT
 10
12042.20189569202
 20
-137.99999999999909
 30
0.0
 11
12080.0
 21
-137.99999999999909
 31
0.0
1001
ACDBBLOCKREPETAG
1070
     1
1071
      192
1005
126E6A
  0
LINE
  5
126E6B
  8
OBJECT
 10
12042.20189569202
 20
-261.99999999999909
 30
0.0
 11
12080.0
 21
-261.99999999999909
 31
0.0
1001
ACDBBLOCKREPETAG
1070
     1
1071
      193
1005
126E6B
  0
ARC
  5
126E6C
  8
OBJECT
 10
12000.0
 20
-199.99999999999909
 30
0.0
 40
85.0
 50
46.837102859853147
 51
313.16289714014681
1001
ACDBBLOCKREPETAG
1070
     1
1071
      202
1005
126E6C
  0
POINT
  5
126E6D
  8
DOTS
 10
12000.0
 20
-199.99999999999909
 30
0.0
 50
270.0
1001
ACDBBLOCKREPETAG
1070
     1
1071
      365
1005
126E6D
  0
CIRCLE
  5
126E6E
  8
OBJECT
 10
12000.0
 20
-199.99999999999909
 30
0.0
 40
63.0
1001
ACDBBLOCKREPETAG
1070
     1
1071
      430
1005
126E6E
  0
CIRCLE
  5
126E6F
  8
OBJECT
 10
12000.0
 20
-199.99999999999909
 30
0.0
 40
75.0
1001
ACDBBLOCKREPETAG
1070
     1
1071
      431
1005
126E6F
  0
LINE
  5
126E70
  8
OBJECT
 10
12200.0
 20
-124.9999999999991
 30
0.0
 11
12193.0
 21
-124.9999999999991
 31
0.0
1001
ACDBBLOCKREPETAG
1070
     1
1071
      135
1005
126E70
  0
LINE
  5
126E71
  8
OBJECT
 10
12193.0
 20
-124.9999999999991
 30
0.0
 11
12193.0
 21
-274.99999999999909
 31
0.0
1001
ACDBBLOCKREPETAG
1070
     1
1071
      136
1005
126E71
  0
LINE
  5
126E72
  8
OBJECT
 10
12151.5
 20
-127.9999999999991
 30
0.0
 11
12151.5
 21
-271.99999999999909
 31
0.0
1001
ACDBBLOCKREPETAG
1070
     1
1071
      137
1005
126E72
  0
LINE
  5
126E73
  8
OBJECT
 10
12140.0
 20
-134.49999999999909
 30
0.0
 11
12140.0
 21
-265.49999999999909
 31
0.0
1001
ACDBBLOCKREPETAG
1070
     1
1071
      138
1005
126E73
  0
LINE
  5
126E74
  8
OBJECT
 10
12193.0
 20
-274.99999999999909
 30
0.0
 11
12200.0
 21
-274.99999999999909
 31
0.0
1001
ACDBBLOCKREPETAG
1070
     1
1071
      139
1005
126E74
  0
LINE
  5
126E75
  8
OBJECT
 10
12200.0
 20
-274.99999999999909
 30
0.0
 11
12200.0
 21
-124.9999999999991
 31
0.0
1001
ACDBBLOCKREPETAG
1070
     1
1071
      140
1005
126E75
  0
LINE
  5
126E76
  8
HIDDEN
 10
12148.0
 20
-256.99999999999909
 30
0.0
 11
12148.0
 21
-142.99999999999909
 31
0.0
1001
ACDBBLOCKREPETAG
1070
     1
1071
      141
1005
126E76
  0
LINE
  5
126E77
  8
CENTER
 10
12215.0
 20
-199.99999999999909
 30
0.0
 11
12080.0
 21
-199.99999999999909
 31
0.0
1001
ACDBBLOCKREPETAG
1070
     1
1071
      142
1005
126E77
  0
LINE
  5
126E78
  8
OBJECT
 10
12136.0
 20
-261.99999999999909
 30
0.0
 11
12080.0
 21
-261.99999999999909
 31
0.0
1001
ACDBBLOCKREPETAG
1070
     1
1071
      143
1005
126E78
  0
LINE
  5
126E79
  8
OBJECT
 10
12193.0
 20
-271.99999999999909
 30
0.0
 11
12151.5
 21
-271.99999999999909
 31
0.0
1001
ACDBBLOCKREPETAG
1070
     1
1071
      144
1005
126E79
  0
LINE
  5
126E7A
  8
OBJECT
 10
12151.5
 20
-271.99999999999909
 30
0.0
 11
12140.0
 21
-265.49999999999909
 31
0.0
1001
ACDBBLOCKREPETAG
1070
     1
1071
      145
1005
126E7A
  0
LINE
  5
126E7B
  8
OBJECT
 10
12140.0
 20
-265.49999999999909
 30
0.0
 11
12136.0
 21
-261.99999999999909
 31
0.0
1001
ACDBBLOCKREPETAG
1070
     1
1071
      146
1005
126E7B
  0
LINE
  5
126E7C
  8
OBJECT
 10
12151.5
 20
-127.9999999999991
 30
0.0
 11
12140.0
 21
-134.49999999999909
 31
0.0
1001
ACDBBLOCKREPETAG
1070
     1
1071
      147
1005
126E7C
  0
LINE
  5
126E7D
  8
OBJECT
 10
12140.0
 20
-134.49999999999909
 30
0.0
 11
12136.0
 21
-137.99999999999909
 31
0.0
1001
ACDBBLOCKREPETAG
1070
     1
1071
      148
1005
126E7D
  0
ARC
  5
126E7E
  8
OBJECT
 10
12517.9
 20
-199.99999999999909
 30
0.0
 40
386.89999999999998
 50
170.77870136258679
 51
189.22129863741321
1001
ACDBBLOCKREPETAG
1070
     1
1071
      149
1005
126E7E
  0
LINE
  5
126E7F
  8
OBJECT
 10
12136.0
 20
-137.99999999999909
 30
0.0
 11
12080.0
 21
-137.99999999999909
 31
0.0
1001
ACDBBLOCKREPETAG
1070
     1
1071
      150
1005
126E7F
  0
LINE
  5
126E80
  8
OBJECT
 10
12193.0
 20
-127.9999999999991
 30
0.0
 11
12151.5
 21
-127.9999999999991
 31
0.0
1001
ACDBBLOCKREPETAG
1070
     1
1071
      151
1005
126E80
  0
ARC
  5
126E81
  8
OBJECT
 10
13662.33642381099
 20
-199.99999999999909
 30
0.0
 40
1545.58047021477
 50
177.70099855412801
 51
182.29900144587191
1001
ACDBBLOCKREPETAG
1070
     1
1071
      153
1005
126E81
  0
ARC
  5
126E82
  8
OBJECT
 10
13632.336423810861
 20
-199.99999999999909
 30
0.0
 40
1545.580470214647
 50
177.70099855412801
 51
182.29900144587191
1001
ACDBBLOCKREPETAG
1070
     1
1071
      154
1005
126E82
  0
LINE
  5
126E83
  8
SLIM
 10
9927.3018300565236
 20
-155.95484036957691
 30
0.0
 11
9955.9548403695771
 21
-127.30183005652231
 31
0.0
1001
GRADIENTCOLOR1ACI
1070
     5
1001
GRADIENTCOLOR2ACI
1070
     2
1001
ACAD
1010
0.0
1020
0.0
1030
0.0
1001
ACDBBLOCKREPETAG
1070
     1
1071
      499
1005
126E83
  0
LINE
  5
126E84
  8
SLIM
 10
9919.4861520708382
 20
-172.75077447633191
 30
0.0
 11
9972.7507744763316
 21
-119.4861520708364
 31
0.0
1001
GRADIENTCOLOR1ACI
1070
     5
1001
GRADIENTCOLOR2ACI
1070
     2
1001
ACAD
1010
0.0
1020
0.0
1030
0.0
1001
ACDBBLOCKREPETAG
1070
     1
1071
      454
1005
126E84
  0
LINE
  5
126E85
  8
SLIM
 10
9916.3596679933817
 20
-184.8575146748604
 30
0.0
 11
9931.2956746719483
 21
-169.92150799629059
 31
0.0
1001
GRADIENTCOLOR1ACI
1070
     5
1001
GRADIENTCOLOR2ACI
1070
     2
1001
ACAD
1010
0.0
1020
0.0
1030
0.0
1001
ACDBBLOCKREPETAG
1070
     1
1071
      455
1005
126E85
  0
LINE
  5
126E86
  8
SLIM
 10
9969.9215079962923
 20
-131.2956746719467
 30
0.0
 11
9984.8575146748644
 21
-116.359667993377
 31
0.0
1001
GRADIENTCOLOR1ACI
1070
     5
1001
GRADIENTCOLOR2ACI
1070
     2
1001
ACAD
1010
0.0
1020
0.0
1030
0.0
1001
ACDBBLOCKREPETAG
1070
     1
1071
      456
1005
126E86
  0
LINE
  5
126E87
  8
SLIM
 10
9915.1440575890538
 20
-195.0533812002549
 30
0.0
 11
9926.8786024565543
 21
-183.3188363327526
 31
0.0
1001
GRADIENTCOLOR1ACI
1070
     5
1001
GRADIENTCOLOR2ACI
1070
     2
1001
ACAD
1010
0.0
1020
0.0
1030
0.0
1001
ACDBBLOCKREPETAG
1070
     1
1071
      457
1005
126E87
  0
LINE
  5
126E88
  8
SLIM
 10
9983.3188363327517
 20
-126.87860245655401
 30
0.0
 11
9995.0533812002577
 21
-115.1440575890517
 31
0.0
1001
GRADIENTCOLOR1ACI
1070
     5
1001
GRADIENTCOLOR2ACI
1070
     2
1001
ACAD
1010
0.0
1020
0.0
1030
0.0
1001
ACDBBLOCKREPETAG
1070
     1
1071
      458
1005
126E88
  0
LINE
  5
126E89
  8
SLIM
 10
9915.0979635574713
 20
-204.07973135290339
 30
0.0
 11
9919.1776949103787
 21
-199.99999999999909
 31
0.0
1001
GRADIENTCOLOR1ACI
1070
     5
1001
GRADIENTCOLOR2ACI
1070
     2
1001
ACAD
1010
0.0
1020
0.0
1030
0.0
1001
ACDBBLOCKREPETAG
1070
     1
1071
      459
1005
126E89
  0
LINE
  5
126E8A
  8
SLIM
 10
10000.0
 20
-119.1776949103767
 30
0.0
 11
10004.0797313529
 21
-115.0979635574723
 31
0.0
1001
GRADIENTCOLOR1ACI
1070
     5
1001
GRADIENTCOLOR2ACI
1070
     2
1001
ACAD
1010
0.0
1020
0.0
1030
0.0
1001
ACDBBLOCKREPETAG
1070
     1
1071
      460
1005
126E8A
  0
LINE
  5
126E8B
  8
SLIM
 10
9919.1776949103787
 20
-199.99999999999909
 30
0.0
 11
9925.2458896617809
 21
-193.93180524859881
 31
0.0
1001
GRADIENTCOLOR1ACI
1070
     5
1001
GRADIENTCOLOR2ACI
1070
     2
1001
ACAD
1010
0.0
1020
0.0
1030
0.0
1001
ACDBBLOCKREPETAG
1070
     1
1071
      461
1005
126E8B
  0
LINE
  5
126E8C
  8
SLIM
 10
9993.9318052485996
 20
-125.245889661777
 30
0.0
 11
10000.0
 21
-119.1776949103767
 31
0.0
1001
GRADIENTCOLOR1ACI
1070
     5
1001
GRADIENTCOLOR2ACI
1070
     2
1001
ACAD
1010
0.0
1020
0.0
1030
0.0
1001
ACDBBLOCKREPETAG
1070
     1
1071
      462
1005
126E8C
  0
LINE
  5
126E8D
  8
SLIM
 10
9915.8899726208747
 20
-212.26797841057399
 30
0.0
 11
9925.0638502435977
 21
-203.09410078785251
 31
0.0
1001
GRADIENTCOLOR1ACI
1070
     5
1001
GRADIENTCOLOR2ACI
1070
     2
1001
ACAD
1010
0.0
1020
0.0
1030
0.0
1001
ACDBBLOCKREPETAG
1070
     1
1071
      463
1005
126E8D
  0
LINE
  5
126E8E
  8
SLIM
 10
10003.09410078785
 20
-125.0638502435924
 30
0.0
 11
10012.26797841056
 21
-115.88997262087101
 31
0.0
1001
GRADIENTCOLOR1ACI
1070
     5
1001
GRADIENTCOLOR2ACI
1070
     2
1001
ACAD
1010
0.0
1020
0.0
1030
0.0
1001
ACDBBLOCKREPETAG
1070
     1
1071
      464
1005
126E8E
  0
LINE
  5
126E8F
  8
SLIM
 10
9917.3382656951544
 20
-219.79994145736151
 30
0.0
 11
9925.8537813838666
 21
-211.28442576865081
 31
0.0
1001
GRADIENTCOLOR1ACI
1070
     5
1001
GRADIENTCOLOR2ACI
1070
     2
1001
ACAD
1010
0.0
1020
0.0
1030
0.0
1001
ACDBBLOCKREPETAG
1070
     1
1071
      465
1005
126E8F
  0
LINE
  5
126E90
  8
SLIM
 10
10011.28442576865
 20
-125.85378138386341
 30
0.0
 11
10019.799941457361
 21
-117.3382656951526
 31
0.0
1001
GRADIENTCOLOR1ACI
1070
     5
1001
GRADIENTCOLOR2ACI
1070
     2
1001
ACAD
1010
0.0
1020
0.0
1030
0.0
1001
ACDBBLOCKREPETAG
1070
     1
1071
      466
1005
126E90
  0
LINE
  5
126E91
  8
SLIM
 10
9919.3312594063045
 20
-226.78720386727881
 30
0.0
 11
9927.3788748080642
 21
-218.7395884655206
 31
0.0
1001
GRADIENTCOLOR1ACI
1070
     5
1001
GRADIENTCOLOR2ACI
1070
     2
1001
ACAD
1010
0.0
1020
0.0
1030
0.0
1001
ACDBBLOCKREPETAG
1070
     1
1071
      467
1005
126E91
  0
LINE
  5
126E92
  8
SLIM
 10
10018.73958846552
 20
-127.3788748080627
 30
0.0
 11
10026.787203867279
 21
-119.3312594063044
 31
0.0
1001
GRADIENTCOLOR1ACI
1070
     5
1001
GRADIENTCOLOR2ACI
1070
     2
1001
ACAD
1010
0.0
1020
0.0
1030
0.0
1001
ACDBBLOCKREPETAG
1070
     1
1071
      468
1005
126E92
  0
LINE
  5
126E93
  8
SLIM
 10
9921.7957163186184
 20
-233.30300307603289
 30
0.0
 11
9929.5028327676973
 21
-225.5958866269597
 31
0.0
1001
GRADIENTCOLOR1ACI
1070
     5
1001
GRADIENTCOLOR2ACI
1070
     2
1001
ACAD
1010
0.0
1020
0.0
1030
0.0
1001
ACDBBLOCKREPETAG
1070
     1
1071
      469
1005
126E93
  0
LINE
  5
126E94
  8
SLIM
 10
10025.595886626959
 20
-129.50283276769261
 30
0.0
 11
10033.303003076029
 21
-121.7957163186195
 31
0.0
1001
GRADIENTCOLOR1ACI
1070
     5
1001
GRADIENTCOLOR2ACI
1070
     2
1001
ACAD
1010
0.0
1020
0.0
1030
0.0
1001
ACDBBLOCKREPETAG
1070
     1
1071
      470
1005
126E94
  0
LINE
  5
126E95
  8
SLIM
 10
9924.6816635313444
 20
-239.39731198437761
 30
0.0
 11
9932.1403895696185
 21
-231.93858594610461
 31
0.0
1001
GRADIENTCOLOR1ACI
1070
     5
1001
GRADIENTCOLOR2ACI
1070
     2
1001
ACAD
1010
0.0
1020
0.0
1030
0.0
1001
ACDBBLOCKREPETAG
1070
     1
1071
      471
1005
126E95
  0
LINE
  5
126E96
  8
SLIM
 10
10031.9385859461
 20
-132.1403895696169
 30
0.0
 11
10039.39731198437
 21
-124.681663531344
 31
0.0
1001
GRADIENTCOLOR1ACI
1070
     5
1001
GRADIENTCOLOR2ACI
1070
     2
1001
ACAD
1010
0.0
1020
0.0
1030
0.0
1001
ACDBBLOCKREPETAG
1070
     1
1071
      472
1005
126E96
  0
LINE
  5
126E97
  8
SLIM
 10
9927.9544611024248
 20
-245.10477053436691
 30
0.0
 11
9935.235866199173
 21
-237.8233654376229
 31
0.0
1001
GRADIENTCOLOR1ACI
1070
     5
1001
GRADIENTCOLOR2ACI
1070
     2
1001
ACAD
1010
0.0
1020
0.0
1030
0.0
1001
ACDBBLOCKREPETAG
1070
     1
1071
      473
1005
126E97
  0
LINE
  5
126E98
  8
SLIM
 10
10037.82336543762
 20
-135.2358661991679
 30
0.0
 11
10045.104770534361
 21
-127.95446110242381
 31
0.0
1001
GRADIENTCOLOR1ACI
1070
     5
1001
GRADIENTCOLOR2ACI
1070
     2
1001
ACAD
1010
0.0
1020
0.0
1030
0.0
1001
ACDBBLOCKREPETAG
1070
     1
1071
      474
1005
126E98
  0
LINE
  5
126E99
  8
SLIM
 10
9931.5903319686659
 20
-250.4491557891954
 30
0.0
 11
9938.7525935835529
 21
-243.2868941743115
 31
0.0
1001
GRADIENTCOLOR1ACI
1070
     5
1001
GRADIENTCOLOR2ACI
1070
     2
1001
ACAD
1010
0.0
1020
0.0
1030
0.0
1001
ACDBBLOCKREPETAG
1070
     1
1071
      475
1005
126E99
  0
LINE
  5
126E9A
  8
SLIM
 10
10044.03948775786
 20
-137.99999999999909
 30
0.0
 11
10050.449155789191
 21
-131.59033196866449
 31
0.0
1001
GRADIENTCOLOR1ACI
1070
     5
1001
GRADIENTCOLOR2ACI
1070
     2
1001
ACAD
1010
0.0
1020
0.0
1030
0.0
1001
ACDBBLOCKREPETAG
1070
     1
1071
      476
1005
126E9A
  0
LINE
  5
126E9B
  8
SLIM
 10
9935.5737496925303
 20
-255.4459941864034
 30
0.0
 11
9942.6672873130483
 21
-248.35245656588111
 31
0.0
1001
GRADIENTCOLOR1ACI
1070
     5
1001
GRADIENTCOLOR2ACI
1070
     2
1001
ACAD
1010
0.0
1020
0.0
1030
0.0
1001
ACDBBLOCKREPETAG
1070
     1
1071
      477
1005
126E9B
  0
LINE
  5
126E9C
  8
SLIM
 10
10053.019743878929
 20
-137.99999999999909
 30
0.0
 11
10055.445994186401
 21
-135.57374969252561
 31
0.0
1001
GRADIENTCOLOR1ACI
1070
     5
1001
GRADIENTCOLOR2ACI
1070
     2
1001
ACAD
1010
0.0
1020
0.0
1030
0.0
1001
ACDBBLOCKREPETAG
1070
     1
1071
      478
1005
126E9C
  0
LINE
  5
126E9D
  8
SLIM
 10
9939.8959235991442
 20
-260.10407640085572
 30
0.0
 11
9946.9669914110091
 21
-253.03300858899021
 31
0.0
1001
GRADIENTCOLOR1ACI
1070
     5
1001
GRADIENTCOLOR2ACI
1070
     2
1001
ACAD
1010
0.0
1020
0.0
1030
0.0
1001
ACDBBLOCKREPETAG
1070
     1
1071
      479
1005
126E9D
  0
LINE
  5
126E9E
  8
SLIM
 10
9944.5540058135957
 20
-264.4262503074724
 30
0.0
 11
9951.6475434341155
 21
-257.33271268695029
 31
0.0
1001
GRADIENTCOLOR1ACI
1070
     5
1001
GRADIENTCOLOR2ACI
1070
     2
1001
ACAD
1010
0.0
1020
0.0
1030
0.0
1001
ACDBBLOCKREPETAG
1070
     1
1071
      480
1005
126E9E
  0
LINE
  5
126E9F
  8
SLIM
 10
9949.5508442108039
 20
-268.40966803133369
 30
0.0
 11
9956.7131058256891
 21
-261.24740641644968
 31
0.0
1001
GRADIENTCOLOR1ACI
1070
     5
1001
GRADIENTCOLOR2ACI
1070
     2
1001
ACAD
1010
0.0
1020
0.0
1030
0.0
1001
ACDBBLOCKREPETAG
1070
     1
1071
      481
1005
126E9F
  0
LINE
  5
126EA0
  8
SLIM
 10
9954.8952294656337
 20
-272.04553889757432
 30
0.0
 11
9962.1766345623746
 21
-264.76413380083028
 31
0.0
1001
GRADIENTCOLOR1ACI
1070
     5
1001
GRADIENTCOLOR2ACI
1070
     2
1001
ACAD
1010
0.0
1020
0.0
1030
0.0
1001
ACDBBLOCKREPETAG
1070
     1
1071
      482
1005
126EA0
  0
LINE
  5
126EA1
  8
SLIM
 10
9960.6026880156223
 20
-275.31833646865419
 30
0.0
 11
9968.0614140538946
 21
-267.85961043038128
 31
0.0
1001
GRADIENTCOLOR1ACI
1070
     5
1001
GRADIENTCOLOR2ACI
1070
     2
1001
ACAD
1010
0.0
1020
0.0
1030
0.0
1001
ACDBBLOCKREPETAG
1070
     1
1071
      483
1005
126EA1
  0
LINE
  5
126EA2
  8
SLIM
 10
9966.6969969239635
 20
-278.20428368137863
 30
0.0
 11
9974.4041133730407
 21
-270.49716723230551
 31
0.0
1001
GRADIENTCOLOR1ACI
1070
     5
1001
GRADIENTCOLOR2ACI
1070
     2
1001
ACAD
1010
0.0
1020
0.0
1030
0.0
1001
ACDBBLOCKREPETAG
1070
     1
1071
      484
1005
126EA2
  0
LINE
  5
126EA3
  8
SLIM
 10
9973.2127961327205
 20
-280.66874059369371
 30
0.0
 11
9981.2604115344784
 21
-272.6211251919355
 31
0.0
1001
GRADIENTCOLOR1ACI
1070
     5
1001
GRADIENTCOLOR2ACI
1070
     2
1001
ACAD
1010
0.0
1020
0.0
1030
0.0
1001
ACDBBLOCKREPETAG
1070
     1
1071
      485
1005
126EA3
  0
LINE
  5
126EA4
  8
SLIM
 10
9980.2000585426413
 20
-282.66173430484548
 30
0.0
 11
9988.7155742313498
 21
-274.14621861613477
 31
0.0
1001
GRADIENTCOLOR1ACI
1070
     5
1001
GRADIENTCOLOR2ACI
1070
     2
1001
ACAD
1010
0.0
1020
0.0
1030
0.0
1001
ACDBBLOCKREPETAG
1070
     1
1071
      486
1005
126EA4
  0
LINE
  5
126EA5
  8
SLIM
 10
9987.7320215894215
 20
-284.11002737912702
 30
0.0
 11
9996.9058992121463
 21
-274.93614975640583
 31
0.0
1001
GRADIENTCOLOR1ACI
1070
     5
1001
GRADIENTCOLOR2ACI
1070
     2
1001
ACAD
1010
0.0
1020
0.0
1030
0.0
1001
ACDBBLOCKREPETAG
1070
     1
1071
      487
1005
126EA5
  0
LINE
  5
126EA6
  8
SLIM
 10
9995.9202686470962
 20
-284.90203644252568
 30
0.0
 11
10000.0
 21
-280.82230508962152
 31
0.0
1001
GRADIENTCOLOR1ACI
1070
     5
1001
GRADIENTCOLOR2ACI
1070
     2
1001
ACAD
1010
0.0
1020
0.0
1030
0.0
1001
ACDBBLOCKREPETAG
1070
     1
1071
      488
1005
126EA6
  0
LINE
  5
126EA7
  8
SLIM
 10
10000.0
 20
-280.82230508962152
 30
0.0
 11
10006.0681947514
 21
-274.75411033822121
 31
0.0
1001
GRADIENTCOLOR1ACI
1070
     5
1001
GRADIENTCOLOR2ACI
1070
     2
1001
ACAD
1010
0.0
1020
0.0
1030
0.0
1001
ACDBBLOCKREPETAG
1070
     1
1071
      489
1005
126EA7
  0
LINE
  5
126EA8
  8
SLIM
 10
10004.94661879974
 20
-284.85594241094651
 30
0.0
 11
10016.681163667239
 21
-273.12139754344412
 31
0.0
1001
GRADIENTCOLOR1ACI
1070
     5
1001
GRADIENTCOLOR2ACI
1070
     2
1001
ACAD
1010
0.0
1020
0.0
1030
0.0
1001
ACDBBLOCKREPETAG
1070
     1
1071
      490
1005
126EA8
  0
LINE
  5
126EA9
  8
SLIM
 10
10015.142485325139
 20
-283.64033200662112
 30
0.0
 11
10030.078492003709
 21
-268.70432532805143
 31
0.0
1001
GRADIENTCOLOR1ACI
1070
     5
1001
GRADIENTCOLOR2ACI
1070
     2
1001
ACAD
1010
0.0
1020
0.0
1030
0.0
1001
ACDBBLOCKREPETAG
1070
     1
1071
      491
1005
126EA9
  0
LINE
  5
126EAA
  8
SLIM
 10
10027.249225523659
 20
-280.51384792916173
 30
0.0
 11
10045.76307345283
 21
-261.99999999999909
 31
0.0
1001
GRADIENTCOLOR1ACI
1070
     5
1001
GRADIENTCOLOR2ACI
1070
     2
1001
ACAD
1010
0.0
1020
0.0
1030
0.0
1001
ACDBBLOCKREPETAG
1070
     1
1071
      492
1005
126EAA
  0
LINE
  5
126EAB
  8
SLIM
 10
10044.045159630419
 20
-272.69816994347582
 30
0.0
 11
10054.743329573899
 21
-261.99999999999909
 31
0.0
1001
GRADIENTCOLOR1ACI
1070
     5
1001
GRADIENTCOLOR2ACI
1070
     2
1001
ACAD
1010
0.0
1020
0.0
1030
0.0
1001
ACDBBLOCKREPETAG
1070
     1
1071
      493
1005
126EAB
  0
LINE
  5
126EAC
  8
CENTER
 10
10080.0
 20
-199.99999999999909
 30
0.0
 11
9900.0
 21
-199.99999999999909
 31
0.0
1001
ACDBBLOCKREPETAG
1070
     1
1071
      187
1005
126EAC
  0
LINE
  5
126EAD
  8
CENTER
 10
10000.0
 20
-299.99999999999898
 30
0.0
 11
10000.0
 21
-99.999999999999091
 31
0.0
1001
ACDBBLOCKREPETAG
1070
     1
1071
      188
1005
126EAD
  0
LINE
  5
126EAE
  8
OBJECT
 10
10042.20189569202
 20
-137.99999999999909
 30
0.0
 11
10080.0
 21
-137.99999999999909
 31
0.0
1001
ACDBBLOCKREPETAG
1070
     1
1071
      192
1005
126EAE
  0
LINE
  5
126EAF
  8
OBJECT
 10
10042.20189569202
 20
-261.99999999999909
 30
0.0
 11
10080.0
 21
-261.99999999999909
 31
0.0
1001
ACDBBLOCKREPETAG
1070
     1
1071
      193
1005
126EAF
  0
ARC
  5
126EB0
  8
OBJECT
 10
10000.0
 20
-199.99999999999909
 30
0.0
 40
85.0
 50
46.837102859853147
 51
313.16289714014681
1001
ACDBBLOCKREPETAG
1070
     1
1071
      202
1005
126EB0
  0
POINT
  5
126EB1
  8
DOTS
 10
10000.0
 20
-199.99999999999909
 30
0.0
 50
270.0
1001
ACDBBLOCKREPETAG
1070
     1
1071
      365
1005
126EB1
  0
CIRCLE
  5
126EB2
  8
OBJECT
 10
10000.0
 20
-199.99999999999909
 30
0.0
 40
63.0
1001
ACDBBLOCKREPETAG
1070
     1
1071
      430
1005
126EB2
  0
CIRCLE
  5
126EB3
  8
OBJECT
 10
10000.0
 20
-199.99999999999909
 30
0.0
 40
75.0
1001
ACDBBLOCKREPETAG
1070
     1
1071
      431
1005
126EB3
  0
LINE
  5
126EB4
  8
OBJECT
 10
10200.0
 20
-124.9999999999991
 30
0.0
 11
10193.0
 21
-124.9999999999991
 31
0.0
1001
ACDBBLOCKREPETAG
1070
     1
1071
      135
1005
126EB4
  0
LINE
  5
126EB5
  8
OBJECT
 10
10193.0
 20
-124.9999999999991
 30
0.0
 11
10193.0
 21
-274.99999999999909
 31
0.0
1001
ACDBBLOCKREPETAG
1070
     1
1071
      136
1005
126EB5
  0
LINE
  5
126EB6
  8
OBJECT
 10
10151.5
 20
-127.9999999999991
 30
0.0
 11
10151.5
 21
-271.99999999999909
 31
0.0
1001
ACDBBLOCKREPETAG
1070
     1
1071
      137
1005
126EB6
  0
LINE
  5
126EB7
  8
OBJECT
 10
10140.0
 20
-134.49999999999909
 30
0.0
 11
10140.0
 21
-265.49999999999909
 31
0.0
1001
ACDBBLOCKREPETAG
1070
     1
1071
      138
1005
126EB7
  0
LINE
  5
126EB8
  8
OBJECT
 10
10193.0
 20
-274.99999999999909
 30
0.0
 11
10200.0
 21
-274.99999999999909
 31
0.0
1001
ACDBBLOCKREPETAG
1070
     1
1071
      139
1005
126EB8
  0
LINE
  5
126EB9
  8
OBJECT
 10
10200.0
 20
-274.99999999999909
 30
0.0
 11
10200.0
 21
-124.9999999999991
 31
0.0
1001
ACDBBLOCKREPETAG
1070
     1
1071
      140
1005
126EB9
  0
LINE
  5
126EBA
  8
HIDDEN
 10
10148.0
 20
-256.99999999999909
 30
0.0
 11
10148.0
 21
-142.99999999999909
 31
0.0
1001
ACDBBLOCKREPETAG
1070
     1
1071
      141
1005
126EBA
  0
LINE
  5
126EBB
  8
CENTER
 10
10215.0
 20
-199.99999999999909
 30
0.0
 11
10080.0
 21
-199.99999999999909
 31
0.0
1001
ACDBBLOCKREPETAG
1070
     1
1071
      142
1005
126EBB
  0
LINE
  5
126EBC
  8
OBJECT
 10
10136.0
 20
-261.99999999999909
 30
0.0
 11
10080.0
 21
-261.99999999999909
 31
0.0
1001
ACDBBLOCKREPETAG
1070
     1
1071
      143
1005
126EBC
  0
LINE
  5
126EBD
  8
OBJECT
 10
10193.0
 20
-271.99999999999909
 30
0.0
 11
10151.5
 21
-271.99999999999909
 31
0.0
1001
ACDBBLOCKREPETAG
1070
     1
1071
      144
1005
126EBD
  0
LINE
  5
126EBE
  8
OBJECT
 10
10151.5
 20
-271.99999999999909
 30
0.0
 11
10140.0
 21
-265.49999999999909
 31
0.0
1001
ACDBBLOCKREPETAG
1070
     1
1071
      145
1005
126EBE
  0
LINE
  5
126EBF
  8
OBJECT
 10
10140.0
 20
-265.49999999999909
 30
0.0
 11
10136.0
 21
-261.99999999999909
 31
0.0
1001
ACDBBLOCKREPETAG
1070
     1
1071
      146
1005
126EBF
  0
LINE
  5
126EC0
  8
OBJECT
 10
10151.5
 20
-127.9999999999991
 30
0.0
 11
10140.0
 21
-134.49999999999909
 31
0.0
1001
ACDBBLOCKREPETAG
1070
     1
1071
      147
1005
126EC0
  0
LINE
  5
126EC1
  8
OBJECT
 10
10140.0
 20
-134.49999999999909
 30
0.0
 11
10136.0
 21
-137.99999999999909
 31
0.0
1001
ACDBBLOCKREPETAG
1070
     1
1071
      148
1005
126EC1
  0
ARC
  5
126EC2
  8
OBJECT
 10
10517.9
 20
-199.99999999999909
 30
0.0
 40
386.89999999999998
 50
170.77870136258679
 51
189.22129863741321
1001
ACDBBLOCKREPETAG
1070
     1
1071
      149
1005
126EC2
  0
LINE
  5
126EC3
  8
OBJECT
 10
10136.0
 20
-137.99999999999909
 30
0.0
 11
10080.0
 21
-137.99999999999909
 31
0.0
1001
ACDBBLOCKREPETAG
1070
     1
1071
      150
1005
126EC3
  0
LINE
  5
126EC4
  8
OBJECT
 10
10193.0
 20
-127.9999999999991
 30
0.0
 11
10151.5
 21
-127.9999999999991
 31
0.0
1001
ACDBBLOCKREPETAG
1070
     1
1071
      151
1005
126EC4
  0
ARC
  5
126EC5
  8
OBJECT
 10
11662.33642381099
 20
-199.99999999999909
 30
0.0
 40
1545.58047021477
 50
177.70099855412801
 51
182.29900144587191
1001
ACDBBLOCKREPETAG
1070
     1
1071
      153
1005
126EC5
  0
ARC
  5
126EC6
  8
OBJECT
 10
11632.336423810861
 20
-199.99999999999909
 30
0.0
 40
1545.580470214647
 50
177.70099855412801
 51
182.29900144587191
1001
ACDBBLOCKREPETAG
1070
     1
1071
      154
1005
126EC6
  0
LINE
  5
126EC7
  8
SLIM
 10
7927.3018300565236
 20
-155.95484036957691
 30
0.0
 11
7955.9548403695781
 21
-127.30183005652231
 31
0.0
1001
GRADIENTCOLOR1ACI
1070
     5
1001
GRADIENTCOLOR2ACI
1070
     2
1001
ACAD
1010
0.0
1020
0.0
1030
0.0
1001
ACDBBLOCKREPETAG
1070
     1
1071
      499
1005
126EC7
  0
LINE
  5
126EC8
  8
SLIM
 10
7919.4861520708373
 20
-172.75077447633191
 30
0.0
 11
7972.7507744763334
 21
-119.4861520708364
 31
0.0
1001
GRADIENTCOLOR1ACI
1070
     5
1001
GRADIENTCOLOR2ACI
1070
     2
1001
ACAD
1010
0.0
1020
0.0
1030
0.0
1001
ACDBBLOCKREPETAG
1070
     1
1071
      454
1005
126EC8
  0
LINE
  5
126EC9
  8
SLIM
 10
7916.3596679933771
 20
-184.8575146748604
 30
0.0
 11
7931.2956746719492
 21
-169.92150799629059
 31
0.0
1001
GRADIENTCOLOR1ACI
1070
     5
1001
GRADIENTCOLOR2ACI
1070
     2
1001
ACAD
1010
0.0
1020
0.0
1030
0.0
1001
ACDBBLOCKREPETAG
1070
     1
1071
      455
1005
126EC9
  0
LINE
  5
126ECA
  8
SLIM
 10
7969.9215079962914
 20
-131.2956746719467
 30
0.0
 11
7984.8575146748608
 21
-116.359667993377
 31
0.0
1001
GRADIENTCOLOR1ACI
1070
     5
1001
GRADIENTCOLOR2ACI
1070
     2
1001
ACAD
1010
0.0
1020
0.0
1030
0.0
1001
ACDBBLOCKREPETAG
1070
     1
1071
      456
1005
126ECA
  0
LINE
  5
126ECB
  8
SLIM
 10
7915.1440575890529
 20
-195.0533812002549
 30
0.0
 11
7926.8786024565561
 21
-183.3188363327526
 31
0.0
1001
GRADIENTCOLOR1ACI
1070
     5
1001
GRADIENTCOLOR2ACI
1070
     2
1001
ACAD
1010
0.0
1020
0.0
1030
0.0
1001
ACDBBLOCKREPETAG
1070
     1
1071
      457
1005
126ECB
  0
LINE
  5
126ECC
  8
SLIM
 10
7983.3188363327517
 20
-126.87860245655401
 30
0.0
 11
7995.0533812002559
 21
-115.1440575890517
 31
0.0
1001
GRADIENTCOLOR1ACI
1070
     5
1001
GRADIENTCOLOR2ACI
1070
     2
1001
ACAD
1010
0.0
1020
0.0
1030
0.0
1001
ACDBBLOCKREPETAG
1070
     1
1071
      458
1005
126ECC
  0
LINE
  5
126ECD
  8
SLIM
 10
7915.097963557474
 20
-204.07973135290339
 30
0.0
 11
7919.1776949103778
 21
-199.99999999999909
 31
0.0
1001
GRADIENTCOLOR1ACI
1070
     5
1001
GRADIENTCOLOR2ACI
1070
     2
1001
ACAD
1010
0.0
1020
0.0
1030
0.0
1001
ACDBBLOCKREPETAG
1070
     1
1071
      459
1005
126ECD
  0
LINE
  5
126ECE
  8
SLIM
 10
8000.0
 20
-119.1776949103767
 30
0.0
 11
8004.0797313529074
 21
-115.0979635574723
 31
0.0
1001
GRADIENTCOLOR1ACI
1070
     5
1001
GRADIENTCOLOR2ACI
1070
     2
1001
ACAD
1010
0.0
1020
0.0
1030
0.0
1001
ACDBBLOCKREPETAG
1070
     1
1071
      460
1005
126ECE
  0
LINE
  5
126ECF
  8
SLIM
 10
7919.1776949103778
 20
-199.99999999999909
 30
0.0
 11
7925.2458896617782
 21
-193.93180524859881
 31
0.0
1001
GRADIENTCOLOR1ACI
1070
     5
1001
GRADIENTCOLOR2ACI
1070
     2
1001
ACAD
1010
0.0
1020
0.0
1030
0.0
1001
ACDBBLOCKREPETAG
1070
     1
1071
      461
1005
126ECF
  0
LINE
  5
126ED0
  8
SLIM
 10
7993.9318052485969
 20
-125.245889661777
 30
0.0
 11
8000.0
 21
-119.1776949103767
 31
0.0
1001
GRADIENTCOLOR1ACI
1070
     5
1001
GRADIENTCOLOR2ACI
1070
     2
1001
ACAD
1010
0.0
1020
0.0
1030
0.0
1001
ACDBBLOCKREPETAG
1070
     1
1071
      462
1005
126ED0
  0
LINE
  5
126ED1
  8
SLIM
 10
7915.889972620871
 20
-212.26797841057399
 30
0.0
 11
7925.063850243595
 21
-203.09410078785251
 31
0.0
1001
GRADIENTCOLOR1ACI
1070
     5
1001
GRADIENTCOLOR2ACI
1070
     2
1001
ACAD
1010
0.0
1020
0.0
1030
0.0
1001
ACDBBLOCKREPETAG
1070
     1
1071
      463
1005
126ED1
  0
LINE
  5
126ED2
  8
SLIM
 10
8003.0941007878528
 20
-125.0638502435924
 30
0.0
 11
8012.2679784105749
 21
-115.88997262087101
 31
0.0
1001
GRADIENTCOLOR1ACI
1070
     5
1001
GRADIENTCOLOR2ACI
1070
     2
1001
ACAD
1010
0.0
1020
0.0
1030
0.0
1001
ACDBBLOCKREPETAG
1070
     1
1071
      464
1005
126ED2
  0
LINE
  5
126ED3
  8
SLIM
 10
7917.3382656951526
 20
-219.79994145736151
 30
0.0
 11
7925.8537813838639
 21
-211.28442576865081
 31
0.0
1001
GRADIENTCOLOR1ACI
1070
     5
1001
GRADIENTCOLOR2ACI
1070
     2
1001
ACAD
1010
0.0
1020
0.0
1030
0.0
1001
ACDBBLOCKREPETAG
1070
     1
1071
      465
1005
126ED3
  0
LINE
  5
126ED4
  8
SLIM
 10
8011.284425768652
 20
-125.85378138386341
 30
0.0
 11
8019.7999414573624
 21
-117.3382656951526
 31
0.0
1001
GRADIENTCOLOR1ACI
1070
     5
1001
GRADIENTCOLOR2ACI
1070
     2
1001
ACAD
1010
0.0
1020
0.0
1030
0.0
1001
ACDBBLOCKREPETAG
1070
     1
1071
      466
1005
126ED4
  0
LINE
  5
126ED5
  8
SLIM
 10
7919.3312594063054
 20
-226.78720386727881
 30
0.0
 11
7927.3788748080624
 21
-218.7395884655206
 31
0.0
1001
GRADIENTCOLOR1ACI
1070
     5
1001
GRADIENTCOLOR2ACI
1070
     2
1001
ACAD
1010
0.0
1020
0.0
1030
0.0
1001
ACDBBLOCKREPETAG
1070
     1
1071
      467
1005
126ED5
  0
LINE
  5
126ED6
  8
SLIM
 10
8018.7395884655189
 20
-127.3788748080627
 30
0.0
 11
8026.7872038672767
 21
-119.3312594063044
 31
0.0
1001
GRADIENTCOLOR1ACI
1070
     5
1001
GRADIENTCOLOR2ACI
1070
     2
1001
ACAD
1010
0.0
1020
0.0
1030
0.0
1001
ACDBBLOCKREPETAG
1070
     1
1071
      468
1005
126ED6
  0
LINE
  5
126ED7
  8
SLIM
 10
7921.7957163186193
 20
-233.30300307603289
 30
0.0
 11
7929.5028327676946
 21
-225.5958866269597
 31
0.0
1001
GRADIENTCOLOR1ACI
1070
     5
1001
GRADIENTCOLOR2ACI
1070
     2
1001
ACAD
1010
0.0
1020
0.0
1030
0.0
1001
ACDBBLOCKREPETAG
1070
     1
1071
      469
1005
126ED7
  0
LINE
  5
126ED8
  8
SLIM
 10
8025.5958866269621
 20
-129.50283276769261
 30
0.0
 11
8033.3030030760328
 21
-121.7957163186195
 31
0.0
1001
GRADIENTCOLOR1ACI
1070
     5
1001
GRADIENTCOLOR2ACI
1070
     2
1001
ACAD
1010
0.0
1020
0.0
1030
0.0
1001
ACDBBLOCKREPETAG
1070
     1
1071
      470
1005
126ED8
  0
LINE
  5
126ED9
  8
SLIM
 10
7924.6816635313462
 20
-239.39731198437761
 30
0.0
 11
7932.1403895696158
 21
-231.93858594610461
 31
0.0
1001
GRADIENTCOLOR1ACI
1070
     5
1001
GRADIENTCOLOR2ACI
1070
     2
1001
ACAD
1010
0.0
1020
0.0
1030
0.0
1001
ACDBBLOCKREPETAG
1070
     1
1071
      471
1005
126ED9
  0
LINE
  5
126EDA
  8
SLIM
 10
8031.9385859461063
 20
-132.1403895696169
 30
0.0
 11
8039.3973119843777
 21
-124.681663531344
 31
0.0
1001
GRADIENTCOLOR1ACI
1070
     5
1001
GRADIENTCOLOR2ACI
1070
     2
1001
ACAD
1010
0.0
1020
0.0
1030
0.0
1001
ACDBBLOCKREPETAG
1070
     1
1071
      472
1005
126EDA
  0
LINE
  5
126EDB
  8
SLIM
 10
7927.9544611024266
 20
-245.10477053436691
 30
0.0
 11
7935.2358661991666
 21
-237.8233654376229
 31
0.0
1001
GRADIENTCOLOR1ACI
1070
     5
1001
GRADIENTCOLOR2ACI
1070
     2
1001
ACAD
1010
0.0
1020
0.0
1030
0.0
1001
ACDBBLOCKREPETAG
1070
     1
1071
      473
1005
126EDB
  0
LINE
  5
126EDC
  8
SLIM
 10
8037.8233654376218
 20
-135.2358661991679
 30
0.0
 11
8045.1047705343699
 21
-127.95446110242381
 31
0.0
1001
GRADIENTCOLOR1ACI
1070
     5
1001
GRADIENTCOLOR2ACI
1070
     2
1001
ACAD
1010
0.0
1020
0.0
1030
0.0
1001
ACDBBLOCKREPETAG
1070
     1
1071
      474
1005
126EDC
  0
LINE
  5
126EDD
  8
SLIM
 10
7931.5903319686649
 20
-250.4491557891954
 30
0.0
 11
7938.7525935835502
 21
-243.2868941743115
 31
0.0
1001
GRADIENTCOLOR1ACI
1070
     5
1001
GRADIENTCOLOR2ACI
1070
     2
1001
ACAD
1010
0.0
1020
0.0
1030
0.0
1001
ACDBBLOCKREPETAG
1070
     1
1071
      475
1005
126EDD
  0
LINE
  5
126EDE
  8
SLIM
 10
8044.0394877578619
 20
-137.99999999999909
 30
0.0
 11
8050.449155789197
 21
-131.59033196866449
 31
0.0
1001
GRADIENTCOLOR1ACI
1070
     5
1001
GRADIENTCOLOR2ACI
1070
     2
1001
ACAD
1010
0.0
1020
0.0
1030
0.0
1001
ACDBBLOCKREPETAG
1070
     1
1071
      476
1005
126EDE
  0
LINE
  5
126EDF
  8
SLIM
 10
7935.5737496925258
 20
-255.4459941864034
 30
0.0
 11
7942.6672873130492
 21
-248.35245656588111
 31
0.0
1001
GRADIENTCOLOR1ACI
1070
     5
1001
GRADIENTCOLOR2ACI
1070
     2
1001
ACAD
1010
0.0
1020
0.0
1030
0.0
1001
ACDBBLOCKREPETAG
1070
     1
1071
      477
1005
126EDF
  0
LINE
  5
126EE0
  8
SLIM
 10
8053.0197438789319
 20
-137.99999999999909
 30
0.0
 11
8055.4459941864034
 21
-135.57374969252561
 31
0.0
1001
GRADIENTCOLOR1ACI
1070
     5
1001
GRADIENTCOLOR2ACI
1070
     2
1001
ACAD
1010
0.0
1020
0.0
1030
0.0
1001
ACDBBLOCKREPETAG
1070
     1
1071
      478
1005
126EE0
  0
LINE
  5
126EE1
  8
SLIM
 10
7939.8959235991442
 20
-260.10407640085572
 30
0.0
 11
7946.9669914110091
 21
-253.03300858899021
 31
0.0
1001
GRADIENTCOLOR1ACI
1070
     5
1001
GRADIENTCOLOR2ACI
1070
     2
1001
ACAD
1010
0.0
1020
0.0
1030
0.0
1001
ACDBBLOCKREPETAG
1070
     1
1071
      479
1005
126EE1
  0
LINE
  5
126EE2
  8
SLIM
 10
7944.5540058135948
 20
-264.4262503074724
 30
0.0
 11
7951.6475434341173
 21
-257.33271268695029
 31
0.0
1001
GRADIENTCOLOR1ACI
1070
     5
1001
GRADIENTCOLOR2ACI
1070
     2
1001
ACAD
1010
0.0
1020
0.0
1030
0.0
1001
ACDBBLOCKREPETAG
1070
     1
1071
      480
1005
126EE2
  0
LINE
  5
126EE3
  8
SLIM
 10
7949.5508442108039
 20
-268.40966803133369
 30
0.0
 11
7956.7131058256891
 21
-261.24740641644968
 31
0.0
1001
GRADIENTCOLOR1ACI
1070
     5
1001
GRADIENTCOLOR2ACI
1070
     2
1001
ACAD
1010
0.0
1020
0.0
1030
0.0
1001
ACDBBLOCKREPETAG
1070
     1
1071
      481
1005
126EE3
  0
LINE
  5
126EE4
  8
SLIM
 10
7954.895229465631
 20
-272.04553889757432
 30
0.0
 11
7962.1766345623791
 21
-264.76413380083028
 31
0.0
1001
GRADIENTCOLOR1ACI
1070
     5
1001
GRADIENTCOLOR2ACI
1070
     2
1001
ACAD
1010
0.0
1020
0.0
1030
0.0
1001
ACDBBLOCKREPETAG
1070
     1
1071
      482
1005
126EE4
  0
LINE
  5
126EE5
  8
SLIM
 10
7960.6026880156223
 20
-275.31833646865419
 30
0.0
 11
7968.0614140538928
 21
-267.85961043038128
 31
0.0
1001
GRADIENTCOLOR1ACI
1070
     5
1001
GRADIENTCOLOR2ACI
1070
     2
1001
ACAD
1010
0.0
1020
0.0
1030
0.0
1001
ACDBBLOCKREPETAG
1070
     1
1071
      483
1005
126EE5
  0
LINE
  5
126EE6
  8
SLIM
 10
7966.6969969239663
 20
-278.20428368137863
 30
0.0
 11
7974.4041133730398
 21
-270.49716723230551
 31
0.0
1001
GRADIENTCOLOR1ACI
1070
     5
1001
GRADIENTCOLOR2ACI
1070
     2
1001
ACAD
1010
0.0
1020
0.0
1030
0.0
1001
ACDBBLOCKREPETAG
1070
     1
1071
      484
1005
126EE6
  0
LINE
  5
126EE7
  8
SLIM
 10
7973.2127961327187
 20
-280.66874059369371
 30
0.0
 11
7981.2604115344784
 21
-272.6211251919355
 31
0.0
1001
GRADIENTCOLOR1ACI
1070
     5
1001
GRADIENTCOLOR2ACI
1070
     2
1001
ACAD
1010
0.0
1020
0.0
1030
0.0
1001
ACDBBLOCKREPETAG
1070
     1
1071
      485
1005
126EE7
  0
LINE
  5
126EE8
  8
SLIM
 10
7980.2000585426395
 20
-282.66173430484548
 30
0.0
 11
7988.715574231348
 21
-274.14621861613477
 31
0.0
1001
GRADIENTCOLOR1ACI
1070
     5
1001
GRADIENTCOLOR2ACI
1070
     2
1001
ACAD
1010
0.0
1020
0.0
1030
0.0
1001
ACDBBLOCKREPETAG
1070
     1
1071
      486
1005
126EE8
  0
LINE
  5
126EE9
  8
SLIM
 10
7987.732021589426
 20
-284.11002737912702
 30
0.0
 11
7996.9058992121463
 21
-274.93614975640583
 31
0.0
1001
GRADIENTCOLOR1ACI
1070
     5
1001
GRADIENTCOLOR2ACI
1070
     2
1001
ACAD
1010
0.0
1020
0.0
1030
0.0
1001
ACDBBLOCKREPETAG
1070
     1
1071
      487
1005
126EE9
  0
LINE
  5
126EEA
  8
SLIM
 10
7995.9202686470962
 20
-284.90203644252568
 30
0.0
 11
8000.0
 21
-280.82230508962152
 31
0.0
1001
GRADIENTCOLOR1ACI
1070
     5
1001
GRADIENTCOLOR2ACI
1070
     2
1001
ACAD
1010
0.0
1020
0.0
1030
0.0
1001
ACDBBLOCKREPETAG
1070
     1
1071
      488
1005
126EEA
  0
LINE
  5
126EEB
  8
SLIM
 10
8000.0
 20
-280.82230508962152
 30
0.0
 11
8006.0681947513976
 21
-274.75411033822121
 31
0.0
1001
GRADIENTCOLOR1ACI
1070
     5
1001
GRADIENTCOLOR2ACI
1070
     2
1001
ACAD
1010
0.0
1020
0.0
1030
0.0
1001
ACDBBLOCKREPETAG
1070
     1
1071
      489
1005
126EEB
  0
LINE
  5
126EEC
  8
SLIM
 10
8004.9466187997441
 20
-284.85594241094651
 30
0.0
 11
8016.6811636672473
 21
-273.12139754344412
 31
0.0
1001
GRADIENTCOLOR1ACI
1070
     5
1001
GRADIENTCOLOR2ACI
1070
     2
1001
ACAD
1010
0.0
1020
0.0
1030
0.0
1001
ACDBBLOCKREPETAG
1070
     1
1071
      490
1005
126EEC
  0
LINE
  5
126EED
  8
SLIM
 10
8015.1424853251401
 20
-283.64033200662112
 30
0.0
 11
8030.0784920037077
 21
-268.70432532805143
 31
0.0
1001
GRADIENTCOLOR1ACI
1070
     5
1001
GRADIENTCOLOR2ACI
1070
     2
1001
ACAD
1010
0.0
1020
0.0
1030
0.0
1001
ACDBBLOCKREPETAG
1070
     1
1071
      491
1005
126EED
  0
LINE
  5
126EEE
  8
SLIM
 10
8027.2492255236657
 20
-280.51384792916173
 30
0.0
 11
8045.7630734528302
 21
-261.99999999999909
 31
0.0
1001
GRADIENTCOLOR1ACI
1070
     5
1001
GRADIENTCOLOR2ACI
1070
     2
1001
ACAD
1010
0.0
1020
0.0
1030
0.0
1001
ACDBBLOCKREPETAG
1070
     1
1071
      492
1005
126EEE
  0
LINE
  5
126EEF
  8
SLIM
 10
8044.045159630421
 20
-272.69816994347582
 30
0.0
 11
8054.7433295739002
 21
-261.99999999999909
 31
0.0
1001
GRADIENTCOLOR1ACI
1070
     5
1001
GRADIENTCOLOR2ACI
1070
     2
1001
ACAD
1010
0.0
1020
0.0
1030
0.0
1001
ACDBBLOCKREPETAG
1070
     1
1071
      493
1005
126EEF
  0
LINE
  5
126EF0
  8
CENTER
 10
8080.0
 20
-199.99999999999909
 30
0.0
 11
7900.0
 21
-199.99999999999909
 31
0.0
1001
ACDBBLOCKREPETAG
1070
     1
1071
      187
1005
126EF0
  0
LINE
  5
126EF1
  8
CENTER
 10
8000.0
 20
-299.99999999999898
 30
0.0
 11
8000.0
 21
-99.999999999999091
 31
0.0
1001
ACDBBLOCKREPETAG
1070
     1
1071
      188
1005
126EF1
  0
LINE
  5
126EF2
  8
OBJECT
 10
8042.2018956920156
 20
-137.99999999999909
 30
0.0
 11
8080.0
 21
-137.99999999999909
 31
0.0
1001
ACDBBLOCKREPETAG
1070
     1
1071
      192
1005
126EF2
  0
LINE
  5
126EF3
  8
OBJECT
 10
8042.2018956920156
 20
-261.99999999999909
 30
0.0
 11
8080.0
 21
-261.99999999999909
 31
0.0
1001
ACDBBLOCKREPETAG
1070
     1
1071
      193
1005
126EF3
  0
ARC
  5
126EF4
  8
OBJECT
 10
8000.0
 20
-199.99999999999909
 30
0.0
 40
85.0
 50
46.83710285981514
 51
313.16289714018478
1001
ACDBBLOCKREPETAG
1070
     1
1071
      202
1005
126EF4
  0
POINT
  5
126EF5
  8
DOTS
 10
8000.0
 20
-199.99999999999909
 30
0.0
 50
270.0
1001
ACDBBLOCKREPETAG
1070
     1
1071
      365
1005
126EF5
  0
CIRCLE
  5
126EF6
  8
OBJECT
 10
8000.0
 20
-199.99999999999909
 30
0.0
 40
63.0
1001
ACDBBLOCKREPETAG
1070
     1
1071
      430
1005
126EF6
  0
CIRCLE
  5
126EF7
  8
OBJECT
 10
8000.0
 20
-199.99999999999909
 30
0.0
 40
75.0
1001
ACDBBLOCKREPETAG
1070
     1
1071
      431
1005
126EF7
  0
LINE
  5
126EF8
  8
OBJECT
 10
8200.0
 20
-124.9999999999991
 30
0.0
 11
8193.0
 21
-124.9999999999991
 31
0.0
1001
ACDBBLOCKREPETAG
1070
     1
1071
      135
1005
126EF8
  0
LINE
  5
126EF9
  8
OBJECT
 10
8193.0
 20
-124.9999999999991
 30
0.0
 11
8193.0
 21
-274.99999999999909
 31
0.0
1001
ACDBBLOCKREPETAG
1070
     1
1071
      136
1005
126EF9
  0
LINE
  5
126EFA
  8
OBJECT
 10
8151.5
 20
-127.9999999999991
 30
0.0
 11
8151.5
 21
-271.99999999999909
 31
0.0
1001
ACDBBLOCKREPETAG
1070
     1
1071
      137
1005
126EFA
  0
LINE
  5
126EFB
  8
OBJECT
 10
8140.0
 20
-134.49999999999909
 30
0.0
 11
8140.0
 21
-265.49999999999909
 31
0.0
1001
ACDBBLOCKREPETAG
1070
     1
1071
      138
1005
126EFB
  0
LINE
  5
126EFC
  8
OBJECT
 10
8193.0
 20
-274.99999999999909
 30
0.0
 11
8200.0
 21
-274.99999999999909
 31
0.0
1001
ACDBBLOCKREPETAG
1070
     1
1071
      139
1005
126EFC
  0
LINE
  5
126EFD
  8
OBJECT
 10
8200.0
 20
-274.99999999999909
 30
0.0
 11
8200.0
 21
-124.9999999999991
 31
0.0
1001
ACDBBLOCKREPETAG
1070
     1
1071
      140
1005
126EFD
  0
LINE
  5
126EFE
  8
HIDDEN
 10
8148.0
 20
-256.99999999999909
 30
0.0
 11
8148.0
 21
-142.99999999999909
 31
0.0
1001
ACDBBLOCKREPETAG
1070
     1
1071
      141
1005
126EFE
  0
LINE
  5
126EFF
  8
CENTER
 10
8215.0
 20
-199.99999999999909
 30
0.0
 11
8080.0
 21
-199.99999999999909
 31
0.0
1001
ACDBBLOCKREPETAG
1070
     1
1071
      142
1005
126EFF
  0
LINE
  5
126F00
  8
OBJECT
 10
8136.0
 20
-261.99999999999909
 30
0.0
 11
8080.0
 21
-261.99999999999909
 31
0.0
1001
ACDBBLOCKREPETAG
1070
     1
1071
      143
1005
126F00
  0
LINE
  5
126F01
  8
OBJECT
 10
8193.0
 20
-271.99999999999909
 30
0.0
 11
8151.5
 21
-271.99999999999909
 31
0.0
1001
ACDBBLOCKREPETAG
1070
     1
1071
      144
1005
126F01
  0
LINE
  5
126F02
  8
OBJECT
 10
8151.5
 20
-271.99999999999909
 30
0.0
 11
8140.0
 21
-265.49999999999909
 31
0.0
1001
ACDBBLOCKREPETAG
1070
     1
1071
      145
1005
126F02
  0
LINE
  5
126F03
  8
OBJECT
 10
8140.0
 20
-265.49999999999909
 30
0.0
 11
8136.0
 21
-261.99999999999909
 31
0.0
1001
ACDBBLOCKREPETAG
1070
     1
1071
      146
1005
126F03
  0
LINE
  5
126F04
  8
OBJECT
 10
8151.5
 20
-127.9999999999991
 30
0.0
 11
8140.0
 21
-134.49999999999909
 31
0.0
1001
ACDBBLOCKREPETAG
1070
     1
1071
      147
1005
126F04
  0
LINE
  5
126F05
  8
OBJECT
 10
8140.0
 20
-134.49999999999909
 30
0.0
 11
8136.0
 21
-137.99999999999909
 31
0.0
1001
ACDBBLOCKREPETAG
1070
     1
1071
      148
1005
126F05
  0
ARC
  5
126F06
  8
OBJECT
 10
8517.9000000000015
 20
-199.99999999999909
 30
0.0
 40
386.89999999999998
 50
170.7787013625784
 51
189.22129863742151
1001
ACDBBLOCKREPETAG
1070
     1
1071
      149
1005
126F06
  0
LINE
  5
126F07
  8
OBJECT
 10
8136.0
 20
-137.99999999999909
 30
0.0
 11
8080.0
 21
-137.99999999999909
 31
0.0
1001
ACDBBLOCKREPETAG
1070
     1
1071
      150
1005
126F07
  0
LINE
  5
126F08
  8
OBJECT
 10
8193.0
 20
-127.9999999999991
 30
0.0
 11
8151.5
 21
-127.9999999999991
 31
0.0
1001
ACDBBLOCKREPETAG
1070
     1
1071
      151
1005
126F08
  0
ARC
  5
126F09
  8
OBJECT
 10
9662.3364238109916
 20
-199.99999999999909
 30
0.0
 40
1545.58047021477
 50
177.70099855412801
 51
182.29900144587191
1001
ACDBBLOCKREPETAG
1070
     1
1071
      153
1005
126F09
  0
ARC
  5
126F0A
  8
OBJECT
 10
9632.3364238108625
 20
-199.99999999999909
 30
0.0
 40
1545.580470214647
 50
177.70099855412801
 51
182.29900144587191
1001
ACDBBLOCKREPETAG
1070
     1
1071
      154
1005
126F0A
  0
POINT
  5
126F0B
  8
DOTS
 10
6000.0
 20
-199.99999999999909
 30
0.0
 50
270.0
1001
ACDBBLOCKREPETAG
1070
     1
1071
      362
1005
126F0B
  0
LINE
  5
126F0C
  8
CENTER
 10
6080.0
 20
-199.99999999999909
 30
0.0
 11
5905.0
 21
-199.99999999999909
 31
0.0
1001
ACDBBLOCKREPETAG
1070
     1
1071
       14
1005
126F0C
  0
LINE
  5
126F0D
  8
CENTER
 10
6000.0
 20
-294.99999999999898
 30
0.0
 11
6000.0
 21
-104.9999999999991
 31
0.0
1001
ACDBBLOCKREPETAG
1070
     1
1071
       15
1005
126F0D
  0
ARC
  5
126F0E
  8
OBJECT
 10
6000.0
 20
-199.99999999999909
 30
0.0
 40
80.0
 50
50.80503257388439
 51
309.19496742611562
1001
ACDBBLOCKREPETAG
1070
     1
1071
       18
1005
126F0E
  0
LINE
  5
126F0F
  8
OBJECT
 10
6042.2018956920174
 20
-137.99999999999909
 30
0.0
 11
6080.0
 21
-137.99999999999909
 31
0.0
1001
ACDBBLOCKREPETAG
1070
     1
1071
       19
1005
126F0F
  0
LINE
  5
126F10
  8
OBJECT
 10
6042.2018956920174
 20
-261.99999999999909
 30
0.0
 11
6080.0
 21
-261.99999999999909
 31
0.0
1001
ACDBBLOCKREPETAG
1070
     1
1071
       20
1005
126F10
  0
CIRCLE
  5
126F11
  8
OBJECT
 10
6000.0
 20
-199.99999999999909
 30
0.0
 40
63.0
1001
ACDBBLOCKREPETAG
1070
     1
1071
      436
1005
126F11
  0
CIRCLE
  5
126F12
  8
OBJECT
 10
6000.0
 20
-199.99999999999909
 30
0.0
 40
75.0
1001
ACDBBLOCKREPETAG
1070
     1
1071
      437
1005
126F12
  0
LINE
  5
126F13
  8
OBJECT
 10
6200.0
 20
-124.9999999999991
 30
0.0
 11
6193.0
 21
-124.9999999999991
 31
0.0
1001
ACDBBLOCKREPETAG
1070
     1
1071
      135
1005
126F13
  0
LINE
  5
126F14
  8
OBJECT
 10
6193.0
 20
-124.9999999999991
 30
0.0
 11
6193.0
 21
-274.99999999999909
 31
0.0
1001
ACDBBLOCKREPETAG
1070
     1
1071
      136
1005
126F14
  0
LINE
  5
126F15
  8
OBJECT
 10
6151.5
 20
-127.9999999999991
 30
0.0
 11
6151.5
 21
-271.99999999999909
 31
0.0
1001
ACDBBLOCKREPETAG
1070
     1
1071
      137
1005
126F15
  0
LINE
  5
126F16
  8
OBJECT
 10
6140.0
 20
-134.49999999999909
 30
0.0
 11
6140.0
 21
-265.49999999999909
 31
0.0
1001
ACDBBLOCKREPETAG
1070
     1
1071
      138
1005
126F16
  0
LINE
  5
126F17
  8
OBJECT
 10
6193.0
 20
-274.99999999999909
 30
0.0
 11
6200.0
 21
-274.99999999999909
 31
0.0
1001
ACDBBLOCKREPETAG
1070
     1
1071
      139
1005
126F17
  0
LINE
  5
126F18
  8
OBJECT
 10
6200.0
 20
-274.99999999999909
 30
0.0
 11
6200.0
 21
-124.9999999999991
 31
0.0
1001
ACDBBLOCKREPETAG
1070
     1
1071
      140
1005
126F18
  0
LINE
  5
126F19
  8
HIDDEN
 10
6148.0
 20
-256.99999999999909
 30
0.0
 11
6148.0
 21
-142.99999999999909
 31
0.0
1001
ACDBBLOCKREPETAG
1070
     1
1071
      141
1005
126F19
  0
LINE
  5
126F1A
  8
CENTER
 10
6215.0
 20
-199.99999999999909
 30
0.0
 11
6080.0
 21
-199.99999999999909
 31
0.0
1001
ACDBBLOCKREPETAG
1070
     1
1071
      142
1005
126F1A
  0
LINE
  5
126F1B
  8
OBJECT
 10
6136.0
 20
-261.99999999999909
 30
0.0
 11
6080.0
 21
-261.99999999999909
 31
0.0
1001
ACDBBLOCKREPETAG
1070
     1
1071
      143
1005
126F1B
  0
LINE
  5
126F1C
  8
OBJECT
 10
6193.0
 20
-271.99999999999909
 30
0.0
 11
6151.5
 21
-271.99999999999909
 31
0.0
1001
ACDBBLOCKREPETAG
1070
     1
1071
      144
1005
126F1C
  0
LINE
  5
126F1D
  8
OBJECT
 10
6151.5
 20
-271.99999999999909
 30
0.0
 11
6140.0
 21
-265.49999999999909
 31
0.0
1001
ACDBBLOCKREPETAG
1070
     1
1071
      145
1005
126F1D
  0
LINE
  5
126F1E
  8
OBJECT
 10
6140.0
 20
-265.49999999999909
 30
0.0
 11
6136.0
 21
-261.99999999999909
 31
0.0
1001
ACDBBLOCKREPETAG
1070
     1
1071
      146
1005
126F1E
  0
LINE
  5
126F1F
  8
OBJECT
 10
6151.5
 20
-127.9999999999991
 30
0.0
 11
6140.0
 21
-134.49999999999909
 31
0.0
1001
ACDBBLOCKREPETAG
1070
     1
1071
      147
1005
126F1F
  0
LINE
  5
126F20
  8
OBJECT
 10
6140.0
 20
-134.49999999999909
 30
0.0
 11
6136.0
 21
-137.99999999999909
 31
0.0
1001
ACDBBLOCKREPETAG
1070
     1
1071
      148
1005
126F20
  0
ARC
  5
126F21
  8
OBJECT
 10
6517.9000000000005
 20
-199.99999999999909
 30
0.0
 40
386.89999999999998
 50
170.7787013625784
 51
189.22129863742151
1001
ACDBBLOCKREPETAG
1070
     1
1071
      149
1005
126F21
  0
LINE
  5
126F22
  8
OBJECT
 10
6136.0
 20
-137.99999999999909
 30
0.0
 11
6080.0
 21
-137.99999999999909
 31
0.0
1001
ACDBBLOCKREPETAG
1070
     1
1071
      150
1005
126F22
  0
LINE
  5
126F23
  8
OBJECT
 10
6193.0
 20
-127.9999999999991
 30
0.0
 11
6151.5
 21
-127.9999999999991
 31
0.0
1001
ACDBBLOCKREPETAG
1070
     1
1071
      151
1005
126F23
  0
ARC
  5
126F24
  8
OBJECT
 10
7662.336423810988
 20
-199.99999999999909
 30
0.0
 40
1545.58047021477
 50
177.70099855412801
 51
182.29900144587191
1001
ACDBBLOCKREPETAG
1070
     1
1071
      153
1005
126F24
  0
ARC
  5
126F25
  8
OBJECT
 10
7632.3364238108579
 20
-199.99999999999909
 30
0.0
 40
1545.580470214647
 50
177.70099855412801
 51
182.29900144587191
1001
ACDBBLOCKREPETAG
1070
     1
1071
      154
1005
126F25
  0
POINT
  5
126F26
  8
DOTS
 10
4000.0
 20
-199.99999999999909
 30
0.0
 50
270.0
1001
ACDBBLOCKREPETAG
1070
     1
1071
      362
1005
126F26
  0
LINE
  5
126F27
  8
CENTER
 10
4080.0
 20
-199.99999999999909
 30
0.0
 11
3905.0
 21
-199.99999999999909
 31
0.0
1001
ACDBBLOCKREPETAG
1070
     1
1071
       14
1005
126F27
  0
LINE
  5
126F28
  8
CENTER
 10
4000.0
 20
-294.99999999999898
 30
0.0
 11
4000.0
 21
-104.9999999999991
 31
0.0
1001
ACDBBLOCKREPETAG
1070
     1
1071
       15
1005
126F28
  0
ARC
  5
126F29
  8
OBJECT
 10
4000.0
 20
-199.99999999999909
 30
0.0
 40
80.0
 50
50.805032573864182
 51
309.1949674261358
1001
ACDBBLOCKREPETAG
1070
     1
1071
       18
1005
126F29
  0
LINE
  5
126F2A
  8
OBJECT
 10
4042.2018956920169
 20
-137.99999999999909
 30
0.0
 11
4080.0
 21
-137.99999999999909
 31
0.0
1001
ACDBBLOCKREPETAG
1070
     1
1071
       19
1005
126F2A
  0
LINE
  5
126F2B
  8
OBJECT
 10
4042.2018956920169
 20
-261.99999999999909
 30
0.0
 11
4080.0
 21
-261.99999999999909
 31
0.0
1001
ACDBBLOCKREPETAG
1070
     1
1071
       20
1005
126F2B
  0
CIRCLE
  5
126F2C
  8
OBJECT
 10
4000.0
 20
-199.99999999999909
 30
0.0
 40
63.0
1001
ACDBBLOCKREPETAG
1070
     1
1071
      436
1005
126F2C
  0
CIRCLE
  5
126F2D
  8
OBJECT
 10
4000.0
 20
-199.99999999999909
 30
0.0
 40
75.0
1001
ACDBBLOCKREPETAG
1070
     1
1071
      437
1005
126F2D
  0
LINE
  5
126F2E
  8
OBJECT
 10
4200.0
 20
-124.9999999999991
 30
0.0
 11
4193.0
 21
-124.9999999999991
 31
0.0
1001
ACDBBLOCKREPETAG
1070
     1
1071
      135
1005
126F2E
  0
LINE
  5
126F2F
  8
OBJECT
 10
4193.0
 20
-124.9999999999991
 30
0.0
 11
4193.0
 21
-274.99999999999909
 31
0.0
1001
ACDBBLOCKREPETAG
1070
     1
1071
      136
1005
126F2F
  0
LINE
  5
126F30
  8
OBJECT
 10
4151.5
 20
-127.9999999999991
 30
0.0
 11
4151.5
 21
-271.99999999999909
 31
0.0
1001
ACDBBLOCKREPETAG
1070
     1
1071
      137
1005
126F30
  0
LINE
  5
126F31
  8
OBJECT
 10
4140.0
 20
-134.49999999999909
 30
0.0
 11
4140.0
 21
-265.49999999999909
 31
0.0
1001
ACDBBLOCKREPETAG
1070
     1
1071
      138
1005
126F31
  0
LINE
  5
126F32
  8
OBJECT
 10
4193.0
 20
-274.99999999999909
 30
0.0
 11
4200.0
 21
-274.99999999999909
 31
0.0
1001
ACDBBLOCKREPETAG
1070
     1
1071
      139
1005
126F32
  0
LINE
  5
126F33
  8
OBJECT
 10
4200.0
 20
-274.99999999999909
 30
0.0
 11
4200.0
 21
-124.9999999999991
 31
0.0
1001
ACDBBLOCKREPETAG
1070
     1
1071
      140
1005
126F33
  0
LINE
  5
126F34
  8
HIDDEN
 10
4148.0
 20
-256.99999999999909
 30
0.0
 11
4148.0
 21
-142.99999999999909
 31
0.0
1001
ACDBBLOCKREPETAG
1070
     1
1071
      141
1005
126F34
  0
LINE
  5
126F35
  8
CENTER
 10
4215.0
 20
-199.99999999999909
 30
0.0
 11
4080.0
 21
-199.99999999999909
 31
0.0
1001
ACDBBLOCKREPETAG
1070
     1
1071
      142
1005
126F35
  0
LINE
  5
126F36
  8
OBJECT
 10
4136.0
 20
-261.99999999999909
 30
0.0
 11
4080.0
 21
-261.99999999999909
 31
0.0
1001
ACDBBLOCKREPETAG
1070
     1
1071
      143
1005
126F36
  0
LINE
  5
126F37
  8
OBJECT
 10
4193.0
 20
-271.99999999999909
 30
0.0
 11
4151.5
 21
-271.99999999999909
 31
0.0
1001
ACDBBLOCKREPETAG
1070
     1
1071
      144
1005
126F37
  0
LINE
  5
126F38
  8
OBJECT
 10
4151.5
 20
-271.99999999999909
 30
0.0
 11
4140.0
 21
-265.49999999999909
 31
0.0
1001
ACDBBLOCKREPETAG
1070
     1
1071
      145
1005
126F38
  0
LINE
  5
126F39
  8
OBJECT
 10
4140.0
 20
-265.49999999999909
 30
0.0
 11
4136.0
 21
-261.99999999999909
 31
0.0
1001
ACDBBLOCKREPETAG
1070
     1
1071
      146
1005
126F39
  0
LINE
  5
126F3A
  8
OBJECT
 10
4151.5
 20
-127.9999999999991
 30
0.0
 11
4140.0
 21
-134.49999999999909
 31
0.0
1001
ACDBBLOCKREPETAG
1070
     1
1071
      147
1005
126F3A
  0
LINE
  5
126F3B
  8
OBJECT
 10
4140.0
 20
-134.49999999999909
 30
0.0
 11
4136.0
 21
-137.99999999999909
 31
0.0
1001
ACDBBLOCKREPETAG
1070
     1
1071
      148
1005
126F3B
  0
ARC
  5
126F3C
  8
OBJECT
 10
4517.9000000000005
 20
-199.99999999999909
 30
0.0
 40
386.89999999999998
 50
170.7787013625784
 51
189.22129863742151
1001
ACDBBLOCKREPETAG
1070
     1
1071
      149
1005
126F3C
  0
LINE
  5
126F3D
  8
OBJECT
 10
4136.0
 20
-137.99999999999909
 30
0.0
 11
4080.0
 21
-137.99999999999909
 31
0.0
1001
ACDBBLOCKREPETAG
1070
     1
1071
      150
1005
126F3D
  0
LINE
  5
126F3E
  8
OBJECT
 10
4193.0
 20
-127.9999999999991
 30
0.0
 11
4151.5
 21
-127.9999999999991
 31
0.0
1001
ACDBBLOCKREPETAG
1070
     1
1071
      151
1005
126F3E
  0
ARC
  5
126F3F
  8
OBJECT
 10
5662.3364238109898
 20
-199.99999999999909
 30
0.0
 40
1545.58047021477
 50
177.7009985541269
 51
182.29900144587299
1001
ACDBBLOCKREPETAG
1070
     1
1071
      153
1005
126F3F
  0
ARC
  5
126F40
  8
OBJECT
 10
5632.3364238108579
 20
-199.99999999999909
 30
0.0
 40
1545.580470214647
 50
177.7009985541269
 51
182.29900144587299
1001
ACDBBLOCKREPETAG
1070
     1
1071
      154
1005
126F40
  0
POINT
  5
126F41
  8
DOTS
 10
2000.0
 20
-199.99999999999909
 30
0.0
 50
270.0
1001
ACDBBLOCKREPETAG
1070
     1
1071
      362
1005
126F41
  0
LINE
  5
126F42
  8
CENTER
 10
2080.0
 20
-199.99999999999909
 30
0.0
 11
1905.0
 21
-199.99999999999909
 31
0.0
1001
ACDBBLOCKREPETAG
1070
     1
1071
       14
1005
126F42
  0
LINE
  5
126F43
  8
CENTER
 10
2000.0
 20
-294.99999999999898
 30
0.0
 11
2000.0
 21
-104.9999999999991
 31
0.0
1001
ACDBBLOCKREPETAG
1070
     1
1071
       15
1005
126F43
  0
ARC
  5
126F44
  8
OBJECT
 10
2000.0
 20
-199.99999999999909
 30
0.0
 40
80.0
 50
50.805032573864182
 51
309.1949674261358
1001
ACDBBLOCKREPETAG
1070
     1
1071
       18
1005
126F44
  0
LINE
  5
126F45
  8
OBJECT
 10
2042.2018956920181
 20
-137.99999999999909
 30
0.0
 11
2080.0
 21
-137.99999999999909
 31
0.0
1001
ACDBBLOCKREPETAG
1070
     1
1071
       19
1005
126F45
  0
LINE
  5
126F46
  8
OBJECT
 10
2042.2018956920181
 20
-261.99999999999909
 30
0.0
 11
2080.0
 21
-261.99999999999909
 31
0.0
1001
ACDBBLOCKREPETAG
1070
     1
1071
       20
1005
126F46
  0
CIRCLE
  5
126F47
  8
OBJECT
 10
2000.0
 20
-199.99999999999909
 30
0.0
 40
63.0
1001
ACDBBLOCKREPETAG
1070
     1
1071
      436
1005
126F47
  0
CIRCLE
  5
126F48
  8
OBJECT
 10
2000.0
 20
-199.99999999999909
 30
0.0
 40
75.0
1001
ACDBBLOCKREPETAG
1070
     1
1071
      437
1005
126F48
  0
LINE
  5
126F49
  8
CENTER
 10
12000.0
 20
-513.99999999999966
 30
0.0
 11
12000.0
 21
-789.99999999999955
 31
0.0
1001
ACDBBLOCKREPETAG
1070
     1
1071
        0
1005
126F49
  0
LINE
  5
126F4A
  8
OBJECT
 10
11925.0
 20
-533.99999999999955
 30
0.0
 11
11925.0
 21
-777.99999999999955
 31
0.0
1001
ACDBBLOCKREPETAG
1070
     1
1071
        1
1005
126F4A
  0
LINE
  5
126F4B
  8
OBJECT
 10
11920.0
 20
-777.99999999999955
 30
0.0
 11
12080.0
 21
-777.99999999999955
 31
0.0
1001
ACDBBLOCKREPETAG
1070
     1
1071
        2
1005
126F4B
  0
LINE
  5
126F4C
  8
OBJECT
 10
12080.0
 20
-533.99999999999955
 30
0.0
 11
11925.0
 21
-533.99999999999955
 31
0.0
1001
ACDBBLOCKREPETAG
1070
     1
1071
        3
1005
126F4C
  0
LINE
  5
126F4D
  8
OBJECT
 10
11920.0
 20
-777.99999999999955
 30
0.0
 11
11920.0
 21
-789.99999999999955
 31
0.0
1001
ACDBBLOCKREPETAG
1070
     1
1071
        4
1005
126F4D
  0
LINE
  5
126F4E
  8
OBJECT
 10
11920.0
 20
-789.99999999999955
 30
0.0
 11
12080.0
 21
-789.99999999999955
 31
0.0
1001
ACDBBLOCKREPETAG
1070
     1
1071
        5
1005
126F4E
  0
LINE
  5
126F4F
  8
OBJECT
 10
12080.0
 20
-789.99999999999955
 30
0.0
 11
12080.0
 21
-777.99999999999955
 31
0.0
1001
ACDBBLOCKREPETAG
1070
     1
1071
        6
1005
126F4F
  0
LINE
  5
126F50
  8
OBJECT
 10
12074.99999999986
 20
-657.99999999985039
 30
0.0
 11
12075.0
 21
-777.99999999999955
 31
0.0
1001
ACDBBLOCKREPETAG
1070
     1
1071
        8
1005
126F50
  0
LINE
  5
126F51
  8
OBJECT
 10
12074.99999080298
 20
-657.99998602702135
 30
0.0
 11
12080.0
 21
-657.99998602702135
 31
0.0
1001
ACDBBLOCKREPETAG
1070
     1
1071
        9
1005
126F51
  0
LINE
  5
126F52
  8
OBJECT
 10
12060.0
 20
-528.99999999999955
 30
0.0
 11
11940.0
 21
-528.99999999999955
 31
0.0
1001
ACDBBLOCKREPETAG
1070
     1
1071
       10
1005
126F52
  0
ARC
  5
126F53
  8
OBJECT
 10
11940.0
 20
-531.99999999999955
 30
0.0
 40
3.0
 50
90.0
 51
180.0
1001
ACDBBLOCKREPETAG
1070
     1
1071
       11
1005
126F53
  0
LINE
  5
126F54
  8
OBJECT
 10
11937.0
 20
-531.99999999999955
 30
0.0
 11
11937.0
 21
-533.99999999999955
 31
0.0
1001
ACDBBLOCKREPETAG
1070
     1
1071
       12
1005
126F54
  0
LINE
  5
126F55
  8
OBJECT
 10
12063.0
 20
-531.99999999999955
 30
0.0
 11
12063.0
 21
-533.99999999999955
 31
0.0
1001
ACDBBLOCKREPETAG
1070
     1
1071
       13
1005
126F55
  0
ARC
  5
126F56
  8
OBJECT
 10
12060.0
 20
-531.99999999999955
 30
0.0
 40
3.0
 50
0.0
 51
90.0
1001
ACDBBLOCKREPETAG
1070
     1
1071
       14
1005
126F56
  0
ARC
  5
126F57
  8
OBJECT
 10
12200.687274671671
 20
-649.40809941010718
 30
0.0
 40
170.6350503965856
 50
137.44134459184301
 51
149.91949581337221
1001
ACDBBLOCKREPETAG
1070
     1
1071
       15
1005
126F57
  0
ARC
  5
126F58
  8
OBJECT
 10
12118.845598704051
 20
-605.88272669536445
 30
0.0
 40
78.072222021763665
 50
147.4551531038623
 51
164.66365997718549
1001
ACDBBLOCKREPETAG
1070
     1
1071
       16
1005
126F58
  0
ARC
  5
126F59
  8
OBJECT
 10
12085.755434960871
 20
-595.99999999999955
 30
0.0
 40
43.55353926885617
 50
165.6884523006899
 51
194.31154769931001
1001
ACDBBLOCKREPETAG
1070
     1
1071
       17
1005
126F59
  0
ARC
  5
126F5A
  8
OBJECT
 10
12200.687274671671
 20
-542.59190058989179
 30
0.0
 40
170.6350503965856
 50
210.08050418662771
 51
222.55865540815699
1001
ACDBBLOCKREPETAG
1070
     1
1071
       18
1005
126F5A
  0
ARC
  5
126F5B
  8
OBJECT
 10
12118.845598704051
 20
-586.11727330463452
 30
0.0
 40
78.072222021763665
 50
195.33634002281451
 51
212.5448468961377
1001
ACDBBLOCKREPETAG
1070
     1
1071
       19
1005
126F5B
  0
POINT
  5
126F5C
  8
DOTS
 10
12000.0
 20
-654.99999999999966
 30
0.0
1001
ACDBBLOCKREPETAG
1070
     1
1071
      135
1005
126F5C
  0
LINE
  5
126F5D
  8
CENTER
 10
10000.0
 20
-513.99999999999966
 30
0.0
 11
10000.0
 21
-789.99999999999955
 31
0.0
1001
ACDBBLOCKREPETAG
1070
     1
1071
        0
1005
126F5D
  0
LINE
  5
126F5E
  8
OBJECT
 10
9925.0
 20
-533.99999999999955
 30
0.0
 11
9925.0
 21
-777.99999999999955
 31
0.0
1001
ACDBBLOCKREPETAG
1070
     1
1071
        1
1005
126F5E
  0
LINE
  5
126F5F
  8
OBJECT
 10
9920.0
 20
-777.99999999999955
 30
0.0
 11
10080.0
 21
-777.99999999999955
 31
0.0
1001
ACDBBLOCKREPETAG
1070
     1
1071
        2
1005
126F5F
  0
LINE
  5
126F60
  8
OBJECT
 10
10080.0
 20
-533.99999999999955
 30
0.0
 11
9925.0
 21
-533.99999999999955
 31
0.0
1001
ACDBBLOCKREPETAG
1070
     1
1071
        3
1005
126F60
  0
LINE
  5
126F61
  8
OBJECT
 10
9920.0
 20
-777.99999999999955
 30
0.0
 11
9920.0
 21
-789.99999999999955
 31
0.0
1001
ACDBBLOCKREPETAG
1070
     1
1071
        4
1005
126F61
  0
LINE
  5
126F62
  8
OBJECT
 10
9920.0
 20
-789.99999999999955
 30
0.0
 11
10080.0
 21
-789.99999999999955
 31
0.0
1001
ACDBBLOCKREPETAG
1070
     1
1071
        5
1005
126F62
  0
LINE
  5
126F63
  8
OBJECT
 10
10080.0
 20
-789.99999999999955
 30
0.0
 11
10080.0
 21
-777.99999999999955
 31
0.0
1001
ACDBBLOCKREPETAG
1070
     1
1071
        6
1005
126F63
  0
LINE
  5
126F64
  8
OBJECT
 10
10074.99999999986
 20
-657.99999999985039
 30
0.0
 11
10075.0
 21
-777.99999999999955
 31
0.0
1001
ACDBBLOCKREPETAG
1070
     1
1071
        8
1005
126F64
  0
LINE
  5
126F65
  8
OBJECT
 10
10074.99999080298
 20
-657.99998602702135
 30
0.0
 11
10080.0
 21
-657.99998602702135
 31
0.0
1001
ACDBBLOCKREPETAG
1070
     1
1071
        9
1005
126F65
  0
LINE
  5
126F66
  8
OBJECT
 10
10060.0
 20
-528.99999999999955
 30
0.0
 11
9940.0
 21
-528.99999999999955
 31
0.0
1001
ACDBBLOCKREPETAG
1070
     1
1071
       10
1005
126F66
  0
ARC
  5
126F67
  8
OBJECT
 10
9940.0
 20
-531.99999999999955
 30
0.0
 40
3.0
 50
90.0
 51
180.0
1001
ACDBBLOCKREPETAG
1070
     1
1071
       11
1005
126F67
  0
LINE
  5
126F68
  8
OBJECT
 10
9937.0
 20
-531.99999999999955
 30
0.0
 11
9937.0
 21
-533.99999999999955
 31
0.0
1001
ACDBBLOCKREPETAG
1070
     1
1071
       12
1005
126F68
  0
LINE
  5
126F69
  8
OBJECT
 10
10063.0
 20
-531.99999999999955
 30
0.0
 11
10063.0
 21
-533.99999999999955
 31
0.0
1001
ACDBBLOCKREPETAG
1070
     1
1071
       13
1005
126F69
  0
ARC
  5
126F6A
  8
OBJECT
 10
10060.0
 20
-531.99999999999955
 30
0.0
 40
3.0
 50
0.0
 51
90.0
1001
ACDBBLOCKREPETAG
1070
     1
1071
       14
1005
126F6A
  0
ARC
  5
126F6B
  8
OBJECT
 10
10200.687274671671
 20
-649.40809941010718
 30
0.0
 40
170.6350503965856
 50
137.44134459184301
 51
149.91949581337221
1001
ACDBBLOCKREPETAG
1070
     1
1071
       15
1005
126F6B
  0
ARC
  5
126F6C
  8
OBJECT
 10
10118.845598704051
 20
-605.88272669536445
 30
0.0
 40
78.072222021763665
 50
147.4551531038623
 51
164.66365997718549
1001
ACDBBLOCKREPETAG
1070
     1
1071
       16
1005
126F6C
  0
ARC
  5
126F6D
  8
OBJECT
 10
10085.755434960871
 20
-595.99999999999955
 30
0.0
 40
43.55353926885617
 50
165.6884523006899
 51
194.31154769931001
1001
ACDBBLOCKREPETAG
1070
     1
1071
       17
1005
126F6D
  0
ARC
  5
126F6E
  8
OBJECT
 10
10200.687274671671
 20
-542.59190058989179
 30
0.0
 40
170.6350503965856
 50
210.08050418662771
 51
222.55865540815699
1001
ACDBBLOCKREPETAG
1070
     1
1071
       18
1005
126F6E
  0
ARC
  5
126F6F
  8
OBJECT
 10
10118.845598704051
 20
-586.11727330463452
 30
0.0
 40
78.072222021763665
 50
195.33634002281451
 51
212.5448468961377
1001
ACDBBLOCKREPETAG
1070
     1
1071
       19
1005
126F6F
  0
POINT
  5
126F70
  8
DOTS
 10
10000.0
 20
-654.99999999999966
 30
0.0
1001
ACDBBLOCKREPETAG
1070
     1
1071
      135
1005
126F70
  0
LINE
  5
126F71
  8
CENTER
 10
8000.0
 20
-513.99999999999966
 30
0.0
 11
8000.0
 21
-789.99999999999955
 31
0.0
1001
ACDBBLOCKREPETAG
1070
     1
1071
        0
1005
126F71
  0
LINE
  5
126F72
  8
OBJECT
 10
7925.0
 20
-533.99999999999955
 30
0.0
 11
7925.0
 21
-777.99999999999955
 31
0.0
1001
ACDBBLOCKREPETAG
1070
     1
1071
        1
1005
126F72
  0
LINE
  5
126F73
  8
OBJECT
 10
7920.0
 20
-777.99999999999955
 30
0.0
 11
8080.0
 21
-777.99999999999955
 31
0.0
1001
ACDBBLOCKREPETAG
1070
     1
1071
        2
1005
126F73
  0
LINE
  5
126F74
  8
OBJECT
 10
8080.0
 20
-533.99999999999955
 30
0.0
 11
7925.0
 21
-533.99999999999955
 31
0.0
1001
ACDBBLOCKREPETAG
1070
     1
1071
        3
1005
126F74
  0
LINE
  5
126F75
  8
OBJECT
 10
7920.0
 20
-777.99999999999955
 30
0.0
 11
7920.0
 21
-789.99999999999955
 31
0.0
1001
ACDBBLOCKREPETAG
1070
     1
1071
        4
1005
126F75
  0
LINE
  5
126F76
  8
OBJECT
 10
7920.0
 20
-789.99999999999955
 30
0.0
 11
8080.0
 21
-789.99999999999955
 31
0.0
1001
ACDBBLOCKREPETAG
1070
     1
1071
        5
1005
126F76
  0
LINE
  5
126F77
  8
OBJECT
 10
8080.0
 20
-789.99999999999955
 30
0.0
 11
8080.0
 21
-777.99999999999955
 31
0.0
1001
ACDBBLOCKREPETAG
1070
     1
1071
        6
1005
126F77
  0
LINE
  5
126F78
  8
OBJECT
 10
8074.9999999998618
 20
-657.99999999985039
 30
0.0
 11
8075.0
 21
-777.99999999999955
 31
0.0
1001
ACDBBLOCKREPETAG
1070
     1
1071
        8
1005
126F78
  0
LINE
  5
126F79
  8
OBJECT
 10
8074.9999908029858
 20
-657.99998602702135
 30
0.0
 11
8080.0
 21
-657.99998602702135
 31
0.0
1001
ACDBBLOCKREPETAG
1070
     1
1071
        9
1005
126F79
  0
LINE
  5
126F7A
  8
OBJECT
 10
8060.0
 20
-528.99999999999955
 30
0.0
 11
7940.0
 21
-528.99999999999955
 31
0.0
1001
ACDBBLOCKREPETAG
1070
     1
1071
       10
1005
126F7A
  0
ARC
  5
126F7B
  8
OBJECT
 10
7940.0
 20
-531.99999999999955
 30
0.0
 40
3.0
 50
90.0
 51
180.0
1001
ACDBBLOCKREPETAG
1070
     1
1071
       11
1005
126F7B
  0
LINE
  5
126F7C
  8
OBJECT
 10
7937.0
 20
-531.99999999999955
 30
0.0
 11
7937.0
 21
-533.99999999999955
 31
0.0
1001
ACDBBLOCKREPETAG
1070
     1
1071
       12
1005
126F7C
  0
LINE
  5
126F7D
  8
OBJECT
 10
8063.0
 20
-531.99999999999955
 30
0.0
 11
8063.0
 21
-533.99999999999955
 31
0.0
1001
ACDBBLOCKREPETAG
1070
     1
1071
       13
1005
126F7D
  0
ARC
  5
126F7E
  8
OBJECT
 10
8060.0
 20
-531.99999999999955
 30
0.0
 40
3.0
 50
0.0
 51
90.0
1001
ACDBBLOCKREPETAG
1070
     1
1071
       14
1005
126F7E
  0
ARC
  5
126F7F
  8
OBJECT
 10
8200.6872746716726
 20
-649.40809941010718
 30
0.0
 40
170.6350503965856
 50
137.44134459184301
 51
149.91949581337221
1001
ACDBBLOCKREPETAG
1070
     1
1071
       15
1005
126F7F
  0
ARC
  5
126F80
  8
OBJECT
 10
8118.8455987040506
 20
-605.88272669536445
 30
0.0
 40
78.072222021763665
 50
147.4551531038623
 51
164.66365997719919
1001
ACDBBLOCKREPETAG
1070
     1
1071
       16
1005
126F80
  0
ARC
  5
126F81
  8
OBJECT
 10
8085.7554349608708
 20
-595.99999999999955
 30
0.0
 40
43.55353926885617
 50
165.688452300677
 51
194.31154769932289
1001
ACDBBLOCKREPETAG
1070
     1
1071
       17
1005
126F81
  0
ARC
  5
126F82
  8
OBJECT
 10
8200.6872746716726
 20
-542.59190058989179
 30
0.0
 40
170.6350503965856
 50
210.08050418662771
 51
222.55865540815699
1001
ACDBBLOCKREPETAG
1070
     1
1071
       18
1005
126F82
  0
ARC
  5
126F83
  8
OBJECT
 10
8118.8455987040506
 20
-586.11727330463452
 30
0.0
 40
78.072222021763665
 50
195.33634002280061
 51
212.5448468961377
1001
ACDBBLOCKREPETAG
1070
     1
1071
       19
1005
126F83
  0
POINT
  5
126F84
  8
DOTS
 10
8000.0
 20
-654.99999999999966
 30
0.0
1001
ACDBBLOCKREPETAG
1070
     1
1071
      135
1005
126F84
  0
LINE
  5
126F85
  8
CENTER
 10
6000.0
 20
-513.99999999999966
 30
0.0
 11
6000.0
 21
-789.99999999999955
 31
0.0
1001
ACDBBLOCKREPETAG
1070
     1
1071
        0
1005
126F85
  0
LINE
  5
126F86
  8
OBJECT
 10
5925.0
 20
-533.99999999999955
 30
0.0
 11
5925.0
 21
-777.99999999999955
 31
0.0
1001
ACDBBLOCKREPETAG
1070
     1
1071
        1
1005
126F86
  0
LINE
  5
126F87
  8
OBJECT
 10
5920.0
 20
-777.99999999999955
 30
0.0
 11
6080.0
 21
-777.99999999999955
 31
0.0
1001
ACDBBLOCKREPETAG
1070
     1
1071
        2
1005
126F87
  0
LINE
  5
126F88
  8
OBJECT
 10
6080.0
 20
-533.99999999999955
 30
0.0
 11
5925.0
 21
-533.99999999999955
 31
0.0
1001
ACDBBLOCKREPETAG
1070
     1
1071
        3
1005
126F88
  0
LINE
  5
126F89
  8
OBJECT
 10
5920.0
 20
-777.99999999999955
 30
0.0
 11
5920.0
 21
-789.99999999999955
 31
0.0
1001
ACDBBLOCKREPETAG
1070
     1
1071
        4
1005
126F89
  0
LINE
  5
126F8A
  8
OBJECT
 10
5920.0
 20
-789.99999999999955
 30
0.0
 11
6080.0
 21
-789.99999999999955
 31
0.0
1001
ACDBBLOCKREPETAG
1070
     1
1071
        5
1005
126F8A
  0
LINE
  5
126F8B
  8
OBJECT
 10
6080.0
 20
-789.99999999999955
 30
0.0
 11
6080.0
 21
-777.99999999999955
 31
0.0
1001
ACDBBLOCKREPETAG
1070
     1
1071
        6
1005
126F8B
  0
LINE
  5
126F8C
  8
OBJECT
 10
6074.9999999998618
 20
-657.99999999985039
 30
0.0
 11
6075.0
 21
-777.99999999999955
 31
0.0
1001
ACDBBLOCKREPETAG
1070
     1
1071
        8
1005
126F8C
  0
LINE
  5
126F8D
  8
OBJECT
 10
6074.9999908029858
 20
-657.99998602702135
 30
0.0
 11
6080.0
 21
-657.99998602702135
 31
0.0
1001
ACDBBLOCKREPETAG
1070
     1
1071
        9
1005
126F8D
  0
LINE
  5
126F8E
  8
OBJECT
 10
6060.0
 20
-528.99999999999955
 30
0.0
 11
5940.0
 21
-528.99999999999955
 31
0.0
1001
ACDBBLOCKREPETAG
1070
     1
1071
       10
1005
126F8E
  0
ARC
  5
126F8F
  8
OBJECT
 10
5940.0
 20
-531.99999999999955
 30
0.0
 40
3.0
 50
90.0
 51
180.0
1001
ACDBBLOCKREPETAG
1070
     1
1071
       11
1005
126F8F
  0
LINE
  5
126F90
  8
OBJECT
 10
5937.0
 20
-531.99999999999955
 30
0.0
 11
5937.0
 21
-533.99999999999955
 31
0.0
1001
ACDBBLOCKREPETAG
1070
     1
1071
       12
1005
126F90
  0
LINE
  5
126F91
  8
OBJECT
 10
6063.0
 20
-531.99999999999955
 30
0.0
 11
6063.0
 21
-533.99999999999955
 31
0.0
1001
ACDBBLOCKREPETAG
1070
     1
1071
       13
1005
126F91
  0
ARC
  5
126F92
  8
OBJECT
 10
6060.0
 20
-531.99999999999955
 30
0.0
 40
3.0
 50
0.0
 51
90.0
1001
ACDBBLOCKREPETAG
1070
     1
1071
       14
1005
126F92
  0
ARC
  5
126F93
  8
OBJECT
 10
6200.6872746716735
 20
-649.40809941010718
 30
0.0
 40
170.6350503965856
 50
137.44134459184301
 51
149.91949581337221
1001
ACDBBLOCKREPETAG
1070
     1
1071
       15
1005
126F93
  0
ARC
  5
126F94
  8
OBJECT
 10
6118.8455987040506
 20
-605.88272669536445
 30
0.0
 40
78.072222021763665
 50
147.4551531038623
 51
164.66365997719919
1001
ACDBBLOCKREPETAG
1070
     1
1071
       16
1005
126F94
  0
ARC
  5
126F95
  8
OBJECT
 10
6085.7554349608727
 20
-595.99999999999955
 30
0.0
 40
43.55353926885617
 50
165.688452300677
 51
194.31154769932289
1001
ACDBBLOCKREPETAG
1070
     1
1071
       17
1005
126F95
  0
ARC
  5
126F96
  8
OBJECT
 10
6200.6872746716735
 20
-542.59190058989179
 30
0.0
 40
170.6350503965856
 50
210.08050418662771
 51
222.55865540815699
1001
ACDBBLOCKREPETAG
1070
     1
1071
       18
1005
126F96
  0
ARC
  5
126F97
  8
OBJECT
 10
6118.8455987040506
 20
-586.11727330463452
 30
0.0
 40
78.072222021763665
 50
195.33634002280061
 51
212.5448468961377
1001
ACDBBLOCKREPETAG
1070
     1
1071
       19
1005
126F97
  0
POINT
  5
126F98
  8
DOTS
 10
6000.0
 20
-654.99999999999966
 30
0.0
1001
ACDBBLOCKREPETAG
1070
     1
1071
      135
1005
126F98
  0
LINE
  5
126F99
  8
CENTER
 10
4000.0
 20
-513.99999999999966
 30
0.0
 11
4000.0
 21
-789.99999999999955
 31
0.0
1001
ACDBBLOCKREPETAG
1070
     1
1071
        0
1005
126F99
  0
LINE
  5
126F9A
  8
OBJECT
 10
3925.0
 20
-533.99999999999955
 30
0.0
 11
3925.0
 21
-777.99999999999955
 31
0.0
1001
ACDBBLOCKREPETAG
1070
     1
1071
        1
1005
126F9A
  0
LINE
  5
126F9B
  8
OBJECT
 10
3920.0
 20
-777.99999999999955
 30
0.0
 11
4080.0
 21
-777.99999999999955
 31
0.0
1001
ACDBBLOCKREPETAG
1070
     1
1071
        2
1005
126F9B
  0
LINE
  5
126F9C
  8
OBJECT
 10
4080.0
 20
-533.99999999999955
 30
0.0
 11
3925.0
 21
-533.99999999999955
 31
0.0
1001
ACDBBLOCKREPETAG
1070
     1
1071
        3
1005
126F9C
  0
LINE
  5
126F9D
  8
OBJECT
 10
3920.0
 20
-777.99999999999955
 30
0.0
 11
3920.0
 21
-789.99999999999955
 31
0.0
1001
ACDBBLOCKREPETAG
1070
     1
1071
        4
1005
126F9D
  0
LINE
  5
126F9E
  8
OBJECT
 10
3920.0
 20
-789.99999999999955
 30
0.0
 11
4080.0
 21
-789.99999999999955
 31
0.0
1001
ACDBBLOCKREPETAG
1070
     1
1071
        5
1005
126F9E
  0
LINE
  5
126F9F
  8
OBJECT
 10
4080.0
 20
-789.99999999999955
 30
0.0
 11
4080.0
 21
-777.99999999999955
 31
0.0
1001
ACDBBLOCKREPETAG
1070
     1
1071
        6
1005
126F9F
  0
LINE
  5
126FA0
  8
OBJECT
 10
4074.9999999998631
 20
-657.99999999985039
 30
0.0
 11
4075.0
 21
-777.99999999999955
 31
0.0
1001
ACDBBLOCKREPETAG
1070
     1
1071
        8
1005
126FA0
  0
LINE
  5
126FA1
  8
OBJECT
 10
4074.9999908029849
 20
-657.99998602702135
 30
0.0
 11
4080.0
 21
-657.99998602702135
 31
0.0
1001
ACDBBLOCKREPETAG
1070
     1
1071
        9
1005
126FA1
  0
LINE
  5
126FA2
  8
OBJECT
 10
4060.0
 20
-528.99999999999955
 30
0.0
 11
3940.0
 21
-528.99999999999955
 31
0.0
1001
ACDBBLOCKREPETAG
1070
     1
1071
       10
1005
126FA2
  0
ARC
  5
126FA3
  8
OBJECT
 10
3940.0
 20
-531.99999999999955
 30
0.0
 40
3.0
 50
90.0
 51
180.0
1001
ACDBBLOCKREPETAG
1070
     1
1071
       11
1005
126FA3
  0
LINE
  5
126FA4
  8
OBJECT
 10
3937.0
 20
-531.99999999999955
 30
0.0
 11
3937.0
 21
-533.99999999999955
 31
0.0
1001
ACDBBLOCKREPETAG
1070
     1
1071
       12
1005
126FA4
  0
LINE
  5
126FA5
  8
OBJECT
 10
4063.0
 20
-531.99999999999955
 30
0.0
 11
4063.0
 21
-533.99999999999955
 31
0.0
1001
ACDBBLOCKREPETAG
1070
     1
1071
       13
1005
126FA5
  0
ARC
  5
126FA6
  8
OBJECT
 10
4060.0
 20
-531.99999999999955
 30
0.0
 40
3.0
 50
0.0
 51
90.0
1001
ACDBBLOCKREPETAG
1070
     1
1071
       14
1005
126FA6
  0
ARC
  5
126FA7
  8
OBJECT
 10
4200.6872746716726
 20
-649.40809941010718
 30
0.0
 40
170.6350503965856
 50
137.44134459184301
 51
149.91949581337221
1001
ACDBBLOCKREPETAG
1070
     1
1071
       15
1005
126FA7
  0
ARC
  5
126FA8
  8
OBJECT
 10
4118.8455987040506
 20
-605.88272669536445
 30
0.0
 40
78.072222021763665
 50
147.4551531038623
 51
164.66365997719231
1001
ACDBBLOCKREPETAG
1070
     1
1071
       16
1005
126FA8
  0
ARC
  5
126FA9
  8
OBJECT
 10
4085.7554349608722
 20
-595.99999999999955
 30
0.0
 40
43.55353926885617
 50
165.68845230068339
 51
194.31154769931649
1001
ACDBBLOCKREPETAG
1070
     1
1071
       17
1005
126FA9
  0
ARC
  5
126FAA
  8
OBJECT
 10
4200.6872746716726
 20
-542.59190058989179
 30
0.0
 40
170.6350503965856
 50
210.08050418662771
 51
222.55865540815699
1001
ACDBBLOCKREPETAG
1070
     1
1071
       18
1005
126FAA
  0
ARC
  5
126FAB
  8
OBJECT
 10
4118.8455987040506
 20
-586.11727330463452
 30
0.0
 40
78.072222021763665
 50
195.33634002280749
 51
212.5448468961377
1001
ACDBBLOCKREPETAG
1070
     1
1071
       19
1005
126FAB
  0
POINT
  5
126FAC
  8
DOTS
 10
4000.0
 20
-654.99999999999966
 30
0.0
1001
ACDBBLOCKREPETAG
1070
     1
1071
      135
1005
126FAC
  0
LINE
  5
126FAD
  8
CENTER
 10
2000.0
 20
-513.99999999999966
 30
0.0
 11
2000.0
 21
-789.99999999999955
 31
0.0
1001
ACDBBLOCKREPETAG
1070
     1
1071
        0
1005
126FAD
  0
LINE
  5
126FAE
  8
OBJECT
 10
1925.0
 20
-533.99999999999955
 30
0.0
 11
1925.0
 21
-777.99999999999955
 31
0.0
1001
ACDBBLOCKREPETAG
1070
     1
1071
        1
1005
126FAE
  0
LINE
  5
126FAF
  8
OBJECT
 10
1920.0
 20
-777.99999999999955
 30
0.0
 11
2080.0
 21
-777.99999999999955
 31
0.0
1001
ACDBBLOCKREPETAG
1070
     1
1071
        2
1005
126FAF
  0
LINE
  5
126FB0
  8
OBJECT
 10
2080.0
 20
-533.99999999999955
 30
0.0
 11
1925.0
 21
-533.99999999999955
 31
0.0
1001
ACDBBLOCKREPETAG
1070
     1
1071
        3
1005
126FB0
  0
LINE
  5
126FB1
  8
OBJECT
 10
1920.0
 20
-777.99999999999955
 30
0.0
 11
1920.0
 21
-789.99999999999955
 31
0.0
1001
ACDBBLOCKREPETAG
1070
     1
1071
        4
1005
126FB1
  0
LINE
  5
126FB2
  8
OBJECT
 10
1920.0
 20
-789.99999999999955
 30
0.0
 11
2080.0
 21
-789.99999999999955
 31
0.0
1001
ACDBBLOCKREPETAG
1070
     1
1071
        5
1005
126FB2
  0
LINE
  5
126FB3
  8
OBJECT
 10
2080.0
 20
-789.99999999999955
 30
0.0
 11
2080.0
 21
-777.99999999999955
 31
0.0
1001
ACDBBLOCKREPETAG
1070
     1
1071
        6
1005
126FB3
  0
LINE
  5
126FB4
  8
OBJECT
 10
2074.9999999998622
 20
-657.99999999985039
 30
0.0
 11
2075.0
 21
-777.99999999999955
 31
0.0
1001
ACDBBLOCKREPETAG
1070
     1
1071
        8
1005
126FB4
  0
LINE
  5
126FB5
  8
OBJECT
 10
2074.9999908029849
 20
-657.99998602702135
 30
0.0
 11
2080.0
 21
-657.99998602702135
 31
0.0
1001
ACDBBLOCKREPETAG
1070
     1
1071
        9
1005
126FB5
  0
LINE
  5
126FB6
  8
OBJECT
 10
2060.0
 20
-528.99999999999955
 30
0.0
 11
1940.0
 21
-528.99999999999955
 31
0.0
1001
ACDBBLOCKREPETAG
1070
     1
1071
       10
1005
126FB6
  0
ARC
  5
126FB7
  8
OBJECT
 10
1940.0
 20
-531.99999999999955
 30
0.0
 40
3.0
 50
90.0
 51
180.0
1001
ACDBBLOCKREPETAG
1070
     1
1071
       11
1005
126FB7
  0
LINE
  5
126FB8
  8
OBJECT
 10
1937.0
 20
-531.99999999999955
 30
0.0
 11
1937.0
 21
-533.99999999999955
 31
0.0
1001
ACDBBLOCKREPETAG
1070
     1
1071
       12
1005
126FB8
  0
LINE
  5
126FB9
  8
OBJECT
 10
2063.0
 20
-531.99999999999955
 30
0.0
 11
2063.0
 21
-533.99999999999955
 31
0.0
1001
ACDBBLOCKREPETAG
1070
     1
1071
       13
1005
126FB9
  0
ARC
  5
126FBA
  8
OBJECT
 10
2060.0
 20
-531.99999999999955
 30
0.0
 40
3.0
 50
0.0
 51
90.0
1001
ACDBBLOCKREPETAG
1070
     1
1071
       14
1005
126FBA
  0
ARC
  5
126FBB
  8
OBJECT
 10
2200.6872746716731
 20
-649.40809941010718
 30
0.0
 40
170.6350503965856
 50
137.44134459184301
 51
149.91949581336559
1001
ACDBBLOCKREPETAG
1070
     1
1071
       15
1005
126FBB
  0
ARC
  5
126FBC
  8
OBJECT
 10
2118.8455987040511
 20
-605.88272669536445
 30
0.0
 40
78.072222021763665
 50
147.4551531038623
 51
164.66365997719581
1001
ACDBBLOCKREPETAG
1070
     1
1071
       16
1005
126FBC
  0
ARC
  5
126FBD
  8
OBJECT
 10
2085.7554349608731
 20
-595.99999999999955
 30
0.0
 40
43.55353926885617
 50
165.6884523006803
 51
194.3115476993197
1001
ACDBBLOCKREPETAG
1070
     1
1071
       17
1005
126FBD
  0
ARC
  5
126FBE
  8
OBJECT
 10
2200.6872746716731
 20
-542.59190058989179
 30
0.0
 40
170.6350503965856
 50
210.0805041866343
 51
222.55865540815699
1001
ACDBBLOCKREPETAG
1070
     1
1071
       18
1005
126FBE
  0
ARC
  5
126FBF
  8
OBJECT
 10
2118.8455987040511
 20
-586.11727330463452
 30
0.0
 40
78.072222021763665
 50
195.33634002280411
 51
212.5448468961377
1001
ACDBBLOCKREPETAG
1070
     1
1071
       19
1005
126FBF
  0
POINT
  5
126FC0
  8
DOTS
 10
2000.0
 20
-654.99999999999966
 30
0.0
1001
ACDBBLOCKREPETAG
1070
     1
1071
      135
1005
126FC0
  0
LINE
  5
126FC1
  8
OBJECT
 10
12079.999999999991
 20
-658.0
 30
0.0
 11
12089.244046403781
 21
-658.0
 31
0.0
1001
ACDBBLOCKREPETAG
1070
     1
1071
      130
1005
126FC1
  0
LINE
  5
126FC2
  8
OBJECT
 10
12086.75595359621
 20
-534.0
 30
0.0
 11
12080.0
 21
-534.0
 31
0.0
1001
ACDBBLOCKREPETAG
1070
     1
1071
      131
1005
126FC2
  0
LINE
  5
126FC3
  8
OBJECT
 10
12086.75595359621
 20
-534.0
 30
0.0
 11
12116.755953596219
 21
-516.0
 31
0.0
1001
ACDBBLOCKREPETAG
1070
     1
1071
      132
1005
126FC3
  0
LINE
  5
126FC4
  8
OBJECT
 10
12116.755953596219
 20
-516.0
 30
0.0
 11
12130.0
 21
-516.0000000000008
 31
0.0
1001
ACDBBLOCKREPETAG
1070
     1
1071
      133
1005
126FC4
  0
LINE
  5
126FC5
  8
OBJECT
 10
12130.0
 20
-640.0
 30
0.0
 11
12119.244046403781
 21
-640.0000000000008
 31
0.0
1001
ACDBBLOCKREPETAG
1070
     1
1071
      134
1005
126FC5
  0
LINE
  5
126FC6
  8
OBJECT
 10
12119.244046403781
 20
-640.0000000000008
 30
0.0
 11
12089.244046403781
 21
-658.0
 31
0.0
1001
ACDBBLOCKREPETAG
1070
     1
1071
      135
1005
126FC6
  0
LINE
  5
126FC7
  8
OBJECT
 10
12086.75595359621
 20
-534.0
 30
0.0
 11
12089.244046403781
 21
-658.0
 31
0.0
1001
ACDBBLOCKREPETAG
1070
     1
1071
      136
1005
126FC7
  0
LINE
  5
126FC8
  8
OBJECT
 10
12119.244046403781
 20
-640.0000000000008
 30
0.0
 11
12116.755953596219
 21
-516.0
 31
0.0
1001
ACDBBLOCKREPETAG
1070
     1
1071
      137
1005
126FC8
  0
LINE
  5
126FC9
  8
OBJECT
 10
12200.0
 20
-490.0
 30
0.0
 11
12193.0
 21
-490.0
 31
0.0
1001
ACDBBLOCKREPETAG
1070
     1
1071
      138
1005
126FC9
  0
LINE
  5
126FCA
  8
OBJECT
 10
12193.0
 20
-490.0
 30
0.0
 11
12193.0
 21
-637.0
 31
0.0
1001
ACDBBLOCKREPETAG
1070
     1
1071
      139
1005
126FCA
  0
LINE
  5
126FCB
  8
OBJECT
 10
12151.5
 20
-493.0
 30
0.0
 11
12151.5
 21
-637.0
 31
0.0
1001
ACDBBLOCKREPETAG
1070
     1
1071
      140
1005
126FCB
  0
LINE
  5
126FCC
  8
OBJECT
 10
12140.0
 20
-499.5
 30
0.0
 11
12140.0
 21
-630.49999999999977
 31
0.0
1001
ACDBBLOCKREPETAG
1070
     1
1071
      141
1005
126FCC
  0
LINE
  5
126FCD
  8
OBJECT
 10
12136.0
 20
-571.50000000000625
 30
0.0
 11
12136.0
 21
-637.0
 31
0.0
1001
ACDBBLOCKREPETAG
1070
     1
1071
      142
1005
126FCD
  0
LINE
  5
126FCE
  8
OBJECT
 10
12200.0
 20
-637.0
 30
0.0
 11
12200.0
 21
-490.0
 31
0.0
1001
ACDBBLOCKREPETAG
1070
     1
1071
      143
1005
126FCE
  0
LINE
  5
126FCF
  8
CENTER
 10
12215.0
 20
-565.0
 30
0.0
 11
12120.41441441441
 21
-565.0
 31
0.0
1001
ACDBBLOCKREPETAG
1070
     1
1071
      144
1005
126FCF
  0
LINE
  5
126FD0
  8
OBJECT
 10
12133.0
 20
-640.0
 30
0.0
 11
12130.0
 21
-640.0
 31
0.0
1001
ACDBBLOCKREPETAG
1070
     1
1071
      145
1005
126FD0
  0
ARC
  5
126FD1
  8
OBJECT
 10
12133.0
 20
-637.0
 30
0.0
 40
3.0
 50
270.0
 51
350.69274391267629
1001
ACDBBLOCKREPETAG
1070
     1
1071
      146
1005
126FD1
  0
ARC
  5
126FD2
  8
OBJECT
 10
12141.881517183059
 20
-638.45555918014554
 30
0.0
 40
6.0
 50
60.524110996874072
 51
170.69274391267621
1001
ACDBBLOCKREPETAG
1070
     1
1071
      147
1005
126FD2
  0
LINE
  5
126FD3
  8
OBJECT
 10
12131.0
 20
-516.0000000000008
 30
0.0
 11
12130.0
 21
-516.0000000000008
 31
0.0
1001
ACDBBLOCKREPETAG
1070
     1
1071
      148
1005
126FD3
  0
LINE
  5
126FD4
  8
OBJECT
 10
12200.0
 20
-637.0
 30
0.0
 11
12151.5
 21
-637.0
 31
0.0
1001
ACDBBLOCKREPETAG
1070
     1
1071
      149
1005
126FD4
  0
LINE
  5
126FD5
  8
OBJECT
 10
12151.5
 20
-493.0
 30
0.0
 11
12140.0
 21
-499.5
 31
0.0
1001
ACDBBLOCKREPETAG
1070
     1
1071
      150
1005
126FD5
  0
LINE
  5
126FD6
  8
OBJECT
 10
12193.0
 20
-493.0
 30
0.0
 11
12151.5
 21
-493.0
 31
0.0
1001
ACDBBLOCKREPETAG
1070
     1
1071
      151
1005
126FD6
  0
LINE
  5
126FD7
  8
OBJECT
 10
12140.0
 20
-499.5
 30
0.0
 11
12131.0
 21
-516.0
 31
0.0
1001
ACDBBLOCKREPETAG
1070
     1
1071
      152
1005
126FD7
  0
LINE
  5
126FD8
  8
OBJECT
 10
12136.0
 20
-571.50000000000625
 30
0.0
 11
12131.0
 21
-516.0000000000008
 31
0.0
1001
ACDBBLOCKREPETAG
1070
     1
1071
      153
1005
126FD8
  0
LINE
  5
126FD9
  8
OBJECT
 10
12151.5
 20
-637.0
 30
0.0
 11
12144.833860723071
 21
-633.23218214782253
 31
0.0
1001
ACDBBLOCKREPETAG
1070
     1
1071
      154
1005
126FD9
  0
LINE
  5
126FDA
  8
HIDDEN
 10
12148.0
 20
-622.0
 30
0.0
 11
12148.0
 21
-508.0
 31
0.0
1001
ACDBBLOCKREPETAG
1070
     1
1071
      155
1005
126FDA
  0
LINE
  5
126FDB
  8
OBJECT
 10
10080.0
 20
-658.0
 30
0.0
 11
10089.244046403781
 21
-658.0
 31
0.0
1001
ACDBBLOCKREPETAG
1070
     1
1071
      130
1005
126FDB
  0
LINE
  5
126FDC
  8
OBJECT
 10
10086.75595359621
 20
-534.0
 30
0.0
 11
10080.0
 21
-534.0
 31
0.0
1001
ACDBBLOCKREPETAG
1070
     1
1071
      131
1005
126FDC
  0
LINE
  5
126FDD
  8
OBJECT
 10
10086.75595359621
 20
-534.0
 30
0.0
 11
10116.755953596219
 21
-516.0
 31
0.0
1001
ACDBBLOCKREPETAG
1070
     1
1071
      132
1005
126FDD
  0
LINE
  5
126FDE
  8
OBJECT
 10
10116.755953596219
 20
-516.0
 30
0.0
 11
10130.0
 21
-516.0000000000008
 31
0.0
1001
ACDBBLOCKREPETAG
1070
     1
1071
      133
1005
126FDE
  0
LINE
  5
126FDF
  8
OBJECT
 10
10130.0
 20
-640.0
 30
0.0
 11
10119.244046403781
 21
-640.0000000000008
 31
0.0
1001
ACDBBLOCKREPETAG
1070
     1
1071
      134
1005
126FDF
  0
LINE
  5
126FE0
  8
OBJECT
 10
10119.244046403781
 20
-640.0000000000008
 30
0.0
 11
10089.244046403781
 21
-658.0
 31
0.0
1001
ACDBBLOCKREPETAG
1070
     1
1071
      135
1005
126FE0
  0
LINE
  5
126FE1
  8
OBJECT
 10
10086.75595359621
 20
-534.0
 30
0.0
 11
10089.244046403781
 21
-658.0
 31
0.0
1001
ACDBBLOCKREPETAG
1070
     1
1071
      136
1005
126FE1
  0
LINE
  5
126FE2
  8
OBJECT
 10
10119.244046403781
 20
-640.0000000000008
 30
0.0
 11
10116.755953596219
 21
-516.0
 31
0.0
1001
ACDBBLOCKREPETAG
1070
     1
1071
      137
1005
126FE2
  0
LINE
  5
126FE3
  8
OBJECT
 10
10200.0
 20
-490.0
 30
0.0
 11
10193.0
 21
-490.0
 31
0.0
1001
ACDBBLOCKREPETAG
1070
     1
1071
      138
1005
126FE3
  0
LINE
  5
126FE4
  8
OBJECT
 10
10193.0
 20
-490.0
 30
0.0
 11
10193.0
 21
-637.0
 31
0.0
1001
ACDBBLOCKREPETAG
1070
     1
1071
      139
1005
126FE4
  0
LINE
  5
126FE5
  8
OBJECT
 10
10151.5
 20
-493.0
 30
0.0
 11
10151.5
 21
-637.0
 31
0.0
1001
ACDBBLOCKREPETAG
1070
     1
1071
      140
1005
126FE5
  0
LINE
  5
126FE6
  8
OBJECT
 10
10140.0
 20
-499.5
 30
0.0
 11
10140.0
 21
-630.49999999999977
 31
0.0
1001
ACDBBLOCKREPETAG
1070
     1
1071
      141
1005
126FE6
  0
LINE
  5
126FE7
  8
OBJECT
 10
10136.0
 20
-571.50000000000625
 30
0.0
 11
10136.0
 21
-637.0
 31
0.0
1001
ACDBBLOCKREPETAG
1070
     1
1071
      142
1005
126FE7
  0
LINE
  5
126FE8
  8
OBJECT
 10
10200.0
 20
-637.0
 30
0.0
 11
10200.0
 21
-490.0
 31
0.0
1001
ACDBBLOCKREPETAG
1070
     1
1071
      143
1005
126FE8
  0
LINE
  5
126FE9
  8
CENTER
 10
10215.0
 20
-565.0
 30
0.0
 11
10120.41441441441
 21
-565.0
 31
0.0
1001
ACDBBLOCKREPETAG
1070
     1
1071
      144
1005
126FE9
  0
LINE
  5
126FEA
  8
OBJECT
 10
10133.0
 20
-640.0
 30
0.0
 11
10130.0
 21
-640.0
 31
0.0
1001
ACDBBLOCKREPETAG
1070
     1
1071
      145
1005
126FEA
  0
ARC
  5
126FEB
  8
OBJECT
 10
10133.0
 20
-637.0
 30
0.0
 40
3.0
 50
270.0
 51
350.69274391267629
1001
ACDBBLOCKREPETAG
1070
     1
1071
      146
1005
126FEB
  0
ARC
  5
126FEC
  8
OBJECT
 10
10141.881517183059
 20
-638.45555918014554
 30
0.0
 40
6.0
 50
60.524110996874072
 51
170.69274391267621
1001
ACDBBLOCKREPETAG
1070
     1
1071
      147
1005
126FEC
  0
LINE
  5
126FED
  8
OBJECT
 10
10131.0
 20
-516.0000000000008
 30
0.0
 11
10130.0
 21
-516.0000000000008
 31
0.0
1001
ACDBBLOCKREPETAG
1070
     1
1071
      148
1005
126FED
  0
LINE
  5
126FEE
  8
OBJECT
 10
10200.0
 20
-637.0
 30
0.0
 11
10151.5
 21
-637.0
 31
0.0
1001
ACDBBLOCKREPETAG
1070
     1
1071
      149
1005
126FEE
  0
LINE
  5
126FEF
  8
OBJECT
 10
10151.5
 20
-493.0
 30
0.0
 11
10140.0
 21
-499.5
 31
0.0
1001
ACDBBLOCKREPETAG
1070
     1
1071
      150
1005
126FEF
  0
LINE
  5
126FF0
  8
OBJECT
 10
10193.0
 20
-493.0
 30
0.0
 11
10151.5
 21
-493.0
 31
0.0
1001
ACDBBLOCKREPETAG
1070
     1
1071
      151
1005
126FF0
  0
LINE
  5
126FF1
  8
OBJECT
 10
10140.0
 20
-499.5
 30
0.0
 11
10131.0
 21
-516.0
 31
0.0
1001
ACDBBLOCKREPETAG
1070
     1
1071
      152
1005
126FF1
  0
LINE
  5
126FF2
  8
OBJECT
 10
10136.0
 20
-571.50000000000625
 30
0.0
 11
10131.0
 21
-516.0000000000008
 31
0.0
1001
ACDBBLOCKREPETAG
1070
     1
1071
      153
1005
126FF2
  0
LINE
  5
126FF3
  8
OBJECT
 10
10151.5
 20
-637.0
 30
0.0
 11
10144.833860723071
 21
-633.23218214782253
 31
0.0
1001
ACDBBLOCKREPETAG
1070
     1
1071
      154
1005
126FF3
  0
LINE
  5
126FF4
  8
HIDDEN
 10
10148.0
 20
-622.0
 30
0.0
 11
10148.0
 21
-508.0
 31
0.0
1001
ACDBBLOCKREPETAG
1070
     1
1071
      155
1005
126FF4
  0
LINE
  5
126FF5
  8
OBJECT
 10
8079.9999999999964
 20
-658.0
 30
0.0
 11
8089.2440464037791
 21
-658.0
 31
0.0
1001
ACDBBLOCKREPETAG
1070
     1
1071
      130
1005
126FF5
  0
LINE
  5
126FF6
  8
OBJECT
 10
8086.7559535962146
 20
-534.0
 30
0.0
 11
8080.0000000000027
 21
-534.0
 31
0.0
1001
ACDBBLOCKREPETAG
1070
     1
1071
      131
1005
126FF6
  0
LINE
  5
126FF7
  8
OBJECT
 10
8086.7559535962146
 20
-534.0
 30
0.0
 11
8116.7559535962228
 21
-516.0
 31
0.0
1001
ACDBBLOCKREPETAG
1070
     1
1071
      132
1005
126FF7
  0
LINE
  5
126FF8
  8
OBJECT
 10
8116.7559535962228
 20
-516.0
 30
0.0
 11
8130.0
 21
-516.0000000000008
 31
0.0
1001
ACDBBLOCKREPETAG
1070
     1
1071
      133
1005
126FF8
  0
LINE
  5
126FF9
  8
OBJECT
 10
8130.0000000000018
 20
-640.0
 30
0.0
 11
8119.2440464037854
 21
-640.0000000000008
 31
0.0
1001
ACDBBLOCKREPETAG
1070
     1
1071
      134
1005
126FF9
  0
LINE
  5
126FFA
  8
OBJECT
 10
8119.2440464037854
 20
-640.0000000000008
 30
0.0
 11
8089.2440464037791
 21
-658.0
 31
0.0
1001
ACDBBLOCKREPETAG
1070
     1
1071
      135
1005
126FFA
  0
LINE
  5
126FFB
  8
OBJECT
 10
8086.7559535962146
 20
-534.0
 30
0.0
 11
8089.2440464037791
 21
-658.0
 31
0.0
1001
ACDBBLOCKREPETAG
1070
     1
1071
      136
1005
126FFB
  0
LINE
  5
126FFC
  8
OBJECT
 10
8119.2440464037854
 20
-640.0000000000008
 30
0.0
 11
8116.7559535962228
 21
-516.0
 31
0.0
1001
ACDBBLOCKREPETAG
1070
     1
1071
      137
1005
126FFC
  0
LINE
  5
126FFD
  8
OBJECT
 10
8200.0
 20
-490.0
 30
0.0
 11
8193.0
 21
-490.0
 31
0.0
1001
ACDBBLOCKREPETAG
1070
     1
1071
      138
1005
126FFD
  0
LINE
  5
126FFE
  8
OBJECT
 10
8193.0
 20
-490.0
 30
0.0
 11
8193.0
 21
-637.0
 31
0.0
1001
ACDBBLOCKREPETAG
1070
     1
1071
      139
1005
126FFE
  0
LINE
  5
126FFF
  8
OBJECT
 10
8151.5
 20
-493.0
 30
0.0
 11
8151.5
 21
-637.0
 31
0.0
1001
ACDBBLOCKREPETAG
1070
     1
1071
      140
1005
126FFF
  0
LINE
  5
127000
  8
OBJECT
 10
8140.0
 20
-499.5
 30
0.0
 11
8140.0
 21
-630.49999999999977
 31
0.0
1001
ACDBBLOCKREPETAG
1070
     1
1071
      141
1005
127000
  0
LINE
  5
127001
  8
OBJECT
 10
8136.0
 20
-571.50000000000625
 30
0.0
 11
8136.0
 21
-637.0
 31
0.0
1001
ACDBBLOCKREPETAG
1070
     1
1071
      142
1005
127001
  0
LINE
  5
127002
  8
OBJECT
 10
8200.0
 20
-637.0
 30
0.0
 11
8200.0
 21
-490.0
 31
0.0
1001
ACDBBLOCKREPETAG
1070
     1
1071
      143
1005
127002
  0
LINE
  5
127003
  8
CENTER
 10
8215.0
 20
-565.0
 30
0.0
 11
8120.4144144144166
 21
-565.0
 31
0.0
1001
ACDBBLOCKREPETAG
1070
     1
1071
      144
1005
127003
  0
LINE
  5
127004
  8
OBJECT
 10
8133.0000000000018
 20
-640.0
 30
0.0
 11
8130.0
 21
-640.0
 31
0.0
1001
ACDBBLOCKREPETAG
1070
     1
1071
      145
1005
127004
  0
ARC
  5
127005
  8
OBJECT
 10
8133.0
 20
-637.0
 30
0.0
 40
3.0
 50
270.0
 51
350.69274391268482
1001
ACDBBLOCKREPETAG
1070
     1
1071
      146
1005
127005
  0
ARC
  5
127006
  8
OBJECT
 10
8141.881517183062
 20
-638.45555918014554
 30
0.0
 40
6.0
 50
60.524110996874072
 51
170.6927439126847
1001
ACDBBLOCKREPETAG
1070
     1
1071
      147
1005
127006
  0
LINE
  5
127007
  8
OBJECT
 10
8131.0
 20
-516.0000000000008
 30
0.0
 11
8130.0
 21
-516.0000000000008
 31
0.0
1001
ACDBBLOCKREPETAG
1070
     1
1071
      148
1005
127007
  0
LINE
  5
127008
  8
OBJECT
 10
8200.0
 20
-637.0
 30
0.0
 11
8151.5
 21
-637.0
 31
0.0
1001
ACDBBLOCKREPETAG
1070
     1
1071
      149
1005
127008
  0
LINE
  5
127009
  8
OBJECT
 10
8151.5
 20
-493.0
 30
0.0
 11
8140.0
 21
-499.5
 31
0.0
1001
ACDBBLOCKREPETAG
1070
     1
1071
      150
1005
127009
  0
LINE
  5
12700A
  8
OBJECT
 10
8193.0
 20
-493.0
 30
0.0
 11
8151.5
 21
-493.0
 31
0.0
1001
ACDBBLOCKREPETAG
1070
     1
1071
      151
1005
12700A
  0
LINE
  5
12700B
  8
OBJECT
 10
8140.0
 20
-499.5
 30
0.0
 11
8131.0
 21
-516.0
 31
0.0
1001
ACDBBLOCKREPETAG
1070
     1
1071
      152
1005
12700B
  0
LINE
  5
12700C
  8
OBJECT
 10
8136.0
 20
-571.50000000000625
 30
0.0
 11
8131.0
 21
-516.0000000000008
 31
0.0
1001
ACDBBLOCKREPETAG
1070
     1
1071
      153
1005
12700C
  0
LINE
  5
12700D
  8
OBJECT
 10
8151.5
 20
-637.0
 30
0.0
 11
8144.8338607230726
 21
-633.23218214782253
 31
0.0
1001
ACDBBLOCKREPETAG
1070
     1
1071
      154
1005
12700D
  0
LINE
  5
12700E
  8
HIDDEN
 10
8148.0
 20
-622.0
 30
0.0
 11
8148.0
 21
-508.0
 31
0.0
1001
ACDBBLOCKREPETAG
1070
     1
1071
      155
1005
12700E
  0
LINE
  5
12700F
  8
OBJECT
 10
6079.9999999999982
 20
-658.0
 30
0.0
 11
6089.2440464037791
 21
-658.0
 31
0.0
1001
ACDBBLOCKREPETAG
1070
     1
1071
      130
1005
12700F
  0
LINE
  5
127010
  8
OBJECT
 10
6086.7559535962127
 20
-534.0
 30
0.0
 11
6080.0000000000036
 21
-534.0
 31
0.0
1001
ACDBBLOCKREPETAG
1070
     1
1071
      131
1005
127010
  0
LINE
  5
127011
  8
OBJECT
 10
6086.7559535962127
 20
-534.0
 30
0.0
 11
6116.7559535962209
 21
-516.0
 31
0.0
1001
ACDBBLOCKREPETAG
1070
     1
1071
      132
1005
127011
  0
LINE
  5
127012
  8
OBJECT
 10
6116.7559535962209
 20
-516.0
 30
0.0
 11
6130.0
 21
-516.0000000000008
 31
0.0
1001
ACDBBLOCKREPETAG
1070
     1
1071
      133
1005
127012
  0
LINE
  5
127013
  8
OBJECT
 10
6130.0000000000036
 20
-640.0
 30
0.0
 11
6119.2440464037854
 21
-640.0000000000008
 31
0.0
1001
ACDBBLOCKREPETAG
1070
     1
1071
      134
1005
127013
  0
LINE
  5
127014
  8
OBJECT
 10
6119.2440464037854
 20
-640.0000000000008
 30
0.0
 11
6089.2440464037791
 21
-658.0
 31
0.0
1001
ACDBBLOCKREPETAG
1070
     1
1071
      135
1005
127014
  0
LINE
  5
127015
  8
OBJECT
 10
6086.7559535962127
 20
-534.0
 30
0.0
 11
6089.2440464037791
 21
-658.0
 31
0.0
1001
ACDBBLOCKREPETAG
1070
     1
1071
      136
1005
127015
  0
LINE
  5
127016
  8
OBJECT
 10
6119.2440464037854
 20
-640.0000000000008
 30
0.0
 11
6116.7559535962209
 21
-516.0
 31
0.0
1001
ACDBBLOCKREPETAG
1070
     1
1071
      137
1005
127016
  0
LINE
  5
127017
  8
OBJECT
 10
6200.0
 20
-490.0
 30
0.0
 11
6193.0
 21
-490.0
 31
0.0
1001
ACDBBLOCKREPETAG
1070
     1
1071
      138
1005
127017
  0
LINE
  5
127018
  8
OBJECT
 10
6193.0
 20
-490.0
 30
0.0
 11
6193.0
 21
-637.0
 31
0.0
1001
ACDBBLOCKREPETAG
1070
     1
1071
      139
1005
127018
  0
LINE
  5
127019
  8
OBJECT
 10
6151.5
 20
-493.0
 30
0.0
 11
6151.5
 21
-637.0
 31
0.0
1001
ACDBBLOCKREPETAG
1070
     1
1071
      140
1005
127019
  0
LINE
  5
12701A
  8
OBJECT
 10
6140.0
 20
-499.5
 30
0.0
 11
6140.0
 21
-630.49999999999977
 31
0.0
1001
ACDBBLOCKREPETAG
1070
     1
1071
      141
1005
12701A
  0
LINE
  5
12701B
  8
OBJECT
 10
6136.0
 20
-571.50000000000625
 30
0.0
 11
6136.0
 21
-637.0
 31
0.0
1001
ACDBBLOCKREPETAG
1070
     1
1071
      142
1005
12701B
  0
LINE
  5
12701C
  8
OBJECT
 10
6200.0
 20
-637.0
 30
0.0
 11
6200.0
 21
-490.0
 31
0.0
1001
ACDBBLOCKREPETAG
1070
     1
1071
      143
1005
12701C
  0
LINE
  5
12701D
  8
CENTER
 10
6215.0
 20
-565.0
 30
0.0
 11
6120.4144144144148
 21
-565.0
 31
0.0
1001
ACDBBLOCKREPETAG
1070
     1
1071
      144
1005
12701D
  0
LINE
  5
12701E
  8
OBJECT
 10
6133.0000000000036
 20
-640.0
 30
0.0
 11
6130.0
 21
-640.0
 31
0.0
1001
ACDBBLOCKREPETAG
1070
     1
1071
      145
1005
12701E
  0
ARC
  5
12701F
  8
OBJECT
 10
6133.0
 20
-637.0
 30
0.0
 40
3.0
 50
270.0
 51
350.69274391268482
1001
ACDBBLOCKREPETAG
1070
     1
1071
      146
1005
12701F
  0
ARC
  5
127020
  8
OBJECT
 10
6141.8815171830647
 20
-638.45555918014554
 30
0.0
 40
6.0
 50
60.524110996874072
 51
170.6927439126847
1001
ACDBBLOCKREPETAG
1070
     1
1071
      147
1005
127020
  0
LINE
  5
127021
  8
OBJECT
 10
6131.0
 20
-516.0000000000008
 30
0.0
 11
6130.0
 21
-516.0000000000008
 31
0.0
1001
ACDBBLOCKREPETAG
1070
     1
1071
      148
1005
127021
  0
LINE
  5
127022
  8
OBJECT
 10
6200.0
 20
-637.0
 30
0.0
 11
6151.5
 21
-637.0
 31
0.0
1001
ACDBBLOCKREPETAG
1070
     1
1071
      149
1005
127022
  0
LINE
  5
127023
  8
OBJECT
 10
6151.5
 20
-493.0
 30
0.0
 11
6140.0
 21
-499.5
 31
0.0
1001
ACDBBLOCKREPETAG
1070
     1
1071
      150
1005
127023
  0
LINE
  5
127024
  8
OBJECT
 10
6193.0
 20
-493.0
 30
0.0
 11
6151.5
 21
-493.0
 31
0.0
1001
ACDBBLOCKREPETAG
1070
     1
1071
      151
1005
127024
  0
LINE
  5
127025
  8
OBJECT
 10
6140.0
 20
-499.5
 30
0.0
 11
6131.0
 21
-516.0
 31
0.0
1001
ACDBBLOCKREPETAG
1070
     1
1071
      152
1005
127025
  0
LINE
  5
127026
  8
OBJECT
 10
6136.0
 20
-571.50000000000625
 30
0.0
 11
6131.0
 21
-516.0000000000008
 31
0.0
1001
ACDBBLOCKREPETAG
1070
     1
1071
      153
1005
127026
  0
LINE
  5
127027
  8
OBJECT
 10
6151.5
 20
-637.0
 30
0.0
 11
6144.8338607230717
 21
-633.23218214782253
 31
0.0
1001
ACDBBLOCKREPETAG
1070
     1
1071
      154
1005
127027
  0
LINE
  5
127028
  8
HIDDEN
 10
6148.0
 20
-622.0
 30
0.0
 11
6148.0
 21
-508.0
 31
0.0
1001
ACDBBLOCKREPETAG
1070
     1
1071
      155
1005
127028
  0
LINE
  5
127029
  8
OBJECT
 10
4079.9999999999959
 20
-658.0
 30
0.0
 11
4089.24404640378
 21
-658.0
 31
0.0
1001
ACDBBLOCKREPETAG
1070
     1
1071
      130
1005
127029
  0
LINE
  5
12702A
  8
OBJECT
 10
4086.7559535962118
 20
-534.0
 30
0.0
 11
4080.0000000000041
 21
-534.0
 31
0.0
1001
ACDBBLOCKREPETAG
1070
     1
1071
      131
1005
12702A
  0
LINE
  5
12702B
  8
OBJECT
 10
4086.7559535962118
 20
-534.0
 30
0.0
 11
4116.7559535962209
 21
-516.0
 31
0.0
1001
ACDBBLOCKREPETAG
1070
     1
1071
      132
1005
12702B
  0
LINE
  5
12702C
  8
OBJECT
 10
4116.7559535962209
 20
-516.0
 30
0.0
 11
4130.0
 21
-516.0000000000008
 31
0.0
1001
ACDBBLOCKREPETAG
1070
     1
1071
      133
1005
12702C
  0
LINE
  5
12702D
  8
OBJECT
 10
4130.0000000000045
 20
-640.0
 30
0.0
 11
4119.2440464037854
 21
-640.0000000000008
 31
0.0
1001
ACDBBLOCKREPETAG
1070
     1
1071
      134
1005
12702D
  0
LINE
  5
12702E
  8
OBJECT
 10
4119.2440464037854
 20
-640.0000000000008
 30
0.0
 11
4089.24404640378
 21
-658.0
 31
0.0
1001
ACDBBLOCKREPETAG
1070
     1
1071
      135
1005
12702E
  0
LINE
  5
12702F
  8
OBJECT
 10
4086.7559535962118
 20
-534.0
 30
0.0
 11
4089.24404640378
 21
-658.0
 31
0.0
1001
ACDBBLOCKREPETAG
1070
     1
1071
      136
1005
12702F
  0
LINE
  5
127030
  8
OBJECT
 10
4119.2440464037854
 20
-640.0000000000008
 30
0.0
 11
4116.7559535962209
 21
-516.0
 31
0.0
1001
ACDBBLOCKREPETAG
1070
     1
1071
      137
1005
127030
  0
LINE
  5
127031
  8
OBJECT
 10
4200.0
 20
-490.0
 30
0.0
 11
4193.0
 21
-490.0
 31
0.0
1001
ACDBBLOCKREPETAG
1070
     1
1071
      138
1005
127031
  0
LINE
  5
127032
  8
OBJECT
 10
4193.0
 20
-490.0
 30
0.0
 11
4193.0
 21
-637.0
 31
0.0
1001
ACDBBLOCKREPETAG
1070
     1
1071
      139
1005
127032
  0
LINE
  5
127033
  8
OBJECT
 10
4151.5
 20
-493.0
 30
0.0
 11
4151.5
 21
-637.0
 31
0.0
1001
ACDBBLOCKREPETAG
1070
     1
1071
      140
1005
127033
  0
LINE
  5
127034
  8
OBJECT
 10
4140.0
 20
-499.5
 30
0.0
 11
4140.0
 21
-630.49999999999977
 31
0.0
1001
ACDBBLOCKREPETAG
1070
     1
1071
      141
1005
127034
  0
LINE
  5
127035
  8
OBJECT
 10
4136.0
 20
-571.50000000000625
 30
0.0
 11
4136.0
 21
-637.0
 31
0.0
1001
ACDBBLOCKREPETAG
1070
     1
1071
      142
1005
127035
  0
LINE
  5
127036
  8
OBJECT
 10
4200.0
 20
-637.0
 30
0.0
 11
4200.0
 21
-490.0
 31
0.0
1001
ACDBBLOCKREPETAG
1070
     1
1071
      143
1005
127036
  0
LINE
  5
127037
  8
CENTER
 10
4215.0
 20
-565.0
 30
0.0
 11
4120.4144144144148
 21
-565.0
 31
0.0
1001
ACDBBLOCKREPETAG
1070
     1
1071
      144
1005
127037
  0
LINE
  5
127038
  8
OBJECT
 10
4133.0000000000018
 20
-640.0
 30
0.0
 11
4130.0
 21
-640.0
 31
0.0
1001
ACDBBLOCKREPETAG
1070
     1
1071
      145
1005
127038
  0
ARC
  5
127039
  8
OBJECT
 10
4133.0
 20
-637.0
 30
0.0
 40
3.0
 50
270.0
 51
350.69274391268482
1001
ACDBBLOCKREPETAG
1070
     1
1071
      146
1005
127039
  0
ARC
  5
12703A
  8
OBJECT
 10
4141.8815171830638
 20
-638.45555918014554
 30
0.0
 40
6.0
 50
60.524110996896773
 51
170.6927439126847
1001
ACDBBLOCKREPETAG
1070
     1
1071
      147
1005
12703A
  0
LINE
  5
12703B
  8
OBJECT
 10
4131.0
 20
-516.0000000000008
 30
0.0
 11
4130.0
 21
-516.0000000000008
 31
0.0
1001
ACDBBLOCKREPETAG
1070
     1
1071
      148
1005
12703B
  0
LINE
  5
12703C
  8
OBJECT
 10
4200.0
 20
-637.0
 30
0.0
 11
4151.5
 21
-637.0
 31
0.0
1001
ACDBBLOCKREPETAG
1070
     1
1071
      149
1005
12703C
  0
LINE
  5
12703D
  8
OBJECT
 10
4151.5
 20
-493.0
 30
0.0
 11
4140.0
 21
-499.5
 31
0.0
1001
ACDBBLOCKREPETAG
1070
     1
1071
      150
1005
12703D
  0
LINE
  5
12703E
  8
OBJECT
 10
4193.0
 20
-493.0
 30
0.0
 11
4151.5
 21
-493.0
 31
0.0
1001
ACDBBLOCKREPETAG
1070
     1
1071
      151
1005
12703E
  0
LINE
  5
12703F
  8
OBJECT
 10
4140.0
 20
-499.5
 30
0.0
 11
4131.0
 21
-516.0
 31
0.0
1001
ACDBBLOCKREPETAG
1070
     1
1071
      152
1005
12703F
  0
LINE
  5
127040
  8
OBJECT
 10
4136.0
 20
-571.50000000000625
 30
0.0
 11
4131.0
 21
-516.0000000000008
 31
0.0
1001
ACDBBLOCKREPETAG
1070
     1
1071
      153
1005
127040
  0
LINE
  5
127041
  8
OBJECT
 10
4151.5
 20
-637.0
 30
0.0
 11
4144.8338607230708
 21
-633.23218214782253
 31
0.0
1001
ACDBBLOCKREPETAG
1070
     1
1071
      154
1005
127041
  0
LINE
  5
127042
  8
HIDDEN
 10
4148.0
 20
-622.0
 30
0.0
 11
4148.0
 21
-508.0
 31
0.0
1001
ACDBBLOCKREPETAG
1070
     1
1071
      155
1005
127042
  0
LINE
  5
127043
  8
OBJECT
 10
2079.9999999999959
 20
-658.0
 30
0.0
 11
2089.24404640378
 21
-658.0
 31
0.0
1001
ACDBBLOCKREPETAG
1070
     1
1071
      130
1005
127043
  0
LINE
  5
127044
  8
OBJECT
 10
2086.7559535962141
 20
-534.0
 30
0.0
 11
2080.0000000000041
 21
-534.0
 31
0.0
1001
ACDBBLOCKREPETAG
1070
     1
1071
      131
1005
127044
  0
LINE
  5
127045
  8
OBJECT
 10
2086.7559535962141
 20
-534.0
 30
0.0
 11
2116.7559535962209
 21
-516.0
 31
0.0
1001
ACDBBLOCKREPETAG
1070
     1
1071
      132
1005
127045
  0
LINE
  5
127046
  8
OBJECT
 10
2116.7559535962209
 20
-516.0
 30
0.0
 11
2130.0
 21
-516.0000000000008
 31
0.0
1001
ACDBBLOCKREPETAG
1070
     1
1071
      133
1005
127046
  0
LINE
  5
127047
  8
OBJECT
 10
2130.0000000000041
 20
-640.0
 30
0.0
 11
2119.2440464037868
 21
-640.0000000000008
 31
0.0
1001
ACDBBLOCKREPETAG
1070
     1
1071
      134
1005
127047
  0
LINE
  5
127048
  8
OBJECT
 10
2119.2440464037868
 20
-640.0000000000008
 30
0.0
 11
2089.24404640378
 21
-658.0
 31
0.0
1001
ACDBBLOCKREPETAG
1070
     1
1071
      135
1005
127048
  0
LINE
  5
127049
  8
OBJECT
 10
2086.7559535962141
 20
-534.0
 30
0.0
 11
2089.24404640378
 21
-658.0
 31
0.0
1001
ACDBBLOCKREPETAG
1070
     1
1071
      136
1005
127049
  0
LINE
  5
12704A
  8
OBJECT
 10
2119.2440464037868
 20
-640.0000000000008
 30
0.0
 11
2116.7559535962209
 21
-516.0
 31
0.0
1001
ACDBBLOCKREPETAG
1070
     1
1071
      137
1005
12704A
  0
LINE
  5
12704B
  8
OBJECT
 10
2200.0
 20
-490.0
 30
0.0
 11
2193.0
 21
-490.0
 31
0.0
1001
ACDBBLOCKREPETAG
1070
     1
1071
      138
1005
12704B
  0
LINE
  5
12704C
  8
OBJECT
 10
2193.0
 20
-490.0
 30
0.0
 11
2193.0
 21
-637.0
 31
0.0
1001
ACDBBLOCKREPETAG
1070
     1
1071
      139
1005
12704C
  0
LINE
  5
12704D
  8
OBJECT
 10
2151.5
 20
-493.0
 30
0.0
 11
2151.5
 21
-637.0
 31
0.0
1001
ACDBBLOCKREPETAG
1070
     1
1071
      140
1005
12704D
  0
LINE
  5
12704E
  8
OBJECT
 10
2140.0
 20
-499.5
 30
0.0
 11
2140.0
 21
-630.49999999999977
 31
0.0
1001
ACDBBLOCKREPETAG
1070
     1
1071
      141
1005
12704E
  0
LINE
  5
12704F
  8
OBJECT
 10
2136.0
 20
-571.50000000000625
 30
0.0
 11
2136.0
 21
-637.0
 31
0.0
1001
ACDBBLOCKREPETAG
1070
     1
1071
      142
1005
12704F
  0
LINE
  5
127050
  8
OBJECT
 10
2200.0
 20
-637.0
 30
0.0
 11
2200.0
 21
-490.0
 31
0.0
1001
ACDBBLOCKREPETAG
1070
     1
1071
      143
1005
127050
  0
LINE
  5
127051
  8
CENTER
 10
2215.0
 20
-565.0
 30
0.0
 11
2120.4144144144152
 21
-565.0
 31
0.0
1001
ACDBBLOCKREPETAG
1070
     1
1071
      144
1005
127051
  0
LINE
  5
127052
  8
OBJECT
 10
2133.0000000000041
 20
-640.0
 30
0.0
 11
2130.0
 21
-640.0
 31
0.0
1001
ACDBBLOCKREPETAG
1070
     1
1071
      145
1005
127052
  0
ARC
  5
127053
  8
OBJECT
 10
2133.0
 20
-637.0
 30
0.0
 40
3.0
 50
270.0
 51
350.69274391268482
1001
ACDBBLOCKREPETAG
1070
     1
1071
      146
1005
127053
  0
ARC
  5
127054
  8
OBJECT
 10
2141.8815171830652
 20
-638.45555918014554
 30
0.0
 40
6.0
 50
60.524110996896773
 51
170.6927439126847
1001
ACDBBLOCKREPETAG
1070
     1
1071
      147
1005
127054
  0
LINE
  5
127055
  8
OBJECT
 10
2131.0
 20
-516.0000000000008
 30
0.0
 11
2130.0
 21
-516.0000000000008
 31
0.0
1001
ACDBBLOCKREPETAG
1070
     1
1071
      148
1005
127055
  0
LINE
  5
127056
  8
OBJECT
 10
2200.0
 20
-637.0
 30
0.0
 11
2151.5
 21
-637.0
 31
0.0
1001
ACDBBLOCKREPETAG
1070
     1
1071
      149
1005
127056
  0
LINE
  5
127057
  8
OBJECT
 10
2151.5
 20
-493.0
 30
0.0
 11
2140.0
 21
-499.5
 31
0.0
1001
ACDBBLOCKREPETAG
1070
     1
1071
      150
1005
127057
  0
LINE
  5
127058
  8
OBJECT
 10
2193.0
 20
-493.0
 30
0.0
 11
2151.5
 21
-493.0
 31
0.0
1001
ACDBBLOCKREPETAG
1070
     1
1071
      151
1005
127058
  0
LINE
  5
127059
  8
OBJECT
 10
2140.0
 20
-499.5
 30
0.0
 11
2131.0
 21
-516.0
 31
0.0
1001
ACDBBLOCKREPETAG
1070
     1
1071
      152
1005
127059
  0
LINE
  5
12705A
  8
OBJECT
 10
2136.0
 20
-571.50000000000625
 30
0.0
 11
2131.0
 21
-516.0000000000008
 31
0.0
1001
ACDBBLOCKREPETAG
1070
     1
1071
      153
1005
12705A
  0
LINE
  5
12705B
  8
OBJECT
 10
2151.5
 20
-637.0
 30
0.0
 11
2144.833860723073
 21
-633.23218214782253
 31
0.0
1001
ACDBBLOCKREPETAG
1070
     1
1071
      154
1005
12705B
  0
LINE
  5
12705C
  8
HIDDEN
 10
2148.0
 20
-622.0
 30
0.0
 11
2148.0
 21
-508.0
 31
0.0
1001
ACDBBLOCKREPETAG
1070
     1
1071
      155
1005
12705C
  0
LINE
  5
12705D
  8
OBJECT
 10
2200.0
 20
-124.9999999999991
 30
0.0
 11
2193.0
 21
-124.9999999999991
 31
0.0
1001
ACDBBLOCKREPETAG
1070
     1
1071
      135
1005
12705D
  0
LINE
  5
12705E
  8
OBJECT
 10
2193.0
 20
-124.9999999999991
 30
0.0
 11
2193.0
 21
-274.99999999999909
 31
0.0
1001
ACDBBLOCKREPETAG
1070
     1
1071
      136
1005
12705E
  0
LINE
  5
12705F
  8
OBJECT
 10
2151.5
 20
-127.9999999999991
 30
0.0
 11
2151.5
 21
-271.99999999999909
 31
0.0
1001
ACDBBLOCKREPETAG
1070
     1
1071
      137
1005
12705F
  0
LINE
  5
127060
  8
OBJECT
 10
2140.0
 20
-134.49999999999909
 30
0.0
 11
2140.0
 21
-265.49999999999909
 31
0.0
1001
ACDBBLOCKREPETAG
1070
     1
1071
      138
1005
127060
  0
LINE
  5
127061
  8
OBJECT
 10
2193.0
 20
-274.99999999999909
 30
0.0
 11
2200.0
 21
-274.99999999999909
 31
0.0
1001
ACDBBLOCKREPETAG
1070
     1
1071
      139
1005
127061
  0
LINE
  5
127062
  8
OBJECT
 10
2200.0
 20
-274.99999999999909
 30
0.0
 11
2200.0
 21
-124.9999999999991
 31
0.0
1001
ACDBBLOCKREPETAG
1070
     1
1071
      140
1005
127062
  0
LINE
  5
127063
  8
HIDDEN
 10
2148.0
 20
-256.99999999999909
 30
0.0
 11
2148.0
 21
-142.99999999999909
 31
0.0
1001
ACDBBLOCKREPETAG
1070
     1
1071
      141
1005
127063
  0
LINE
  5
127064
  8
CENTER
 10
2215.0
 20
-199.99999999999909
 30
0.0
 11
2080.0
 21
-199.99999999999909
 31
0.0
1001
ACDBBLOCKREPETAG
1070
     1
1071
      142
1005
127064
  0
LINE
  5
127065
  8
OBJECT
 10
2136.0
 20
-261.99999999999909
 30
0.0
 11
2080.0
 21
-261.99999999999909
 31
0.0
1001
ACDBBLOCKREPETAG
1070
     1
1071
      143
1005
127065
  0
LINE
  5
127066
  8
OBJECT
 10
2193.0
 20
-271.99999999999909
 30
0.0
 11
2151.5
 21
-271.99999999999909
 31
0.0
1001
ACDBBLOCKREPETAG
1070
     1
1071
      144
1005
127066
  0
LINE
  5
127067
  8
OBJECT
 10
2151.5
 20
-271.99999999999909
 30
0.0
 11
2140.0
 21
-265.49999999999909
 31
0.0
1001
ACDBBLOCKREPETAG
1070
     1
1071
      145
1005
127067
  0
LINE
  5
127068
  8
OBJECT
 10
2140.0
 20
-265.49999999999909
 30
0.0
 11
2136.0
 21
-261.99999999999909
 31
0.0
1001
ACDBBLOCKREPETAG
1070
     1
1071
      146
1005
127068
  0
LINE
  5
127069
  8
OBJECT
 10
2151.5
 20
-127.9999999999991
 30
0.0
 11
2140.0
 21
-134.49999999999909
 31
0.0
1001
ACDBBLOCKREPETAG
1070
     1
1071
      147
1005
127069
  0
LINE
  5
12706A
  8
OBJECT
 10
2140.0
 20
-134.49999999999909
 30
0.0
 11
2136.0
 21
-137.99999999999909
 31
0.0
1001
ACDBBLOCKREPETAG
1070
     1
1071
      148
1005
12706A
  0
ARC
  5
12706B
  8
OBJECT
 10
2517.9000000000019
 20
-199.99999999999909
 30
0.0
 40
386.89999999999998
 50
170.7787013625784
 51
189.22129863742151
1001
ACDBBLOCKREPETAG
1070
     1
1071
      149
1005
12706B
  0
LINE
  5
12706C
  8
OBJECT
 10
2136.0
 20
-137.99999999999909
 30
0.0
 11
2080.0
 21
-137.99999999999909
 31
0.0
1001
ACDBBLOCKREPETAG
1070
     1
1071
      150
1005
12706C
  0
LINE
  5
12706D
  8
OBJECT
 10
2193.0
 20
-127.9999999999991
 30
0.0
 11
2151.5
 21
-127.9999999999991
 31
0.0
1001
ACDBBLOCKREPETAG
1070
     1
1071
      151
1005
12706D
  0
ARC
  5
12706E
  8
OBJECT
 10
3662.3364238109898
 20
-199.99999999999909
 30
0.0
 40
1545.58047021477
 50
177.7009985541269
 51
182.29900144587299
1001
ACDBBLOCKREPETAG
1070
     1
1071
      153
1005
12706E
  0
ARC
  5
12706F
  8
OBJECT
 10
3632.3364238108588
 20
-199.99999999999909
 30
0.0
 40
1545.580470214647
 50
177.7009985541269
 51
182.29900144587299
1001
ACDBBLOCKREPETAG
1070
     1
1071
      154
1005
12706F
  0
LINE
  5
127070
  8
SLIM
 10
12414.999999999991
 20
-659.47385309434696
 30
0.0
 11
12419.47385309434
 21
-654.99999999999966
 31
0.0
1001
ACAD
1010
0.0
1020
0.0
1030
0.0
1001
ACDBBLOCKREPETAG
1070
     1
1071
        0
1005
0
  0
LINE
  5
127071
  8
SLIM
 10
12414.999999999991
 20
-677.43436533648446
 30
0.0
 11
12437.434365336479
 21
-654.99999999999966
 31
0.0
1001
ACAD
1010
0.0
1020
0.0
1030
0.0
1001
ACDBBLOCKREPETAG
1070
     1
1071
       10
1005
127071
  0
LINE
  5
127072
  8
SLIM
 10
12414.999999999991
 20
-695.39487757862241
 30
0.0
 11
12455.394877578619
 21
-654.99999999999966
 31
0.0
1001
ACAD
1010
0.0
1020
0.0
1030
0.0
1001
ACDBBLOCKREPETAG
1070
     1
1071
       11
1005
127072
  0
LINE
  5
127073
  8
SLIM
 10
12414.999999999991
 20
-713.35538982076014
 30
0.0
 11
12473.35538982075
 21
-654.99999999999966
 31
0.0
1001
ACAD
1010
0.0
1020
0.0
1030
0.0
1001
ACDBBLOCKREPETAG
1070
     1
1071
       12
1005
127073
  0
LINE
  5
127074
  8
SLIM
 10
12414.999999999991
 20
-731.31590206289775
 30
0.0
 11
12491.31590206289
 21
-654.99999999999966
 31
0.0
1001
ACAD
1010
0.0
1020
0.0
1030
0.0
1001
ACDBBLOCKREPETAG
1070
     1
1071
       13
1005
127074
  0
LINE
  5
127075
  8
SLIM
 10
12414.999999999991
 20
-749.27641430503525
 30
0.0
 11
12509.27641430503
 21
-654.99999999999966
 31
0.0
1001
ACAD
1010
0.0
1020
0.0
1030
0.0
1001
ACDBBLOCKREPETAG
1070
     1
1071
       14
1005
127075
  0
LINE
  5
127076
  8
SLIM
 10
12414.999999999991
 20
-767.23692654717331
 30
0.0
 11
12527.23692654717
 21
-654.99999999999966
 31
0.0
1001
ACAD
1010
0.0
1020
0.0
1030
0.0
1001
ACDBBLOCKREPETAG
1070
     1
1071
       15
1005
127076
  0
LINE
  5
127077
  8
SLIM
 10
12414.999999999991
 20
-785.19743878931081
 30
0.0
 11
12545.19743878931
 21
-654.99999999999966
 31
0.0
1001
ACAD
1010
0.0
1020
0.0
1030
0.0
1001
ACDBBLOCKREPETAG
1070
     1
1071
       16
1005
127077
  0
LINE
  5
127078
  8
SLIM
 10
12415.0
 20
-803.15795103144865
 30
0.0
 11
12563.15795103144
 21
-654.99999999999966
 31
0.0
1001
ACAD
1010
0.0
1020
0.0
1030
0.0
1001
ACDBBLOCKREPETAG
1070
     1
1071
       17
1005
127078
  0
LINE
  5
127079
  8
SLIM
 10
12415.0
 20
-821.11846327358626
 30
0.0
 11
12581.11846327358
 21
-654.99999999999966
 31
0.0
1001
ACAD
1010
0.0
1020
0.0
1030
0.0
1001
ACDBBLOCKREPETAG
1070
     1
1071
       18
1005
127079
  0
LINE
  5
12707A
  8
SLIM
 10
12415.0
 20
-839.07897551572387
 30
0.0
 11
12585.000000000009
 21
-669.07897551571614
 31
0.0
1001
ACAD
1010
0.0
1020
0.0
1030
0.0
1001
ACDBBLOCKREPETAG
1070
     1
1071
       19
1005
12707A
  0
LINE
  5
12707B
  8
SLIM
 10
12415.0
 20
-857.03948775786182
 30
0.0
 11
12585.0
 21
-687.03948775785511
 31
0.0
1001
ACAD
1010
0.0
1020
0.0
1030
0.0
1001
ACDBBLOCKREPETAG
1070
     1
1071
       20
1005
12707B
  0
LINE
  5
12707C
  8
SLIM
 10
12415.283600749561
 20
-874.71639925044155
 30
0.0
 11
12585.0
 21
-704.99999999999409
 31
0.0
1001
ACAD
1010
0.0
1020
0.0
1030
0.0
1001
ACDBBLOCKREPETAG
1070
     1
1071
       21
1005
12707C
  0
LINE
  5
12707D
  8
SLIM
 10
12417.49791047804
 20
-890.46260176409692
 30
0.0
 11
12585.0
 21
-722.96051224213272
 31
0.0
1001
ACAD
1010
0.0
1020
0.0
1030
0.0
1001
ACDBBLOCKREPETAG
1070
     1
1071
       22
1005
12707D
  0
LINE
  5
12707E
  8
SLIM
 10
12419.71222020652
 20
-906.20880427775239
 30
0.0
 11
12585.0
 21
-740.92102448427181
 31
0.0
1001
ACAD
1010
0.0
1020
0.0
1030
0.0
1001
ACDBBLOCKREPETAG
1070
     1
1071
       23
1005
12707E
  0
LINE
  5
12707F
  8
SLIM
 10
12421.92652993501
 20
-921.95500679140764
 30
0.0
 11
12585.0
 21
-758.88153672641045
 31
0.0
1001
ACAD
1010
0.0
1020
0.0
1030
0.0
1001
ACDBBLOCKREPETAG
1070
     1
1071
       24
1005
12707F
  0
LINE
  5
127080
  8
SLIM
 10
12424.140839663491
 20
-937.701209305063
 30
0.0
 11
12585.0
 21
-776.84204896854953
 31
0.0
1001
ACAD
1010
0.0
1020
0.0
1030
0.0
1001
ACDBBLOCKREPETAG
1070
     1
1071
       25
1005
127080
  0
LINE
  5
127081
  8
SLIM
 10
12426.35514939196
 20
-953.44741181871825
 30
0.0
 11
12585.0
 21
-794.80256121068851
 31
0.0
1001
ACAD
1010
0.0
1020
0.0
1030
0.0
1001
ACDBBLOCKREPETAG
1070
     1
1071
       26
1005
127081
  0
LINE
  5
127082
  8
SLIM
 10
12428.56945912045
 20
-969.19361433237384
 30
0.0
 11
12585.0
 21
-812.76307345282714
 31
0.0
1001
ACAD
1010
0.0
1020
0.0
1030
0.0
1001
ACDBBLOCKREPETAG
1070
     1
1071
       27
1005
127082
  0
LINE
  5
127083
  8
SLIM
 10
12430.78376884894
 20
-984.93981684602909
 30
0.0
 11
12585.0
 21
-830.72358569496612
 31
0.0
1001
ACAD
1010
0.0
1020
0.0
1030
0.0
1001
ACDBBLOCKREPETAG
1070
     1
1071
       28
1005
127083
  0
LINE
  5
127084
  8
SLIM
 10
12432.998078577421
 20
-1000.686019359684
 30
0.0
 11
12585.0
 21
-848.68409793710521
 31
0.0
1001
ACAD
1010
0.0
1020
0.0
1030
0.0
1001
ACDBBLOCKREPETAG
1070
     1
1071
       29
1005
127084
  0
LINE
  5
127085
  8
SLIM
 10
12432.999999999991
 20
-1018.644610179251
 30
0.0
 11
12585.0
 21
-866.64461017924395
 31
0.0
1001
ACAD
1010
0.0
1020
0.0
1030
0.0
1001
ACDBBLOCKREPETAG
1070
     1
1071
       30
1005
127085
  0
LINE
  5
127086
  8
SLIM
 10
12432.999999999991
 20
-1036.60512242139
 30
0.0
 11
12583.05183715436
 21
-886.55328526701646
 31
0.0
1001
ACAD
1010
0.0
1020
0.0
1030
0.0
1001
ACDBBLOCKREPETAG
1070
     1
1071
       31
1005
127086
  0
LINE
  5
127087
  8
SLIM
 10
12442.565634663521
 20
-1044.9999999999959
 30
0.0
 11
12580.11284424201
 21
-907.45279042150355
 31
0.0
1001
ACAD
1010
0.0
1020
0.0
1030
0.0
1001
ACDBBLOCKREPETAG
1070
     1
1071
       32
1005
127087
  0
LINE
  5
127088
  8
SLIM
 10
12460.52614690566
 20
-1044.9999999999959
 30
0.0
 11
12577.17385132967
 21
-928.35229557599109
 31
0.0
1001
ACAD
1010
0.0
1020
0.0
1030
0.0
1001
ACDBBLOCKREPETAG
1070
     1
1071
       33
1005
127088
  0
LINE
  5
127089
  8
SLIM
 10
12478.4866591478
 20
-1044.999999999997
 30
0.0
 11
12574.23485841732
 21
-949.25180073047841
 31
0.0
1001
ACAD
1010
0.0
1020
0.0
1030
0.0
1001
ACDBBLOCKREPETAG
1070
     1
1071
       34
1005
127089
  0
LINE
  5
12708A
  8
SLIM
 10
12496.44717138994
 20
-1044.999999999998
 30
0.0
 11
12571.29586550497
 21
-970.15130588496572
 31
0.0
1001
ACAD
1010
0.0
1020
0.0
1030
0.0
1001
ACDBBLOCKREPETAG
1070
     1
1071
       35
1005
12708A
  0
LINE
  5
12708B
  8
SLIM
 10
12514.40768363206
 20
-1044.999999999998
 30
0.0
 11
12568.35687259262
 21
-991.05081103945292
 31
0.0
1001
ACAD
1010
0.0
1020
0.0
1030
0.0
1001
ACDBBLOCKREPETAG
1070
     1
1071
       36
1005
12708B
  0
LINE
  5
12708C
  8
SLIM
 10
12532.368195874211
 20
-1044.9999999999991
 30
0.0
 11
12567.000000000009
 21
-1010.368195874201
 31
0.0
1001
ACAD
1010
0.0
1020
0.0
1030
0.0
1001
ACDBBLOCKREPETAG
1070
     1
1071
       37
1005
12708C
  0
LINE
  5
12708D
  8
SLIM
 10
12550.328708116351
 20
-1044.9999999999991
 30
0.0
 11
12567.000000000009
 21
-1028.3287081163401
 31
0.0
1001
ACAD
1010
0.0
1020
0.0
1030
0.0
1001
ACDBBLOCKREPETAG
1070
     1
1071
       38
1005
12708D
  0
LINE
  5
12708E
  8
OBJECT
 10
12432.999999999991
 20
-1044.9999999999959
 30
0.0
 11
12567.000000000009
 21
-1044.9999999999991
 31
0.0
1001
ACDBBLOCKREPETAG
1070
     1
1071
        1
1005
12708E
  0
LINE
  5
12708F
  8
OBJECT
 10
12414.999999999991
 20
-654.99999999999966
 30
0.0
 11
12415.0
 21
-872.69968280914077
 31
0.0
1001
ACDBBLOCKREPETAG
1070
     1
1071
        2
1005
12708F
  0
LINE
  5
127090
  8
OBJECT
 10
12585.000000000009
 20
-654.99999999999966
 30
0.0
 11
12585.0
 21
-872.69968280917192
 31
0.0
1001
ACDBBLOCKREPETAG
1070
     1
1071
        3
1005
127090
  0
LINE
  5
127091
  8
OBJECT
 10
12415.0
 20
-872.69968280914077
 30
0.0
 11
12432.999999999991
 21
-1000.699682809081
 31
0.0
1001
ACDBBLOCKREPETAG
1070
     1
1071
        4
1005
127091
  0
LINE
  5
127092
  8
OBJECT
 10
12567.000000000009
 20
-1000.699682809128
 30
0.0
 11
12585.0
 21
-872.69968280917192
 31
0.0
1001
ACDBBLOCKREPETAG
1070
     1
1071
        5
1005
127092
  0
LINE
  5
127093
  8
OBJECT
 10
12585.000000000009
 20
-654.99999999999966
 30
0.0
 11
12414.999999999991
 21
-654.99999999999966
 31
0.0
1001
ACDBBLOCKREPETAG
1070
     1
1071
        6
1005
127093
  0
LINE
  5
127094
  8
OBJECT
 10
12432.999999999991
 20
-1000.699682809081
 30
0.0
 11
12432.999999999991
 21
-1044.9999999999959
 31
0.0
1001
ACDBBLOCKREPETAG
1070
     1
1071
        8
1005
127094
  0
LINE
  5
127095
  8
OBJECT
 10
12567.000000000009
 20
-1000.699682809128
 30
0.0
 11
12567.000000000009
 21
-1044.9999999999991
 31
0.0
1001
ACDBBLOCKREPETAG
1070
     1
1071
        9
1005
127095
  0
LINE
  5
127096
  8
SLIM
 10
11914.999999999991
 20
-659.47385309434696
 30
0.0
 11
11919.47385309434
 21
-654.99999999999966
 31
0.0
1001
ACAD
1010
0.0
1020
0.0
1030
0.0
1001
ACDBBLOCKREPETAG
1070
     1
1071
        0
1005
0
  0
LINE
  5
127097
  8
SLIM
 10
11914.999999999991
 20
-677.43436533648446
 30
0.0
 11
11937.434365336479
 21
-654.99999999999966
 31
0.0
1001
ACAD
1010
0.0
1020
0.0
1030
0.0
1001
ACDBBLOCKREPETAG
1070
     1
1071
       10
1005
127097
  0
LINE
  5
127098
  8
SLIM
 10
11914.999999999991
 20
-695.39487757862241
 30
0.0
 11
11955.39487757861
 21
-654.99999999999966
 31
0.0
1001
ACAD
1010
0.0
1020
0.0
1030
0.0
1001
ACDBBLOCKREPETAG
1070
     1
1071
       11
1005
127098
  0
LINE
  5
127099
  8
SLIM
 10
11914.999999999991
 20
-713.35538982076014
 30
0.0
 11
11973.35538982075
 21
-654.99999999999966
 31
0.0
1001
ACAD
1010
0.0
1020
0.0
1030
0.0
1001
ACDBBLOCKREPETAG
1070
     1
1071
       12
1005
127099
  0
LINE
  5
12709A
  8
SLIM
 10
11914.999999999991
 20
-731.31590206289775
 30
0.0
 11
11991.31590206289
 21
-654.99999999999966
 31
0.0
1001
ACAD
1010
0.0
1020
0.0
1030
0.0
1001
ACDBBLOCKREPETAG
1070
     1
1071
       13
1005
12709A
  0
LINE
  5
12709B
  8
SLIM
 10
11915.0
 20
-749.27641430503525
 30
0.0
 11
12009.27641430503
 21
-654.99999999999966
 31
0.0
1001
ACAD
1010
0.0
1020
0.0
1030
0.0
1001
ACDBBLOCKREPETAG
1070
     1
1071
       14
1005
12709B
  0
LINE
  5
12709C
  8
SLIM
 10
11915.0
 20
-767.23692654717331
 30
0.0
 11
12027.23692654717
 21
-654.99999999999966
 31
0.0
1001
ACAD
1010
0.0
1020
0.0
1030
0.0
1001
ACDBBLOCKREPETAG
1070
     1
1071
       15
1005
12709C
  0
LINE
  5
12709D
  8
SLIM
 10
11915.0
 20
-785.19743878931081
 30
0.0
 11
12045.19743878931
 21
-654.99999999999966
 31
0.0
1001
ACAD
1010
0.0
1020
0.0
1030
0.0
1001
ACDBBLOCKREPETAG
1070
     1
1071
       16
1005
12709D
  0
LINE
  5
12709E
  8
SLIM
 10
11915.0
 20
-803.15795103144865
 30
0.0
 11
12063.15795103144
 21
-654.99999999999966
 31
0.0
1001
ACAD
1010
0.0
1020
0.0
1030
0.0
1001
ACDBBLOCKREPETAG
1070
     1
1071
       17
1005
12709E
  0
LINE
  5
12709F
  8
SLIM
 10
11915.0
 20
-821.11846327358626
 30
0.0
 11
12081.11846327358
 21
-654.99999999999966
 31
0.0
1001
ACAD
1010
0.0
1020
0.0
1030
0.0
1001
ACDBBLOCKREPETAG
1070
     1
1071
       18
1005
12709F
  0
LINE
  5
1270A0
  8
SLIM
 10
11915.0
 20
-839.07897551572387
 30
0.0
 11
12085.000000000009
 21
-669.07897551571614
 31
0.0
1001
ACAD
1010
0.0
1020
0.0
1030
0.0
1001
ACDBBLOCKREPETAG
1070
     1
1071
       19
1005
1270A0
  0
LINE
  5
1270A1
  8
SLIM
 10
11915.0
 20
-857.03948775786182
 30
0.0
 11
12085.0
 21
-687.03948775785511
 31
0.0
1001
ACAD
1010
0.0
1020
0.0
1030
0.0
1001
ACDBBLOCKREPETAG
1070
     1
1071
       20
1005
1270A1
  0
LINE
  5
1270A2
  8
SLIM
 10
11915.28360074955
 20
-874.71639925044155
 30
0.0
 11
12085.0
 21
-704.99999999999409
 31
0.0
1001
ACAD
1010
0.0
1020
0.0
1030
0.0
1001
ACDBBLOCKREPETAG
1070
     1
1071
       21
1005
1270A2
  0
LINE
  5
1270A3
  8
SLIM
 10
11917.49791047804
 20
-890.46260176409692
 30
0.0
 11
12085.0
 21
-722.96051224213272
 31
0.0
1001
ACAD
1010
0.0
1020
0.0
1030
0.0
1001
ACDBBLOCKREPETAG
1070
     1
1071
       22
1005
1270A3
  0
LINE
  5
1270A4
  8
SLIM
 10
11919.71222020652
 20
-906.20880427775239
 30
0.0
 11
12085.0
 21
-740.92102448427181
 31
0.0
1001
ACAD
1010
0.0
1020
0.0
1030
0.0
1001
ACDBBLOCKREPETAG
1070
     1
1071
       23
1005
1270A4
  0
LINE
  5
1270A5
  8
SLIM
 10
11921.926529935001
 20
-921.95500679140764
 30
0.0
 11
12085.0
 21
-758.88153672641045
 31
0.0
1001
ACAD
1010
0.0
1020
0.0
1030
0.0
1001
ACDBBLOCKREPETAG
1070
     1
1071
       24
1005
1270A5
  0
LINE
  5
1270A6
  8
SLIM
 10
11924.140839663491
 20
-937.701209305063
 30
0.0
 11
12085.0
 21
-776.84204896854953
 31
0.0
1001
ACAD
1010
0.0
1020
0.0
1030
0.0
1001
ACDBBLOCKREPETAG
1070
     1
1071
       25
1005
1270A6
  0
LINE
  5
1270A7
  8
SLIM
 10
11926.35514939196
 20
-953.44741181871825
 30
0.0
 11
12085.0
 21
-794.80256121068851
 31
0.0
1001
ACAD
1010
0.0
1020
0.0
1030
0.0
1001
ACDBBLOCKREPETAG
1070
     1
1071
       26
1005
1270A7
  0
LINE
  5
1270A8
  8
SLIM
 10
11928.56945912045
 20
-969.19361433237384
 30
0.0
 11
12085.0
 21
-812.76307345282714
 31
0.0
1001
ACAD
1010
0.0
1020
0.0
1030
0.0
1001
ACDBBLOCKREPETAG
1070
     1
1071
       27
1005
1270A8
  0
LINE
  5
1270A9
  8
SLIM
 10
11930.78376884894
 20
-984.93981684602909
 30
0.0
 11
12085.0
 21
-830.72358569496612
 31
0.0
1001
ACAD
1010
0.0
1020
0.0
1030
0.0
1001
ACDBBLOCKREPETAG
1070
     1
1071
       28
1005
1270A9
  0
LINE
  5
1270AA
  8
SLIM
 10
11932.998078577421
 20
-1000.686019359684
 30
0.0
 11
12085.0
 21
-848.68409793710521
 31
0.0
1001
ACAD
1010
0.0
1020
0.0
1030
0.0
1001
ACDBBLOCKREPETAG
1070
     1
1071
       29
1005
1270AA
  0
LINE
  5
1270AB
  8
SLIM
 10
11932.999999999991
 20
-1018.644610179251
 30
0.0
 11
12085.0
 21
-866.64461017924395
 31
0.0
1001
ACAD
1010
0.0
1020
0.0
1030
0.0
1001
ACDBBLOCKREPETAG
1070
     1
1071
       30
1005
1270AB
  0
LINE
  5
1270AC
  8
SLIM
 10
11932.999999999991
 20
-1036.60512242139
 30
0.0
 11
12083.05183715436
 21
-886.55328526701646
 31
0.0
1001
ACAD
1010
0.0
1020
0.0
1030
0.0
1001
ACDBBLOCKREPETAG
1070
     1
1071
       31
1005
1270AC
  0
LINE
  5
1270AD
  8
SLIM
 10
11942.565634663521
 20
-1044.9999999999959
 30
0.0
 11
12080.112844242019
 21
-907.45279042150355
 31
0.0
1001
ACAD
1010
0.0
1020
0.0
1030
0.0
1001
ACDBBLOCKREPETAG
1070
     1
1071
       32
1005
1270AD
  0
LINE
  5
1270AE
  8
SLIM
 10
11960.52614690566
 20
-1044.9999999999959
 30
0.0
 11
12077.17385132967
 21
-928.35229557599109
 31
0.0
1001
ACAD
1010
0.0
1020
0.0
1030
0.0
1001
ACDBBLOCKREPETAG
1070
     1
1071
       33
1005
1270AE
  0
LINE
  5
1270AF
  8
SLIM
 10
11978.4866591478
 20
-1044.999999999997
 30
0.0
 11
12074.23485841732
 21
-949.25180073047841
 31
0.0
1001
ACAD
1010
0.0
1020
0.0
1030
0.0
1001
ACDBBLOCKREPETAG
1070
     1
1071
       34
1005
1270AF
  0
LINE
  5
1270B0
  8
SLIM
 10
11996.44717138994
 20
-1044.999999999998
 30
0.0
 11
12071.29586550497
 21
-970.15130588496572
 31
0.0
1001
ACAD
1010
0.0
1020
0.0
1030
0.0
1001
ACDBBLOCKREPETAG
1070
     1
1071
       35
1005
1270B0
  0
LINE
  5
1270B1
  8
SLIM
 10
12014.40768363208
 20
-1044.999999999998
 30
0.0
 11
12068.35687259262
 21
-991.05081103945292
 31
0.0
1001
ACAD
1010
0.0
1020
0.0
1030
0.0
1001
ACDBBLOCKREPETAG
1070
     1
1071
       36
1005
1270B1
  0
LINE
  5
1270B2
  8
SLIM
 10
12032.368195874211
 20
-1044.9999999999991
 30
0.0
 11
12067.0
 21
-1010.368195874201
 31
0.0
1001
ACAD
1010
0.0
1020
0.0
1030
0.0
1001
ACDBBLOCKREPETAG
1070
     1
1071
       37
1005
1270B2
  0
LINE
  5
1270B3
  8
SLIM
 10
12050.328708116351
 20
-1044.9999999999991
 30
0.0
 11
12067.0
 21
-1028.3287081163401
 31
0.0
1001
ACAD
1010
0.0
1020
0.0
1030
0.0
1001
ACDBBLOCKREPETAG
1070
     1
1071
       38
1005
1270B3
  0
LINE
  5
1270B4
  8
OBJECT
 10
11932.999999999991
 20
-1044.9999999999959
 30
0.0
 11
12067.0
 21
-1044.9999999999991
 31
0.0
1001
ACDBBLOCKREPETAG
1070
     1
1071
        1
1005
1270B4
  0
LINE
  5
1270B5
  8
OBJECT
 10
11914.999999999991
 20
-654.99999999999966
 30
0.0
 11
11915.0
 21
-872.69968280914077
 31
0.0
1001
ACDBBLOCKREPETAG
1070
     1
1071
        2
1005
1270B5
  0
LINE
  5
1270B6
  8
OBJECT
 10
12085.000000000009
 20
-654.99999999999966
 30
0.0
 11
12085.0
 21
-872.69968280917192
 31
0.0
1001
ACDBBLOCKREPETAG
1070
     1
1071
        3
1005
1270B6
  0
LINE
  5
1270B7
  8
OBJECT
 10
11915.0
 20
-872.69968280914077
 30
0.0
 11
11932.999999999991
 21
-1000.699682809081
 31
0.0
1001
ACDBBLOCKREPETAG
1070
     1
1071
        4
1005
1270B7
  0
LINE
  5
1270B8
  8
OBJECT
 10
12067.0
 20
-1000.699682809128
 30
0.0
 11
12085.0
 21
-872.69968280917192
 31
0.0
1001
ACDBBLOCKREPETAG
1070
     1
1071
        5
1005
1270B8
  0
LINE
  5
1270B9
  8
OBJECT
 10
12085.000000000009
 20
-654.99999999999966
 30
0.0
 11
11914.999999999991
 21
-654.99999999999966
 31
0.0
1001
ACDBBLOCKREPETAG
1070
     1
1071
        6
1005
1270B9
  0
LINE
  5
1270BA
  8
OBJECT
 10
11932.999999999991
 20
-1000.699682809081
 30
0.0
 11
11932.999999999991
 21
-1044.9999999999959
 31
0.0
1001
ACDBBLOCKREPETAG
1070
     1
1071
        8
1005
1270BA
  0
LINE
  5
1270BB
  8
OBJECT
 10
12067.0
 20
-1000.699682809128
 30
0.0
 11
12067.0
 21
-1044.9999999999991
 31
0.0
1001
ACDBBLOCKREPETAG
1070
     1
1071
        9
1005
1270BB
  0
LINE
  5
1270BC
  8
SLIM
 10
10414.999999999991
 20
-659.47385309434696
 30
0.0
 11
10419.47385309434
 21
-654.99999999999966
 31
0.0
1001
ACAD
1010
0.0
1020
0.0
1030
0.0
1001
ACDBBLOCKREPETAG
1070
     1
1071
        0
1005
0
  0
LINE
  5
1270BD
  8
SLIM
 10
10414.999999999991
 20
-677.43436533648446
 30
0.0
 11
10437.434365336479
 21
-654.99999999999966
 31
0.0
1001
ACAD
1010
0.0
1020
0.0
1030
0.0
1001
ACDBBLOCKREPETAG
1070
     1
1071
       10
1005
1270BD
  0
LINE
  5
1270BE
  8
SLIM
 10
10414.999999999991
 20
-695.39487757862241
 30
0.0
 11
10455.394877578619
 21
-654.99999999999966
 31
0.0
1001
ACAD
1010
0.0
1020
0.0
1030
0.0
1001
ACDBBLOCKREPETAG
1070
     1
1071
       11
1005
1270BE
  0
LINE
  5
1270BF
  8
SLIM
 10
10414.999999999991
 20
-713.35538982076014
 30
0.0
 11
10473.35538982075
 21
-654.99999999999966
 31
0.0
1001
ACAD
1010
0.0
1020
0.0
1030
0.0
1001
ACDBBLOCKREPETAG
1070
     1
1071
       12
1005
1270BF
  0
LINE
  5
1270C0
  8
SLIM
 10
10414.999999999991
 20
-731.31590206289775
 30
0.0
 11
10491.31590206289
 21
-654.99999999999966
 31
0.0
1001
ACAD
1010
0.0
1020
0.0
1030
0.0
1001
ACDBBLOCKREPETAG
1070
     1
1071
       13
1005
1270C0
  0
LINE
  5
1270C1
  8
SLIM
 10
10414.999999999991
 20
-749.27641430503525
 30
0.0
 11
10509.27641430503
 21
-654.99999999999966
 31
0.0
1001
ACAD
1010
0.0
1020
0.0
1030
0.0
1001
ACDBBLOCKREPETAG
1070
     1
1071
       14
1005
1270C1
  0
LINE
  5
1270C2
  8
SLIM
 10
10414.999999999991
 20
-767.23692654717331
 30
0.0
 11
10527.23692654717
 21
-654.99999999999966
 31
0.0
1001
ACAD
1010
0.0
1020
0.0
1030
0.0
1001
ACDBBLOCKREPETAG
1070
     1
1071
       15
1005
1270C2
  0
LINE
  5
1270C3
  8
SLIM
 10
10414.999999999991
 20
-785.19743878931081
 30
0.0
 11
10545.19743878931
 21
-654.99999999999966
 31
0.0
1001
ACAD
1010
0.0
1020
0.0
1030
0.0
1001
ACDBBLOCKREPETAG
1070
     1
1071
       16
1005
1270C3
  0
LINE
  5
1270C4
  8
SLIM
 10
10415.0
 20
-803.15795103144865
 30
0.0
 11
10563.15795103144
 21
-654.99999999999966
 31
0.0
1001
ACAD
1010
0.0
1020
0.0
1030
0.0
1001
ACDBBLOCKREPETAG
1070
     1
1071
       17
1005
1270C4
  0
LINE
  5
1270C5
  8
SLIM
 10
10415.0
 20
-821.11846327358626
 30
0.0
 11
10581.11846327358
 21
-654.99999999999966
 31
0.0
1001
ACAD
1010
0.0
1020
0.0
1030
0.0
1001
ACDBBLOCKREPETAG
1070
     1
1071
       18
1005
1270C5
  0
LINE
  5
1270C6
  8
SLIM
 10
10415.0
 20
-839.07897551572387
 30
0.0
 11
10585.000000000009
 21
-669.07897551571614
 31
0.0
1001
ACAD
1010
0.0
1020
0.0
1030
0.0
1001
ACDBBLOCKREPETAG
1070
     1
1071
       19
1005
1270C6
  0
LINE
  5
1270C7
  8
SLIM
 10
10415.0
 20
-857.03948775786182
 30
0.0
 11
10585.0
 21
-687.03948775785511
 31
0.0
1001
ACAD
1010
0.0
1020
0.0
1030
0.0
1001
ACDBBLOCKREPETAG
1070
     1
1071
       20
1005
1270C7
  0
LINE
  5
1270C8
  8
SLIM
 10
10415.283600749561
 20
-874.71639925044155
 30
0.0
 11
10585.0
 21
-704.99999999999409
 31
0.0
1001
ACAD
1010
0.0
1020
0.0
1030
0.0
1001
ACDBBLOCKREPETAG
1070
     1
1071
       21
1005
1270C8
  0
LINE
  5
1270C9
  8
SLIM
 10
10417.49791047804
 20
-890.46260176409692
 30
0.0
 11
10585.0
 21
-722.96051224213272
 31
0.0
1001
ACAD
1010
0.0
1020
0.0
1030
0.0
1001
ACDBBLOCKREPETAG
1070
     1
1071
       22
1005
1270C9
  0
LINE
  5
1270CA
  8
SLIM
 10
10419.71222020652
 20
-906.20880427775239
 30
0.0
 11
10585.0
 21
-740.92102448427181
 31
0.0
1001
ACAD
1010
0.0
1020
0.0
1030
0.0
1001
ACDBBLOCKREPETAG
1070
     1
1071
       23
1005
1270CA
  0
LINE
  5
1270CB
  8
SLIM
 10
10421.926529935001
 20
-921.95500679140764
 30
0.0
 11
10585.0
 21
-758.88153672641045
 31
0.0
1001
ACAD
1010
0.0
1020
0.0
1030
0.0
1001
ACDBBLOCKREPETAG
1070
     1
1071
       24
1005
1270CB
  0
LINE
  5
1270CC
  8
SLIM
 10
10424.140839663491
 20
-937.701209305063
 30
0.0
 11
10585.0
 21
-776.84204896854953
 31
0.0
1001
ACAD
1010
0.0
1020
0.0
1030
0.0
1001
ACDBBLOCKREPETAG
1070
     1
1071
       25
1005
1270CC
  0
LINE
  5
1270CD
  8
SLIM
 10
10426.355149391969
 20
-953.44741181871825
 30
0.0
 11
10585.0
 21
-794.80256121068851
 31
0.0
1001
ACAD
1010
0.0
1020
0.0
1030
0.0
1001
ACDBBLOCKREPETAG
1070
     1
1071
       26
1005
1270CD
  0
LINE
  5
1270CE
  8
SLIM
 10
10428.56945912045
 20
-969.19361433237384
 30
0.0
 11
10585.0
 21
-812.76307345282714
 31
0.0
1001
ACAD
1010
0.0
1020
0.0
1030
0.0
1001
ACDBBLOCKREPETAG
1070
     1
1071
       27
1005
1270CE
  0
LINE
  5
1270CF
  8
SLIM
 10
10430.78376884894
 20
-984.93981684602909
 30
0.0
 11
10585.0
 21
-830.72358569496612
 31
0.0
1001
ACAD
1010
0.0
1020
0.0
1030
0.0
1001
ACDBBLOCKREPETAG
1070
     1
1071
       28
1005
1270CF
  0
LINE
  5
1270D0
  8
SLIM
 10
10432.998078577421
 20
-1000.686019359684
 30
0.0
 11
10585.0
 21
-848.68409793710521
 31
0.0
1001
ACAD
1010
0.0
1020
0.0
1030
0.0
1001
ACDBBLOCKREPETAG
1070
     1
1071
       29
1005
1270D0
  0
LINE
  5
1270D1
  8
SLIM
 10
10432.999999999991
 20
-1018.644610179251
 30
0.0
 11
10585.0
 21
-866.64461017924395
 31
0.0
1001
ACAD
1010
0.0
1020
0.0
1030
0.0
1001
ACDBBLOCKREPETAG
1070
     1
1071
       30
1005
1270D1
  0
LINE
  5
1270D2
  8
SLIM
 10
10432.999999999991
 20
-1036.60512242139
 30
0.0
 11
10583.05183715436
 21
-886.55328526701646
 31
0.0
1001
ACAD
1010
0.0
1020
0.0
1030
0.0
1001
ACDBBLOCKREPETAG
1070
     1
1071
       31
1005
1270D2
  0
LINE
  5
1270D3
  8
SLIM
 10
10442.565634663521
 20
-1044.9999999999959
 30
0.0
 11
10580.112844242019
 21
-907.45279042150355
 31
0.0
1001
ACAD
1010
0.0
1020
0.0
1030
0.0
1001
ACDBBLOCKREPETAG
1070
     1
1071
       32
1005
1270D3
  0
LINE
  5
1270D4
  8
SLIM
 10
10460.52614690566
 20
-1044.9999999999959
 30
0.0
 11
10577.17385132967
 21
-928.35229557599109
 31
0.0
1001
ACAD
1010
0.0
1020
0.0
1030
0.0
1001
ACDBBLOCKREPETAG
1070
     1
1071
       33
1005
1270D4
  0
LINE
  5
1270D5
  8
SLIM
 10
10478.4866591478
 20
-1044.999999999997
 30
0.0
 11
10574.23485841732
 21
-949.25180073047841
 31
0.0
1001
ACAD
1010
0.0
1020
0.0
1030
0.0
1001
ACDBBLOCKREPETAG
1070
     1
1071
       34
1005
1270D5
  0
LINE
  5
1270D6
  8
SLIM
 10
10496.44717138994
 20
-1044.999999999998
 30
0.0
 11
10571.29586550497
 21
-970.15130588496572
 31
0.0
1001
ACAD
1010
0.0
1020
0.0
1030
0.0
1001
ACDBBLOCKREPETAG
1070
     1
1071
       35
1005
1270D6
  0
LINE
  5
1270D7
  8
SLIM
 10
10514.40768363206
 20
-1044.999999999998
 30
0.0
 11
10568.35687259262
 21
-991.05081103945292
 31
0.0
1001
ACAD
1010
0.0
1020
0.0
1030
0.0
1001
ACDBBLOCKREPETAG
1070
     1
1071
       36
1005
1270D7
  0
LINE
  5
1270D8
  8
SLIM
 10
10532.368195874211
 20
-1044.9999999999991
 30
0.0
 11
10567.000000000009
 21
-1010.368195874201
 31
0.0
1001
ACAD
1010
0.0
1020
0.0
1030
0.0
1001
ACDBBLOCKREPETAG
1070
     1
1071
       37
1005
1270D8
  0
LINE
  5
1270D9
  8
SLIM
 10
10550.328708116351
 20
-1044.9999999999991
 30
0.0
 11
10567.000000000009
 21
-1028.3287081163401
 31
0.0
1001
ACAD
1010
0.0
1020
0.0
1030
0.0
1001
ACDBBLOCKREPETAG
1070
     1
1071
       38
1005
1270D9
  0
LINE
  5
1270DA
  8
OBJECT
 10
10432.999999999991
 20
-1044.9999999999959
 30
0.0
 11
10567.000000000009
 21
-1044.9999999999991
 31
0.0
1001
ACDBBLOCKREPETAG
1070
     1
1071
        1
1005
1270DA
  0
LINE
  5
1270DB
  8
OBJECT
 10
10414.999999999991
 20
-654.99999999999966
 30
0.0
 11
10415.0
 21
-872.69968280914077
 31
0.0
1001
ACDBBLOCKREPETAG
1070
     1
1071
        2
1005
1270DB
  0
LINE
  5
1270DC
  8
OBJECT
 10
10585.000000000009
 20
-654.99999999999966
 30
0.0
 11
10585.0
 21
-872.69968280917192
 31
0.0
1001
ACDBBLOCKREPETAG
1070
     1
1071
        3
1005
1270DC
  0
LINE
  5
1270DD
  8
OBJECT
 10
10415.0
 20
-872.69968280914077
 30
0.0
 11
10432.999999999991
 21
-1000.699682809081
 31
0.0
1001
ACDBBLOCKREPETAG
1070
     1
1071
        4
1005
1270DD
  0
LINE
  5
1270DE
  8
OBJECT
 10
10567.000000000009
 20
-1000.699682809128
 30
0.0
 11
10585.0
 21
-872.69968280917192
 31
0.0
1001
ACDBBLOCKREPETAG
1070
     1
1071
        5
1005
1270DE
  0
LINE
  5
1270DF
  8
OBJECT
 10
10585.000000000009
 20
-654.99999999999966
 30
0.0
 11
10414.999999999991
 21
-654.99999999999966
 31
0.0
1001
ACDBBLOCKREPETAG
1070
     1
1071
        6
1005
1270DF
  0
LINE
  5
1270E0
  8
OBJECT
 10
10432.999999999991
 20
-1000.699682809081
 30
0.0
 11
10432.999999999991
 21
-1044.9999999999959
 31
0.0
1001
ACDBBLOCKREPETAG
1070
     1
1071
        8
1005
1270E0
  0
LINE
  5
1270E1
  8
OBJECT
 10
10567.000000000009
 20
-1000.699682809128
 30
0.0
 11
10567.000000000009
 21
-1044.9999999999991
 31
0.0
1001
ACDBBLOCKREPETAG
1070
     1
1071
        9
1005
1270E1
  0
LINE
  5
1270E2
  8
SLIM
 10
9914.9999999999927
 20
-659.47385309434696
 30
0.0
 11
9919.4738530943396
 21
-654.99999999999966
 31
0.0
1001
ACAD
1010
0.0
1020
0.0
1030
0.0
1001
ACDBBLOCKREPETAG
1070
     1
1071
        0
1005
0
  0
LINE
  5
1270E3
  8
SLIM
 10
9914.9999999999927
 20
-677.43436533648446
 30
0.0
 11
9937.4343653364795
 21
-654.99999999999966
 31
0.0
1001
ACAD
1010
0.0
1020
0.0
1030
0.0
1001
ACDBBLOCKREPETAG
1070
     1
1071
       10
1005
1270E3
  0
LINE
  5
1270E4
  8
SLIM
 10
9914.9999999999945
 20
-695.39487757862241
 30
0.0
 11
9955.3948775786212
 21
-654.99999999999966
 31
0.0
1001
ACAD
1010
0.0
1020
0.0
1030
0.0
1001
ACDBBLOCKREPETAG
1070
     1
1071
       11
1005
1270E4
  0
LINE
  5
1270E5
  8
SLIM
 10
9914.9999999999945
 20
-713.35538982076014
 30
0.0
 11
9973.3553898207556
 21
-654.99999999999966
 31
0.0
1001
ACAD
1010
0.0
1020
0.0
1030
0.0
1001
ACDBBLOCKREPETAG
1070
     1
1071
       12
1005
1270E5
  0
LINE
  5
1270E6
  8
SLIM
 10
9914.9999999999945
 20
-731.31590206289775
 30
0.0
 11
9991.3159020628937
 21
-654.99999999999966
 31
0.0
1001
ACAD
1010
0.0
1020
0.0
1030
0.0
1001
ACDBBLOCKREPETAG
1070
     1
1071
       13
1005
1270E6
  0
LINE
  5
1270E7
  8
SLIM
 10
9914.9999999999964
 20
-749.27641430503525
 30
0.0
 11
10009.27641430503
 21
-654.99999999999966
 31
0.0
1001
ACAD
1010
0.0
1020
0.0
1030
0.0
1001
ACDBBLOCKREPETAG
1070
     1
1071
       14
1005
1270E7
  0
LINE
  5
1270E8
  8
SLIM
 10
9914.9999999999964
 20
-767.23692654717331
 30
0.0
 11
10027.23692654717
 21
-654.99999999999966
 31
0.0
1001
ACAD
1010
0.0
1020
0.0
1030
0.0
1001
ACDBBLOCKREPETAG
1070
     1
1071
       15
1005
1270E8
  0
LINE
  5
1270E9
  8
SLIM
 10
9914.9999999999964
 20
-785.19743878931081
 30
0.0
 11
10045.19743878931
 21
-654.99999999999966
 31
0.0
1001
ACAD
1010
0.0
1020
0.0
1030
0.0
1001
ACDBBLOCKREPETAG
1070
     1
1071
       16
1005
1270E9
  0
LINE
  5
1270EA
  8
SLIM
 10
9914.9999999999982
 20
-803.15795103144865
 30
0.0
 11
10063.15795103144
 21
-654.99999999999966
 31
0.0
1001
ACAD
1010
0.0
1020
0.0
1030
0.0
1001
ACDBBLOCKREPETAG
1070
     1
1071
       17
1005
1270EA
  0
LINE
  5
1270EB
  8
SLIM
 10
9914.9999999999982
 20
-821.11846327358626
 30
0.0
 11
10081.11846327358
 21
-654.99999999999966
 31
0.0
1001
ACAD
1010
0.0
1020
0.0
1030
0.0
1001
ACDBBLOCKREPETAG
1070
     1
1071
       18
1005
1270EB
  0
LINE
  5
1270EC
  8
SLIM
 10
9914.9999999999982
 20
-839.07897551572387
 30
0.0
 11
10085.000000000009
 21
-669.07897551571614
 31
0.0
1001
ACAD
1010
0.0
1020
0.0
1030
0.0
1001
ACDBBLOCKREPETAG
1070
     1
1071
       19
1005
1270EC
  0
LINE
  5
1270ED
  8
SLIM
 10
9915.0
 20
-857.03948775786182
 30
0.0
 11
10085.0
 21
-687.03948775785511
 31
0.0
1001
ACAD
1010
0.0
1020
0.0
1030
0.0
1001
ACDBBLOCKREPETAG
1070
     1
1071
       20
1005
1270ED
  0
LINE
  5
1270EE
  8
SLIM
 10
9915.2836007495607
 20
-874.71639925044155
 30
0.0
 11
10085.0
 21
-704.99999999999409
 31
0.0
1001
ACAD
1010
0.0
1020
0.0
1030
0.0
1001
ACDBBLOCKREPETAG
1070
     1
1071
       21
1005
1270EE
  0
LINE
  5
1270EF
  8
SLIM
 10
9917.4979104780396
 20
-890.46260176409692
 30
0.0
 11
10085.0
 21
-722.96051224213272
 31
0.0
1001
ACAD
1010
0.0
1020
0.0
1030
0.0
1001
ACDBBLOCKREPETAG
1070
     1
1071
       22
1005
1270EF
  0
LINE
  5
1270F0
  8
SLIM
 10
9919.7122202065257
 20
-906.20880427775239
 30
0.0
 11
10085.0
 21
-740.92102448427181
 31
0.0
1001
ACAD
1010
0.0
1020
0.0
1030
0.0
1001
ACDBBLOCKREPETAG
1070
     1
1071
       23
1005
1270F0
  0
LINE
  5
1270F1
  8
SLIM
 10
9921.9265299350063
 20
-921.95500679140764
 30
0.0
 11
10085.0
 21
-758.88153672641045
 31
0.0
1001
ACAD
1010
0.0
1020
0.0
1030
0.0
1001
ACDBBLOCKREPETAG
1070
     1
1071
       24
1005
1270F1
  0
LINE
  5
1270F2
  8
SLIM
 10
9924.1408396634924
 20
-937.701209305063
 30
0.0
 11
10085.0
 21
-776.84204896854953
 31
0.0
1001
ACAD
1010
0.0
1020
0.0
1030
0.0
1001
ACDBBLOCKREPETAG
1070
     1
1071
       25
1005
1270F2
  0
LINE
  5
1270F3
  8
SLIM
 10
9926.3551493919731
 20
-953.44741181871825
 30
0.0
 11
10085.0
 21
-794.80256121068851
 31
0.0
1001
ACAD
1010
0.0
1020
0.0
1030
0.0
1001
ACDBBLOCKREPETAG
1070
     1
1071
       26
1005
1270F3
  0
LINE
  5
1270F4
  8
SLIM
 10
9928.5694591204574
 20
-969.19361433237384
 30
0.0
 11
10085.0
 21
-812.76307345282714
 31
0.0
1001
ACAD
1010
0.0
1020
0.0
1030
0.0
1001
ACDBBLOCKREPETAG
1070
     1
1071
       27
1005
1270F4
  0
LINE
  5
1270F5
  8
SLIM
 10
9930.7837688489417
 20
-984.93981684602909
 30
0.0
 11
10085.0
 21
-830.72358569496612
 31
0.0
1001
ACAD
1010
0.0
1020
0.0
1030
0.0
1001
ACDBBLOCKREPETAG
1070
     1
1071
       28
1005
1270F5
  0
LINE
  5
1270F6
  8
SLIM
 10
9932.9980785774187
 20
-1000.686019359684
 30
0.0
 11
10085.0
 21
-848.68409793710521
 31
0.0
1001
ACAD
1010
0.0
1020
0.0
1030
0.0
1001
ACDBBLOCKREPETAG
1070
     1
1071
       29
1005
1270F6
  0
LINE
  5
1270F7
  8
SLIM
 10
9932.9999999999927
 20
-1018.644610179251
 30
0.0
 11
10085.0
 21
-866.64461017924395
 31
0.0
1001
ACAD
1010
0.0
1020
0.0
1030
0.0
1001
ACDBBLOCKREPETAG
1070
     1
1071
       30
1005
1270F7
  0
LINE
  5
1270F8
  8
SLIM
 10
9932.9999999999927
 20
-1036.60512242139
 30
0.0
 11
10083.05183715436
 21
-886.55328526701646
 31
0.0
1001
ACAD
1010
0.0
1020
0.0
1030
0.0
1001
ACDBBLOCKREPETAG
1070
     1
1071
       31
1005
1270F8
  0
LINE
  5
1270F9
  8
SLIM
 10
9942.5656346635242
 20
-1044.9999999999959
 30
0.0
 11
10080.11284424201
 21
-907.45279042150355
 31
0.0
1001
ACAD
1010
0.0
1020
0.0
1030
0.0
1001
ACDBBLOCKREPETAG
1070
     1
1071
       32
1005
1270F9
  0
LINE
  5
1270FA
  8
SLIM
 10
9960.5261469056641
 20
-1044.9999999999959
 30
0.0
 11
10077.17385132967
 21
-928.35229557599109
 31
0.0
1001
ACAD
1010
0.0
1020
0.0
1030
0.0
1001
ACDBBLOCKREPETAG
1070
     1
1071
       33
1005
1270FA
  0
LINE
  5
1270FB
  8
SLIM
 10
9978.4866591478003
 20
-1044.999999999997
 30
0.0
 11
10074.23485841732
 21
-949.25180073047841
 31
0.0
1001
ACAD
1010
0.0
1020
0.0
1030
0.0
1001
ACDBBLOCKREPETAG
1070
     1
1071
       34
1005
1270FB
  0
LINE
  5
1270FC
  8
SLIM
 10
9996.4471713899384
 20
-1044.999999999998
 30
0.0
 11
10071.29586550497
 21
-970.15130588496572
 31
0.0
1001
ACAD
1010
0.0
1020
0.0
1030
0.0
1001
ACDBBLOCKREPETAG
1070
     1
1071
       35
1005
1270FC
  0
LINE
  5
1270FD
  8
SLIM
 10
10014.40768363206
 20
-1044.999999999998
 30
0.0
 11
10068.35687259262
 21
-991.05081103945292
 31
0.0
1001
ACAD
1010
0.0
1020
0.0
1030
0.0
1001
ACDBBLOCKREPETAG
1070
     1
1071
       36
1005
1270FD
  0
LINE
  5
1270FE
  8
SLIM
 10
10032.368195874211
 20
-1044.9999999999991
 30
0.0
 11
10067.000000000009
 21
-1010.368195874201
 31
0.0
1001
ACAD
1010
0.0
1020
0.0
1030
0.0
1001
ACDBBLOCKREPETAG
1070
     1
1071
       37
1005
1270FE
  0
LINE
  5
1270FF
  8
SLIM
 10
10050.328708116351
 20
-1044.9999999999991
 30
0.0
 11
10067.000000000009
 21
-1028.3287081163401
 31
0.0
1001
ACAD
1010
0.0
1020
0.0
1030
0.0
1001
ACDBBLOCKREPETAG
1070
     1
1071
       38
1005
1270FF
  0
LINE
  5
127100
  8
OBJECT
 10
9932.9999999999927
 20
-1044.9999999999959
 30
0.0
 11
10067.000000000009
 21
-1044.9999999999991
 31
0.0
1001
ACDBBLOCKREPETAG
1070
     1
1071
        1
1005
127100
  0
LINE
  5
127101
  8
OBJECT
 10
9914.9999999999927
 20
-654.99999999999966
 30
0.0
 11
9915.0
 21
-872.69968280914077
 31
0.0
1001
ACDBBLOCKREPETAG
1070
     1
1071
        2
1005
127101
  0
LINE
  5
127102
  8
OBJECT
 10
10085.000000000009
 20
-654.99999999999966
 30
0.0
 11
10085.0
 21
-872.69968280917192
 31
0.0
1001
ACDBBLOCKREPETAG
1070
     1
1071
        3
1005
127102
  0
LINE
  5
127103
  8
OBJECT
 10
9915.0
 20
-872.69968280914077
 30
0.0
 11
9932.9999999999927
 21
-1000.699682809081
 31
0.0
1001
ACDBBLOCKREPETAG
1070
     1
1071
        4
1005
127103
  0
LINE
  5
127104
  8
OBJECT
 10
10067.000000000009
 20
-1000.699682809128
 30
0.0
 11
10085.0
 21
-872.69968280917192
 31
0.0
1001
ACDBBLOCKREPETAG
1070
     1
1071
        5
1005
127104
  0
LINE
  5
127105
  8
OBJECT
 10
10085.000000000009
 20
-654.99999999999966
 30
0.0
 11
9914.9999999999927
 21
-654.99999999999966
 31
0.0
1001
ACDBBLOCKREPETAG
1070
     1
1071
        6
1005
127105
  0
LINE
  5
127106
  8
OBJECT
 10
9932.9999999999927
 20
-1000.699682809081
 30
0.0
 11
9932.9999999999927
 21
-1044.9999999999959
 31
0.0
1001
ACDBBLOCKREPETAG
1070
     1
1071
        8
1005
127106
  0
LINE
  5
127107
  8
OBJECT
 10
10067.000000000009
 20
-1000.699682809128
 30
0.0
 11
10067.000000000009
 21
-1044.9999999999991
 31
0.0
1001
ACDBBLOCKREPETAG
1070
     1
1071
        9
1005
127107
  0
LINE
  5
127108
  8
SLIM
 10
8414.9999999999909
 20
-659.47385309434696
 30
0.0
 11
8419.4738530943396
 21
-654.99999999999966
 31
0.0
1001
ACAD
1010
0.0
1020
0.0
1030
0.0
1001
ACDBBLOCKREPETAG
1070
     1
1071
        0
1005
0
  0
LINE
  5
127109
  8
SLIM
 10
8414.9999999999909
 20
-677.43436533648446
 30
0.0
 11
8437.4343653364776
 21
-654.99999999999966
 31
0.0
1001
ACAD
1010
0.0
1020
0.0
1030
0.0
1001
ACDBBLOCKREPETAG
1070
     1
1071
       11
1005
127109
  0
LINE
  5
12710A
  8
SLIM
 10
8414.9999999999945
 20
-695.39487757862241
 30
0.0
 11
8455.3948775786175
 21
-654.99999999999966
 31
0.0
1001
ACAD
1010
0.0
1020
0.0
1030
0.0
1001
ACDBBLOCKREPETAG
1070
     1
1071
       12
1005
12710A
  0
LINE
  5
12710B
  8
SLIM
 10
8414.9999999999945
 20
-713.35538982076014
 30
0.0
 11
8473.3553898207538
 21
-654.99999999999966
 31
0.0
1001
ACAD
1010
0.0
1020
0.0
1030
0.0
1001
ACDBBLOCKREPETAG
1070
     1
1071
       13
1005
12710B
  0
LINE
  5
12710C
  8
SLIM
 10
8414.9999999999945
 20
-731.31590206289775
 30
0.0
 11
8491.3159020628937
 21
-654.99999999999966
 31
0.0
1001
ACAD
1010
0.0
1020
0.0
1030
0.0
1001
ACDBBLOCKREPETAG
1070
     1
1071
       14
1005
12710C
  0
LINE
  5
12710D
  8
SLIM
 10
8414.9999999999964
 20
-749.27641430503525
 30
0.0
 11
8509.2764143050317
 21
-654.99999999999966
 31
0.0
1001
ACAD
1010
0.0
1020
0.0
1030
0.0
1001
ACDBBLOCKREPETAG
1070
     1
1071
       15
1005
12710D
  0
LINE
  5
12710E
  8
SLIM
 10
8414.9999999999964
 20
-767.23692654717331
 30
0.0
 11
8527.2369265471698
 21
-654.99999999999966
 31
0.0
1001
ACAD
1010
0.0
1020
0.0
1030
0.0
1001
ACDBBLOCKREPETAG
1070
     1
1071
       16
1005
12710E
  0
LINE
  5
12710F
  8
SLIM
 10
8414.9999999999964
 20
-785.19743878931081
 30
0.0
 11
8545.1974387893097
 21
-654.99999999999966
 31
0.0
1001
ACAD
1010
0.0
1020
0.0
1030
0.0
1001
ACDBBLOCKREPETAG
1070
     1
1071
       17
1005
12710F
  0
LINE
  5
127110
  8
SLIM
 10
8414.9999999999964
 20
-803.15795103144865
 30
0.0
 11
8563.1579510314477
 21
-654.99999999999966
 31
0.0
1001
ACAD
1010
0.0
1020
0.0
1030
0.0
1001
ACDBBLOCKREPETAG
1070
     1
1071
       18
1005
127110
  0
LINE
  5
127111
  8
SLIM
 10
8414.9999999999964
 20
-821.11846327358626
 30
0.0
 11
8581.1184632735858
 21
-654.99999999999966
 31
0.0
1001
ACAD
1010
0.0
1020
0.0
1030
0.0
1001
ACDBBLOCKREPETAG
1070
     1
1071
       19
1005
127111
  0
LINE
  5
127112
  8
SLIM
 10
8414.9999999999964
 20
-839.07897551572387
 30
0.0
 11
8585.0000000000055
 21
-669.07897551571614
 31
0.0
1001
ACAD
1010
0.0
1020
0.0
1030
0.0
1001
ACDBBLOCKREPETAG
1070
     1
1071
       20
1005
127112
  0
LINE
  5
127113
  8
SLIM
 10
8415.0
 20
-857.03948775786182
 30
0.0
 11
8585.0000000000055
 21
-687.039487757855
 31
0.0
1001
ACAD
1010
0.0
1020
0.0
1030
0.0
1001
ACDBBLOCKREPETAG
1070
     1
1071
       21
1005
127113
  0
LINE
  5
127114
  8
SLIM
 10
8415.2836007495571
 20
-874.71639925044155
 30
0.0
 11
8585.0000000000055
 21
-704.99999999999409
 31
0.0
1001
ACAD
1010
0.0
1020
0.0
1030
0.0
1001
ACDBBLOCKREPETAG
1070
     1
1071
       22
1005
127114
  0
LINE
  5
127115
  8
SLIM
 10
8417.4979104780414
 20
-890.46260176409692
 30
0.0
 11
8585.0000000000055
 21
-722.96051224213272
 31
0.0
1001
ACAD
1010
0.0
1020
0.0
1030
0.0
1001
ACDBBLOCKREPETAG
1070
     1
1071
       23
1005
127115
  0
LINE
  5
127116
  8
SLIM
 10
8419.7122202065257
 20
-906.20880427775205
 30
0.0
 11
8585.0000000000018
 21
-740.92102448427181
 31
0.0
1001
ACAD
1010
0.0
1020
0.0
1030
0.0
1001
ACDBBLOCKREPETAG
1070
     1
1071
       24
1005
127116
  0
LINE
  5
127117
  8
SLIM
 10
8421.9265299350063
 20
-921.95500679140719
 30
0.0
 11
8585.0000000000018
 21
-758.88153672641045
 31
0.0
1001
ACAD
1010
0.0
1020
0.0
1030
0.0
1001
ACDBBLOCKREPETAG
1070
     1
1071
       25
1005
127117
  0
LINE
  5
127118
  8
SLIM
 10
8424.1408396634924
 20
-937.70120930506255
 30
0.0
 11
8585.0000000000018
 21
-776.84204896854953
 31
0.0
1001
ACAD
1010
0.0
1020
0.0
1030
0.0
1001
ACDBBLOCKREPETAG
1070
     1
1071
       26
1005
127118
  0
LINE
  5
127119
  8
SLIM
 10
8426.3551493919731
 20
-953.4474118187178
 30
0.0
 11
8585.0000000000018
 21
-794.80256121068851
 31
0.0
1001
ACAD
1010
0.0
1020
0.0
1030
0.0
1001
ACDBBLOCKREPETAG
1070
     1
1071
       27
1005
127119
  0
LINE
  5
12711A
  8
SLIM
 10
8428.5694591204538
 20
-969.19361433237304
 30
0.0
 11
8585.0000000000018
 21
-812.76307345282714
 31
0.0
1001
ACAD
1010
0.0
1020
0.0
1030
0.0
1001
ACDBBLOCKREPETAG
1070
     1
1071
       28
1005
12711A
  0
LINE
  5
12711B
  8
SLIM
 10
8430.7837688489399
 20
-984.93981684602841
 30
0.0
 11
8585.0000000000018
 21
-830.72358569496612
 31
0.0
1001
ACAD
1010
0.0
1020
0.0
1030
0.0
1001
ACDBBLOCKREPETAG
1070
     1
1071
       29
1005
12711B
  0
LINE
  5
12711C
  8
SLIM
 10
8432.9980785774223
 20
-1000.686019359684
 30
0.0
 11
8585.0
 21
-848.68409793710521
 31
0.0
1001
ACAD
1010
0.0
1020
0.0
1030
0.0
1001
ACDBBLOCKREPETAG
1070
     1
1071
       30
1005
12711C
  0
LINE
  5
12711D
  8
SLIM
 10
8443.0
 20
-1008.644610179244
 30
0.0
 11
8446.6446101792462
 21
-1004.999999999998
 31
0.0
1001
ACAD
1010
0.0
1020
0.0
1030
0.0
1001
ACDBBLOCKREPETAG
1070
     1
1071
       31
1005
12711D
  0
LINE
  5
12711E
  8
SLIM
 10
8446.6446101792462
 20
-1004.999999999998
 30
0.0
 11
8585.0
 21
-866.64461017924395
 31
0.0
1001
ACAD
1010
0.0
1020
0.0
1030
0.0
1001
ACDBBLOCKREPETAG
1070
     1
1071
       32
1005
12711E
  0
LINE
  5
12711F
  8
SLIM
 10
8444.6051224213843
 20
-1024.999999999997
 30
0.0
 11
8464.6051224213843
 21
-1004.999999999998
 31
0.0
1001
ACAD
1010
0.0
1020
0.0
1030
0.0
1001
ACDBBLOCKREPETAG
1070
     1
1071
       33
1005
12711F
  0
LINE
  5
127120
  8
SLIM
 10
8464.6051224213843
 20
-1004.999999999998
 30
0.0
 11
8583.0518371543658
 21
-886.55328526701703
 31
0.0
1001
ACAD
1010
0.0
1020
0.0
1030
0.0
1001
ACDBBLOCKREPETAG
1070
     1
1071
       34
1005
127120
  0
LINE
  5
127121
  8
SLIM
 10
8462.5656346635224
 20
-1024.999999999997
 30
0.0
 11
8482.5656346635224
 21
-1004.999999999998
 31
0.0
1001
ACAD
1010
0.0
1020
0.0
1030
0.0
1001
ACDBBLOCKREPETAG
1070
     1
1071
       35
1005
127121
  0
LINE
  5
127122
  8
SLIM
 10
8482.5656346635224
 20
-1004.999999999998
 30
0.0
 11
8580.1128442420159
 21
-907.45279042150526
 31
0.0
1001
ACAD
1010
0.0
1020
0.0
1030
0.0
1001
ACDBBLOCKREPETAG
1070
     1
1071
       36
1005
127122
  0
LINE
  5
127123
  8
SLIM
 10
8480.5261469056622
 20
-1024.999999999997
 30
0.0
 11
8500.5261469056604
 21
-1004.999999999998
 31
0.0
1001
ACAD
1010
0.0
1020
0.0
1030
0.0
1001
ACDBBLOCKREPETAG
1070
     1
1071
       37
1005
127123
  0
LINE
  5
127124
  8
SLIM
 10
8500.5261469056604
 20
-1004.999999999998
 30
0.0
 11
8577.1738513296659
 21
-928.35229557599314
 31
0.0
1001
ACAD
1010
0.0
1020
0.0
1030
0.0
1001
ACDBBLOCKREPETAG
1070
     1
1071
       38
1005
127124
  0
LINE
  5
127125
  8
SLIM
 10
8498.4866591478003
 20
-1024.999999999997
 30
0.0
 11
8518.4866591478003
 21
-1004.999999999998
 31
0.0
1001
ACAD
1010
0.0
1020
0.0
1030
0.0
1001
ACDBBLOCKREPETAG
1070
     1
1071
       39
1005
127125
  0
LINE
  5
127126
  8
SLIM
 10
8518.4866591478003
 20
-1004.999999999998
 30
0.0
 11
8574.234858417316
 21
-949.25180073048125
 31
0.0
1001
ACAD
1010
0.0
1020
0.0
1030
0.0
1001
ACDBBLOCKREPETAG
1070
     1
1071
       40
1005
127126
  0
LINE
  5
127127
  8
SLIM
 10
8516.4471713899384
 20
-1024.999999999997
 30
0.0
 11
8536.4471713899384
 21
-1004.999999999998
 31
0.0
1001
ACAD
1010
0.0
1020
0.0
1030
0.0
1001
ACDBBLOCKREPETAG
1070
     1
1071
       41
1005
127127
  0
LINE
  5
127128
  8
SLIM
 10
8536.4471713899384
 20
-1004.999999999998
 30
0.0
 11
8571.2958655049661
 21
-970.15130588496913
 31
0.0
1001
ACAD
1010
0.0
1020
0.0
1030
0.0
1001
ACDBBLOCKREPETAG
1070
     1
1071
       42
1005
127128
  0
LINE
  5
127129
  8
SLIM
 10
8534.4076836320764
 20
-1024.999999999997
 30
0.0
 11
8554.4076836320764
 21
-1004.999999999998
 31
0.0
1001
ACAD
1010
0.0
1020
0.0
1030
0.0
1001
ACDBBLOCKREPETAG
1070
     1
1071
       43
1005
127129
  0
LINE
  5
12712A
  8
SLIM
 10
8554.4076836320764
 20
-1004.999999999998
 30
0.0
 11
8568.3568725926161
 21
-991.05081103945713
 31
0.0
1001
ACAD
1010
0.0
1020
0.0
1030
0.0
1001
ACDBBLOCKREPETAG
1070
     1
1071
       44
1005
12712A
  0
LINE
  5
12712B
  8
SLIM
 10
8552.3681958742145
 20
-1024.999999999997
 30
0.0
 11
8557.0
 21
-1020.368195874212
 31
0.0
1001
ACAD
1010
0.0
1020
0.0
1030
0.0
1001
ACDBBLOCKREPETAG
1070
     1
1071
       45
1005
12712B
  0
LINE
  5
12712C
  8
OBJECT
 10
8443.0
 20
-1024.999999999997
 30
0.0
 11
8557.0
 21
-1024.999999999997
 31
0.0
1001
ACDBBLOCKREPETAG
1070
     1
1071
        1
1005
12712C
  0
LINE
  5
12712D
  8
OBJECT
 10
8433.6047321049646
 20
-1004.999999999998
 30
0.0
 11
8566.3952678950409
 21
-1004.999999999998
 31
0.0
1001
ACDBBLOCKREPETAG
1070
     1
1071
        2
1005
12712D
  0
LINE
  5
12712E
  8
OBJECT
 10
8443.0
 20
-1024.999999999997
 30
0.0
 11
8443.0
 21
-1004.999999999998
 31
0.0
1001
ACDBBLOCKREPETAG
1070
     1
1071
        3
1005
12712E
  0
LINE
  5
12712F
  8
OBJECT
 10
8557.0
 20
-1024.999999999997
 30
0.0
 11
8557.0
 21
-1004.999999999998
 31
0.0
1001
ACDBBLOCKREPETAG
1070
     1
1071
        4
1005
12712F
  0
LINE
  5
127130
  8
OBJECT
 10
8414.9999999999909
 20
-654.99999999999966
 30
0.0
 11
8415.0
 21
-872.69968280914077
 31
0.0
1001
ACDBBLOCKREPETAG
1070
     1
1071
        5
1005
127130
  0
LINE
  5
127131
  8
OBJECT
 10
8585.0000000000055
 20
-654.99999999999966
 30
0.0
 11
8585.0
 21
-872.69968280917192
 31
0.0
1001
ACDBBLOCKREPETAG
1070
     1
1071
        6
1005
127131
  0
LINE
  5
127132
  8
OBJECT
 10
8415.0
 20
-872.69968280914077
 30
0.0
 11
8433.6047321049646
 21
-1004.999999999998
 31
0.0
1001
ACDBBLOCKREPETAG
1070
     1
1071
        7
1005
127132
  0
LINE
  5
127133
  8
OBJECT
 10
8566.3952678950409
 20
-1004.999999999998
 30
0.0
 11
8585.0
 21
-872.69968280917192
 31
0.0
1001
ACDBBLOCKREPETAG
1070
     1
1071
        8
1005
127133
  0
LINE
  5
127134
  8
OBJECT
 10
8585.0000000000055
 20
-654.99999999999966
 30
0.0
 11
8414.9999999999909
 21
-654.99999999999966
 31
0.0
1001
ACDBBLOCKREPETAG
1070
     1
1071
        9
1005
127134
  0
LINE
  5
127135
  8
SLIM
 10
7914.9999999999918
 20
-659.47385309434696
 30
0.0
 11
7919.4738530943414
 21
-654.99999999999966
 31
0.0
1001
ACAD
1010
0.0
1020
0.0
1030
0.0
1001
ACDBBLOCKREPETAG
1070
     1
1071
        0
1005
0
  0
LINE
  5
127136
  8
SLIM
 10
7914.9999999999918
 20
-677.43436533648446
 30
0.0
 11
7937.4343653364776
 21
-654.99999999999966
 31
0.0
1001
ACAD
1010
0.0
1020
0.0
1030
0.0
1001
ACDBBLOCKREPETAG
1070
     1
1071
       11
1005
127136
  0
LINE
  5
127137
  8
SLIM
 10
7914.9999999999918
 20
-695.39487757862241
 30
0.0
 11
7955.3948775786157
 21
-654.99999999999966
 31
0.0
1001
ACAD
1010
0.0
1020
0.0
1030
0.0
1001
ACDBBLOCKREPETAG
1070
     1
1071
       12
1005
127137
  0
LINE
  5
127138
  8
SLIM
 10
7914.9999999999964
 20
-713.35538982076014
 30
0.0
 11
7973.3553898207538
 21
-654.99999999999966
 31
0.0
1001
ACAD
1010
0.0
1020
0.0
1030
0.0
1001
ACDBBLOCKREPETAG
1070
     1
1071
       13
1005
127138
  0
LINE
  5
127139
  8
SLIM
 10
7914.9999999999982
 20
-731.31590206289775
 30
0.0
 11
7991.3159020628918
 21
-654.99999999999966
 31
0.0
1001
ACAD
1010
0.0
1020
0.0
1030
0.0
1001
ACDBBLOCKREPETAG
1070
     1
1071
       14
1005
127139
  0
LINE
  5
12713A
  8
SLIM
 10
7914.9999999999982
 20
-749.27641430503525
 30
0.0
 11
8009.2764143050308
 21
-654.99999999999966
 31
0.0
1001
ACAD
1010
0.0
1020
0.0
1030
0.0
1001
ACDBBLOCKREPETAG
1070
     1
1071
       15
1005
12713A
  0
LINE
  5
12713B
  8
SLIM
 10
7914.9999999999982
 20
-767.23692654717331
 30
0.0
 11
8027.2369265471707
 21
-654.99999999999966
 31
0.0
1001
ACAD
1010
0.0
1020
0.0
1030
0.0
1001
ACDBBLOCKREPETAG
1070
     1
1071
       16
1005
12713B
  0
LINE
  5
12713C
  8
SLIM
 10
7914.9999999999982
 20
-785.19743878931081
 30
0.0
 11
8045.1974387893079
 21
-654.99999999999966
 31
0.0
1001
ACAD
1010
0.0
1020
0.0
1030
0.0
1001
ACDBBLOCKREPETAG
1070
     1
1071
       17
1005
12713C
  0
LINE
  5
12713D
  8
SLIM
 10
7914.9999999999982
 20
-803.15795103144865
 30
0.0
 11
8063.1579510314468
 21
-654.99999999999966
 31
0.0
1001
ACAD
1010
0.0
1020
0.0
1030
0.0
1001
ACDBBLOCKREPETAG
1070
     1
1071
       18
1005
12713D
  0
LINE
  5
12713E
  8
SLIM
 10
7914.9999999999982
 20
-821.11846327358626
 30
0.0
 11
8081.118463273584
 21
-654.99999999999966
 31
0.0
1001
ACAD
1010
0.0
1020
0.0
1030
0.0
1001
ACDBBLOCKREPETAG
1070
     1
1071
       19
1005
12713E
  0
LINE
  5
12713F
  8
SLIM
 10
7914.9999999999982
 20
-839.07897551572387
 30
0.0
 11
8085.0000000000064
 21
-669.07897551571614
 31
0.0
1001
ACAD
1010
0.0
1020
0.0
1030
0.0
1001
ACDBBLOCKREPETAG
1070
     1
1071
       20
1005
12713F
  0
LINE
  5
127140
  8
SLIM
 10
7914.9999999999982
 20
-857.03948775786182
 30
0.0
 11
8085.0000000000064
 21
-687.039487757855
 31
0.0
1001
ACAD
1010
0.0
1020
0.0
1030
0.0
1001
ACDBBLOCKREPETAG
1070
     1
1071
       21
1005
127140
  0
LINE
  5
127141
  8
SLIM
 10
7915.283600749558
 20
-874.71639925044155
 30
0.0
 11
8085.0000000000064
 21
-704.99999999999409
 31
0.0
1001
ACAD
1010
0.0
1020
0.0
1030
0.0
1001
ACDBBLOCKREPETAG
1070
     1
1071
       22
1005
127141
  0
LINE
  5
127142
  8
SLIM
 10
7917.4979104780423
 20
-890.46260176409692
 30
0.0
 11
8085.0000000000064
 21
-722.96051224213272
 31
0.0
1001
ACAD
1010
0.0
1020
0.0
1030
0.0
1001
ACDBBLOCKREPETAG
1070
     1
1071
       23
1005
127142
  0
LINE
  5
127143
  8
SLIM
 10
7919.7122202065239
 20
-906.20880427775205
 30
0.0
 11
8085.0000000000064
 21
-740.92102448427181
 31
0.0
1001
ACAD
1010
0.0
1020
0.0
1030
0.0
1001
ACDBBLOCKREPETAG
1070
     1
1071
       24
1005
127143
  0
LINE
  5
127144
  8
SLIM
 10
7921.9265299350072
 20
-921.95500679140719
 30
0.0
 11
8085.0000000000018
 21
-758.88153672641045
 31
0.0
1001
ACAD
1010
0.0
1020
0.0
1030
0.0
1001
ACDBBLOCKREPETAG
1070
     1
1071
       25
1005
127144
  0
LINE
  5
127145
  8
SLIM
 10
7924.1408396634897
 20
-937.70120930506255
 30
0.0
 11
8085.0000000000018
 21
-776.84204896854953
 31
0.0
1001
ACAD
1010
0.0
1020
0.0
1030
0.0
1001
ACDBBLOCKREPETAG
1070
     1
1071
       26
1005
127145
  0
LINE
  5
127146
  8
SLIM
 10
7926.3551493919731
 20
-953.4474118187178
 30
0.0
 11
8085.0000000000018
 21
-794.80256121068851
 31
0.0
1001
ACAD
1010
0.0
1020
0.0
1030
0.0
1001
ACDBBLOCKREPETAG
1070
     1
1071
       27
1005
127146
  0
LINE
  5
127147
  8
SLIM
 10
7928.5694591204538
 20
-969.19361433237304
 30
0.0
 11
8085.0000000000018
 21
-812.76307345282714
 31
0.0
1001
ACAD
1010
0.0
1020
0.0
1030
0.0
1001
ACDBBLOCKREPETAG
1070
     1
1071
       28
1005
127147
  0
LINE
  5
127148
  8
SLIM
 10
7930.783768848939
 20
-984.93981684602841
 30
0.0
 11
8085.0000000000018
 21
-830.72358569496612
 31
0.0
1001
ACAD
1010
0.0
1020
0.0
1030
0.0
1001
ACDBBLOCKREPETAG
1070
     1
1071
       29
1005
127148
  0
LINE
  5
127149
  8
SLIM
 10
7932.9980785774214
 20
-1000.686019359684
 30
0.0
 11
8085.0
 21
-848.68409793710521
 31
0.0
1001
ACAD
1010
0.0
1020
0.0
1030
0.0
1001
ACDBBLOCKREPETAG
1070
     1
1071
       30
1005
127149
  0
LINE
  5
12714A
  8
SLIM
 10
7943.0
 20
-1008.644610179244
 30
0.0
 11
7946.6446101792453
 21
-1004.999999999998
 31
0.0
1001
ACAD
1010
0.0
1020
0.0
1030
0.0
1001
ACDBBLOCKREPETAG
1070
     1
1071
       31
1005
12714A
  0
LINE
  5
12714B
  8
SLIM
 10
7946.6446101792453
 20
-1004.999999999998
 30
0.0
 11
8085.0
 21
-866.64461017924395
 31
0.0
1001
ACAD
1010
0.0
1020
0.0
1030
0.0
1001
ACDBBLOCKREPETAG
1070
     1
1071
       32
1005
12714B
  0
LINE
  5
12714C
  8
SLIM
 10
7944.6051224213861
 20
-1024.999999999997
 30
0.0
 11
7964.6051224213852
 21
-1004.999999999998
 31
0.0
1001
ACAD
1010
0.0
1020
0.0
1030
0.0
1001
ACDBBLOCKREPETAG
1070
     1
1071
       33
1005
12714C
  0
LINE
  5
12714D
  8
SLIM
 10
7964.6051224213852
 20
-1004.999999999998
 30
0.0
 11
8083.051837154364
 21
-886.55328526701703
 31
0.0
1001
ACAD
1010
0.0
1020
0.0
1030
0.0
1001
ACDBBLOCKREPETAG
1070
     1
1071
       34
1005
12714D
  0
LINE
  5
12714E
  8
SLIM
 10
7962.5656346635242
 20
-1024.999999999997
 30
0.0
 11
7982.5656346635215
 21
-1004.999999999998
 31
0.0
1001
ACAD
1010
0.0
1020
0.0
1030
0.0
1001
ACDBBLOCKREPETAG
1070
     1
1071
       35
1005
12714E
  0
LINE
  5
12714F
  8
SLIM
 10
7982.5656346635215
 20
-1004.999999999998
 30
0.0
 11
8080.1128442420159
 21
-907.45279042150526
 31
0.0
1001
ACAD
1010
0.0
1020
0.0
1030
0.0
1001
ACDBBLOCKREPETAG
1070
     1
1071
       36
1005
12714F
  0
LINE
  5
127150
  8
SLIM
 10
7980.5261469056622
 20
-1024.999999999997
 30
0.0
 11
8000.5261469056613
 21
-1004.999999999998
 31
0.0
1001
ACAD
1010
0.0
1020
0.0
1030
0.0
1001
ACDBBLOCKREPETAG
1070
     1
1071
       37
1005
127150
  0
LINE
  5
127151
  8
SLIM
 10
8000.5261469056613
 20
-1004.999999999998
 30
0.0
 11
8077.1738513296659
 21
-928.35229557599314
 31
0.0
1001
ACAD
1010
0.0
1020
0.0
1030
0.0
1001
ACDBBLOCKREPETAG
1070
     1
1071
       38
1005
127151
  0
LINE
  5
127152
  8
SLIM
 10
7998.4866591478003
 20
-1024.999999999997
 30
0.0
 11
8018.4866591478003
 21
-1004.999999999998
 31
0.0
1001
ACAD
1010
0.0
1020
0.0
1030
0.0
1001
ACDBBLOCKREPETAG
1070
     1
1071
       39
1005
127152
  0
LINE
  5
127153
  8
SLIM
 10
8018.4866591478003
 20
-1004.999999999998
 30
0.0
 11
8074.234858417316
 21
-949.25180073048125
 31
0.0
1001
ACAD
1010
0.0
1020
0.0
1030
0.0
1001
ACDBBLOCKREPETAG
1070
     1
1071
       40
1005
127153
  0
LINE
  5
127154
  8
SLIM
 10
8016.4471713899393
 20
-1024.999999999997
 30
0.0
 11
8036.4471713899393
 21
-1004.999999999998
 31
0.0
1001
ACAD
1010
0.0
1020
0.0
1030
0.0
1001
ACDBBLOCKREPETAG
1070
     1
1071
       41
1005
127154
  0
LINE
  5
127155
  8
SLIM
 10
8036.4471713899393
 20
-1004.999999999998
 30
0.0
 11
8071.2958655049679
 21
-970.15130588496913
 31
0.0
1001
ACAD
1010
0.0
1020
0.0
1030
0.0
1001
ACDBBLOCKREPETAG
1070
     1
1071
       42
1005
127155
  0
LINE
  5
127156
  8
SLIM
 10
8034.4076836320774
 20
-1024.999999999997
 30
0.0
 11
8054.4076836320764
 21
-1004.999999999998
 31
0.0
1001
ACAD
1010
0.0
1020
0.0
1030
0.0
1001
ACDBBLOCKREPETAG
1070
     1
1071
       43
1005
127156
  0
LINE
  5
127157
  8
SLIM
 10
8054.4076836320764
 20
-1004.999999999998
 30
0.0
 11
8068.3568725926198
 21
-991.05081103945713
 31
0.0
1001
ACAD
1010
0.0
1020
0.0
1030
0.0
1001
ACDBBLOCKREPETAG
1070
     1
1071
       44
1005
127157
  0
LINE
  5
127158
  8
SLIM
 10
8052.3681958742136
 20
-1024.999999999997
 30
0.0
 11
8057.0
 21
-1020.368195874212
 31
0.0
1001
ACAD
1010
0.0
1020
0.0
1030
0.0
1001
ACDBBLOCKREPETAG
1070
     1
1071
       45
1005
127158
  0
LINE
  5
127159
  8
OBJECT
 10
7943.0
 20
-1024.999999999997
 30
0.0
 11
8057.0
 21
-1024.999999999997
 31
0.0
1001
ACDBBLOCKREPETAG
1070
     1
1071
        1
1005
127159
  0
LINE
  5
12715A
  8
OBJECT
 10
7933.6047321049664
 20
-1004.999999999998
 30
0.0
 11
8066.3952678950427
 21
-1004.999999999998
 31
0.0
1001
ACDBBLOCKREPETAG
1070
     1
1071
        2
1005
12715A
  0
LINE
  5
12715B
  8
OBJECT
 10
7943.0
 20
-1024.999999999997
 30
0.0
 11
7943.0
 21
-1004.999999999998
 31
0.0
1001
ACDBBLOCKREPETAG
1070
     1
1071
        3
1005
12715B
  0
LINE
  5
12715C
  8
OBJECT
 10
8057.0
 20
-1024.999999999997
 30
0.0
 11
8057.0
 21
-1004.999999999998
 31
0.0
1001
ACDBBLOCKREPETAG
1070
     1
1071
        4
1005
12715C
  0
LINE
  5
12715D
  8
OBJECT
 10
7914.9999999999918
 20
-654.99999999999966
 30
0.0
 11
7915.0
 21
-872.69968280914077
 31
0.0
1001
ACDBBLOCKREPETAG
1070
     1
1071
        5
1005
12715D
  0
LINE
  5
12715E
  8
OBJECT
 10
8085.0000000000064
 20
-654.99999999999966
 30
0.0
 11
8085.0
 21
-872.69968280917192
 31
0.0
1001
ACDBBLOCKREPETAG
1070
     1
1071
        6
1005
12715E
  0
LINE
  5
12715F
  8
OBJECT
 10
7915.0
 20
-872.69968280914077
 30
0.0
 11
7933.6047321049664
 21
-1004.999999999998
 31
0.0
1001
ACDBBLOCKREPETAG
1070
     1
1071
        7
1005
12715F
  0
LINE
  5
127160
  8
OBJECT
 10
8066.3952678950427
 20
-1004.999999999998
 30
0.0
 11
8085.0
 21
-872.69968280917192
 31
0.0
1001
ACDBBLOCKREPETAG
1070
     1
1071
        8
1005
127160
  0
LINE
  5
127161
  8
OBJECT
 10
8085.0000000000064
 20
-654.99999999999966
 30
0.0
 11
7914.9999999999918
 21
-654.99999999999966
 31
0.0
1001
ACDBBLOCKREPETAG
1070
     1
1071
        9
1005
127161
  0
LINE
  5
127162
  8
OBJECT
 10
12492.0
 20
-1123.9999999999991
 30
0.0
 11
12492.0
 21
-1133.9999999999991
 31
0.0
1001
ACDBBLOCKREPETAG
1070
     1
1071
      169
1005
127162
  0
LINE
  5
127163
  8
OBJECT
 10
12508.0
 20
-1123.9999999999991
 30
0.0
 11
12508.0
 21
-1133.9999999999991
 31
0.0
1001
ACDBBLOCKREPETAG
1070
     1
1071
      170
1005
127163
  0
LINE
  5
127164
  8
OBJECT
 10
12492.0
 20
-1133.9999999999991
 30
0.0
 11
12508.0
 21
-1133.9999999999991
 31
0.0
1001
ACDBBLOCKREPETAG
1070
     1
1071
      171
1005
127164
  0
LINE
  5
127165
  8
OBJECT
 10
12579.54998149518
 20
-1084.9999999999959
 30
0.0
 11
12420.4500185048
 21
-1084.9999999999959
 31
0.0
1001
ACDBBLOCKREPETAG
1070
     1
1071
      172
1005
127165
  0
LINE
  5
127166
  8
OBJECT
 10
12420.4500185048
 20
-1099.9999999999991
 30
0.0
 11
12579.54998149518
 21
-1099.9999999999991
 31
0.0
1001
ACDBBLOCKREPETAG
1070
     1
1071
      173
1005
127166
  0
LINE
  5
127167
  8
OBJECT
 10
12495.0
 20
-1109.9999999999991
 30
0.0
 11
12495.0
 21
-1099.9999999999991
 31
0.0
1001
ACDBBLOCKREPETAG
1070
     1
1071
      174
1005
127167
  0
LINE
  5
127168
  8
OBJECT
 10
12505.0
 20
-1109.9999999999991
 30
0.0
 11
12505.0
 21
-1099.9999999999991
 31
0.0
1001
ACDBBLOCKREPETAG
1070
     1
1071
      175
1005
127168
  0
LINE
  5
127169
  8
OBJECT
 10
12567.49999999998
 20
-1099.9999999999991
 30
0.0
 11
12567.49999999998
 21
-1109.9999999999991
 31
0.0
1001
ACDBBLOCKREPETAG
1070
     1
1071
      176
1005
127169
  0
LINE
  5
12716A
  8
OBJECT
 10
12420.4500185048
 20
-1123.9999999999959
 30
0.0
 11
12579.549981495191
 21
-1123.9999999999959
 31
0.0
1001
ACDBBLOCKREPETAG
1070
     1
1071
      177
1005
12716A
  0
LINE
  5
12716B
  8
OBJECT
 10
12420.4500185048
 20
-1109.9999999999991
 30
0.0
 11
12579.549981495191
 21
-1109.9999999999991
 31
0.0
1001
ACDBBLOCKREPETAG
1070
     1
1071
      178
1005
12716B
  0
LINE
  5
12716C
  8
OBJECT
 10
12434.0
 20
-1048.9999999999959
 30
0.0
 11
12565.999999999991
 21
-1048.9999999999959
 31
0.0
1001
ACDBBLOCKREPETAG
1070
     1
1071
      179
1005
12716C
  0
LINE
  5
12716D
  8
HIDDEN
 10
12443.0
 20
-1059.9999999999991
 30
0.0
 11
12557.0
 21
-1059.9999999999991
 31
0.0
1001
ACDBBLOCKREPETAG
1070
     1
1071
      180
1005
12716D
  0
LINE
  5
12716E
  8
OBJECT
 10
12515.0
 20
-1083.2
 30
0.0
 11
12515.0
 21
-1084.9999999999991
 31
0.0
1001
ACDBBLOCKREPETAG
1070
     1
1071
      181
1005
12716E
  0
LINE
  5
12716F
  8
OBJECT
 10
12485.0
 20
-1083.2
 30
0.0
 11
12485.0
 21
-1084.9999999999991
 31
0.0
1001
ACDBBLOCKREPETAG
1070
     1
1071
      182
1005
12716F
  0
LINE
  5
127170
  8
OBJECT
 10
12494.25
 20
-1073.4999999999991
 30
0.0
 11
12505.75
 21
-1073.4999999999991
 31
0.0
1001
ACDBBLOCKREPETAG
1070
     1
1071
      183
1005
127170
  0
LINE
  5
127171
  8
OBJECT
 10
12494.25
 20
-1073.4999999999991
 30
0.0
 11
12494.25
 21
-1083.2
 31
0.0
1001
ACDBBLOCKREPETAG
1070
     1
1071
      184
1005
127171
  0
LINE
  5
127172
  8
OBJECT
 10
12505.75
 20
-1073.4999999999991
 30
0.0
 11
12505.75
 21
-1083.2
 31
0.0
1001
ACDBBLOCKREPETAG
1070
     1
1071
      185
1005
127172
  0
LINE
  5
127173
  8
OBJECT
 10
12431.99999999998
 20
-1164.9999999999991
 30
0.0
 11
12567.99999999998
 21
-1164.9999999999991
 31
0.0
1001
ACDBBLOCKREPETAG
1070
     1
1071
      186
1005
127173
  0
LINE
  5
127174
  8
OBJECT
 10
12431.99999999998
 20
-1164.9999999999991
 30
0.0
 11
12431.99999999998
 21
-1123.9999999999991
 31
0.0
1001
ACDBBLOCKREPETAG
1070
     1
1071
      187
1005
127174
  0
LINE
  5
127175
  8
OBJECT
 10
12567.99999999998
 20
-1164.9999999999991
 30
0.0
 11
12567.99999999998
 21
-1123.9999999999991
 31
0.0
1001
ACDBBLOCKREPETAG
1070
     1
1071
      188
1005
127175
  0
LINE
  5
127176
  8
OBJECT
 10
12515.0
 20
-1083.2
 30
0.0
 11
12485.0
 21
-1083.2
 31
0.0
1001
ACDBBLOCKREPETAG
1070
     1
1071
      189
1005
127176
  0
LINE
  5
127177
  8
CENTER
 10
12500.0
 20
-789.99999999999955
 30
0.0
 11
12500.0
 21
-1179.9999999999991
 31
0.0
1001
ACDBBLOCKREPETAG
1070
     1
1071
      190
1005
127177
  0
LINE
  5
127178
  8
OBJECT
 10
12425.0
 20
-789.99999999999955
 30
0.0
 11
12425.0
 21
-871.99999999999591
 31
0.0
1001
ACDBBLOCKREPETAG
1070
     1
1071
      191
1005
127178
  0
LINE
  5
127179
  8
OBJECT
 10
12575.0
 20
-789.99999999999955
 30
0.0
 11
12575.0
 21
-871.99999999999204
 31
0.0
1001
ACDBBLOCKREPETAG
1070
     1
1071
      192
1005
127179
  0
LINE
  5
12717A
  8
OBJECT
 10
12425.0
 20
-871.99999999999591
 30
0.0
 11
12575.0
 21
-871.99999999999204
 31
0.0
1001
ACDBBLOCKREPETAG
1070
     1
1071
      193
1005
12717A
  0
LINE
  5
12717B
  8
OBJECT
 10
12443.0
 20
-1048.9999999999959
 30
0.0
 11
12443.0
 21
-999.99999999999204
 31
0.0
1001
ACDBBLOCKREPETAG
1070
     1
1071
      194
1005
12717B
  0
LINE
  5
12717C
  8
OBJECT
 10
12557.0
 20
-999.99999999999204
 30
0.0
 11
12443.0
 21
-999.99999999999204
 31
0.0
1001
ACDBBLOCKREPETAG
1070
     1
1071
      195
1005
12717C
  0
LINE
  5
12717D
  8
OBJECT
 10
12557.0
 20
-999.99999999999204
 30
0.0
 11
12557.0
 21
-1048.9999999999959
 31
0.0
1001
ACDBBLOCKREPETAG
1070
     1
1071
      196
1005
12717D
  0
LINE
  5
12717E
  8
OBJECT
 10
12425.0
 20
-871.99999999999591
 30
0.0
 11
12443.0
 21
-999.99999999999204
 31
0.0
1001
ACDBBLOCKREPETAG
1070
     1
1071
      197
1005
12717E
  0
LINE
  5
12717F
  8
OBJECT
 10
12557.0
 20
-999.99999999999204
 30
0.0
 11
12575.0
 21
-871.99999999999204
 31
0.0
1001
ACDBBLOCKREPETAG
1070
     1
1071
      198
1005
12717F
  0
LINE
  5
127180
  8
OBJECT
 10
12434.0
 20
-1084.9999999999959
 30
0.0
 11
12434.0
 21
-1048.9999999999959
 31
0.0
1001
ACDBBLOCKREPETAG
1070
     1
1071
      199
1005
127180
  0
LINE
  5
127181
  8
OBJECT
 10
12566.0
 20
-1084.9999999999959
 30
0.0
 11
12565.999999999991
 21
-1048.9999999999959
 31
0.0
1001
ACDBBLOCKREPETAG
1070
     1
1071
      200
1005
127181
  0
LINE
  5
127182
  8
OBJECT
 10
12567.5
 20
-1099.9999999999991
 30
0.0
 11
12567.5
 21
-1109.9999999999991
 31
0.0
1001
ACDBBLOCKREPETAG
1070
     1
1071
      201
1005
127182
  0
LINE
  5
127183
  8
OBJECT
 10
12579.54998149518
 20
-1099.9999999999991
 30
0.0
 11
12579.54998149518
 21
-1084.9999999999959
 31
0.0
1001
ACDBBLOCKREPETAG
1070
     1
1071
      202
1005
127183
  0
LINE
  5
127184
  8
OBJECT
 10
12579.54998149518
 20
-1109.9999999999991
 30
0.0
 11
12579.54998149518
 21
-1123.9999999999959
 31
0.0
1001
ACDBBLOCKREPETAG
1070
     1
1071
      203
1005
127184
  0
LINE
  5
127185
  8
OBJECT
 10
12420.4500185048
 20
-1099.9999999999991
 30
0.0
 11
12420.4500185048
 21
-1084.9999999999959
 31
0.0
1001
ACDBBLOCKREPETAG
1070
     1
1071
      204
1005
127185
  0
LINE
  5
127186
  8
OBJECT
 10
12420.4500185048
 20
-1109.9999999999991
 30
0.0
 11
12420.4500185048
 21
-1123.9999999999959
 31
0.0
1001
ACDBBLOCKREPETAG
1070
     1
1071
      205
1005
127186
  0
LINE
  5
127187
  8
OBJECT
 10
12424.4500185048
 20
-1123.9999999999991
 30
0.0
 11
12424.4500185048
 21
-1133.9999999999991
 31
0.0
1001
ACDBBLOCKREPETAG
1070
     1
1071
      206
1005
127187
  0
LINE
  5
127188
  8
OBJECT
 10
12431.99999999998
 20
-1133.9999999999991
 30
0.0
 11
12424.4500185048
 21
-1133.9999999999991
 31
0.0
1001
ACDBBLOCKREPETAG
1070
     1
1071
      207
1005
127188
  0
LINE
  5
127189
  8
OBJECT
 10
12427.450018504809
 20
-1109.9999999999991
 30
0.0
 11
12427.450018504809
 21
-1099.9999999999991
 31
0.0
1001
ACDBBLOCKREPETAG
1070
     1
1071
      208
1005
127189
  0
LINE
  5
12718A
  8
OBJECT
 10
12423.4500185048
 20
-1083.2
 30
0.0
 11
12423.4500185048
 21
-1084.9999999999991
 31
0.0
1001
ACDBBLOCKREPETAG
1070
     1
1071
      209
1005
12718A
  0
LINE
  5
12718B
  8
OBJECT
 10
12426.700018504809
 20
-1073.4999999999991
 30
0.0
 11
12434.0
 21
-1073.4999999999991
 31
0.0
1001
ACDBBLOCKREPETAG
1070
     1
1071
      210
1005
12718B
  0
LINE
  5
12718C
  8
OBJECT
 10
12426.700018504809
 20
-1073.4999999999991
 30
0.0
 11
12426.700018504809
 21
-1083.2
 31
0.0
1001
ACDBBLOCKREPETAG
1070
     1
1071
      211
1005
12718C
  0
LINE
  5
12718D
  8
OBJECT
 10
12434.0
 20
-1083.2
 30
0.0
 11
12423.4500185048
 21
-1083.2
 31
0.0
1001
ACDBBLOCKREPETAG
1070
     1
1071
      212
1005
12718D
  0
LINE
  5
12718E
  8
OBJECT
 10
12432.5
 20
-1099.9999999999991
 30
0.0
 11
12432.5
 21
-1109.9999999999991
 31
0.0
1001
ACDBBLOCKREPETAG
1070
     1
1071
      213
1005
12718E
  0
LINE
  5
12718F
  8
OBJECT
 10
12432.49999999998
 20
-1099.9999999999991
 30
0.0
 11
12432.49999999998
 21
-1109.9999999999991
 31
0.0
1001
ACDBBLOCKREPETAG
1070
     1
1071
      214
1005
12718F
  0
LINE
  5
127190
  8
OBJECT
 10
12575.549981495191
 20
-1123.9999999999991
 30
0.0
 11
12575.549981495191
 21
-1133.9999999999991
 31
0.0
1001
ACDBBLOCKREPETAG
1070
     1
1071
      215
1005
127190
  0
LINE
  5
127191
  8
OBJECT
 10
12568.0
 20
-1133.9999999999991
 30
0.0
 11
12575.549981495191
 21
-1133.9999999999991
 31
0.0
1001
ACDBBLOCKREPETAG
1070
     1
1071
      216
1005
127191
  0
LINE
  5
127192
  8
OBJECT
 10
12572.549981495191
 20
-1109.9999999999991
 30
0.0
 11
12572.549981495191
 21
-1099.9999999999991
 31
0.0
1001
ACDBBLOCKREPETAG
1070
     1
1071
      217
1005
127192
  0
LINE
  5
127193
  8
OBJECT
 10
12576.549981495191
 20
-1083.2
 30
0.0
 11
12576.549981495191
 21
-1084.9999999999991
 31
0.0
1001
ACDBBLOCKREPETAG
1070
     1
1071
      218
1005
127193
  0
LINE
  5
127194
  8
OBJECT
 10
12573.299981495191
 20
-1073.4999999999991
 30
0.0
 11
12566.0
 21
-1073.4999999999991
 31
0.0
1001
ACDBBLOCKREPETAG
1070
     1
1071
      219
1005
127194
  0
LINE
  5
127195
  8
OBJECT
 10
12573.299981495191
 20
-1073.4999999999991
 30
0.0
 11
12573.299981495191
 21
-1083.2
 31
0.0
1001
ACDBBLOCKREPETAG
1070
     1
1071
      220
1005
127195
  0
LINE
  5
127196
  8
OBJECT
 10
12566.0
 20
-1083.2
 30
0.0
 11
12576.549981495191
 21
-1083.2
 31
0.0
1001
ACDBBLOCKREPETAG
1070
     1
1071
      221
1005
127196
  0
LINE
  5
127197
  8
OBJECT
 10
10579.54998149518
 20
-1084.9999999999959
 30
0.0
 11
10420.4500185048
 21
-1084.9999999999959
 31
0.0
1001
ACDBBLOCKREPETAG
1070
     1
1071
       62
1005
127197
  0
LINE
  5
127198
  8
OBJECT
 10
10566.0
 20
-1048.9999999999959
 30
0.0
 11
10434.0
 21
-1048.9999999999959
 31
0.0
1001
ACDBBLOCKREPETAG
1070
     1
1071
       63
1005
127198
  0
LINE
  5
127199
  8
OBJECT
 10
10579.54998149518
 20
-1099.9999999999991
 30
0.0
 11
10579.54998149518
 21
-1084.9999999999959
 31
0.0
1001
ACDBBLOCKREPETAG
1070
     1
1071
       64
1005
127199
  0
LINE
  5
12719A
  8
OBJECT
 10
10420.4500185048
 20
-1099.9999999999991
 30
0.0
 11
10579.54998149518
 21
-1099.9999999999991
 31
0.0
1001
ACDBBLOCKREPETAG
1070
     1
1071
       65
1005
12719A
  0
LINE
  5
12719B
  8
OBJECT
 10
10567.49999999998
 20
-1099.9999999999991
 30
0.0
 11
10567.49999999998
 21
-1109.9999999999991
 31
0.0
1001
ACDBBLOCKREPETAG
1070
     1
1071
       66
1005
12719B
  0
LINE
  5
12719C
  8
OBJECT
 10
10579.54998149518
 20
-1109.9999999999991
 30
0.0
 11
10579.54998149518
 21
-1123.9999999999959
 31
0.0
1001
ACDBBLOCKREPETAG
1070
     1
1071
       67
1005
12719C
  0
LINE
  5
12719D
  8
OBJECT
 10
10420.4500185048
 20
-1123.9999999999959
 30
0.0
 11
10579.54998149518
 21
-1123.9999999999959
 31
0.0
1001
ACDBBLOCKREPETAG
1070
     1
1071
       68
1005
12719D
  0
LINE
  5
12719E
  8
OBJECT
 10
10420.4500185048
 20
-1109.9999999999991
 30
0.0
 11
10579.54998149518
 21
-1109.9999999999991
 31
0.0
1001
ACDBBLOCKREPETAG
1070
     1
1071
       69
1005
12719E
  0
LINE
  5
12719F
  8
HIDDEN
 10
10443.0
 20
-1059.9999999999991
 30
0.0
 11
10557.0
 21
-1059.9999999999991
 31
0.0
1001
ACDBBLOCKREPETAG
1070
     1
1071
       70
1005
12719F
  0
LINE
  5
1271A0
  8
CENTER
 10
10500.0
 20
-789.99999999999955
 30
0.0
 11
10500.0
 21
-1149.9999999999959
 31
0.0
1001
ACDBBLOCKREPETAG
1070
     1
1071
       71
1005
1271A0
  0
LINE
  5
1271A1
  8
OBJECT
 10
10425.0
 20
-789.99999999999955
 30
0.0
 11
10425.0
 21
-871.99999999999591
 31
0.0
1001
ACDBBLOCKREPETAG
1070
     1
1071
       72
1005
1271A1
  0
LINE
  5
1271A2
  8
OBJECT
 10
10575.0
 20
-789.99999999999955
 30
0.0
 11
10575.0
 21
-871.99999999999204
 31
0.0
1001
ACDBBLOCKREPETAG
1070
     1
1071
       73
1005
1271A2
  0
LINE
  5
1271A3
  8
OBJECT
 10
10425.0
 20
-871.99999999999591
 30
0.0
 11
10575.0
 21
-871.99999999999204
 31
0.0
1001
ACDBBLOCKREPETAG
1070
     1
1071
       74
1005
1271A3
  0
LINE
  5
1271A4
  8
OBJECT
 10
10557.0
 20
-1048.9999999999959
 30
0.0
 11
10557.0
 21
-999.99999999999204
 31
0.0
1001
ACDBBLOCKREPETAG
1070
     1
1071
       75
1005
1271A4
  0
LINE
  5
1271A5
  8
OBJECT
 10
10443.0
 20
-1048.9999999999959
 30
0.0
 11
10443.0
 21
-999.99999999999204
 31
0.0
1001
ACDBBLOCKREPETAG
1070
     1
1071
       76
1005
1271A5
  0
LINE
  5
1271A6
  8
OBJECT
 10
10557.0
 20
-999.99999999999204
 30
0.0
 11
10443.0
 21
-999.99999999999204
 31
0.0
1001
ACDBBLOCKREPETAG
1070
     1
1071
       77
1005
1271A6
  0
LINE
  5
1271A7
  8
OBJECT
 10
10425.0
 20
-871.99999999999591
 30
0.0
 11
10443.0
 21
-999.99999999999204
 31
0.0
1001
ACDBBLOCKREPETAG
1070
     1
1071
       78
1005
1271A7
  0
LINE
  5
1271A8
  8
OBJECT
 10
10557.0
 20
-999.99999999999204
 30
0.0
 11
10575.0
 21
-871.99999999999204
 31
0.0
1001
ACDBBLOCKREPETAG
1070
     1
1071
       79
1005
1271A8
  0
LINE
  5
1271A9
  8
OBJECT
 10
10434.0
 20
-1048.9999999999959
 30
0.0
 11
10434.0
 21
-1084.9999999999959
 31
0.0
1001
ACDBBLOCKREPETAG
1070
     1
1071
       80
1005
1271A9
  0
LINE
  5
1271AA
  8
OBJECT
 10
10566.0
 20
-1048.9999999999959
 30
0.0
 11
10566.0
 21
-1084.9999999999959
 31
0.0
1001
ACDBBLOCKREPETAG
1070
     1
1071
       81
1005
1271AA
  0
LINE
  5
1271AB
  8
OBJECT
 10
10420.4500185048
 20
-1099.9999999999991
 30
0.0
 11
10420.4500185048
 21
-1084.9999999999959
 31
0.0
1001
ACDBBLOCKREPETAG
1070
     1
1071
       82
1005
1271AB
  0
LINE
  5
1271AC
  8
OBJECT
 10
10432.5
 20
-1099.9999999999991
 30
0.0
 11
10432.5
 21
-1109.9999999999991
 31
0.0
1001
ACDBBLOCKREPETAG
1070
     1
1071
       83
1005
1271AC
  0
LINE
  5
1271AD
  8
OBJECT
 10
10420.4500185048
 20
-1109.9999999999991
 30
0.0
 11
10420.4500185048
 21
-1123.9999999999959
 31
0.0
1001
ACDBBLOCKREPETAG
1070
     1
1071
       84
1005
1271AD
  0
LINE
  5
1271AE
  8
OBJECT
 10
10507.5
 20
-1079.9999999999959
 30
0.0
 11
10490.999999999991
 21
-1079.9999999999959
 31
0.0
1001
ACDBBLOCKREPETAG
1070
     1
1071
       85
1005
1271AE
  0
LINE
  5
1271AF
  8
OBJECT
 10
10515.0
 20
-1084.9999999999959
 30
0.0
 11
10515.0
 21
-1082.9999999999959
 31
0.0
1001
ACDBBLOCKREPETAG
1070
     1
1071
       86
1005
1271AF
  0
LINE
  5
1271B0
  8
OBJECT
 10
10505.0
 20
-1109.9999999999959
 30
0.0
 11
10505.0
 21
-1099.9999999999959
 31
0.0
1001
ACDBBLOCKREPETAG
1070
     1
1071
       87
1005
1271B0
  0
LINE
  5
1271B1
  8
OBJECT
 10
10495.0
 20
-1109.9999999999959
 30
0.0
 11
10495.0
 21
-1099.9999999999959
 31
0.0
1001
ACDBBLOCKREPETAG
1070
     1
1071
       88
1005
1271B1
  0
LINE
  5
1271B2
  8
OBJECT
 10
10490.999999999991
 20
-1079.9999999999959
 30
0.0
 11
10490.999999999991
 21
-1084.9999999999959
 31
0.0
1001
ACDBBLOCKREPETAG
1070
     1
1071
       89
1005
1271B2
  0
LINE
  5
1271B3
  8
OBJECT
 10
10495.0
 20
-1131.9999999999959
 30
0.0
 11
10495.0
 21
-1134.9999999999959
 31
0.0
1001
ACDBBLOCKREPETAG
1070
     1
1071
       90
1005
1271B3
  0
LINE
  5
1271B4
  8
OBJECT
 10
10495.0
 20
-1134.9999999999959
 30
0.0
 11
10505.0
 21
-1134.9999999999959
 31
0.0
1001
ACDBBLOCKREPETAG
1070
     1
1071
       91
1005
1271B4
  0
LINE
  5
1271B5
  8
OBJECT
 10
10490.18504542377
 20
-1131.9999999999959
 30
0.0
 11
10509.814954576221
 21
-1131.9999999999959
 31
0.0
1001
ACDBBLOCKREPETAG
1070
     1
1071
       92
1005
1271B5
  0
LINE
  5
1271B6
  8
OBJECT
 10
10505.0
 20
-1134.9999999999959
 30
0.0
 11
10505.0
 21
-1131.9999999999959
 31
0.0
1001
ACDBBLOCKREPETAG
1070
     1
1071
       93
1005
1271B6
  0
LINE
  5
1271B7
  8
OBJECT
 10
10515.0
 20
-1082.9999999999959
 30
0.0
 11
10507.5
 21
-1079.9999999999959
 31
0.0
1001
ACDBBLOCKREPETAG
1070
     1
1071
       94
1005
1271B7
  0
LINE
  5
1271B8
  8
OBJECT
 10
10490.18503599129
 20
-1123.9999868402549
 30
0.0
 11
10490.18503599129
 21
-1131.9999868402549
 31
0.0
1001
ACDBBLOCKREPETAG
1070
     1
1071
       95
1005
1271B8
  0
LINE
  5
1271B9
  8
OBJECT
 10
10495.0925013592
 20
-1123.9999868402549
 30
0.0
 11
10495.0925013592
 21
-1131.9999868402549
 31
0.0
1001
ACDBBLOCKREPETAG
1070
     1
1071
       96
1005
1271B9
  0
LINE
  5
1271BA
  8
OBJECT
 10
10504.90743209502
 20
-1123.9999868402549
 30
0.0
 11
10504.90743209502
 21
-1131.9999868402549
 31
0.0
1001
ACDBBLOCKREPETAG
1070
     1
1071
       97
1005
1271BA
  0
LINE
  5
1271BB
  8
OBJECT
 10
10509.81499155279
 20
-1123.9999868402549
 30
0.0
 11
10509.81499155279
 21
-1131.9999868402549
 31
0.0
1001
ACDBBLOCKREPETAG
1070
     1
1071
       98
1005
1271BB
  0
LINE
  5
1271BC
  8
OBJECT
 10
10427.450018504809
 20
-1109.9999999999959
 30
0.0
 11
10427.450018504809
 21
-1099.9999999999959
 31
0.0
1001
ACDBBLOCKREPETAG
1070
     1
1071
       99
1005
1271BC
  0
LINE
  5
1271BD
  8
OBJECT
 10
10423.4500185048
 20
-1079.9999999999959
 30
0.0
 11
10423.4500185048
 21
-1084.9999999999959
 31
0.0
1001
ACDBBLOCKREPETAG
1070
     1
1071
      100
1005
1271BD
  0
LINE
  5
1271BE
  8
OBJECT
 10
10434.0
 20
-1079.9999999999959
 30
0.0
 11
10423.4500185048
 21
-1079.9999999999959
 31
0.0
1001
ACDBBLOCKREPETAG
1070
     1
1071
      101
1005
1271BE
  0
LINE
  5
1271BF
  8
OBJECT
 10
10427.450018504809
 20
-1131.9999999999959
 30
0.0
 11
10427.450018504809
 21
-1134.9999999999959
 31
0.0
1001
ACDBBLOCKREPETAG
1070
     1
1071
      102
1005
1271BF
  0
LINE
  5
1271C0
  8
OBJECT
 10
10427.450018504809
 20
-1134.9999999999959
 30
0.0
 11
10437.450018504809
 21
-1134.9999999999959
 31
0.0
1001
ACDBBLOCKREPETAG
1070
     1
1071
      103
1005
1271C0
  0
LINE
  5
1271C1
  8
OBJECT
 10
10422.635063928579
 20
-1131.9999999999959
 30
0.0
 11
10442.26497308103
 21
-1131.9999999999959
 31
0.0
1001
ACDBBLOCKREPETAG
1070
     1
1071
      104
1005
1271C1
  0
LINE
  5
1271C2
  8
OBJECT
 10
10437.450018504809
 20
-1134.9999999999959
 30
0.0
 11
10437.450018504809
 21
-1131.9999999999959
 31
0.0
1001
ACDBBLOCKREPETAG
1070
     1
1071
      105
1005
1271C2
  0
LINE
  5
1271C3
  8
OBJECT
 10
10422.63505449611
 20
-1123.9999868402549
 30
0.0
 11
10422.63505449611
 21
-1131.9999868402549
 31
0.0
1001
ACDBBLOCKREPETAG
1070
     1
1071
      106
1005
1271C3
  0
LINE
  5
1271C4
  8
OBJECT
 10
10427.54251986401
 20
-1123.9999868402549
 30
0.0
 11
10427.54251986401
 21
-1131.9999868402549
 31
0.0
1001
ACDBBLOCKREPETAG
1070
     1
1071
      107
1005
1271C4
  0
LINE
  5
1271C5
  8
OBJECT
 10
10437.35745059984
 20
-1123.9999868402549
 30
0.0
 11
10437.35745059984
 21
-1131.9999868402549
 31
0.0
1001
ACDBBLOCKREPETAG
1070
     1
1071
      108
1005
1271C5
  0
LINE
  5
1271C6
  8
OBJECT
 10
10442.26501005761
 20
-1123.9999868402549
 30
0.0
 11
10442.26501005761
 21
-1131.9999868402549
 31
0.0
1001
ACDBBLOCKREPETAG
1070
     1
1071
      109
1005
1271C6
  0
LINE
  5
1271C7
  8
OBJECT
 10
10572.549981495191
 20
-1109.9999999999959
 30
0.0
 11
10572.549981495191
 21
-1099.9999999999959
 31
0.0
1001
ACDBBLOCKREPETAG
1070
     1
1071
      110
1005
1271C7
  0
LINE
  5
1271C8
  8
OBJECT
 10
10576.549981495191
 20
-1079.9999999999959
 30
0.0
 11
10576.549981495191
 21
-1084.9999999999959
 31
0.0
1001
ACDBBLOCKREPETAG
1070
     1
1071
      111
1005
1271C8
  0
LINE
  5
1271C9
  8
OBJECT
 10
10566.0
 20
-1079.9999999999959
 30
0.0
 11
10576.549981495191
 21
-1079.9999999999959
 31
0.0
1001
ACDBBLOCKREPETAG
1070
     1
1071
      112
1005
1271C9
  0
LINE
  5
1271CA
  8
OBJECT
 10
10572.54998149518
 20
-1131.9999999999959
 30
0.0
 11
10572.54998149518
 21
-1134.9999999999959
 31
0.0
1001
ACDBBLOCKREPETAG
1070
     1
1071
      113
1005
1271CA
  0
LINE
  5
1271CB
  8
OBJECT
 10
10572.54998149518
 20
-1134.9999999999959
 30
0.0
 11
10562.54998149518
 21
-1134.9999999999959
 31
0.0
1001
ACDBBLOCKREPETAG
1070
     1
1071
      114
1005
1271CB
  0
LINE
  5
1271CC
  8
OBJECT
 10
10577.364936071401
 20
-1131.9999999999959
 30
0.0
 11
10557.735026918959
 21
-1131.9999999999959
 31
0.0
1001
ACDBBLOCKREPETAG
1070
     1
1071
      115
1005
1271CC
  0
LINE
  5
1271CD
  8
OBJECT
 10
10562.54998149518
 20
-1134.9999999999959
 30
0.0
 11
10562.54998149518
 21
-1131.9999999999959
 31
0.0
1001
ACDBBLOCKREPETAG
1070
     1
1071
      116
1005
1271CD
  0
LINE
  5
1271CE
  8
OBJECT
 10
10577.364945503879
 20
-1123.9999868402549
 30
0.0
 11
10577.364945503879
 21
-1131.9999868402549
 31
0.0
1001
ACDBBLOCKREPETAG
1070
     1
1071
      117
1005
1271CE
  0
LINE
  5
1271CF
  8
OBJECT
 10
10572.457480135979
 20
-1123.9999868402549
 30
0.0
 11
10572.457480135979
 21
-1131.9999868402549
 31
0.0
1001
ACDBBLOCKREPETAG
1070
     1
1071
      118
1005
1271CF
  0
LINE
  5
1271D0
  8
OBJECT
 10
10562.64254940016
 20
-1123.9999868402549
 30
0.0
 11
10562.64254940016
 21
-1131.9999868402549
 31
0.0
1001
ACDBBLOCKREPETAG
1070
     1
1071
      119
1005
1271D0
  0
LINE
  5
1271D1
  8
OBJECT
 10
10557.734989942381
 20
-1123.9999868402549
 30
0.0
 11
10557.734989942381
 21
-1131.9999868402549
 31
0.0
1001
ACDBBLOCKREPETAG
1070
     1
1071
      120
1005
1271D1
  0
LINE
  5
1271D2
  8
OBJECT
 10
8443.0
 20
-1099.9999999999959
 30
0.0
 11
8557.0
 21
-1099.9999999999959
 31
0.0
1001
ACDBBLOCKREPETAG
1070
     1
1071
        0
1005
1271D2
  0
LINE
  5
1271D3
  8
OBJECT
 10
8443.0
 20
-1099.9999999999959
 30
0.0
 11
8443.0
 21
-999.99999999999602
 31
0.0
1001
ACDBBLOCKREPETAG
1070
     1
1071
        1
1005
1271D3
  0
LINE
  5
1271D4
  8
OBJECT
 10
8557.0
 20
-1099.9999999999959
 30
0.0
 11
8557.0
 21
-999.99999999999602
 31
0.0
1001
ACDBBLOCKREPETAG
1070
     1
1071
        2
1005
1271D4
  0
LINE
  5
1271D5
  8
OBJECT
 10
8443.0
 20
-999.99999999999602
 30
0.0
 11
8557.0
 21
-999.99999999999602
 31
0.0
1001
ACDBBLOCKREPETAG
1070
     1
1071
        3
1005
1271D5
  0
LINE
  5
1271D6
  8
HIDDEN
 10
8450.0
 20
-999.99999999999602
 30
0.0
 11
8450.0
 21
-1099.9999999999959
 31
0.0
1001
ACDBBLOCKREPETAG
1070
     1
1071
        4
1005
1271D6
  0
LINE
  5
1271D7
  8
HIDDEN
 10
8550.0
 20
-999.99999999999602
 30
0.0
 11
8550.0
 21
-1099.9999999999959
 31
0.0
1001
ACDBBLOCKREPETAG
1070
     1
1071
        5
1005
1271D7
  0
LINE
  5
1271D8
  8
CENTER
 10
8500.0
 20
-789.99999999999955
 30
0.0
 11
8500.0
 21
-1114.9999999999959
 31
0.0
1001
ACDBBLOCKREPETAG
1070
     1
1071
        6
1005
1271D8
  0
LINE
  5
1271D9
  8
OBJECT
 10
8425.0
 20
-789.99999999999955
 30
0.0
 11
8425.0
 21
-871.99999999999591
 31
0.0
1001
ACDBBLOCKREPETAG
1070
     1
1071
        7
1005
1271D9
  0
LINE
  5
1271DA
  8
OBJECT
 10
8575.0
 20
-789.99999999999955
 30
0.0
 11
8575.0
 21
-871.99999999999591
 31
0.0
1001
ACDBBLOCKREPETAG
1070
     1
1071
        8
1005
1271DA
  0
LINE
  5
1271DB
  8
OBJECT
 10
8425.0
 20
-871.99999999999591
 30
0.0
 11
8575.0
 21
-871.99999999999591
 31
0.0
1001
ACDBBLOCKREPETAG
1070
     1
1071
        9
1005
1271DB
  0
LINE
  5
1271DC
  8
OBJECT
 10
8425.0
 20
-871.99999999999591
 30
0.0
 11
8443.0
 21
-999.99999999999602
 31
0.0
1001
ACDBBLOCKREPETAG
1070
     1
1071
       10
1005
1271DC
  0
LINE
  5
1271DD
  8
OBJECT
 10
8557.0
 20
-999.99999999999602
 30
0.0
 11
8575.0
 21
-871.99999999999591
 31
0.0
1001
ACDBBLOCKREPETAG
1070
     1
1071
       11
1005
1271DD
  0
LINE
  5
1271DE
  8
OBJECT
 10
6492.0
 20
-1123.9999999999991
 30
0.0
 11
6492.0
 21
-1133.9999999999991
 31
0.0
1001
ACDBBLOCKREPETAG
1070
     1
1071
      169
1005
1271DE
  0
LINE
  5
1271DF
  8
OBJECT
 10
6508.0
 20
-1123.9999999999991
 30
0.0
 11
6508.0
 21
-1133.9999999999991
 31
0.0
1001
ACDBBLOCKREPETAG
1070
     1
1071
      170
1005
1271DF
  0
LINE
  5
1271E0
  8
OBJECT
 10
6492.0
 20
-1133.9999999999991
 30
0.0
 11
6508.0
 21
-1133.9999999999991
 31
0.0
1001
ACDBBLOCKREPETAG
1070
     1
1071
      171
1005
1271E0
  0
LINE
  5
1271E1
  8
OBJECT
 10
6579.5499814951818
 20
-1084.9999999999959
 30
0.0
 11
6420.4500185048128
 21
-1084.9999999999959
 31
0.0
1001
ACDBBLOCKREPETAG
1070
     1
1071
      172
1005
1271E1
  0
LINE
  5
1271E2
  8
OBJECT
 10
6420.4500185048128
 20
-1099.9999999999991
 30
0.0
 11
6579.5499814951818
 21
-1099.9999999999991
 31
0.0
1001
ACDBBLOCKREPETAG
1070
     1
1071
      173
1005
1271E2
  0
LINE
  5
1271E3
  8
OBJECT
 10
6495.0
 20
-1109.9999999999991
 30
0.0
 11
6495.0
 21
-1099.9999999999991
 31
0.0
1001
ACDBBLOCKREPETAG
1070
     1
1071
      174
1005
1271E3
  0
LINE
  5
1271E4
  8
OBJECT
 10
6505.0
 20
-1109.9999999999991
 30
0.0
 11
6505.0
 21
-1099.9999999999991
 31
0.0
1001
ACDBBLOCKREPETAG
1070
     1
1071
      175
1005
1271E4
  0
LINE
  5
1271E5
  8
OBJECT
 10
6567.4999999999873
 20
-1099.9999999999991
 30
0.0
 11
6567.4999999999873
 21
-1109.9999999999991
 31
0.0
1001
ACDBBLOCKREPETAG
1070
     1
1071
      176
1005
1271E5
  0
LINE
  5
1271E6
  8
OBJECT
 10
6420.4500185048064
 20
-1123.9999999999959
 30
0.0
 11
6579.54998149519
 21
-1123.9999999999959
 31
0.0
1001
ACDBBLOCKREPETAG
1070
     1
1071
      177
1005
1271E6
  0
LINE
  5
1271E7
  8
OBJECT
 10
6420.4500185048064
 20
-1109.9999999999991
 30
0.0
 11
6579.54998149519
 21
-1109.9999999999991
 31
0.0
1001
ACDBBLOCKREPETAG
1070
     1
1071
      178
1005
1271E7
  0
LINE
  5
1271E8
  8
OBJECT
 10
6434.0
 20
-1048.9999999999959
 30
0.0
 11
6565.9999999999918
 21
-1048.9999999999959
 31
0.0
1001
ACDBBLOCKREPETAG
1070
     1
1071
      179
1005
1271E8
  0
LINE
  5
1271E9
  8
HIDDEN
 10
6443.0
 20
-1059.9999999999991
 30
0.0
 11
6557.0
 21
-1059.9999999999991
 31
0.0
1001
ACDBBLOCKREPETAG
1070
     1
1071
      180
1005
1271E9
  0
LINE
  5
1271EA
  8
OBJECT
 10
6515.0
 20
-1083.2
 30
0.0
 11
6515.0
 21
-1084.9999999999991
 31
0.0
1001
ACDBBLOCKREPETAG
1070
     1
1071
      181
1005
1271EA
  0
LINE
  5
1271EB
  8
OBJECT
 10
6485.0
 20
-1083.2
 30
0.0
 11
6485.0
 21
-1084.9999999999991
 31
0.0
1001
ACDBBLOCKREPETAG
1070
     1
1071
      182
1005
1271EB
  0
LINE
  5
1271EC
  8
OBJECT
 10
6494.25
 20
-1073.4999999999991
 30
0.0
 11
6505.75
 21
-1073.4999999999991
 31
0.0
1001
ACDBBLOCKREPETAG
1070
     1
1071
      183
1005
1271EC
  0
LINE
  5
1271ED
  8
OBJECT
 10
6494.25
 20
-1073.4999999999991
 30
0.0
 11
6494.25
 21
-1083.2
 31
0.0
1001
ACDBBLOCKREPETAG
1070
     1
1071
      184
1005
1271ED
  0
LINE
  5
1271EE
  8
OBJECT
 10
6505.75
 20
-1073.4999999999991
 30
0.0
 11
6505.75
 21
-1083.2
 31
0.0
1001
ACDBBLOCKREPETAG
1070
     1
1071
      185
1005
1271EE
  0
LINE
  5
1271EF
  8
OBJECT
 10
6431.9999999999873
 20
-1164.9999999999991
 30
0.0
 11
6567.9999999999873
 21
-1164.9999999999991
 31
0.0
1001
ACDBBLOCKREPETAG
1070
     1
1071
      186
1005
1271EF
  0
LINE
  5
1271F0
  8
OBJECT
 10
6431.9999999999873
 20
-1164.9999999999991
 30
0.0
 11
6431.9999999999873
 21
-1123.9999999999991
 31
0.0
1001
ACDBBLOCKREPETAG
1070
     1
1071
      187
1005
1271F0
  0
LINE
  5
1271F1
  8
OBJECT
 10
6567.9999999999873
 20
-1164.9999999999991
 30
0.0
 11
6567.9999999999873
 21
-1123.9999999999991
 31
0.0
1001
ACDBBLOCKREPETAG
1070
     1
1071
      188
1005
1271F1
  0
LINE
  5
1271F2
  8
OBJECT
 10
6515.0
 20
-1083.2
 30
0.0
 11
6485.0
 21
-1083.2
 31
0.0
1001
ACDBBLOCKREPETAG
1070
     1
1071
      189
1005
1271F2
  0
LINE
  5
1271F3
  8
CENTER
 10
6500.0
 20
-789.99999999999955
 30
0.0
 11
6500.0
 21
-1179.9999999999991
 31
0.0
1001
ACDBBLOCKREPETAG
1070
     1
1071
      190
1005
1271F3
  0
LINE
  5
1271F4
  8
OBJECT
 10
6425.0
 20
-789.99999999999955
 30
0.0
 11
6425.0
 21
-871.99999999999591
 31
0.0
1001
ACDBBLOCKREPETAG
1070
     1
1071
      191
1005
1271F4
  0
LINE
  5
1271F5
  8
OBJECT
 10
6575.0
 20
-789.99999999999955
 30
0.0
 11
6575.0
 21
-871.99999999999204
 31
0.0
1001
ACDBBLOCKREPETAG
1070
     1
1071
      192
1005
1271F5
  0
LINE
  5
1271F6
  8
OBJECT
 10
6425.0
 20
-871.99999999999591
 30
0.0
 11
6575.0
 21
-871.99999999999204
 31
0.0
1001
ACDBBLOCKREPETAG
1070
     1
1071
      193
1005
1271F6
  0
LINE
  5
1271F7
  8
OBJECT
 10
6443.0
 20
-1048.9999999999959
 30
0.0
 11
6443.0
 21
-999.99999999999204
 31
0.0
1001
ACDBBLOCKREPETAG
1070
     1
1071
      194
1005
1271F7
  0
LINE
  5
1271F8
  8
OBJECT
 10
6557.0
 20
-999.99999999999204
 30
0.0
 11
6443.0
 21
-999.99999999999204
 31
0.0
1001
ACDBBLOCKREPETAG
1070
     1
1071
      195
1005
1271F8
  0
LINE
  5
1271F9
  8
OBJECT
 10
6557.0
 20
-999.99999999999204
 30
0.0
 11
6557.0
 21
-1048.9999999999959
 31
0.0
1001
ACDBBLOCKREPETAG
1070
     1
1071
      196
1005
1271F9
  0
LINE
  5
1271FA
  8
OBJECT
 10
6425.0
 20
-871.99999999999591
 30
0.0
 11
6443.0
 21
-999.99999999999204
 31
0.0
1001
ACDBBLOCKREPETAG
1070
     1
1071
      197
1005
1271FA
  0
LINE
  5
1271FB
  8
OBJECT
 10
6557.0
 20
-999.99999999999204
 30
0.0
 11
6575.0
 21
-871.99999999999204
 31
0.0
1001
ACDBBLOCKREPETAG
1070
     1
1071
      198
1005
1271FB
  0
LINE
  5
1271FC
  8
OBJECT
 10
6434.0
 20
-1084.9999999999959
 30
0.0
 11
6434.0
 21
-1048.9999999999959
 31
0.0
1001
ACDBBLOCKREPETAG
1070
     1
1071
      199
1005
1271FC
  0
LINE
  5
1271FD
  8
OBJECT
 10
6566.0
 20
-1084.9999999999959
 30
0.0
 11
6565.9999999999918
 21
-1048.9999999999959
 31
0.0
1001
ACDBBLOCKREPETAG
1070
     1
1071
      200
1005
1271FD
  0
LINE
  5
1271FE
  8
OBJECT
 10
6567.4999999999991
 20
-1099.9999999999991
 30
0.0
 11
6567.4999999999991
 21
-1109.9999999999991
 31
0.0
1001
ACDBBLOCKREPETAG
1070
     1
1071
      201
1005
1271FE
  0
LINE
  5
1271FF
  8
OBJECT
 10
6579.5499814951818
 20
-1099.9999999999991
 30
0.0
 11
6579.5499814951818
 21
-1084.9999999999959
 31
0.0
1001
ACDBBLOCKREPETAG
1070
     1
1071
      202
1005
1271FF
  0
LINE
  5
127200
  8
OBJECT
 10
6579.5499814951818
 20
-1109.9999999999991
 30
0.0
 11
6579.5499814951818
 21
-1123.9999999999959
 31
0.0
1001
ACDBBLOCKREPETAG
1070
     1
1071
      203
1005
127200
  0
LINE
  5
127201
  8
OBJECT
 10
6420.4500185048064
 20
-1099.9999999999991
 30
0.0
 11
6420.4500185048064
 21
-1084.9999999999959
 31
0.0
1001
ACDBBLOCKREPETAG
1070
     1
1071
      204
1005
127201
  0
LINE
  5
127202
  8
OBJECT
 10
6420.4500185048064
 20
-1109.9999999999991
 30
0.0
 11
6420.4500185048064
 21
-1123.9999999999959
 31
0.0
1001
ACDBBLOCKREPETAG
1070
     1
1071
      205
1005
127202
  0
LINE
  5
127203
  8
OBJECT
 10
6424.45001850481
 20
-1123.9999999999991
 30
0.0
 11
6424.45001850481
 21
-1133.9999999999991
 31
0.0
1001
ACDBBLOCKREPETAG
1070
     1
1071
      206
1005
127203
  0
LINE
  5
127204
  8
OBJECT
 10
6431.9999999999873
 20
-1133.9999999999991
 30
0.0
 11
6424.45001850481
 21
-1133.9999999999991
 31
0.0
1001
ACDBBLOCKREPETAG
1070
     1
1071
      207
1005
127204
  0
LINE
  5
127205
  8
OBJECT
 10
6427.45001850481
 20
-1109.9999999999991
 30
0.0
 11
6427.45001850481
 21
-1099.9999999999991
 31
0.0
1001
ACDBBLOCKREPETAG
1070
     1
1071
      208
1005
127205
  0
LINE
  5
127206
  8
OBJECT
 10
6423.4500185048091
 20
-1083.2
 30
0.0
 11
6423.4500185048091
 21
-1084.9999999999991
 31
0.0
1001
ACDBBLOCKREPETAG
1070
     1
1071
      209
1005
127206
  0
LINE
  5
127207
  8
OBJECT
 10
6426.7000185048091
 20
-1073.4999999999991
 30
0.0
 11
6434.0
 21
-1073.4999999999991
 31
0.0
1001
ACDBBLOCKREPETAG
1070
     1
1071
      210
1005
127207
  0
LINE
  5
127208
  8
OBJECT
 10
6426.7000185048091
 20
-1073.4999999999991
 30
0.0
 11
6426.7000185048091
 21
-1083.2
 31
0.0
1001
ACDBBLOCKREPETAG
1070
     1
1071
      211
1005
127208
  0
LINE
  5
127209
  8
OBJECT
 10
6434.0
 20
-1083.2
 30
0.0
 11
6423.4500185048091
 21
-1083.2
 31
0.0
1001
ACDBBLOCKREPETAG
1070
     1
1071
      212
1005
127209
  0
LINE
  5
12720A
  8
OBJECT
 10
6432.5
 20
-1099.9999999999991
 30
0.0
 11
6432.5
 21
-1109.9999999999991
 31
0.0
1001
ACDBBLOCKREPETAG
1070
     1
1071
      213
1005
12720A
  0
LINE
  5
12720B
  8
OBJECT
 10
6432.4999999999864
 20
-1099.9999999999991
 30
0.0
 11
6432.4999999999864
 21
-1109.9999999999991
 31
0.0
1001
ACDBBLOCKREPETAG
1070
     1
1071
      214
1005
12720B
  0
LINE
  5
12720C
  8
OBJECT
 10
6575.54998149519
 20
-1123.9999999999991
 30
0.0
 11
6575.54998149519
 21
-1133.9999999999991
 31
0.0
1001
ACDBBLOCKREPETAG
1070
     1
1071
      215
1005
12720C
  0
LINE
  5
12720D
  8
OBJECT
 10
6568.0
 20
-1133.9999999999991
 30
0.0
 11
6575.54998149519
 21
-1133.9999999999991
 31
0.0
1001
ACDBBLOCKREPETAG
1070
     1
1071
      216
1005
12720D
  0
LINE
  5
12720E
  8
OBJECT
 10
6572.5499814951918
 20
-1109.9999999999991
 30
0.0
 11
6572.5499814951918
 21
-1099.9999999999991
 31
0.0
1001
ACDBBLOCKREPETAG
1070
     1
1071
      217
1005
12720E
  0
LINE
  5
12720F
  8
OBJECT
 10
6576.54998149519
 20
-1083.2
 30
0.0
 11
6576.54998149519
 21
-1084.9999999999991
 31
0.0
1001
ACDBBLOCKREPETAG
1070
     1
1071
      218
1005
12720F
  0
LINE
  5
127210
  8
OBJECT
 10
6573.2999814951909
 20
-1073.4999999999991
 30
0.0
 11
6566.0
 21
-1073.4999999999991
 31
0.0
1001
ACDBBLOCKREPETAG
1070
     1
1071
      219
1005
127210
  0
LINE
  5
127211
  8
OBJECT
 10
6573.2999814951909
 20
-1073.4999999999991
 30
0.0
 11
6573.2999814951909
 21
-1083.2
 31
0.0
1001
ACDBBLOCKREPETAG
1070
     1
1071
      220
1005
127211
  0
LINE
  5
127212
  8
OBJECT
 10
6566.0
 20
-1083.2
 30
0.0
 11
6576.54998149519
 21
-1083.2
 31
0.0
1001
ACDBBLOCKREPETAG
1070
     1
1071
      221
1005
127212
  0
LINE
  5
127213
  8
OBJECT
 10
4579.5499814951818
 20
-1084.9999999999959
 30
0.0
 11
4420.4500185047982
 21
-1084.9999999999959
 31
0.0
1001
ACDBBLOCKREPETAG
1070
     1
1071
       62
1005
127213
  0
LINE
  5
127214
  8
OBJECT
 10
4566.0
 20
-1048.9999999999959
 30
0.0
 11
4434.0
 21
-1048.9999999999959
 31
0.0
1001
ACDBBLOCKREPETAG
1070
     1
1071
       63
1005
127214
  0
LINE
  5
127215
  8
OBJECT
 10
4579.5499814951818
 20
-1099.9999999999991
 30
0.0
 11
4579.5499814951818
 21
-1084.9999999999959
 31
0.0
1001
ACDBBLOCKREPETAG
1070
     1
1071
       64
1005
127215
  0
LINE
  5
127216
  8
OBJECT
 10
4420.4500185047982
 20
-1099.9999999999991
 30
0.0
 11
4579.5499814951818
 21
-1099.9999999999991
 31
0.0
1001
ACDBBLOCKREPETAG
1070
     1
1071
       65
1005
127216
  0
LINE
  5
127217
  8
OBJECT
 10
4567.4999999999864
 20
-1099.9999999999991
 30
0.0
 11
4567.4999999999864
 21
-1109.9999999999991
 31
0.0
1001
ACDBBLOCKREPETAG
1070
     1
1071
       66
1005
127217
  0
LINE
  5
127218
  8
OBJECT
 10
4579.5499814951818
 20
-1109.9999999999991
 30
0.0
 11
4579.5499814951818
 21
-1123.9999999999959
 31
0.0
1001
ACDBBLOCKREPETAG
1070
     1
1071
       67
1005
127218
  0
LINE
  5
127219
  8
OBJECT
 10
4420.4500185048046
 20
-1123.9999999999959
 30
0.0
 11
4579.5499814951818
 21
-1123.9999999999959
 31
0.0
1001
ACDBBLOCKREPETAG
1070
     1
1071
       68
1005
127219
  0
LINE
  5
12721A
  8
OBJECT
 10
4420.4500185048046
 20
-1109.9999999999991
 30
0.0
 11
4579.5499814951818
 21
-1109.9999999999991
 31
0.0
1001
ACDBBLOCKREPETAG
1070
     1
1071
       69
1005
12721A
  0
LINE
  5
12721B
  8
HIDDEN
 10
4443.0
 20
-1059.9999999999991
 30
0.0
 11
4557.0
 21
-1059.9999999999991
 31
0.0
1001
ACDBBLOCKREPETAG
1070
     1
1071
       70
1005
12721B
  0
LINE
  5
12721C
  8
CENTER
 10
4500.0
 20
-789.99999999999955
 30
0.0
 11
4500.0
 21
-1149.9999999999959
 31
0.0
1001
ACDBBLOCKREPETAG
1070
     1
1071
       71
1005
12721C
  0
LINE
  5
12721D
  8
OBJECT
 10
4425.0
 20
-789.99999999999955
 30
0.0
 11
4425.0
 21
-871.99999999999591
 31
0.0
1001
ACDBBLOCKREPETAG
1070
     1
1071
       72
1005
12721D
  0
LINE
  5
12721E
  8
OBJECT
 10
4575.0
 20
-789.99999999999955
 30
0.0
 11
4575.0
 21
-871.99999999999204
 31
0.0
1001
ACDBBLOCKREPETAG
1070
     1
1071
       73
1005
12721E
  0
LINE
  5
12721F
  8
OBJECT
 10
4425.0
 20
-871.99999999999591
 30
0.0
 11
4575.0
 21
-871.99999999999204
 31
0.0
1001
ACDBBLOCKREPETAG
1070
     1
1071
       74
1005
12721F
  0
LINE
  5
127220
  8
OBJECT
 10
4557.0
 20
-1048.9999999999959
 30
0.0
 11
4557.0
 21
-999.99999999999204
 31
0.0
1001
ACDBBLOCKREPETAG
1070
     1
1071
       75
1005
127220
  0
LINE
  5
127221
  8
OBJECT
 10
4443.0
 20
-1048.9999999999959
 30
0.0
 11
4443.0
 21
-999.99999999999204
 31
0.0
1001
ACDBBLOCKREPETAG
1070
     1
1071
       76
1005
127221
  0
LINE
  5
127222
  8
OBJECT
 10
4557.0
 20
-999.99999999999204
 30
0.0
 11
4443.0
 21
-999.99999999999204
 31
0.0
1001
ACDBBLOCKREPETAG
1070
     1
1071
       77
1005
127222
  0
LINE
  5
127223
  8
OBJECT
 10
4425.0
 20
-871.99999999999591
 30
0.0
 11
4443.0
 21
-999.99999999999204
 31
0.0
1001
ACDBBLOCKREPETAG
1070
     1
1071
       78
1005
127223
  0
LINE
  5
127224
  8
OBJECT
 10
4557.0
 20
-999.99999999999204
 30
0.0
 11
4575.0
 21
-871.99999999999204
 31
0.0
1001
ACDBBLOCKREPETAG
1070
     1
1071
       79
1005
127224
  0
LINE
  5
127225
  8
OBJECT
 10
4434.0
 20
-1048.9999999999959
 30
0.0
 11
4434.0
 21
-1084.9999999999959
 31
0.0
1001
ACDBBLOCKREPETAG
1070
     1
1071
       80
1005
127225
  0
LINE
  5
127226
  8
OBJECT
 10
4566.0
 20
-1048.9999999999959
 30
0.0
 11
4566.0
 21
-1084.9999999999959
 31
0.0
1001
ACDBBLOCKREPETAG
1070
     1
1071
       81
1005
127226
  0
LINE
  5
127227
  8
OBJECT
 10
4420.4500185047982
 20
-1099.9999999999991
 30
0.0
 11
4420.4500185047982
 21
-1084.9999999999959
 31
0.0
1001
ACDBBLOCKREPETAG
1070
     1
1071
       82
1005
127227
  0
LINE
  5
127228
  8
OBJECT
 10
4432.5
 20
-1099.9999999999991
 30
0.0
 11
4432.5
 21
-1109.9999999999991
 31
0.0
1001
ACDBBLOCKREPETAG
1070
     1
1071
       83
1005
127228
  0
LINE
  5
127229
  8
OBJECT
 10
4420.4500185047982
 20
-1109.9999999999991
 30
0.0
 11
4420.4500185047982
 21
-1123.9999999999959
 31
0.0
1001
ACDBBLOCKREPETAG
1070
     1
1071
       84
1005
127229
  0
LINE
  5
12722A
  8
OBJECT
 10
4507.5
 20
-1079.9999999999959
 30
0.0
 11
4490.9999999999909
 21
-1079.9999999999959
 31
0.0
1001
ACDBBLOCKREPETAG
1070
     1
1071
       85
1005
12722A
  0
LINE
  5
12722B
  8
OBJECT
 10
4515.0
 20
-1084.9999999999959
 30
0.0
 11
4515.0
 21
-1082.9999999999959
 31
0.0
1001
ACDBBLOCKREPETAG
1070
     1
1071
       86
1005
12722B
  0
LINE
  5
12722C
  8
OBJECT
 10
4505.0
 20
-1109.9999999999959
 30
0.0
 11
4505.0
 21
-1099.9999999999959
 31
0.0
1001
ACDBBLOCKREPETAG
1070
     1
1071
       87
1005
12722C
  0
LINE
  5
12722D
  8
OBJECT
 10
4495.0
 20
-1109.9999999999959
 30
0.0
 11
4495.0
 21
-1099.9999999999959
 31
0.0
1001
ACDBBLOCKREPETAG
1070
     1
1071
       88
1005
12722D
  0
LINE
  5
12722E
  8
OBJECT
 10
4490.9999999999909
 20
-1079.9999999999959
 30
0.0
 11
4490.9999999999909
 21
-1084.9999999999959
 31
0.0
1001
ACDBBLOCKREPETAG
1070
     1
1071
       89
1005
12722E
  0
LINE
  5
12722F
  8
OBJECT
 10
4495.0
 20
-1131.9999999999959
 30
0.0
 11
4495.0
 21
-1134.9999999999959
 31
0.0
1001
ACDBBLOCKREPETAG
1070
     1
1071
       90
1005
12722F
  0
LINE
  5
127230
  8
OBJECT
 10
4495.0
 20
-1134.9999999999959
 30
0.0
 11
4505.0
 21
-1134.9999999999959
 31
0.0
1001
ACDBBLOCKREPETAG
1070
     1
1071
       91
1005
127230
  0
LINE
  5
127231
  8
OBJECT
 10
4490.1850454237701
 20
-1131.9999999999959
 30
0.0
 11
4509.8149545762208
 21
-1131.9999999999959
 31
0.0
1001
ACDBBLOCKREPETAG
1070
     1
1071
       92
1005
127231
  0
LINE
  5
127232
  8
OBJECT
 10
4505.0
 20
-1134.9999999999959
 30
0.0
 11
4505.0
 21
-1131.9999999999959
 31
0.0
1001
ACDBBLOCKREPETAG
1070
     1
1071
       93
1005
127232
  0
LINE
  5
127233
  8
OBJECT
 10
4515.0
 20
-1082.9999999999959
 30
0.0
 11
4507.5
 21
-1079.9999999999959
 31
0.0
1001
ACDBBLOCKREPETAG
1070
     1
1071
       94
1005
127233
  0
LINE
  5
127234
  8
OBJECT
 10
4490.1850359912924
 20
-1123.9999868402549
 30
0.0
 11
4490.1850359912924
 21
-1131.9999868402549
 31
0.0
1001
ACDBBLOCKREPETAG
1070
     1
1071
       95
1005
127234
  0
LINE
  5
127235
  8
OBJECT
 10
4495.0925013591977
 20
-1123.9999868402549
 30
0.0
 11
4495.0925013591977
 21
-1131.9999868402549
 31
0.0
1001
ACDBBLOCKREPETAG
1070
     1
1071
       96
1005
127235
  0
LINE
  5
127236
  8
OBJECT
 10
4504.9074320950231
 20
-1123.9999868402549
 30
0.0
 11
4504.9074320950231
 21
-1131.9999868402549
 31
0.0
1001
ACDBBLOCKREPETAG
1070
     1
1071
       97
1005
127236
  0
LINE
  5
127237
  8
OBJECT
 10
4509.8149915527974
 20
-1123.9999868402549
 30
0.0
 11
4509.8149915527974
 21
-1131.9999868402549
 31
0.0
1001
ACDBBLOCKREPETAG
1070
     1
1071
       98
1005
127237
  0
LINE
  5
127238
  8
OBJECT
 10
4427.4500185048091
 20
-1109.9999999999959
 30
0.0
 11
4427.4500185048091
 21
-1099.9999999999959
 31
0.0
1001
ACDBBLOCKREPETAG
1070
     1
1071
       99
1005
127238
  0
LINE
  5
127239
  8
OBJECT
 10
4423.4500185048018
 20
-1079.9999999999959
 30
0.0
 11
4423.4500185048018
 21
-1084.9999999999959
 31
0.0
1001
ACDBBLOCKREPETAG
1070
     1
1071
      100
1005
127239
  0
LINE
  5
12723A
  8
OBJECT
 10
4434.0
 20
-1079.9999999999959
 30
0.0
 11
4423.4500185048018
 21
-1079.9999999999959
 31
0.0
1001
ACDBBLOCKREPETAG
1070
     1
1071
      101
1005
12723A
  0
LINE
  5
12723B
  8
OBJECT
 10
4427.4500185048091
 20
-1131.9999999999959
 30
0.0
 11
4427.4500185048091
 21
-1134.9999999999959
 31
0.0
1001
ACDBBLOCKREPETAG
1070
     1
1071
      102
1005
12723B
  0
LINE
  5
12723C
  8
OBJECT
 10
4427.4500185048091
 20
-1134.9999999999959
 30
0.0
 11
4437.4500185048091
 21
-1134.9999999999959
 31
0.0
1001
ACDBBLOCKREPETAG
1070
     1
1071
      103
1005
12723C
  0
LINE
  5
12723D
  8
OBJECT
 10
4422.6350639285811
 20
-1131.9999999999959
 30
0.0
 11
4442.2649730810354
 21
-1131.9999999999959
 31
0.0
1001
ACDBBLOCKREPETAG
1070
     1
1071
      104
1005
12723D
  0
LINE
  5
12723E
  8
OBJECT
 10
4437.4500185048091
 20
-1134.9999999999959
 30
0.0
 11
4437.4500185048091
 21
-1131.9999999999959
 31
0.0
1001
ACDBBLOCKREPETAG
1070
     1
1071
      105
1005
12723E
  0
LINE
  5
12723F
  8
OBJECT
 10
4422.6350544961097
 20
-1123.9999868402549
 30
0.0
 11
4422.6350544961097
 21
-1131.9999868402549
 31
0.0
1001
ACDBBLOCKREPETAG
1070
     1
1071
      106
1005
12723F
  0
LINE
  5
127240
  8
OBJECT
 10
4427.5425198640141
 20
-1123.9999868402549
 30
0.0
 11
4427.5425198640141
 21
-1131.9999868402549
 31
0.0
1001
ACDBBLOCKREPETAG
1070
     1
1071
      107
1005
127240
  0
LINE
  5
127241
  8
OBJECT
 10
4437.3574505998404
 20
-1123.9999868402549
 30
0.0
 11
4437.3574505998404
 21
-1131.9999868402549
 31
0.0
1001
ACDBBLOCKREPETAG
1070
     1
1071
      108
1005
127241
  0
LINE
  5
127242
  8
OBJECT
 10
4442.2650100576138
 20
-1123.9999868402549
 30
0.0
 11
4442.2650100576138
 21
-1131.9999868402549
 31
0.0
1001
ACDBBLOCKREPETAG
1070
     1
1071
      109
1005
127242
  0
LINE
  5
127243
  8
OBJECT
 10
4572.5499814951909
 20
-1109.9999999999959
 30
0.0
 11
4572.5499814951909
 21
-1099.9999999999959
 31
0.0
1001
ACDBBLOCKREPETAG
1070
     1
1071
      110
1005
127243
  0
LINE
  5
127244
  8
OBJECT
 10
4576.5499814951891
 20
-1079.9999999999959
 30
0.0
 11
4576.5499814951891
 21
-1084.9999999999959
 31
0.0
1001
ACDBBLOCKREPETAG
1070
     1
1071
      111
1005
127244
  0
LINE
  5
127245
  8
OBJECT
 10
4566.0
 20
-1079.9999999999959
 30
0.0
 11
4576.5499814951891
 21
-1079.9999999999959
 31
0.0
1001
ACDBBLOCKREPETAG
1070
     1
1071
      112
1005
127245
  0
LINE
  5
127246
  8
OBJECT
 10
4572.5499814951836
 20
-1131.9999999999959
 30
0.0
 11
4572.5499814951836
 21
-1134.9999999999959
 31
0.0
1001
ACDBBLOCKREPETAG
1070
     1
1071
      113
1005
127246
  0
LINE
  5
127247
  8
OBJECT
 10
4572.5499814951836
 20
-1134.9999999999959
 30
0.0
 11
4562.5499814951827
 21
-1134.9999999999959
 31
0.0
1001
ACDBBLOCKREPETAG
1070
     1
1071
      114
1005
127247
  0
LINE
  5
127248
  8
OBJECT
 10
4577.3649360714053
 20
-1131.9999999999959
 30
0.0
 11
4557.7350269189619
 21
-1131.9999999999959
 31
0.0
1001
ACDBBLOCKREPETAG
1070
     1
1071
      115
1005
127248
  0
LINE
  5
127249
  8
OBJECT
 10
4562.5499814951827
 20
-1134.9999999999959
 30
0.0
 11
4562.5499814951827
 21
-1131.9999999999959
 31
0.0
1001
ACDBBLOCKREPETAG
1070
     1
1071
      116
1005
127249
  0
LINE
  5
12724A
  8
OBJECT
 10
4577.3649455038831
 20
-1123.9999868402549
 30
0.0
 11
4577.3649455038831
 21
-1131.9999868402549
 31
0.0
1001
ACDBBLOCKREPETAG
1070
     1
1071
      117
1005
12724A
  0
LINE
  5
12724B
  8
OBJECT
 10
4572.457480135985
 20
-1123.9999868402549
 30
0.0
 11
4572.457480135985
 21
-1131.9999868402549
 31
0.0
1001
ACDBBLOCKREPETAG
1070
     1
1071
      118
1005
12724B
  0
LINE
  5
12724C
  8
OBJECT
 10
4562.6425494001587
 20
-1123.9999868402549
 30
0.0
 11
4562.6425494001587
 21
-1131.9999868402549
 31
0.0
1001
ACDBBLOCKREPETAG
1070
     1
1071
      119
1005
12724C
  0
LINE
  5
12724D
  8
OBJECT
 10
4557.7349899423862
 20
-1123.9999868402549
 30
0.0
 11
4557.7349899423862
 21
-1131.9999868402549
 31
0.0
1001
ACDBBLOCKREPETAG
1070
     1
1071
      120
1005
12724D
  0
LINE
  5
12724E
  8
OBJECT
 10
12085.999999999991
 20
-1123.9999999999991
 30
0.0
 11
12085.999999999991
 21
-1133.9999999999991
 31
0.0
1001
ACDBBLOCKREPETAG
1070
     1
1071
      121
1005
12724E
  0
LINE
  5
12724F
  8
OBJECT
 10
12069.999999999991
 20
-1123.9999999999991
 30
0.0
 11
12069.999999999991
 21
-1133.9999999999991
 31
0.0
1001
ACDBBLOCKREPETAG
1070
     1
1071
      122
1005
12724F
  0
LINE
  5
127250
  8
OBJECT
 10
12085.999999999991
 20
-1133.9999999999991
 30
0.0
 11
12069.999999999991
 21
-1133.9999999999991
 31
0.0
1001
ACDBBLOCKREPETAG
1070
     1
1071
      123
1005
127250
  0
LINE
  5
127251
  8
OBJECT
 10
12090.0
 20
-1084.9999999999959
 30
0.0
 11
11924.0
 21
-1084.9999999999959
 31
0.0
1001
ACDBBLOCKREPETAG
1070
     1
1071
      124
1005
127251
  0
LINE
  5
127252
  8
OBJECT
 10
12090.0
 20
-1099.9999999999991
 30
0.0
 11
12090.0
 21
-1084.9999999999959
 31
0.0
1001
ACDBBLOCKREPETAG
1070
     1
1071
      125
1005
127252
  0
LINE
  5
127253
  8
OBJECT
 10
11924.0
 20
-1099.9999999999991
 30
0.0
 11
12090.0
 21
-1099.9999999999991
 31
0.0
1001
ACDBBLOCKREPETAG
1070
     1
1071
      126
1005
127253
  0
LINE
  5
127254
  8
OBJECT
 10
12067.49999999998
 20
-1099.9999999999991
 30
0.0
 11
12067.49999999998
 21
-1109.9999999999991
 31
0.0
1001
ACDBBLOCKREPETAG
1070
     1
1071
      127
1005
127254
  0
LINE
  5
127255
  8
OBJECT
 10
12072.999999999991
 20
-1109.9999999999991
 30
0.0
 11
12072.999999999991
 21
-1099.9999999999991
 31
0.0
1001
ACDBBLOCKREPETAG
1070
     1
1071
      128
1005
127255
  0
LINE
  5
127256
  8
OBJECT
 10
12082.999999999991
 20
-1109.9999999999991
 30
0.0
 11
12082.999999999991
 21
-1099.9999999999991
 31
0.0
1001
ACDBBLOCKREPETAG
1070
     1
1071
      129
1005
127256
  0
LINE
  5
127257
  8
OBJECT
 10
11924.0
 20
-1109.9999999999991
 30
0.0
 11
11924.0
 21
-1123.9999999999959
 31
0.0
1001
ACDBBLOCKREPETAG
1070
     1
1071
      130
1005
127257
  0
LINE
  5
127258
  8
OBJECT
 10
12090.0
 20
-1109.9999999999991
 30
0.0
 11
12090.0
 21
-1123.9999999999959
 31
0.0
1001
ACDBBLOCKREPETAG
1070
     1
1071
      131
1005
127258
  0
LINE
  5
127259
  8
OBJECT
 10
11924.0
 20
-1123.9999999999959
 30
0.0
 11
12090.0
 21
-1123.9999999999959
 31
0.0
1001
ACDBBLOCKREPETAG
1070
     1
1071
      132
1005
127259
  0
LINE
  5
12725A
  8
OBJECT
 10
11924.0
 20
-1109.9999999999991
 30
0.0
 11
12090.0
 21
-1109.9999999999991
 31
0.0
1001
ACDBBLOCKREPETAG
1070
     1
1071
      133
1005
12725A
  0
LINE
  5
12725B
  8
OBJECT
 10
11932.49999999998
 20
-1099.9999999999991
 30
0.0
 11
11932.49999999998
 21
-1109.9999999999991
 31
0.0
1001
ACDBBLOCKREPETAG
1070
     1
1071
      134
1005
12725B
  0
LINE
  5
12725C
  8
OBJECT
 10
11934.0
 20
-1048.9999999999959
 30
0.0
 11
12065.999999999991
 21
-1048.9999999999959
 31
0.0
1001
ACDBBLOCKREPETAG
1070
     1
1071
      135
1005
12725C
  0
LINE
  5
12725D
  8
OBJECT
 10
11924.0
 20
-1099.9999999999991
 30
0.0
 11
11924.0
 21
-1084.9999999999959
 31
0.0
1001
ACDBBLOCKREPETAG
1070
     1
1071
      136
1005
12725D
  0
LINE
  5
12725E
  8
HIDDEN
 10
11943.0
 20
-1059.9999999999991
 30
0.0
 11
12057.0
 21
-1059.9999999999991
 31
0.0
1001
ACDBBLOCKREPETAG
1070
     1
1071
      137
1005
12725E
  0
LINE
  5
12725F
  8
OBJECT
 10
12086.999999999991
 20
-1083.2
 30
0.0
 11
12086.999999999991
 21
-1084.9999999999991
 31
0.0
1001
ACDBBLOCKREPETAG
1070
     1
1071
      138
1005
12725F
  0
LINE
  5
127260
  8
OBJECT
 10
12068.999999999991
 20
-1083.2
 30
0.0
 11
12068.999999999991
 21
-1084.9999999999991
 31
0.0
1001
ACDBBLOCKREPETAG
1070
     1
1071
      139
1005
127260
  0
LINE
  5
127261
  8
OBJECT
 10
12072.249999999991
 20
-1073.4999999999991
 30
0.0
 11
12083.749999999991
 21
-1073.4999999999991
 31
0.0
1001
ACDBBLOCKREPETAG
1070
     1
1071
      140
1005
127261
  0
LINE
  5
127262
  8
OBJECT
 10
12072.249999999991
 20
-1073.4999999999991
 30
0.0
 11
12072.249999999991
 21
-1083.2
 31
0.0
1001
ACDBBLOCKREPETAG
1070
     1
1071
      141
1005
127262
  0
LINE
  5
127263
  8
OBJECT
 10
12083.749999999991
 20
-1073.4999999999991
 30
0.0
 11
12083.749999999991
 21
-1083.2
 31
0.0
1001
ACDBBLOCKREPETAG
1070
     1
1071
      142
1005
127263
  0
LINE
  5
127264
  8
OBJECT
 10
11931.99999999998
 20
-1164.9999999999991
 30
0.0
 11
12067.99999999998
 21
-1164.9999999999991
 31
0.0
1001
ACDBBLOCKREPETAG
1070
     1
1071
      143
1005
127264
  0
LINE
  5
127265
  8
OBJECT
 10
11931.99999999998
 20
-1164.9999999999991
 30
0.0
 11
11931.99999999998
 21
-1123.9999999999991
 31
0.0
1001
ACDBBLOCKREPETAG
1070
     1
1071
      144
1005
127265
  0
LINE
  5
127266
  8
OBJECT
 10
12067.99999999998
 20
-1164.9999999999991
 30
0.0
 11
12067.99999999998
 21
-1123.9999999999991
 31
0.0
1001
ACDBBLOCKREPETAG
1070
     1
1071
      145
1005
127266
  0
LINE
  5
127267
  8
OBJECT
 10
12086.999999999991
 20
-1083.2
 30
0.0
 11
12068.999999999991
 21
-1083.2
 31
0.0
1001
ACDBBLOCKREPETAG
1070
     1
1071
      146
1005
127267
  0
LINE
  5
127268
  8
CENTER
 10
12000.0
 20
-789.99999999999955
 30
0.0
 11
12000.0
 21
-1179.9999999999991
 31
0.0
1001
ACDBBLOCKREPETAG
1070
     1
1071
      147
1005
127268
  0
LINE
  5
127269
  8
OBJECT
 10
11925.0
 20
-789.99999999999955
 30
0.0
 11
11925.0
 21
-871.99999999999591
 31
0.0
1001
ACDBBLOCKREPETAG
1070
     1
1071
      148
1005
127269
  0
LINE
  5
12726A
  8
OBJECT
 10
12075.0
 20
-789.99999999999955
 30
0.0
 11
12075.0
 21
-871.99999999999204
 31
0.0
1001
ACDBBLOCKREPETAG
1070
     1
1071
      149
1005
12726A
  0
LINE
  5
12726B
  8
OBJECT
 10
11925.0
 20
-871.99999999999591
 30
0.0
 11
12075.0
 21
-871.99999999999204
 31
0.0
1001
ACDBBLOCKREPETAG
1070
     1
1071
      150
1005
12726B
  0
LINE
  5
12726C
  8
OBJECT
 10
11943.0
 20
-1048.9999999999959
 30
0.0
 11
11943.0
 21
-999.99999999999204
 31
0.0
1001
ACDBBLOCKREPETAG
1070
     1
1071
      151
1005
12726C
  0
LINE
  5
12726D
  8
OBJECT
 10
12057.0
 20
-999.99999999999204
 30
0.0
 11
11943.0
 21
-999.99999999999204
 31
0.0
1001
ACDBBLOCKREPETAG
1070
     1
1071
      152
1005
12726D
  0
LINE
  5
12726E
  8
OBJECT
 10
12057.0
 20
-999.99999999999204
 30
0.0
 11
12057.0
 21
-1048.9999999999959
 31
0.0
1001
ACDBBLOCKREPETAG
1070
     1
1071
      153
1005
12726E
  0
LINE
  5
12726F
  8
OBJECT
 10
11925.0
 20
-871.99999999999591
 30
0.0
 11
11943.0
 21
-999.99999999999204
 31
0.0
1001
ACDBBLOCKREPETAG
1070
     1
1071
      154
1005
12726F
  0
LINE
  5
127270
  8
OBJECT
 10
12057.0
 20
-999.99999999999204
 30
0.0
 11
12075.0
 21
-871.99999999999204
 31
0.0
1001
ACDBBLOCKREPETAG
1070
     1
1071
      155
1005
127270
  0
LINE
  5
127271
  8
OBJECT
 10
11934.0
 20
-1084.9999999999959
 30
0.0
 11
11934.0
 21
-1048.9999999999959
 31
0.0
1001
ACDBBLOCKREPETAG
1070
     1
1071
      156
1005
127271
  0
LINE
  5
127272
  8
OBJECT
 10
12066.0
 20
-1084.9999999999959
 30
0.0
 11
12065.999999999991
 21
-1048.9999999999959
 31
0.0
1001
ACDBBLOCKREPETAG
1070
     1
1071
      157
1005
127272
  0
LINE
  5
127273
  8
OBJECT
 10
11954.75
 20
-1074.699999999993
 30
0.0
 11
11967.25
 21
-1074.699999999993
 31
0.0
1001
ACDBBLOCKREPETAG
1070
     1
1071
      158
1005
127273
  0
LINE
  5
127274
  8
OBJECT
 10
11946.0
 20
-1084.9999999999959
 30
0.0
 11
11946.0
 21
-1082.699999999996
 31
0.0
1001
ACDBBLOCKREPETAG
1070
     1
1071
      159
1005
127274
  0
LINE
  5
127275
  8
OBJECT
 10
11976.0
 20
-1084.9999999999959
 30
0.0
 11
11976.0
 21
-1082.699999999996
 31
0.0
1001
ACDBBLOCKREPETAG
1070
     1
1071
      160
1005
127275
  0
LINE
  5
127276
  8
OBJECT
 10
11954.75
 20
-1074.699999999993
 30
0.0
 11
11954.75
 21
-1082.699999999996
 31
0.0
1001
ACDBBLOCKREPETAG
1070
     1
1071
      161
1005
127276
  0
LINE
  5
127277
  8
OBJECT
 10
11967.25
 20
-1074.699999999993
 30
0.0
 11
11967.25
 21
-1082.699999999996
 31
0.0
1001
ACDBBLOCKREPETAG
1070
     1
1071
      162
1005
127277
  0
LINE
  5
127278
  8
OBJECT
 10
11946.0
 20
-1082.699999999996
 30
0.0
 11
11976.0
 21
-1082.699999999996
 31
0.0
1001
ACDBBLOCKREPETAG
1070
     1
1071
      163
1005
127278
  0
LINE
  5
127279
  8
OBJECT
 10
11953.0
 20
-1123.9999999999959
 30
0.0
 11
11953.0
 21
-1133.9999999999959
 31
0.0
1001
ACDBBLOCKREPETAG
1070
     1
1071
      164
1005
127279
  0
LINE
  5
12727A
  8
OBJECT
 10
11969.0
 20
-1123.9999999999959
 30
0.0
 11
11969.0
 21
-1133.9999999999959
 31
0.0
1001
ACDBBLOCKREPETAG
1070
     1
1071
      165
1005
12727A
  0
LINE
  5
12727B
  8
OBJECT
 10
11953.0
 20
-1133.9999999999959
 30
0.0
 11
11969.0
 21
-1133.9999999999959
 31
0.0
1001
ACDBBLOCKREPETAG
1070
     1
1071
      166
1005
12727B
  0
LINE
  5
12727C
  8
OBJECT
 10
11966.0
 20
-1109.9999999999959
 30
0.0
 11
11966.0
 21
-1099.9999999999959
 31
0.0
1001
ACDBBLOCKREPETAG
1070
     1
1071
      167
1005
12727C
  0
LINE
  5
12727D
  8
OBJECT
 10
11956.0
 20
-1109.9999999999959
 30
0.0
 11
11956.0
 21
-1099.9999999999959
 31
0.0
1001
ACDBBLOCKREPETAG
1070
     1
1071
      168
1005
12727D
  0
LINE
  5
12727E
  8
OBJECT
 10
10090.0
 20
-1084.9999999999959
 30
0.0
 11
9924.0
 21
-1084.9999999999959
 31
0.0
1001
ACDBBLOCKREPETAG
1070
     1
1071
       12
1005
12727E
  0
LINE
  5
12727F
  8
OBJECT
 10
10066.0
 20
-1048.9999999999959
 30
0.0
 11
9934.0
 21
-1048.9999999999959
 31
0.0
1001
ACDBBLOCKREPETAG
1070
     1
1071
       13
1005
12727F
  0
LINE
  5
127280
  8
OBJECT
 10
10090.0
 20
-1099.9999999999991
 30
0.0
 11
10090.0
 21
-1084.9999999999959
 31
0.0
1001
ACDBBLOCKREPETAG
1070
     1
1071
       14
1005
127280
  0
LINE
  5
127281
  8
OBJECT
 10
9924.0
 20
-1099.9999999999991
 30
0.0
 11
10090.0
 21
-1099.9999999999991
 31
0.0
1001
ACDBBLOCKREPETAG
1070
     1
1071
       15
1005
127281
  0
LINE
  5
127282
  8
OBJECT
 10
10067.49999999998
 20
-1099.9999999999991
 30
0.0
 11
10067.49999999998
 21
-1109.9999999999991
 31
0.0
1001
ACDBBLOCKREPETAG
1070
     1
1071
       16
1005
127282
  0
LINE
  5
127283
  8
OBJECT
 10
9924.0
 20
-1109.9999999999991
 30
0.0
 11
9924.0
 21
-1123.9999999999959
 31
0.0
1001
ACDBBLOCKREPETAG
1070
     1
1071
       17
1005
127283
  0
LINE
  5
127284
  8
OBJECT
 10
10090.0
 20
-1109.9999999999991
 30
0.0
 11
10090.0
 21
-1123.9999999999959
 31
0.0
1001
ACDBBLOCKREPETAG
1070
     1
1071
       18
1005
127284
  0
LINE
  5
127285
  8
OBJECT
 10
9924.0
 20
-1123.9999999999959
 30
0.0
 11
10090.0
 21
-1123.9999999999959
 31
0.0
1001
ACDBBLOCKREPETAG
1070
     1
1071
       19
1005
127285
  0
LINE
  5
127286
  8
OBJECT
 10
9924.0
 20
-1109.9999999999991
 30
0.0
 11
10090.0
 21
-1109.9999999999991
 31
0.0
1001
ACDBBLOCKREPETAG
1070
     1
1071
       20
1005
127286
  0
LINE
  5
127287
  8
OBJECT
 10
9932.4999999999836
 20
-1099.9999999999991
 30
0.0
 11
9932.4999999999836
 21
-1109.9999999999991
 31
0.0
1001
ACDBBLOCKREPETAG
1070
     1
1071
       21
1005
127287
  0
LINE
  5
127288
  8
OBJECT
 10
9924.0
 20
-1099.9999999999991
 30
0.0
 11
9924.0
 21
-1084.9999999999959
 31
0.0
1001
ACDBBLOCKREPETAG
1070
     1
1071
       22
1005
127288
  0
LINE
  5
127289
  8
HIDDEN
 10
9943.0
 20
-1059.9999999999991
 30
0.0
 11
10057.0
 21
-1059.9999999999991
 31
0.0
1001
ACDBBLOCKREPETAG
1070
     1
1071
       23
1005
127289
  0
LINE
  5
12728A
  8
CENTER
 10
10000.0
 20
-789.99999999999955
 30
0.0
 11
10000.0
 21
-1138.9999999999959
 31
0.0
1001
ACDBBLOCKREPETAG
1070
     1
1071
       24
1005
12728A
  0
LINE
  5
12728B
  8
OBJECT
 10
9925.0
 20
-789.99999999999955
 30
0.0
 11
9925.0
 21
-871.99999999999591
 31
0.0
1001
ACDBBLOCKREPETAG
1070
     1
1071
       25
1005
12728B
  0
LINE
  5
12728C
  8
OBJECT
 10
10075.0
 20
-789.99999999999955
 30
0.0
 11
10075.0
 21
-871.99999999999204
 31
0.0
1001
ACDBBLOCKREPETAG
1070
     1
1071
       26
1005
12728C
  0
LINE
  5
12728D
  8
OBJECT
 10
9925.0
 20
-871.99999999999591
 30
0.0
 11
10075.0
 21
-871.99999999999204
 31
0.0
1001
ACDBBLOCKREPETAG
1070
     1
1071
       27
1005
12728D
  0
LINE
  5
12728E
  8
OBJECT
 10
10057.0
 20
-1048.9999999999959
 30
0.0
 11
10057.0
 21
-999.99999999999204
 31
0.0
1001
ACDBBLOCKREPETAG
1070
     1
1071
       28
1005
12728E
  0
LINE
  5
12728F
  8
OBJECT
 10
9943.0
 20
-1048.9999999999959
 30
0.0
 11
9943.0
 21
-999.99999999999204
 31
0.0
1001
ACDBBLOCKREPETAG
1070
     1
1071
       29
1005
12728F
  0
LINE
  5
127290
  8
OBJECT
 10
10057.0
 20
-999.99999999999204
 30
0.0
 11
9943.0
 21
-999.99999999999204
 31
0.0
1001
ACDBBLOCKREPETAG
1070
     1
1071
       30
1005
127290
  0
LINE
  5
127291
  8
OBJECT
 10
9925.0
 20
-871.99999999999591
 30
0.0
 11
9943.0
 21
-999.99999999999204
 31
0.0
1001
ACDBBLOCKREPETAG
1070
     1
1071
       31
1005
127291
  0
LINE
  5
127292
  8
OBJECT
 10
10057.0
 20
-999.99999999999204
 30
0.0
 11
10075.0
 21
-871.99999999999204
 31
0.0
1001
ACDBBLOCKREPETAG
1070
     1
1071
       32
1005
127292
  0
LINE
  5
127293
  8
OBJECT
 10
9934.0
 20
-1048.9999999999959
 30
0.0
 11
9934.0
 21
-1084.9999999999959
 31
0.0
1001
ACDBBLOCKREPETAG
1070
     1
1071
       33
1005
127293
  0
LINE
  5
127294
  8
OBJECT
 10
10066.0
 20
-1048.9999999999959
 30
0.0
 11
10066.0
 21
-1084.9999999999959
 31
0.0
1001
ACDBBLOCKREPETAG
1070
     1
1071
       34
1005
127294
  0
LINE
  5
127295
  8
OBJECT
 10
10082.999999999991
 20
-1109.9999999999959
 30
0.0
 11
10082.999999999991
 21
-1099.9999999999959
 31
0.0
1001
ACDBBLOCKREPETAG
1070
     1
1071
       35
1005
127295
  0
LINE
  5
127296
  8
OBJECT
 10
10072.999999999991
 20
-1109.9999999999959
 30
0.0
 11
10072.999999999991
 21
-1099.9999999999959
 31
0.0
1001
ACDBBLOCKREPETAG
1070
     1
1071
       36
1005
127296
  0
LINE
  5
127297
  8
OBJECT
 10
10068.99999999998
 20
-1079.9999999999959
 30
0.0
 11
10068.99999999998
 21
-1084.9999999999959
 31
0.0
1001
ACDBBLOCKREPETAG
1070
     1
1071
       37
1005
127297
  0
LINE
  5
127298
  8
OBJECT
 10
10087.0
 20
-1079.9999999999959
 30
0.0
 11
10087.0
 21
-1084.9999999999959
 31
0.0
1001
ACDBBLOCKREPETAG
1070
     1
1071
       38
1005
127298
  0
LINE
  5
127299
  8
OBJECT
 10
10087.0
 20
-1079.9999999999959
 30
0.0
 11
10068.99999999998
 21
-1079.9999999999959
 31
0.0
1001
ACDBBLOCKREPETAG
1070
     1
1071
       39
1005
127299
  0
LINE
  5
12729A
  8
OBJECT
 10
10073.0
 20
-1131.9999999999959
 30
0.0
 11
10073.0
 21
-1134.9999999999959
 31
0.0
1001
ACDBBLOCKREPETAG
1070
     1
1071
       40
1005
12729A
  0
LINE
  5
12729B
  8
OBJECT
 10
10073.0
 20
-1134.9999999999959
 30
0.0
 11
10083.0
 21
-1134.9999999999959
 31
0.0
1001
ACDBBLOCKREPETAG
1070
     1
1071
       41
1005
12729B
  0
LINE
  5
12729C
  8
OBJECT
 10
10068.18504542377
 20
-1131.9999999999959
 30
0.0
 11
10087.814954576221
 21
-1131.9999999999959
 31
0.0
1001
ACDBBLOCKREPETAG
1070
     1
1071
       42
1005
12729C
  0
LINE
  5
12729D
  8
OBJECT
 10
10083.0
 20
-1134.9999999999959
 30
0.0
 11
10083.0
 21
-1131.9999999999959
 31
0.0
1001
ACDBBLOCKREPETAG
1070
     1
1071
       43
1005
12729D
  0
LINE
  5
12729E
  8
OBJECT
 10
10068.18503599129
 20
-1123.9999868402549
 30
0.0
 11
10068.18503599129
 21
-1131.9999868402549
 31
0.0
1001
ACDBBLOCKREPETAG
1070
     1
1071
       44
1005
12729E
  0
LINE
  5
12729F
  8
OBJECT
 10
10073.0925013592
 20
-1123.9999868402549
 30
0.0
 11
10073.0925013592
 21
-1131.9999868402549
 31
0.0
1001
ACDBBLOCKREPETAG
1070
     1
1071
       45
1005
12729F
  0
LINE
  5
1272A0
  8
OBJECT
 10
10082.90743209502
 20
-1123.9999868402549
 30
0.0
 11
10082.90743209502
 21
-1131.9999868402549
 31
0.0
1001
ACDBBLOCKREPETAG
1070
     1
1071
       46
1005
1272A0
  0
LINE
  5
1272A1
  8
OBJECT
 10
10087.81499155279
 20
-1123.9999868402549
 30
0.0
 11
10087.81499155279
 21
-1131.9999868402549
 31
0.0
1001
ACDBBLOCKREPETAG
1070
     1
1071
       47
1005
1272A1
  0
LINE
  5
1272A2
  8
OBJECT
 10
9968.5
 20
-1079.9999999999959
 30
0.0
 11
9951.9999999999909
 21
-1079.9999999999959
 31
0.0
1001
ACDBBLOCKREPETAG
1070
     1
1071
       48
1005
1272A2
  0
LINE
  5
1272A3
  8
OBJECT
 10
9976.0
 20
-1084.9999999999959
 30
0.0
 11
9976.0
 21
-1082.9999999999959
 31
0.0
1001
ACDBBLOCKREPETAG
1070
     1
1071
       49
1005
1272A3
  0
LINE
  5
1272A4
  8
OBJECT
 10
9966.0
 20
-1109.9999999999959
 30
0.0
 11
9966.0
 21
-1099.9999999999959
 31
0.0
1001
ACDBBLOCKREPETAG
1070
     1
1071
       50
1005
1272A4
  0
LINE
  5
1272A5
  8
OBJECT
 10
9956.0
 20
-1109.9999999999959
 30
0.0
 11
9956.0
 21
-1099.9999999999959
 31
0.0
1001
ACDBBLOCKREPETAG
1070
     1
1071
       51
1005
1272A5
  0
LINE
  5
1272A6
  8
OBJECT
 10
9951.9999999999909
 20
-1079.9999999999959
 30
0.0
 11
9951.9999999999909
 21
-1084.9999999999959
 31
0.0
1001
ACDBBLOCKREPETAG
1070
     1
1071
       52
1005
1272A6
  0
LINE
  5
1272A7
  8
OBJECT
 10
9956.0
 20
-1131.9999999999959
 30
0.0
 11
9956.0
 21
-1134.9999999999959
 31
0.0
1001
ACDBBLOCKREPETAG
1070
     1
1071
       53
1005
1272A7
  0
LINE
  5
1272A8
  8
OBJECT
 10
9956.0
 20
-1134.9999999999959
 30
0.0
 11
9966.0
 21
-1134.9999999999959
 31
0.0
1001
ACDBBLOCKREPETAG
1070
     1
1071
       54
1005
1272A8
  0
LINE
  5
1272A9
  8
OBJECT
 10
9951.185045423772
 20
-1131.9999999999959
 30
0.0
 11
9970.814954576219
 21
-1131.9999999999959
 31
0.0
1001
ACDBBLOCKREPETAG
1070
     1
1071
       55
1005
1272A9
  0
LINE
  5
1272AA
  8
OBJECT
 10
9966.0
 20
-1134.9999999999959
 30
0.0
 11
9966.0
 21
-1131.9999999999959
 31
0.0
1001
ACDBBLOCKREPETAG
1070
     1
1071
       56
1005
1272AA
  0
LINE
  5
1272AB
  8
OBJECT
 10
9976.0
 20
-1082.9999999999959
 30
0.0
 11
9968.5
 21
-1079.9999999999959
 31
0.0
1001
ACDBBLOCKREPETAG
1070
     1
1071
       57
1005
1272AB
  0
LINE
  5
1272AC
  8
OBJECT
 10
9951.1850359912914
 20
-1123.9999868402549
 30
0.0
 11
9951.1850359912914
 21
-1131.9999868402549
 31
0.0
1001
ACDBBLOCKREPETAG
1070
     1
1071
       58
1005
1272AC
  0
LINE
  5
1272AD
  8
OBJECT
 10
9956.0925013591986
 20
-1123.9999868402549
 30
0.0
 11
9956.0925013591986
 21
-1131.9999868402549
 31
0.0
1001
ACDBBLOCKREPETAG
1070
     1
1071
       59
1005
1272AD
  0
LINE
  5
1272AE
  8
OBJECT
 10
9965.907432095024
 20
-1123.9999868402549
 30
0.0
 11
9965.907432095024
 21
-1131.9999868402549
 31
0.0
1001
ACDBBLOCKREPETAG
1070
     1
1071
       60
1005
1272AE
  0
LINE
  5
1272AF
  8
OBJECT
 10
9970.8149915528011
 20
-1123.9999868402549
 30
0.0
 11
9970.8149915528011
 21
-1131.9999868402549
 31
0.0
1001
ACDBBLOCKREPETAG
1070
     1
1071
       61
1005
1272AF
  0
LINE
  5
1272B0
  8
OBJECT
 10
7943.0
 20
-1099.9999999999959
 30
0.0
 11
8057.0
 21
-1099.9999999999959
 31
0.0
1001
ACDBBLOCKREPETAG
1070
     1
1071
        0
1005
1272B0
  0
LINE
  5
1272B1
  8
OBJECT
 10
7943.0
 20
-1099.9999999999959
 30
0.0
 11
7943.0
 21
-999.99999999999602
 31
0.0
1001
ACDBBLOCKREPETAG
1070
     1
1071
        1
1005
1272B1
  0
LINE
  5
1272B2
  8
OBJECT
 10
8057.0
 20
-1099.9999999999959
 30
0.0
 11
8057.0
 21
-999.99999999999602
 31
0.0
1001
ACDBBLOCKREPETAG
1070
     1
1071
        2
1005
1272B2
  0
LINE
  5
1272B3
  8
OBJECT
 10
7943.0
 20
-999.99999999999602
 30
0.0
 11
8057.0
 21
-999.99999999999602
 31
0.0
1001
ACDBBLOCKREPETAG
1070
     1
1071
        3
1005
1272B3
  0
LINE
  5
1272B4
  8
HIDDEN
 10
7950.0
 20
-999.99999999999602
 30
0.0
 11
7950.0
 21
-1099.9999999999959
 31
0.0
1001
ACDBBLOCKREPETAG
1070
     1
1071
        4
1005
1272B4
  0
LINE
  5
1272B5
  8
HIDDEN
 10
8050.0
 20
-999.99999999999602
 30
0.0
 11
8050.0
 21
-1099.9999999999959
 31
0.0
1001
ACDBBLOCKREPETAG
1070
     1
1071
        5
1005
1272B5
  0
LINE
  5
1272B6
  8
CENTER
 10
8000.0
 20
-789.99999999999955
 30
0.0
 11
8000.0
 21
-1114.9999999999959
 31
0.0
1001
ACDBBLOCKREPETAG
1070
     1
1071
        6
1005
1272B6
  0
LINE
  5
1272B7
  8
OBJECT
 10
7925.0
 20
-789.99999999999955
 30
0.0
 11
7925.0
 21
-871.99999999999591
 31
0.0
1001
ACDBBLOCKREPETAG
1070
     1
1071
        7
1005
1272B7
  0
LINE
  5
1272B8
  8
OBJECT
 10
8075.0
 20
-789.99999999999955
 30
0.0
 11
8075.0
 21
-871.99999999999591
 31
0.0
1001
ACDBBLOCKREPETAG
1070
     1
1071
        8
1005
1272B8
  0
LINE
  5
1272B9
  8
OBJECT
 10
7925.0
 20
-871.99999999999591
 30
0.0
 11
8075.0
 21
-871.99999999999591
 31
0.0
1001
ACDBBLOCKREPETAG
1070
     1
1071
        9
1005
1272B9
  0
LINE
  5
1272BA
  8
OBJECT
 10
7925.0
 20
-871.99999999999591
 30
0.0
 11
7943.0
 21
-999.99999999999602
 31
0.0
1001
ACDBBLOCKREPETAG
1070
     1
1071
       10
1005
1272BA
  0
LINE
  5
1272BB
  8
OBJECT
 10
8057.0
 20
-999.99999999999602
 30
0.0
 11
8075.0
 21
-871.99999999999591
 31
0.0
1001
ACDBBLOCKREPETAG
1070
     1
1071
       11
1005
1272BB
  0
LINE
  5
1272BC
  8
OBJECT
 10
6085.9999999999927
 20
-1123.9999999999991
 30
0.0
 11
6085.9999999999927
 21
-1133.9999999999991
 31
0.0
1001
ACDBBLOCKREPETAG
1070
     1
1071
      121
1005
1272BC
  0
LINE
  5
1272BD
  8
OBJECT
 10
6069.9999999999927
 20
-1123.9999999999991
 30
0.0
 11
6069.9999999999927
 21
-1133.9999999999991
 31
0.0
1001
ACDBBLOCKREPETAG
1070
     1
1071
      122
1005
1272BD
  0
LINE
  5
1272BE
  8
OBJECT
 10
6085.9999999999927
 20
-1133.9999999999991
 30
0.0
 11
6069.9999999999927
 21
-1133.9999999999991
 31
0.0
1001
ACDBBLOCKREPETAG
1070
     1
1071
      123
1005
1272BE
  0
LINE
  5
1272BF
  8
OBJECT
 10
6090.0
 20
-1084.9999999999959
 30
0.0
 11
5924.0
 21
-1084.9999999999959
 31
0.0
1001
ACDBBLOCKREPETAG
1070
     1
1071
      124
1005
1272BF
  0
LINE
  5
1272C0
  8
OBJECT
 10
6090.0
 20
-1099.9999999999991
 30
0.0
 11
6090.0
 21
-1084.9999999999959
 31
0.0
1001
ACDBBLOCKREPETAG
1070
     1
1071
      125
1005
1272C0
  0
LINE
  5
1272C1
  8
OBJECT
 10
5924.0
 20
-1099.9999999999991
 30
0.0
 11
6090.0
 21
-1099.9999999999991
 31
0.0
1001
ACDBBLOCKREPETAG
1070
     1
1071
      126
1005
1272C1
  0
LINE
  5
1272C2
  8
OBJECT
 10
6067.4999999999864
 20
-1099.9999999999991
 30
0.0
 11
6067.4999999999864
 21
-1109.9999999999991
 31
0.0
1001
ACDBBLOCKREPETAG
1070
     1
1071
      127
1005
1272C2
  0
LINE
  5
1272C3
  8
OBJECT
 10
6072.9999999999927
 20
-1109.9999999999991
 30
0.0
 11
6072.9999999999927
 21
-1099.9999999999991
 31
0.0
1001
ACDBBLOCKREPETAG
1070
     1
1071
      128
1005
1272C3
  0
LINE
  5
1272C4
  8
OBJECT
 10
6082.9999999999927
 20
-1109.9999999999991
 30
0.0
 11
6082.9999999999927
 21
-1099.9999999999991
 31
0.0
1001
ACDBBLOCKREPETAG
1070
     1
1071
      129
1005
1272C4
  0
LINE
  5
1272C5
  8
OBJECT
 10
5924.0
 20
-1109.9999999999991
 30
0.0
 11
5924.0
 21
-1123.9999999999959
 31
0.0
1001
ACDBBLOCKREPETAG
1070
     1
1071
      130
1005
1272C5
  0
LINE
  5
1272C6
  8
OBJECT
 10
6090.0
 20
-1109.9999999999991
 30
0.0
 11
6090.0
 21
-1123.9999999999959
 31
0.0
1001
ACDBBLOCKREPETAG
1070
     1
1071
      131
1005
1272C6
  0
LINE
  5
1272C7
  8
OBJECT
 10
5924.0
 20
-1123.9999999999959
 30
0.0
 11
6090.0
 21
-1123.9999999999959
 31
0.0
1001
ACDBBLOCKREPETAG
1070
     1
1071
      132
1005
1272C7
  0
LINE
  5
1272C8
  8
OBJECT
 10
5924.0
 20
-1109.9999999999991
 30
0.0
 11
6090.0
 21
-1109.9999999999991
 31
0.0
1001
ACDBBLOCKREPETAG
1070
     1
1071
      133
1005
1272C8
  0
LINE
  5
1272C9
  8
OBJECT
 10
5932.4999999999864
 20
-1099.9999999999991
 30
0.0
 11
5932.4999999999864
 21
-1109.9999999999991
 31
0.0
1001
ACDBBLOCKREPETAG
1070
     1
1071
      134
1005
1272C9
  0
LINE
  5
1272CA
  8
OBJECT
 10
5934.0
 20
-1048.9999999999959
 30
0.0
 11
6065.9999999999909
 21
-1048.9999999999959
 31
0.0
1001
ACDBBLOCKREPETAG
1070
     1
1071
      135
1005
1272CA
  0
LINE
  5
1272CB
  8
OBJECT
 10
5924.0
 20
-1099.9999999999991
 30
0.0
 11
5924.0
 21
-1084.9999999999959
 31
0.0
1001
ACDBBLOCKREPETAG
1070
     1
1071
      136
1005
1272CB
  0
LINE
  5
1272CC
  8
HIDDEN
 10
5943.0
 20
-1059.9999999999991
 30
0.0
 11
6057.0
 21
-1059.9999999999991
 31
0.0
1001
ACDBBLOCKREPETAG
1070
     1
1071
      137
1005
1272CC
  0
LINE
  5
1272CD
  8
OBJECT
 10
6086.9999999999918
 20
-1083.2
 30
0.0
 11
6086.9999999999918
 21
-1084.9999999999991
 31
0.0
1001
ACDBBLOCKREPETAG
1070
     1
1071
      138
1005
1272CD
  0
LINE
  5
1272CE
  8
OBJECT
 10
6068.9999999999909
 20
-1083.2
 30
0.0
 11
6068.9999999999909
 21
-1084.9999999999991
 31
0.0
1001
ACDBBLOCKREPETAG
1070
     1
1071
      139
1005
1272CE
  0
LINE
  5
1272CF
  8
OBJECT
 10
6072.2499999999927
 20
-1073.4999999999991
 30
0.0
 11
6083.7499999999927
 21
-1073.4999999999991
 31
0.0
1001
ACDBBLOCKREPETAG
1070
     1
1071
      140
1005
1272CF
  0
LINE
  5
1272D0
  8
OBJECT
 10
6072.2499999999927
 20
-1073.4999999999991
 30
0.0
 11
6072.2499999999927
 21
-1083.2
 31
0.0
1001
ACDBBLOCKREPETAG
1070
     1
1071
      141
1005
1272D0
  0
LINE
  5
1272D1
  8
OBJECT
 10
6083.7499999999927
 20
-1073.4999999999991
 30
0.0
 11
6083.7499999999927
 21
-1083.2
 31
0.0
1001
ACDBBLOCKREPETAG
1070
     1
1071
      142
1005
1272D1
  0
LINE
  5
1272D2
  8
OBJECT
 10
5931.9999999999873
 20
-1164.9999999999991
 30
0.0
 11
6067.9999999999873
 21
-1164.9999999999991
 31
0.0
1001
ACDBBLOCKREPETAG
1070
     1
1071
      143
1005
1272D2
  0
LINE
  5
1272D3
  8
OBJECT
 10
5931.9999999999873
 20
-1164.9999999999991
 30
0.0
 11
5931.9999999999873
 21
-1123.9999999999991
 31
0.0
1001
ACDBBLOCKREPETAG
1070
     1
1071
      144
1005
1272D3
  0
LINE
  5
1272D4
  8
OBJECT
 10
6067.9999999999873
 20
-1164.9999999999991
 30
0.0
 11
6067.9999999999873
 21
-1123.9999999999991
 31
0.0
1001
ACDBBLOCKREPETAG
1070
     1
1071
      145
1005
1272D4
  0
LINE
  5
1272D5
  8
OBJECT
 10
6086.9999999999918
 20
-1083.2
 30
0.0
 11
6068.9999999999909
 21
-1083.2
 31
0.0
1001
ACDBBLOCKREPETAG
1070
     1
1071
      146
1005
1272D5
  0
LINE
  5
1272D6
  8
CENTER
 10
6000.0
 20
-789.99999999999955
 30
0.0
 11
6000.0
 21
-1179.9999999999991
 31
0.0
1001
ACDBBLOCKREPETAG
1070
     1
1071
      147
1005
1272D6
  0
LINE
  5
1272D7
  8
OBJECT
 10
5925.0
 20
-789.99999999999955
 30
0.0
 11
5925.0
 21
-871.99999999999591
 31
0.0
1001
ACDBBLOCKREPETAG
1070
     1
1071
      148
1005
1272D7
  0
LINE
  5
1272D8
  8
OBJECT
 10
6075.0
 20
-789.99999999999955
 30
0.0
 11
6075.0
 21
-871.99999999999204
 31
0.0
1001
ACDBBLOCKREPETAG
1070
     1
1071
      149
1005
1272D8
  0
LINE
  5
1272D9
  8
OBJECT
 10
5925.0
 20
-871.99999999999591
 30
0.0
 11
6075.0
 21
-871.99999999999204
 31
0.0
1001
ACDBBLOCKREPETAG
1070
     1
1071
      150
1005
1272D9
  0
LINE
  5
1272DA
  8
OBJECT
 10
5943.0
 20
-1048.9999999999959
 30
0.0
 11
5943.0
 21
-999.99999999999204
 31
0.0
1001
ACDBBLOCKREPETAG
1070
     1
1071
      151
1005
1272DA
  0
LINE
  5
1272DB
  8
OBJECT
 10
6057.0
 20
-999.99999999999204
 30
0.0
 11
5943.0
 21
-999.99999999999204
 31
0.0
1001
ACDBBLOCKREPETAG
1070
     1
1071
      152
1005
1272DB
  0
LINE
  5
1272DC
  8
OBJECT
 10
6057.0
 20
-999.99999999999204
 30
0.0
 11
6057.0
 21
-1048.9999999999959
 31
0.0
1001
ACDBBLOCKREPETAG
1070
     1
1071
      153
1005
1272DC
  0
LINE
  5
1272DD
  8
OBJECT
 10
5925.0
 20
-871.99999999999591
 30
0.0
 11
5943.0
 21
-999.99999999999204
 31
0.0
1001
ACDBBLOCKREPETAG
1070
     1
1071
      154
1005
1272DD
  0
LINE
  5
1272DE
  8
OBJECT
 10
6057.0
 20
-999.99999999999204
 30
0.0
 11
6075.0
 21
-871.99999999999204
 31
0.0
1001
ACDBBLOCKREPETAG
1070
     1
1071
      155
1005
1272DE
  0
LINE
  5
1272DF
  8
OBJECT
 10
5934.0
 20
-1084.9999999999959
 30
0.0
 11
5934.0
 21
-1048.9999999999959
 31
0.0
1001
ACDBBLOCKREPETAG
1070
     1
1071
      156
1005
1272DF
  0
LINE
  5
1272E0
  8
OBJECT
 10
6066.0
 20
-1084.9999999999959
 30
0.0
 11
6065.9999999999909
 21
-1048.9999999999959
 31
0.0
1001
ACDBBLOCKREPETAG
1070
     1
1071
      157
1005
1272E0
  0
LINE
  5
1272E1
  8
OBJECT
 10
5954.75
 20
-1074.699999999993
 30
0.0
 11
5967.2499999999991
 21
-1074.699999999993
 31
0.0
1001
ACDBBLOCKREPETAG
1070
     1
1071
      158
1005
1272E1
  0
LINE
  5
1272E2
  8
OBJECT
 10
5946.0
 20
-1084.9999999999959
 30
0.0
 11
5946.0
 21
-1082.699999999996
 31
0.0
1001
ACDBBLOCKREPETAG
1070
     1
1071
      159
1005
1272E2
  0
LINE
  5
1272E3
  8
OBJECT
 10
5976.0
 20
-1084.9999999999959
 30
0.0
 11
5976.0
 21
-1082.699999999996
 31
0.0
1001
ACDBBLOCKREPETAG
1070
     1
1071
      160
1005
1272E3
  0
LINE
  5
1272E4
  8
OBJECT
 10
5954.75
 20
-1074.699999999993
 30
0.0
 11
5954.75
 21
-1082.699999999996
 31
0.0
1001
ACDBBLOCKREPETAG
1070
     1
1071
      161
1005
1272E4
  0
LINE
  5
1272E5
  8
OBJECT
 10
5967.2499999999991
 20
-1074.699999999993
 30
0.0
 11
5967.2499999999991
 21
-1082.699999999996
 31
0.0
1001
ACDBBLOCKREPETAG
1070
     1
1071
      162
1005
1272E5
  0
LINE
  5
1272E6
  8
OBJECT
 10
5946.0
 20
-1082.699999999996
 30
0.0
 11
5976.0
 21
-1082.699999999996
 31
0.0
1001
ACDBBLOCKREPETAG
1070
     1
1071
      163
1005
1272E6
  0
LINE
  5
1272E7
  8
OBJECT
 10
5953.0
 20
-1123.9999999999959
 30
0.0
 11
5953.0
 21
-1133.9999999999959
 31
0.0
1001
ACDBBLOCKREPETAG
1070
     1
1071
      164
1005
1272E7
  0
LINE
  5
1272E8
  8
OBJECT
 10
5969.0
 20
-1123.9999999999959
 30
0.0
 11
5969.0
 21
-1133.9999999999959
 31
0.0
1001
ACDBBLOCKREPETAG
1070
     1
1071
      165
1005
1272E8
  0
LINE
  5
1272E9
  8
OBJECT
 10
5953.0
 20
-1133.9999999999959
 30
0.0
 11
5969.0
 21
-1133.9999999999959
 31
0.0
1001
ACDBBLOCKREPETAG
1070
     1
1071
      166
1005
1272E9
  0
LINE
  5
1272EA
  8
OBJECT
 10
5966.0
 20
-1109.9999999999959
 30
0.0
 11
5966.0
 21
-1099.9999999999959
 31
0.0
1001
ACDBBLOCKREPETAG
1070
     1
1071
      167
1005
1272EA
  0
LINE
  5
1272EB
  8
OBJECT
 10
5956.0
 20
-1109.9999999999959
 30
0.0
 11
5956.0
 21
-1099.9999999999959
 31
0.0
1001
ACDBBLOCKREPETAG
1070
     1
1071
      168
1005
1272EB
  0
LINE
  5
1272EC
  8
OBJECT
 10
4090.0
 20
-1084.9999999999959
 30
0.0
 11
3924.0
 21
-1084.9999999999959
 31
0.0
1001
ACDBBLOCKREPETAG
1070
     1
1071
       12
1005
1272EC
  0
LINE
  5
1272ED
  8
OBJECT
 10
4066.0
 20
-1048.9999999999959
 30
0.0
 11
3934.0
 21
-1048.9999999999959
 31
0.0
1001
ACDBBLOCKREPETAG
1070
     1
1071
       13
1005
1272ED
  0
LINE
  5
1272EE
  8
OBJECT
 10
4090.0
 20
-1099.9999999999991
 30
0.0
 11
4090.0
 21
-1084.9999999999959
 31
0.0
1001
ACDBBLOCKREPETAG
1070
     1
1071
       14
1005
1272EE
  0
LINE
  5
1272EF
  8
OBJECT
 10
3924.0
 20
-1099.9999999999991
 30
0.0
 11
4090.0
 21
-1099.9999999999991
 31
0.0
1001
ACDBBLOCKREPETAG
1070
     1
1071
       15
1005
1272EF
  0
LINE
  5
1272F0
  8
OBJECT
 10
4067.4999999999841
 20
-1099.9999999999991
 30
0.0
 11
4067.4999999999841
 21
-1109.9999999999991
 31
0.0
1001
ACDBBLOCKREPETAG
1070
     1
1071
       16
1005
1272F0
  0
LINE
  5
1272F1
  8
OBJECT
 10
3924.0
 20
-1109.9999999999991
 30
0.0
 11
3924.0
 21
-1123.9999999999959
 31
0.0
1001
ACDBBLOCKREPETAG
1070
     1
1071
       17
1005
1272F1
  0
LINE
  5
1272F2
  8
OBJECT
 10
4090.0
 20
-1109.9999999999991
 30
0.0
 11
4090.0
 21
-1123.9999999999959
 31
0.0
1001
ACDBBLOCKREPETAG
1070
     1
1071
       18
1005
1272F2
  0
LINE
  5
1272F3
  8
OBJECT
 10
3924.0
 20
-1123.9999999999959
 30
0.0
 11
4090.0
 21
-1123.9999999999959
 31
0.0
1001
ACDBBLOCKREPETAG
1070
     1
1071
       19
1005
1272F3
  0
LINE
  5
1272F4
  8
OBJECT
 10
3924.0
 20
-1109.9999999999991
 30
0.0
 11
4090.0
 21
-1109.9999999999991
 31
0.0
1001
ACDBBLOCKREPETAG
1070
     1
1071
       20
1005
1272F4
  0
LINE
  5
1272F5
  8
OBJECT
 10
3932.499999999985
 20
-1099.9999999999991
 30
0.0
 11
3932.499999999985
 21
-1109.9999999999991
 31
0.0
1001
ACDBBLOCKREPETAG
1070
     1
1071
       21
1005
1272F5
  0
LINE
  5
1272F6
  8
OBJECT
 10
3924.0
 20
-1099.9999999999991
 30
0.0
 11
3924.0
 21
-1084.9999999999959
 31
0.0
1001
ACDBBLOCKREPETAG
1070
     1
1071
       22
1005
1272F6
  0
LINE
  5
1272F7
  8
HIDDEN
 10
3943.0
 20
-1059.9999999999991
 30
0.0
 11
4057.0
 21
-1059.9999999999991
 31
0.0
1001
ACDBBLOCKREPETAG
1070
     1
1071
       23
1005
1272F7
  0
LINE
  5
1272F8
  8
CENTER
 10
4000.0
 20
-789.99999999999955
 30
0.0
 11
4000.0
 21
-1138.9999999999959
 31
0.0
1001
ACDBBLOCKREPETAG
1070
     1
1071
       24
1005
1272F8
  0
LINE
  5
1272F9
  8
OBJECT
 10
3925.0
 20
-789.99999999999955
 30
0.0
 11
3925.0
 21
-871.99999999999591
 31
0.0
1001
ACDBBLOCKREPETAG
1070
     1
1071
       25
1005
1272F9
  0
LINE
  5
1272FA
  8
OBJECT
 10
4075.0
 20
-789.99999999999955
 30
0.0
 11
4075.0
 21
-871.99999999999204
 31
0.0
1001
ACDBBLOCKREPETAG
1070
     1
1071
       26
1005
1272FA
  0
LINE
  5
1272FB
  8
OBJECT
 10
3925.0
 20
-871.99999999999591
 30
0.0
 11
4075.0
 21
-871.99999999999204
 31
0.0
1001
ACDBBLOCKREPETAG
1070
     1
1071
       27
1005
1272FB
  0
LINE
  5
1272FC
  8
OBJECT
 10
4057.0
 20
-1048.9999999999959
 30
0.0
 11
4057.0
 21
-999.99999999999204
 31
0.0
1001
ACDBBLOCKREPETAG
1070
     1
1071
       28
1005
1272FC
  0
LINE
  5
1272FD
  8
OBJECT
 10
3943.0
 20
-1048.9999999999959
 30
0.0
 11
3943.0
 21
-999.99999999999204
 31
0.0
1001
ACDBBLOCKREPETAG
1070
     1
1071
       29
1005
1272FD
  0
LINE
  5
1272FE
  8
OBJECT
 10
4057.0
 20
-999.99999999999204
 30
0.0
 11
3943.0
 21
-999.99999999999204
 31
0.0
1001
ACDBBLOCKREPETAG
1070
     1
1071
       30
1005
1272FE
  0
LINE
  5
1272FF
  8
OBJECT
 10
3925.0
 20
-871.99999999999591
 30
0.0
 11
3943.0
 21
-999.99999999999204
 31
0.0
1001
ACDBBLOCKREPETAG
1070
     1
1071
       31
1005
1272FF
  0
LINE
  5
127300
  8
OBJECT
 10
4057.0
 20
-999.99999999999204
 30
0.0
 11
4075.0
 21
-871.99999999999204
 31
0.0
1001
ACDBBLOCKREPETAG
1070
     1
1071
       32
1005
127300
  0
LINE
  5
127301
  8
OBJECT
 10
3934.0
 20
-1048.9999999999959
 30
0.0
 11
3934.0
 21
-1084.9999999999959
 31
0.0
1001
ACDBBLOCKREPETAG
1070
     1
1071
       33
1005
127301
  0
LINE
  5
127302
  8
OBJECT
 10
4066.0
 20
-1048.9999999999959
 30
0.0
 11
4066.0
 21
-1084.9999999999959
 31
0.0
1001
ACDBBLOCKREPETAG
1070
     1
1071
       34
1005
127302
  0
LINE
  5
127303
  8
OBJECT
 10
4082.9999999999932
 20
-1109.9999999999959
 30
0.0
 11
4082.9999999999932
 21
-1099.9999999999959
 31
0.0
1001
ACDBBLOCKREPETAG
1070
     1
1071
       35
1005
127303
  0
LINE
  5
127304
  8
OBJECT
 10
4072.9999999999918
 20
-1109.9999999999959
 30
0.0
 11
4072.9999999999918
 21
-1099.9999999999959
 31
0.0
1001
ACDBBLOCKREPETAG
1070
     1
1071
       36
1005
127304
  0
LINE
  5
127305
  8
OBJECT
 10
4068.9999999999841
 20
-1079.9999999999959
 30
0.0
 11
4068.9999999999841
 21
-1084.9999999999959
 31
0.0
1001
ACDBBLOCKREPETAG
1070
     1
1071
       37
1005
127305
  0
LINE
  5
127306
  8
OBJECT
 10
4087.0
 20
-1079.9999999999959
 30
0.0
 11
4087.0
 21
-1084.9999999999959
 31
0.0
1001
ACDBBLOCKREPETAG
1070
     1
1071
       38
1005
127306
  0
LINE
  5
127307
  8
OBJECT
 10
4087.0
 20
-1079.9999999999959
 30
0.0
 11
4068.9999999999841
 21
-1079.9999999999959
 31
0.0
1001
ACDBBLOCKREPETAG
1070
     1
1071
       39
1005
127307
  0
LINE
  5
127308
  8
OBJECT
 10
4073.0
 20
-1131.9999999999959
 30
0.0
 11
4073.0
 21
-1134.9999999999959
 31
0.0
1001
ACDBBLOCKREPETAG
1070
     1
1071
       40
1005
127308
  0
LINE
  5
127309
  8
OBJECT
 10
4073.0
 20
-1134.9999999999959
 30
0.0
 11
4083.0
 21
-1134.9999999999959
 31
0.0
1001
ACDBBLOCKREPETAG
1070
     1
1071
       41
1005
127309
  0
LINE
  5
12730A
  8
OBJECT
 10
4068.185045423772
 20
-1131.9999999999959
 30
0.0
 11
4087.8149545762199
 21
-1131.9999999999959
 31
0.0
1001
ACDBBLOCKREPETAG
1070
     1
1071
       42
1005
12730A
  0
LINE
  5
12730B
  8
OBJECT
 10
4083.0
 20
-1134.9999999999959
 30
0.0
 11
4083.0
 21
-1131.9999999999959
 31
0.0
1001
ACDBBLOCKREPETAG
1070
     1
1071
       43
1005
12730B
  0
LINE
  5
12730C
  8
OBJECT
 10
4068.1850359912942
 20
-1123.9999868402549
 30
0.0
 11
4068.1850359912942
 21
-1131.9999868402549
 31
0.0
1001
ACDBBLOCKREPETAG
1070
     1
1071
       44
1005
12730C
  0
LINE
  5
12730D
  8
OBJECT
 10
4073.0925013591982
 20
-1123.9999868402549
 30
0.0
 11
4073.0925013591982
 21
-1131.9999868402549
 31
0.0
1001
ACDBBLOCKREPETAG
1070
     1
1071
       45
1005
12730D
  0
LINE
  5
12730E
  8
OBJECT
 10
4082.907432095024
 20
-1123.9999868402549
 30
0.0
 11
4082.907432095024
 21
-1131.9999868402549
 31
0.0
1001
ACDBBLOCKREPETAG
1070
     1
1071
       46
1005
12730E
  0
LINE
  5
12730F
  8
OBJECT
 10
4087.814991552797
 20
-1123.9999868402549
 30
0.0
 11
4087.814991552797
 21
-1131.9999868402549
 31
0.0
1001
ACDBBLOCKREPETAG
1070
     1
1071
       47
1005
12730F
  0
LINE
  5
127310
  8
OBJECT
 10
3968.5
 20
-1079.9999999999959
 30
0.0
 11
3951.9999999999932
 21
-1079.9999999999959
 31
0.0
1001
ACDBBLOCKREPETAG
1070
     1
1071
       48
1005
127310
  0
LINE
  5
127311
  8
OBJECT
 10
3976.0
 20
-1084.9999999999959
 30
0.0
 11
3976.0
 21
-1082.9999999999959
 31
0.0
1001
ACDBBLOCKREPETAG
1070
     1
1071
       49
1005
127311
  0
LINE
  5
127312
  8
OBJECT
 10
3966.0
 20
-1109.9999999999959
 30
0.0
 11
3966.0
 21
-1099.9999999999959
 31
0.0
1001
ACDBBLOCKREPETAG
1070
     1
1071
       50
1005
127312
  0
LINE
  5
127313
  8
OBJECT
 10
3956.0
 20
-1109.9999999999959
 30
0.0
 11
3956.0
 21
-1099.9999999999959
 31
0.0
1001
ACDBBLOCKREPETAG
1070
     1
1071
       51
1005
127313
  0
LINE
  5
127314
  8
OBJECT
 10
3951.9999999999932
 20
-1079.9999999999959
 30
0.0
 11
3951.9999999999932
 21
-1084.9999999999959
 31
0.0
1001
ACDBBLOCKREPETAG
1070
     1
1071
       52
1005
127314
  0
LINE
  5
127315
  8
OBJECT
 10
3956.0
 20
-1131.9999999999959
 30
0.0
 11
3956.0
 21
-1134.9999999999959
 31
0.0
1001
ACDBBLOCKREPETAG
1070
     1
1071
       53
1005
127315
  0
LINE
  5
127316
  8
OBJECT
 10
3956.0
 20
-1134.9999999999959
 30
0.0
 11
3966.0
 21
-1134.9999999999959
 31
0.0
1001
ACDBBLOCKREPETAG
1070
     1
1071
       54
1005
127316
  0
LINE
  5
127317
  8
OBJECT
 10
3951.185045423772
 20
-1131.9999999999959
 30
0.0
 11
3970.8149545762212
 21
-1131.9999999999959
 31
0.0
1001
ACDBBLOCKREPETAG
1070
     1
1071
       55
1005
127317
  0
LINE
  5
127318
  8
OBJECT
 10
3966.0
 20
-1134.9999999999959
 30
0.0
 11
3966.0
 21
-1131.9999999999959
 31
0.0
1001
ACDBBLOCKREPETAG
1070
     1
1071
       56
1005
127318
  0
LINE
  5
127319
  8
OBJECT
 10
3976.0
 20
-1082.9999999999959
 30
0.0
 11
3968.5
 21
-1079.9999999999959
 31
0.0
1001
ACDBBLOCKREPETAG
1070
     1
1071
       57
1005
127319
  0
LINE
  5
12731A
  8
OBJECT
 10
3951.1850359912951
 20
-1123.9999868402549
 30
0.0
 11
3951.1850359912951
 21
-1131.9999868402549
 31
0.0
1001
ACDBBLOCKREPETAG
1070
     1
1071
       58
1005
12731A
  0
LINE
  5
12731B
  8
OBJECT
 10
3956.0925013591991
 20
-1123.9999868402549
 30
0.0
 11
3956.0925013591991
 21
-1131.9999868402549
 31
0.0
1001
ACDBBLOCKREPETAG
1070
     1
1071
       59
1005
12731B
  0
LINE
  5
12731C
  8
OBJECT
 10
3965.907432095024
 20
-1123.9999868402549
 30
0.0
 11
3965.907432095024
 21
-1131.9999868402549
 31
0.0
1001
ACDBBLOCKREPETAG
1070
     1
1071
       60
1005
12731C
  0
LINE
  5
12731D
  8
OBJECT
 10
3970.8149915527979
 20
-1123.9999868402549
 30
0.0
 11
3970.8149915527979
 21
-1131.9999868402549
 31
0.0
1001
ACDBBLOCKREPETAG
1070
     1
1071
       61
1005
12731D
  0
LINE
  5
12731E
  8
OBJECT
 10
2443.0
 20
-1099.9999999999959
 30
0.0
 11
2557.0
 21
-1099.9999999999959
 31
0.0
1001
ACDBBLOCKREPETAG
1070
     1
1071
        0
1005
12731E
  0
LINE
  5
12731F
  8
OBJECT
 10
2443.0
 20
-1099.9999999999959
 30
0.0
 11
2443.0
 21
-999.99999999999602
 31
0.0
1001
ACDBBLOCKREPETAG
1070
     1
1071
        1
1005
12731F
  0
LINE
  5
127320
  8
OBJECT
 10
2557.0
 20
-1099.9999999999959
 30
0.0
 11
2557.0
 21
-999.99999999999602
 31
0.0
1001
ACDBBLOCKREPETAG
1070
     1
1071
        2
1005
127320
  0
LINE
  5
127321
  8
OBJECT
 10
2443.0
 20
-999.99999999999602
 30
0.0
 11
2557.0
 21
-999.99999999999602
 31
0.0
1001
ACDBBLOCKREPETAG
1070
     1
1071
        3
1005
127321
  0
LINE
  5
127322
  8
HIDDEN
 10
2450.0
 20
-999.99999999999602
 30
0.0
 11
2450.0
 21
-1099.9999999999959
 31
0.0
1001
ACDBBLOCKREPETAG
1070
     1
1071
        4
1005
127322
  0
LINE
  5
127323
  8
HIDDEN
 10
2550.0
 20
-999.99999999999602
 30
0.0
 11
2550.0
 21
-1099.9999999999959
 31
0.0
1001
ACDBBLOCKREPETAG
1070
     1
1071
        5
1005
127323
  0
LINE
  5
127324
  8
CENTER
 10
2500.0
 20
-789.99999999999955
 30
0.0
 11
2500.0
 21
-1114.9999999999959
 31
0.0
1001
ACDBBLOCKREPETAG
1070
     1
1071
        6
1005
127324
  0
LINE
  5
127325
  8
OBJECT
 10
2425.0
 20
-789.99999999999955
 30
0.0
 11
2425.0
 21
-871.99999999999591
 31
0.0
1001
ACDBBLOCKREPETAG
1070
     1
1071
        7
1005
127325
  0
LINE
  5
127326
  8
OBJECT
 10
2575.0
 20
-789.99999999999955
 30
0.0
 11
2575.0
 21
-871.99999999999591
 31
0.0
1001
ACDBBLOCKREPETAG
1070
     1
1071
        8
1005
127326
  0
LINE
  5
127327
  8
OBJECT
 10
2425.0
 20
-871.99999999999591
 30
0.0
 11
2575.0
 21
-871.99999999999591
 31
0.0
1001
ACDBBLOCKREPETAG
1070
     1
1071
        9
1005
127327
  0
LINE
  5
127328
  8
OBJECT
 10
2425.0
 20
-871.99999999999591
 30
0.0
 11
2443.0
 21
-999.99999999999602
 31
0.0
1001
ACDBBLOCKREPETAG
1070
     1
1071
       10
1005
127328
  0
LINE
  5
127329
  8
OBJECT
 10
2557.0
 20
-999.99999999999602
 30
0.0
 11
2575.0
 21
-871.99999999999591
 31
0.0
1001
ACDBBLOCKREPETAG
1070
     1
1071
       11
1005
127329
  0
LINE
  5
12732A
  8
OBJECT
 10
1943.0
 20
-1099.9999999999959
 30
0.0
 11
2057.0
 21
-1099.9999999999959
 31
0.0
1001
ACDBBLOCKREPETAG
1070
     1
1071
        0
1005
12732A
  0
LINE
  5
12732B
  8
OBJECT
 10
1943.0
 20
-1099.9999999999959
 30
0.0
 11
1943.0
 21
-999.99999999999602
 31
0.0
1001
ACDBBLOCKREPETAG
1070
     1
1071
        1
1005
12732B
  0
LINE
  5
12732C
  8
OBJECT
 10
2057.0
 20
-1099.9999999999959
 30
0.0
 11
2057.0
 21
-999.99999999999602
 31
0.0
1001
ACDBBLOCKREPETAG
1070
     1
1071
        2
1005
12732C
  0
LINE
  5
12732D
  8
OBJECT
 10
1943.0
 20
-999.99999999999602
 30
0.0
 11
2057.0
 21
-999.99999999999602
 31
0.0
1001
ACDBBLOCKREPETAG
1070
     1
1071
        3
1005
12732D
  0
LINE
  5
12732E
  8
HIDDEN
 10
1950.0
 20
-999.99999999999602
 30
0.0
 11
1950.0
 21
-1099.9999999999959
 31
0.0
1001
ACDBBLOCKREPETAG
1070
     1
1071
        4
1005
12732E
  0
LINE
  5
12732F
  8
HIDDEN
 10
2050.0
 20
-999.99999999999602
 30
0.0
 11
2050.0
 21
-1099.9999999999959
 31
0.0
1001
ACDBBLOCKREPETAG
1070
     1
1071
        5
1005
12732F
  0
LINE
  5
127330
  8
CENTER
 10
2000.0
 20
-789.99999999999955
 30
0.0
 11
2000.0
 21
-1114.9999999999959
 31
0.0
1001
ACDBBLOCKREPETAG
1070
     1
1071
        6
1005
127330
  0
LINE
  5
127331
  8
OBJECT
 10
1925.0
 20
-789.99999999999955
 30
0.0
 11
1925.0
 21
-871.99999999999591
 31
0.0
1001
ACDBBLOCKREPETAG
1070
     1
1071
        7
1005
127331
  0
LINE
  5
127332
  8
OBJECT
 10
2075.0
 20
-789.99999999999955
 30
0.0
 11
2075.0
 21
-871.99999999999591
 31
0.0
1001
ACDBBLOCKREPETAG
1070
     1
1071
        8
1005
127332
  0
LINE
  5
127333
  8
OBJECT
 10
1925.0
 20
-871.99999999999591
 30
0.0
 11
2075.0
 21
-871.99999999999591
 31
0.0
1001
ACDBBLOCKREPETAG
1070
     1
1071
        9
1005
127333
  0
LINE
  5
127334
  8
OBJECT
 10
1925.0
 20
-871.99999999999591
 30
0.0
 11
1943.0
 21
-999.99999999999602
 31
0.0
1001
ACDBBLOCKREPETAG
1070
     1
1071
       10
1005
127334
  0
LINE
  5
127335
  8
OBJECT
 10
2057.0
 20
-999.99999999999602
 30
0.0
 11
2075.0
 21
-871.99999999999591
 31
0.0
1001
ACDBBLOCKREPETAG
1070
     1
1071
       11
1005
127335
  0
TEXT
  5
127336
  8
SLIM
 10
0.0
 20
670.0
 30
0.0
 40
100.0
  1
4SVT-Z8-S
 41
0.75
  0
TEXT
  5
127337
  8
SLIM
 10
0.0
 20
520.0
 30
0.0
 40
100.0
  1
4SVT-Z8-W
 41
0.75
  0
LINE
  5
127338
  8
CENTER
 10
11909.0
 20
-1373.9999999999959
 30
0.0
 11
12105.0
 21
-1373.9999999999959
 31
0.0
1001
ACDBBLOCKREPETAG
1070
     1
1071
       10
1005
127338
  0
LINE
  5
127339
  8
CENTER
 10
12000.0
 20
-1282.725335570779
 30
0.0
 11
12000.0
 21
-1465.274664429212
 31
0.0
1001
ACDBBLOCKREPETAG
1070
     1
1071
       11
1005
127339
  0
CIRCLE
  5
12733A
  8
OBJECT
 10
12000.0
 20
-1373.9999999999959
 30
0.0
 40
50.0
1001
ACDBBLOCKREPETAG
1070
     1
1071
       12
1005
12733A
  0
CIRCLE
  5
12733B
  8
OBJECT
 10
12000.0
 20
-1373.9999999999959
 30
0.0
 40
60.0
1001
ACDBBLOCKREPETAG
1070
     1
1071
       13
1005
12733B
  0
CIRCLE
  5
12733C
  8
OBJECT
 10
12000.0
 20
-1373.9999999999959
 30
0.0
 40
68.0
1001
ACDBBLOCKREPETAG
1070
     1
1071
       14
1005
12733C
  0
ARC
  5
12733D
  8
OBJECT
 10
12077.5
 20
-1373.9999999999959
 30
0.0
 40
12.0
 50
272.10542627221611
 51
87.894573727783893
1001
ACDBBLOCKREPETAG
1070
     1
1071
       15
1005
12733D
  0
ARC
  5
12733E
  8
OBJECT
 10
12078.49193548386
 20
-1347.0182271895239
 30
0.0
 40
15.0
 50
198.97051877965251
 51
267.89457372778372
1001
ACDBBLOCKREPETAG
1070
     1
1071
       16
1005
12733E
  0
ARC
  5
12733F
  8
OBJECT
 10
12078.49193548386
 20
-1400.981772810464
 30
0.0
 40
15.0
 50
92.105426272216135
 51
161.02948122034729
1001
ACDBBLOCKREPETAG
1070
     1
1071
       17
1005
12733F
  0
CIRCLE
  5
127340
  8
SLIM
 10
12078.0
 20
-1373.9999999999959
 30
0.0
 40
8.0
1001
ACDBBLOCKREPETAG
1070
     1
1071
       18
1005
127340
  0
POLYLINE
  5
127341
  8
SLIM
 66
     1
 10
0.0
 20
0.0
 30
0.0
 70
     1
1001
ACDBBLOCKREPETAG
1070
     1
1071
       19
1005
127341
  0
VERTEX
  5
127520
  8
SLIM
 10
12075.69059892322
 20
-1369.9999999999959
 30
0.0
  0
VERTEX
  5
127521
  8
SLIM
 10
12073.38119784648
 20
-1373.9999999999959
 30
0.0
  0
VERTEX
  5
127522
  8
SLIM
 10
12075.69059892322
 20
-1377.9999999999959
 30
0.0
  0
VERTEX
  5
127523
  8
SLIM
 10
12080.309401076751
 20
-1377.9999999999959
 30
0.0
  0
VERTEX
  5
127524
  8
SLIM
 10
12082.618802153511
 20
-1373.9999999999959
 30
0.0
  0
VERTEX
  5
127525
  8
SLIM
 10
12080.309401076751
 20
-1369.9999999999959
 30
0.0
  0
SEQEND
  5
127526
  8
SLIM
  0
ARC
  5
127342
  8
OBJECT
 10
11961.25
 20
-1306.8830312067
 30
0.0
 40
12.0
 50
32.105426272130188
 51
207.89457372768319
1001
ACDBBLOCKREPETAG
1070
     1
1071
       20
1005
127342
  0
ARC
  5
127343
  8
OBJECT
 10
11937.38713156505
 20
-1319.5148762839881
 30
0.0
 40
15.0
 50
318.97051877944762
 51
27.89457372768311
1001
ACDBBLOCKREPETAG
1070
     1
1071
       21
1005
127343
  0
ARC
  5
127344
  8
OBJECT
 10
11984.120932951069
 20
-1292.533103473517
 30
0.0
 40
15.0
 50
212.10542627213019
 51
281.02948122044069
1001
ACDBBLOCKREPETAG
1070
     1
1071
       22
1005
127344
  0
CIRCLE
  5
127345
  8
SLIM
 10
11961.0
 20
-1306.4500185048089
 30
0.0
 40
7.9999999999999982
1001
ACDBBLOCKREPETAG
1070
     1
1071
       23
1005
127345
  0
POLYLINE
  5
127346
  8
SLIM
 66
     1
 10
0.0
 20
0.0
 30
0.0
 70
     1
1001
ACDBBLOCKREPETAG
1070
     1
1071
       24
1005
127346
  0
VERTEX
  5
127527
  8
SLIM
 10
11958.69059892324
 20
-1310.450018504808
 30
0.0
  0
VERTEX
  5
127528
  8
SLIM
 10
11963.309401076751
 20
-1310.450018504808
 30
0.0
  0
VERTEX
  5
127529
  8
SLIM
 10
11965.618802153511
 20
-1306.4500185048089
 30
0.0
  0
VERTEX
  5
12752A
  8
SLIM
 10
11963.309401076751
 20
-1302.450018504808
 30
0.0
  0
VERTEX
  5
12752B
  8
SLIM
 10
11958.69059892324
 20
-1302.450018504808
 30
0.0
  0
VERTEX
  5
12752C
  8
SLIM
 10
11956.38119784648
 20
-1306.4500185048089
 30
0.0
  0
SEQEND
  5
12752D
  8
SLIM
  0
ARC
  5
127347
  8
OBJECT
 10
11961.25
 20
-1441.1169687932879
 30
0.0
 40
12.0
 50
152.10542627231681
 51
327.89457372786978
1001
ACDBBLOCKREPETAG
1070
     1
1071
       25
1005
127347
  0
ARC
  5
127348
  8
OBJECT
 10
11984.120932951069
 20
-1455.4668965264709
 30
0.0
 40
15.0
 50
78.970518779559228
 51
147.89457372786981
1001
ACDBBLOCKREPETAG
1070
     1
1071
       26
1005
127348
  0
ARC
  5
127349
  8
OBJECT
 10
11937.38713156505
 20
-1428.485123716003
 30
0.0
 40
15.0
 50
332.10542627231678
 51
41.029481220552412
1001
ACDBBLOCKREPETAG
1070
     1
1071
       27
1005
127349
  0
CIRCLE
  5
12734A
  8
SLIM
 10
11961.0
 20
-1441.5499814951829
 30
0.0
 40
8.0
1001
ACDBBLOCKREPETAG
1070
     1
1071
       28
1005
12734A
  0
POLYLINE
  5
12734B
  8
SLIM
 66
     1
 10
0.0
 20
0.0
 30
0.0
 70
     1
1001
ACDBBLOCKREPETAG
1070
     1
1071
       29
1005
12734B
  0
VERTEX
  5
12752E
  8
SLIM
 10
11965.618802153511
 20
-1441.5499814951791
 30
0.0
  0
VERTEX
  5
12752F
  8
SLIM
 10
11963.309401076751
 20
-1437.549981495182
 30
0.0
  0
VERTEX
  5
127530
  8
SLIM
 10
11958.69059892324
 20
-1437.5499814951791
 30
0.0
  0
VERTEX
  5
127531
  8
SLIM
 10
11956.38119784648
 20
-1441.5499814951829
 30
0.0
  0
VERTEX
  5
127532
  8
SLIM
 10
11958.69059892322
 20
-1445.5499814951791
 30
0.0
  0
VERTEX
  5
127533
  8
SLIM
 10
11963.309401076751
 20
-1445.549981495182
 30
0.0
  0
SEQEND
  5
127534
  8
SLIM
  0
ARC
  5
12734C
  8
OBJECT
 10
12000.0
 20
-1373.9999999999959
 30
0.0
 40
76.0
 50
34.863837954171863
 51
85.136162045732945
1001
ACDBBLOCKREPETAG
1070
     1
1071
       42
1005
12734C
  0
ARC
  5
12734D
  8
OBJECT
 10
12000.0
 20
-1373.9999999999959
 30
0.0
 40
76.0
 50
154.86383795430939
 51
205.1361620456905
1001
ACDBBLOCKREPETAG
1070
     1
1071
       43
1005
12734D
  0
ARC
  5
12734E
  8
OBJECT
 10
12000.0
 20
-1373.9999999999959
 30
0.0
 40
76.0
 50
274.86383795426718
 51
325.13616204582797
1001
ACDBBLOCKREPETAG
1070
     1
1071
       44
1005
12734E
  0
ARC
  5
12734F
  8
OBJECT
 10
12078.0
 20
-1373.9999999999959
 30
0.0
 40
12.0
 50
325.13616204582797
 51
34.863837954171863
1001
ACDBBLOCKREPETAG
1070
     1
1071
       45
1005
12734F
  0
LINE
  5
127350
  8
OBJECT
 10
12087.84615384616
 20
-1367.140462520133
 30
0.0
 11
12062.358974359049
 21
-1330.5562626275339
 31
0.0
1001
ACDBBLOCKREPETAG
1070
     1
1071
       46
1005
127350
  0
LINE
  5
127351
  8
OBJECT
 10
12087.846153846171
 20
-1380.859537479856
 30
0.0
 11
12062.358974359049
 21
-1417.4437373724591
 31
0.0
1001
ACDBBLOCKREPETAG
1070
     1
1071
       47
1005
127351
  0
ARC
  5
127352
  8
OBJECT
 10
11961.0
 20
-1306.45001850481
 30
0.0
 40
12.0
 50
85.136162045942811
 51
154.86383795410001
1001
ACDBBLOCKREPETAG
1070
     1
1071
       48
1005
127352
  0
LINE
  5
127353
  8
OBJECT
 10
11950.13638936114
 20
-1301.3527678843909
 30
0.0
 11
11931.19713262058
 21
-1341.7174127373471
 31
0.0
1001
ACDBBLOCKREPETAG
1070
     1
1071
       49
1005
127353
  0
LINE
  5
127354
  8
OBJECT
 10
11962.017456792681
 20
-1294.493230404526
 30
0.0
 11
12006.443893020371
 21
-1298.273675364886
 31
0.0
1001
ACDBBLOCKREPETAG
1070
     1
1071
       50
1005
127354
  0
ARC
  5
127355
  8
OBJECT
 10
11961.0
 20
-1441.5499814951811
 30
0.0
 40
12.0
 50
205.13616204589991
 51
274.8638379540572
1001
ACDBBLOCKREPETAG
1070
     1
1071
       51
1005
127355
  0
LINE
  5
127356
  8
OBJECT
 10
11962.01745679269
 20
-1453.5067695954631
 30
0.0
 11
12006.44389302036
 21
-1449.726324635106
 31
0.0
1001
ACDBBLOCKREPETAG
1070
     1
1071
       52
1005
127356
  0
LINE
  5
127357
  8
OBJECT
 10
11950.13638936114
 20
-1446.6472321156041
 30
0.0
 11
11931.19713262058
 21
-1406.2825872626429
 31
0.0
1001
ACDBBLOCKREPETAG
1070
     1
1071
       53
1005
127357
  0
LINE
  5
127358
  8
CENTER
 10
9909.0
 20
-1373.9999999999959
 30
0.0
 11
10105.0
 21
-1373.9999999999959
 31
0.0
1001
ACDBBLOCKREPETAG
1070
     1
1071
        0
1005
127358
  0
LINE
  5
127359
  8
CENTER
 10
10000.0
 20
-1282.725335570779
 30
0.0
 11
10000.0
 21
-1465.274664429212
 31
0.0
1001
ACDBBLOCKREPETAG
1070
     1
1071
        1
1005
127359
  0
CIRCLE
  5
12735A
  8
OBJECT
 10
10000.0
 20
-1373.9999999999959
 30
0.0
 40
50.0
1001
ACDBBLOCKREPETAG
1070
     1
1071
        2
1005
12735A
  0
CIRCLE
  5
12735B
  8
OBJECT
 10
10000.0
 20
-1373.9999999999959
 30
0.0
 40
62.0
1001
ACDBBLOCKREPETAG
1070
     1
1071
        3
1005
12735B
  0
CIRCLE
  5
12735C
  8
SLIM
 10
10078.0
 20
-1373.9999999999959
 30
0.0
 40
5.0
1001
ACDBBLOCKREPETAG
1070
     1
1071
        4
1005
12735C
  0
POLYLINE
  5
12735D
  8
SLIM
 66
     1
 10
0.0
 20
0.0
 30
0.0
 70
     1
1001
ACDBBLOCKREPETAG
1070
     1
1071
        5
1005
12735D
  0
VERTEX
  5
127535
  8
SLIM
 10
10073.092522711881
 20
-1365.4999999999959
 30
0.0
  0
VERTEX
  5
127536
  8
SLIM
 10
10068.18504542377
 20
-1373.9999999999959
 30
0.0
  0
VERTEX
  5
127537
  8
SLIM
 10
10073.092522711881
 20
-1382.4999999999959
 30
0.0
  0
VERTEX
  5
127538
  8
SLIM
 10
10082.907477288099
 20
-1382.4999999999959
 30
0.0
  0
VERTEX
  5
127539
  8
SLIM
 10
10087.814954576221
 20
-1373.9999999999959
 30
0.0
  0
VERTEX
  5
12753A
  8
SLIM
 10
10082.907477288099
 20
-1365.4999999999959
 30
0.0
  0
SEQEND
  5
12753B
  8
SLIM
  0
CIRCLE
  5
12735E
  8
SLIM
 10
9961.0
 20
-1306.4500185048089
 30
0.0
 40
4.9999999999999991
1001
ACDBBLOCKREPETAG
1070
     1
1071
        6
1005
12735E
  0
POLYLINE
  5
12735F
  8
SLIM
 66
     1
 10
0.0
 20
0.0
 30
0.0
 70
     1
1001
ACDBBLOCKREPETAG
1070
     1
1071
        7
1005
12735F
  0
VERTEX
  5
12753C
  8
SLIM
 10
9956.092522711886
 20
-1314.9500185048089
 30
0.0
  0
VERTEX
  5
12753D
  8
SLIM
 10
9965.907477288114
 20
-1314.9500185048089
 30
0.0
  0
VERTEX
  5
12753E
  8
SLIM
 10
9970.814954576219
 20
-1306.4500185048089
 30
0.0
  0
VERTEX
  5
12753F
  8
SLIM
 10
9965.907477288114
 20
-1297.950018504808
 30
0.0
  0
VERTEX
  5
127540
  8
SLIM
 10
9956.092522711886
 20
-1297.950018504808
 30
0.0
  0
VERTEX
  5
127541
  8
SLIM
 10
9951.185045423772
 20
-1306.4500185048089
 30
0.0
  0
SEQEND
  5
127542
  8
SLIM
  0
CIRCLE
  5
127360
  8
SLIM
 10
9961.0
 20
-1441.5499814951829
 30
0.0
 40
5.0
1001
ACDBBLOCKREPETAG
1070
     1
1071
        8
1005
127360
  0
POLYLINE
  5
127361
  8
SLIM
 66
     1
 10
0.0
 20
0.0
 30
0.0
 70
     1
1001
ACDBBLOCKREPETAG
1070
     1
1071
        9
1005
127361
  0
VERTEX
  5
127543
  8
SLIM
 10
9970.814954576219
 20
-1441.5499814951829
 30
0.0
  0
VERTEX
  5
127544
  8
SLIM
 10
9965.9074772881049
 20
-1433.0499814951791
 30
0.0
  0
VERTEX
  5
127545
  8
SLIM
 10
9956.092522711886
 20
-1433.049981495182
 30
0.0
  0
VERTEX
  5
127546
  8
SLIM
 10
9951.185045423772
 20
-1441.5499814951791
 30
0.0
  0
VERTEX
  5
127547
  8
SLIM
 10
9956.092522711886
 20
-1450.0499814951829
 30
0.0
  0
VERTEX
  5
127548
  8
SLIM
 10
9965.907477288114
 20
-1450.0499814951791
 30
0.0
  0
SEQEND
  5
127549
  8
SLIM
  0
ARC
  5
127362
  8
OBJECT
 10
10000.0
 20
-1373.9999999999959
 30
0.0
 40
76.0
 50
34.863837954171863
 51
85.136162045732945
1001
ACDBBLOCKREPETAG
1070
     1
1071
       30
1005
127362
  0
ARC
  5
127363
  8
OBJECT
 10
10000.0
 20
-1373.9999999999959
 30
0.0
 40
76.0
 50
154.86383795430939
 51
205.1361620456905
1001
ACDBBLOCKREPETAG
1070
     1
1071
       31
1005
127363
  0
ARC
  5
127364
  8
OBJECT
 10
10000.0
 20
-1373.9999999999959
 30
0.0
 40
76.0
 50
274.86383795426718
 51
325.13616204582797
1001
ACDBBLOCKREPETAG
1070
     1
1071
       32
1005
127364
  0
ARC
  5
127365
  8
OBJECT
 10
10078.0
 20
-1373.9999999999959
 30
0.0
 40
12.0
 50
325.13616204582797
 51
34.863837954171863
1001
ACDBBLOCKREPETAG
1070
     1
1071
       33
1005
127365
  0
LINE
  5
127366
  8
OBJECT
 10
10087.84615384616
 20
-1367.140462520133
 30
0.0
 11
10062.35897435904
 21
-1330.5562626275339
 31
0.0
1001
ACDBBLOCKREPETAG
1070
     1
1071
       34
1005
127366
  0
LINE
  5
127367
  8
OBJECT
 10
10087.846153846171
 20
-1380.859537479856
 30
0.0
 11
10062.35897435904
 21
-1417.4437373724591
 31
0.0
1001
ACDBBLOCKREPETAG
1070
     1
1071
       35
1005
127367
  0
ARC
  5
127368
  8
OBJECT
 10
9961.0
 20
-1306.45001850481
 30
0.0
 40
12.0
 50
85.136162045942811
 51
154.86383795410001
1001
ACDBBLOCKREPETAG
1070
     1
1071
       36
1005
127368
  0
LINE
  5
127369
  8
OBJECT
 10
9950.1363893611433
 20
-1301.3527678843909
 30
0.0
 11
9931.1971326205894
 21
-1341.7174127373471
 31
0.0
1001
ACDBBLOCKREPETAG
1070
     1
1071
       37
1005
127369
  0
LINE
  5
12736A
  8
OBJECT
 10
9962.0174567926842
 20
-1294.493230404526
 30
0.0
 11
10006.443893020371
 21
-1298.273675364886
 31
0.0
1001
ACDBBLOCKREPETAG
1070
     1
1071
       38
1005
12736A
  0
ARC
  5
12736B
  8
OBJECT
 10
9961.0
 20
-1441.5499814951811
 30
0.0
 40
12.0
 50
205.13616204589991
 51
274.8638379540572
1001
ACDBBLOCKREPETAG
1070
     1
1071
       39
1005
12736B
  0
LINE
  5
12736C
  8
OBJECT
 10
9962.0174567926897
 20
-1453.5067695954631
 30
0.0
 11
10006.44389302036
 21
-1449.726324635106
 31
0.0
1001
ACDBBLOCKREPETAG
1070
     1
1071
       40
1005
12736C
  0
LINE
  5
12736D
  8
OBJECT
 10
9950.1363893611433
 20
-1446.6472321156041
 30
0.0
 11
9931.1971326205821
 21
-1406.2825872626429
 31
0.0
1001
ACDBBLOCKREPETAG
1070
     1
1071
       41
1005
12736D
  0
LINE
  5
12736E
  8
CENTER
 10
5909.0
 20
-1414.9999999999991
 30
0.0
 11
6105.0
 21
-1414.9999999999991
 31
0.0
1001
ACDBBLOCKREPETAG
1070
     1
1071
       10
1005
12736E
  0
LINE
  5
12736F
  8
CENTER
 10
6000.0
 20
-1323.7253355707819
 30
0.0
 11
6000.0
 21
-1506.2746644292149
 31
0.0
1001
ACDBBLOCKREPETAG
1070
     1
1071
       11
1005
12736F
  0
CIRCLE
  5
127370
  8
OBJECT
 10
6000.0
 20
-1414.9999999999991
 30
0.0
 40
50.0
1001
ACDBBLOCKREPETAG
1070
     1
1071
       12
1005
127370
  0
CIRCLE
  5
127371
  8
OBJECT
 10
6000.0
 20
-1414.9999999999991
 30
0.0
 40
60.0
1001
ACDBBLOCKREPETAG
1070
     1
1071
       13
1005
127371
  0
CIRCLE
  5
127372
  8
OBJECT
 10
6000.0
 20
-1414.9999999999991
 30
0.0
 40
68.0
1001
ACDBBLOCKREPETAG
1070
     1
1071
       14
1005
127372
  0
ARC
  5
127373
  8
OBJECT
 10
6077.5
 20
-1414.9999999999991
 30
0.0
 40
12.0
 50
272.10542627221611
 51
87.894573727783893
1001
ACDBBLOCKREPETAG
1070
     1
1071
       15
1005
127373
  0
ARC
  5
127374
  8
OBJECT
 10
6078.4919354838639
 20
-1388.018227189526
 30
0.0
 40
15.0
 50
198.9705187796356
 51
267.89457372778372
1001
ACDBBLOCKREPETAG
1070
     1
1071
       16
1005
127374
  0
ARC
  5
127375
  8
OBJECT
 10
6078.4919354838639
 20
-1441.981772810467
 30
0.0
 40
15.0
 50
92.105426272216135
 51
161.02948122036429
1001
ACDBBLOCKREPETAG
1070
     1
1071
       17
1005
127375
  0
CIRCLE
  5
127376
  8
SLIM
 10
6078.0
 20
-1414.9999999999991
 30
0.0
 40
8.0
1001
ACDBBLOCKREPETAG
1070
     1
1071
       18
1005
127376
  0
POLYLINE
  5
127377
  8
SLIM
 66
     1
 10
0.0
 20
0.0
 30
0.0
 70
     1
1001
ACDBBLOCKREPETAG
1070
     1
1071
       19
1005
127377
  0
VERTEX
  5
12754A
  8
SLIM
 10
6075.6905989232328
 20
-1410.9999999999991
 30
0.0
  0
VERTEX
  5
12754B
  8
SLIM
 10
6073.3811978464801
 20
-1414.9999999999991
 30
0.0
  0
VERTEX
  5
12754C
  8
SLIM
 10
6075.6905989232328
 20
-1418.9999999999991
 30
0.0
  0
VERTEX
  5
12754D
  8
SLIM
 10
6080.3094010767527
 20
-1418.9999999999991
 30
0.0
  0
VERTEX
  5
12754E
  8
SLIM
 10
6082.6188021535136
 20
-1414.9999999999991
 30
0.0
  0
VERTEX
  5
12754F
  8
SLIM
 10
6080.3094010767527
 20
-1410.9999999999991
 30
0.0
  0
SEQEND
  5
127550
  8
SLIM
  0
ARC
  5
127378
  8
OBJECT
 10
5961.25
 20
-1347.883031206703
 30
0.0
 40
12.0
 50
32.105426272157878
 51
207.89457372770741
1001
ACDBBLOCKREPETAG
1070
     1
1071
       20
1005
127378
  0
ARC
  5
127379
  8
OBJECT
 10
5937.387131565054
 20
-1360.514876283992
 30
0.0
 40
15.0
 50
318.97051877944762
 51
27.894573727707481
1001
ACDBBLOCKREPETAG
1070
     1
1071
       21
1005
127379
  0
ARC
  5
12737A
  8
OBJECT
 10
5984.1209329510702
 20
-1333.53310347352
 30
0.0
 40
15.0
 50
212.1054262721579
 51
281.02948122044069
1001
ACDBBLOCKREPETAG
1070
     1
1071
       22
1005
12737A
  0
CIRCLE
  5
12737B
  8
SLIM
 10
5961.0
 20
-1347.4500185048121
 30
0.0
 40
7.9999999999999982
1001
ACDBBLOCKREPETAG
1070
     1
1071
       23
1005
12737B
  0
POLYLINE
  5
12737C
  8
SLIM
 66
     1
 10
0.0
 20
0.0
 30
0.0
 70
     1
1001
ACDBBLOCKREPETAG
1070
     1
1071
       24
1005
12737C
  0
VERTEX
  5
127551
  8
SLIM
 10
5958.69059892324
 20
-1351.4500185048121
 30
0.0
  0
VERTEX
  5
127552
  8
SLIM
 10
5963.3094010767518
 20
-1351.4500185048121
 30
0.0
  0
VERTEX
  5
127553
  8
SLIM
 10
5965.6188021535136
 20
-1347.4500185048121
 30
0.0
  0
VERTEX
  5
127554
  8
SLIM
 10
5963.3094010767518
 20
-1343.4500185048121
 30
0.0
  0
VERTEX
  5
127555
  8
SLIM
 10
5958.69059892324
 20
-1343.4500185048121
 30
0.0
  0
VERTEX
  5
127556
  8
SLIM
 10
5956.3811978464792
 20
-1347.4500185048121
 30
0.0
  0
SEQEND
  5
127557
  8
SLIM
  0
ARC
  5
12737D
  8
OBJECT
 10
5961.25
 20
-1482.1169687932911
 30
0.0
 40
12.0
 50
152.1054262722925
 51
327.89457372784221
1001
ACDBBLOCKREPETAG
1070
     1
1071
       25
1005
12737D
  0
ARC
  5
12737E
  8
OBJECT
 10
5984.1209329510702
 20
-1496.4668965264741
 30
0.0
 40
15.0
 50
78.970518779559228
 51
147.8945737278421
1001
ACDBBLOCKREPETAG
1070
     1
1071
       26
1005
12737E
  0
ARC
  5
12737F
  8
OBJECT
 10
5937.387131565054
 20
-1469.485123716006
 30
0.0
 40
15.0
 50
332.1054262722925
 51
41.029481220552412
1001
ACDBBLOCKREPETAG
1070
     1
1071
       27
1005
12737F
  0
CIRCLE
  5
127380
  8
SLIM
 10
5961.0
 20
-1482.5499814951861
 30
0.0
 40
8.0
1001
ACDBBLOCKREPETAG
1070
     1
1071
       28
1005
127380
  0
POLYLINE
  5
127381
  8
SLIM
 66
     1
 10
0.0
 20
0.0
 30
0.0
 70
     1
1001
ACDBBLOCKREPETAG
1070
     1
1071
       29
1005
127381
  0
VERTEX
  5
127558
  8
SLIM
 10
5965.6188021535136
 20
-1482.5499814951829
 30
0.0
  0
VERTEX
  5
127559
  8
SLIM
 10
5963.3094010767518
 20
-1478.5499814951861
 30
0.0
  0
VERTEX
  5
12755A
  8
SLIM
 10
5958.69059892324
 20
-1478.5499814951829
 30
0.0
  0
VERTEX
  5
12755B
  8
SLIM
 10
5956.3811978464792
 20
-1482.5499814951861
 30
0.0
  0
VERTEX
  5
12755C
  8
SLIM
 10
5958.6905989232328
 20
-1486.5499814951829
 30
0.0
  0
VERTEX
  5
12755D
  8
SLIM
 10
5963.3094010767518
 20
-1486.5499814951861
 30
0.0
  0
SEQEND
  5
12755E
  8
SLIM
  0
ARC
  5
127382
  8
OBJECT
 10
6000.0
 20
-1414.9999999999991
 30
0.0
 40
76.0
 50
34.863837954142063
 51
85.136162045732945
1001
ACDBBLOCKREPETAG
1070
     1
1071
       42
1005
127382
  0
ARC
  5
127383
  8
OBJECT
 10
6000.0
 20
-1414.9999999999991
 30
0.0
 40
76.0
 50
154.86383795430939
 51
205.1361620456905
1001
ACDBBLOCKREPETAG
1070
     1
1071
       43
1005
127383
  0
ARC
  5
127384
  8
OBJECT
 10
6000.0
 20
-1414.9999999999991
 30
0.0
 40
76.0
 50
274.86383795426718
 51
325.13616204585799
1001
ACDBBLOCKREPETAG
1070
     1
1071
       44
1005
127384
  0
ARC
  5
127385
  8
OBJECT
 10
6078.0
 20
-1414.9999999999991
 30
0.0
 40
12.0
 50
325.13616204585799
 51
34.863837954142063
1001
ACDBBLOCKREPETAG
1070
     1
1071
       45
1005
127385
  0
LINE
  5
127386
  8
OBJECT
 10
6087.846153846167
 20
-1408.1404625201369
 30
0.0
 11
6062.3589743590501
 21
-1371.556262627538
 31
0.0
1001
ACDBBLOCKREPETAG
1070
     1
1071
       46
1005
127386
  0
LINE
  5
127387
  8
OBJECT
 10
6087.8461538461697
 20
-1421.859537479859
 30
0.0
 11
6062.3589743590501
 21
-1458.443737372462
 31
0.0
1001
ACDBBLOCKREPETAG
1070
     1
1071
       47
1005
127387
  0
ARC
  5
127388
  8
OBJECT
 10
5961.0
 20
-1347.4500185048139
 30
0.0
 40
12.0
 50
85.136162045942811
 51
154.86383795410001
1001
ACDBBLOCKREPETAG
1070
     1
1071
       48
1005
127388
  0
LINE
  5
127389
  8
OBJECT
 10
5950.1363893611451
 20
-1342.3527678843941
 30
0.0
 11
5931.1971326205849
 21
-1382.7174127373501
 31
0.0
1001
ACDBBLOCKREPETAG
1070
     1
1071
       49
1005
127389
  0
LINE
  5
12738A
  8
OBJECT
 10
5962.0174567926842
 20
-1335.493230404529
 30
0.0
 11
6006.4438930203669
 21
-1339.273675364889
 31
0.0
1001
ACDBBLOCKREPETAG
1070
     1
1071
       50
1005
12738A
  0
ARC
  5
12738B
  8
OBJECT
 10
5961.0
 20
-1482.5499814951841
 30
0.0
 40
12.0
 50
205.13616204589991
 51
274.8638379540572
1001
ACDBBLOCKREPETAG
1070
     1
1071
       51
1005
12738B
  0
LINE
  5
12738C
  8
OBJECT
 10
5962.0174567926879
 20
-1494.506769595466
 30
0.0
 11
6006.4438930203651
 21
-1490.726324635109
 31
0.0
1001
ACDBBLOCKREPETAG
1070
     1
1071
       52
1005
12738C
  0
LINE
  5
12738D
  8
OBJECT
 10
5950.1363893611451
 20
-1487.6472321156079
 30
0.0
 11
5931.1971326205821
 21
-1447.2825872626461
 31
0.0
1001
ACDBBLOCKREPETAG
1070
     1
1071
       53
1005
12738D
  0
LINE
  5
12738E
  8
CENTER
 10
3909.0
 20
-1373.9999999999959
 30
0.0
 11
4105.0
 21
-1373.9999999999959
 31
0.0
1001
ACDBBLOCKREPETAG
1070
     1
1071
        0
1005
12738E
  0
LINE
  5
12738F
  8
CENTER
 10
4000.0
 20
-1282.725335570779
 30
0.0
 11
4000.0
 21
-1465.274664429212
 31
0.0
1001
ACDBBLOCKREPETAG
1070
     1
1071
        1
1005
12738F
  0
CIRCLE
  5
127390
  8
OBJECT
 10
4000.0
 20
-1373.9999999999959
 30
0.0
 40
50.0
1001
ACDBBLOCKREPETAG
1070
     1
1071
        2
1005
127390
  0
CIRCLE
  5
127391
  8
OBJECT
 10
4000.0
 20
-1373.9999999999959
 30
0.0
 40
62.0
1001
ACDBBLOCKREPETAG
1070
     1
1071
        3
1005
127391
  0
CIRCLE
  5
127392
  8
SLIM
 10
4078.0
 20
-1373.9999999999959
 30
0.0
 40
5.0
1001
ACDBBLOCKREPETAG
1070
     1
1071
        4
1005
127392
  0
POLYLINE
  5
127393
  8
SLIM
 66
     1
 10
0.0
 20
0.0
 30
0.0
 70
     1
1001
ACDBBLOCKREPETAG
1070
     1
1071
        5
1005
127393
  0
VERTEX
  5
12755F
  8
SLIM
 10
4073.092522711886
 20
-1365.4999999999959
 30
0.0
  0
VERTEX
  5
127560
  8
SLIM
 10
4068.185045423772
 20
-1373.9999999999959
 30
0.0
  0
VERTEX
  5
127561
  8
SLIM
 10
4073.092522711886
 20
-1382.4999999999959
 30
0.0
  0
VERTEX
  5
127562
  8
SLIM
 10
4082.9074772881072
 20
-1382.4999999999959
 30
0.0
  0
VERTEX
  5
127563
  8
SLIM
 10
4087.8149545762199
 20
-1373.9999999999959
 30
0.0
  0
VERTEX
  5
127564
  8
SLIM
 10
4082.9074772881072
 20
-1365.4999999999959
 30
0.0
  0
SEQEND
  5
127565
  8
SLIM
  0
CIRCLE
  5
127394
  8
SLIM
 10
3961.0
 20
-1306.4500185048089
 30
0.0
 40
4.9999999999999991
1001
ACDBBLOCKREPETAG
1070
     1
1071
        6
1005
127394
  0
POLYLINE
  5
127395
  8
SLIM
 66
     1
 10
0.0
 20
0.0
 30
0.0
 70
     1
1001
ACDBBLOCKREPETAG
1070
     1
1071
        7
1005
127395
  0
VERTEX
  5
127566
  8
SLIM
 10
3956.092522711886
 20
-1314.9500185048089
 30
0.0
  0
VERTEX
  5
127567
  8
SLIM
 10
3965.907477288114
 20
-1314.9500185048089
 30
0.0
  0
VERTEX
  5
127568
  8
SLIM
 10
3970.8149545762212
 20
-1306.4500185048089
 30
0.0
  0
VERTEX
  5
127569
  8
SLIM
 10
3965.907477288114
 20
-1297.950018504808
 30
0.0
  0
VERTEX
  5
12756A
  8
SLIM
 10
3956.092522711886
 20
-1297.950018504808
 30
0.0
  0
VERTEX
  5
12756B
  8
SLIM
 10
3951.185045423772
 20
-1306.4500185048089
 30
0.0
  0
SEQEND
  5
12756C
  8
SLIM
  0
CIRCLE
  5
127396
  8
SLIM
 10
3961.0
 20
-1441.5499814951829
 30
0.0
 40
5.0
1001
ACDBBLOCKREPETAG
1070
     1
1071
        8
1005
127396
  0
POLYLINE
  5
127397
  8
SLIM
 66
     1
 10
0.0
 20
0.0
 30
0.0
 70
     1
1001
ACDBBLOCKREPETAG
1070
     1
1071
        9
1005
127397
  0
VERTEX
  5
12756D
  8
SLIM
 10
3970.8149545762212
 20
-1441.5499814951829
 30
0.0
  0
VERTEX
  5
12756E
  8
SLIM
 10
3965.9074772881072
 20
-1433.0499814951791
 30
0.0
  0
VERTEX
  5
12756F
  8
SLIM
 10
3956.092522711886
 20
-1433.049981495182
 30
0.0
  0
VERTEX
  5
127570
  8
SLIM
 10
3951.185045423772
 20
-1441.5499814951791
 30
0.0
  0
VERTEX
  5
127571
  8
SLIM
 10
3956.092522711886
 20
-1450.0499814951829
 30
0.0
  0
VERTEX
  5
127572
  8
SLIM
 10
3965.907477288114
 20
-1450.0499814951791
 30
0.0
  0
SEQEND
  5
127573
  8
SLIM
  0
ARC
  5
127398
  8
OBJECT
 10
4000.0
 20
-1373.9999999999959
 30
0.0
 40
76.0
 50
34.863837954142063
 51
85.136162045732945
1001
ACDBBLOCKREPETAG
1070
     1
1071
       30
1005
127398
  0
ARC
  5
127399
  8
OBJECT
 10
4000.0
 20
-1373.9999999999959
 30
0.0
 40
76.0
 50
154.86383795430939
 51
205.1361620456905
1001
ACDBBLOCKREPETAG
1070
     1
1071
       31
1005
127399
  0
ARC
  5
12739A
  8
OBJECT
 10
4000.0
 20
-1373.9999999999959
 30
0.0
 40
76.0
 50
274.86383795426718
 51
325.13616204585799
1001
ACDBBLOCKREPETAG
1070
     1
1071
       32
1005
12739A
  0
ARC
  5
12739B
  8
OBJECT
 10
4078.0
 20
-1373.9999999999959
 30
0.0
 40
12.0
 50
325.13616204585799
 51
34.863837954142063
1001
ACDBBLOCKREPETAG
1070
     1
1071
       33
1005
12739B
  0
LINE
  5
12739C
  8
OBJECT
 10
4087.846153846167
 20
-1367.140462520133
 30
0.0
 11
4062.3589743590492
 21
-1330.5562626275339
 31
0.0
1001
ACDBBLOCKREPETAG
1070
     1
1071
       34
1005
12739C
  0
LINE
  5
12739D
  8
OBJECT
 10
4087.8461538461711
 20
-1380.859537479856
 30
0.0
 11
4062.3589743590492
 21
-1417.4437373724591
 31
0.0
1001
ACDBBLOCKREPETAG
1070
     1
1071
       35
1005
12739D
  0
ARC
  5
12739E
  8
OBJECT
 10
3961.0
 20
-1306.45001850481
 30
0.0
 40
12.0
 50
85.136162045942811
 51
154.86383795411109
1001
ACDBBLOCKREPETAG
1070
     1
1071
       36
1005
12739E
  0
LINE
  5
12739F
  8
OBJECT
 10
3950.136389361146
 20
-1301.3527678843909
 30
0.0
 11
3931.1971326205862
 21
-1341.7174127373471
 31
0.0
1001
ACDBBLOCKREPETAG
1070
     1
1071
       37
1005
12739F
  0
LINE
  5
1273A0
  8
OBJECT
 10
3962.0174567926852
 20
-1294.493230404526
 30
0.0
 11
4006.4438930203678
 21
-1298.273675364886
 31
0.0
1001
ACDBBLOCKREPETAG
1070
     1
1071
       38
1005
1273A0
  0
ARC
  5
1273A1
  8
OBJECT
 10
3961.0
 20
-1441.5499814951811
 30
0.0
 40
12.0
 50
205.13616204588891
 51
274.8638379540572
1001
ACDBBLOCKREPETAG
1070
     1
1071
       39
1005
1273A1
  0
LINE
  5
1273A2
  8
OBJECT
 10
3962.0174567926879
 20
-1453.5067695954631
 30
0.0
 11
4006.4438930203651
 21
-1449.726324635106
 31
0.0
1001
ACDBBLOCKREPETAG
1070
     1
1071
       40
1005
1273A2
  0
LINE
  5
1273A3
  8
OBJECT
 10
3950.136389361146
 20
-1446.6472321156041
 30
0.0
 11
3931.1971326205821
 21
-1406.2825872626429
 31
0.0
1001
ACDBBLOCKREPETAG
1070
     1
1071
       41
1005
1273A3
  0
TEXT
  5
1273A4
  8
SLIM
 10
3853.75
 20
-1641.4999999999959
 30
0.0
 40
35.0
  1
両受けスタイル（W）
 41
0.75
  0
TEXT
  5
1273A5
  8
SLIM
 10
5811.8000000000002
 20
-1738.9999999999991
 30
0.0
 40
28.0
  1
※ 対応スラブ厚　150mm以上
 41
0.75
  0
TEXT
  5
1273A6
  8
SLIM
 10
5611.5
 20
-1832.3333333333319
 30
0.0
 40
28.0
  1
国土交通大臣認定・（財）日本消防設備安全センター性能評定取得品
 41
0.75
  0
TEXT
  5
1273A7
  8
SLIM
 10
5631.1000000000004
 20
-1878.9999999999991
 30
0.0
 40
28.0
  1
注）ご採用にあたり、認定書及び評定書の内容をご確認ください。
 41
0.75
  0
TEXT
  5
1273A8
  8
SLIM
 10
11824.6
 20
-1697.9999999999959
 30
0.0
 40
28.0
  1
※ 対応スラブ厚　150～380
 41
0.75
  0
TEXT
  5
1273A9
  8
SLIM
 10
11611.5
 20
-1791.3333333333289
 30
0.0
 40
28.0
  1
国土交通大臣認定・（財）日本消防設備安全センター性能評定取得品
 41
0.75
  0
TEXT
  5
1273AA
  8
SLIM
 10
11631.1
 20
-1837.9999999999959
 30
0.0
 40
28.0
  1
注）ご採用にあたり、認定書及び評定書の内容をご確認ください。
 41
0.75
  0
TEXT
  5
1273AB
  8
SLIM
 10
9824.6000000000004
 20
-1697.9999999999959
 30
0.0
 40
28.0
  1
※ 対応スラブ厚　180～380
 41
0.75
  0
TEXT
  5
1273AC
  8
SLIM
 10
9611.5000000000018
 20
-1791.3333333333289
 30
0.0
 40
28.0
  1
国土交通大臣認定・（財）日本消防設備安全センター性能評定取得品
 41
0.75
  0
TEXT
  5
1273AD
  8
SLIM
 10
9631.1000000000004
 20
-1837.9999999999959
 30
0.0
 40
28.0
  1
注）ご採用にあたり、認定書及び評定書の内容をご確認ください。
 41
0.75
  0
TEXT
  5
1273AE
  8
SLIM
 10
7771.3999999999987
 20
-1430.666666666664
 30
0.0
 40
28.0
  1
※ 対応スラブ厚　180｛150｝～340
 41
0.75
  0
TEXT
  5
1273AF
  8
SLIM
 10
7733.2999999999975
 20
-1477.333333333331
 30
0.0
 40
28.0
  1
｛｝内はカンペイ立て管との組み合わせの場合
 41
0.75
  0
TEXT
  5
1273B0
  8
SLIM
 10
7611.4999999999982
 20
-1570.6666666666649
 30
0.0
 40
28.0
  1
国土交通大臣認定・（財）日本消防設備安全センター性能評定取得品
 41
0.75
  0
TEXT
  5
1273B1
  8
SLIM
 10
7631.1000000000004
 20
-1617.333333333331
 30
0.0
 40
28.0
  1
注）ご採用にあたり、認定書及び評定書の内容をご確認ください。
 41
0.75
  0
TEXT
  5
1273B2
  8
SLIM
 10
9739.1250000000018
 20
-1641.4999999999959
 30
0.0
 40
35.0
  1
両受けスタイル（W）＋シンドカット
 41
0.75
  0
TEXT
  5
1273B3
  8
SLIM
 10
11743.5
 20
-1641.4999999999959
 30
0.0
 40
35.0
  1
カンペイ君（WKP）＋シンドカット
 41
0.75
  0
TEXT
  5
1273B4
  8
SLIM
 10
7741.625
 20
-1367.499999999998
 30
0.0
 40
35.0
  1
片受けスタイル（S）＋シンドカット
 41
0.75
  0
TEXT
  5
1273B5
  8
SLIM
 10
5858.1250000000009
 20
-1682.4999999999991
 30
0.0
 40
35.0
  1
カンペイ君（WKP）
 41
0.75
  0
TEXT
  5
1273B6
  8
SLIM
 10
1856.25
 20
-1367.499999999998
 30
0.0
 40
35.0
  1
片受けスタイル（S）
 41
0.75
  0
TEXT
  5
1273B7
  8
SLIM
 10
0.0
 20
370.0
 30
0.0
 40
100.0
  1
4SVT-Z8-WKP
 41
0.75
  0
VIEWPORT
  5
F6BA7
 67
     1
  8
0
 10
195.9179030619629
 20
101.8328354358673
 30
0.0
 40
435.4334795152227
 41
222.32721189365489
 68
     1
 69
     1
1001
ACAD
1000
MVIEW
1002
{
1070
    16
1010
0.0
1020
0.0
1030
0.0
1010
0.0
1020
0.0
1030
1.0
1040
0.0
1040
222.32721189365489
1040
195.9179030619629
1040
101.8328354358673
1040
50.0
1040
0.0
1040
0.0
1070
     0
1070
     0
1070
     1
1070
     1
1070
     0
1070
     0
1070
     0
1070
     0
1040
0.0
1040
0.0
1040
0.0
1040
10.0
1040
10.0
1040
10.0
1040
10.0
1070
     0
1002
{
1002
}
1002
}
  0
VIEWPORT
  5
F6BA9
 67
     1
  8
OBJECT
 10
145.3303314447403
 20
101.8328338861465
 30
0.0
 40
232.5285303115844
 41
162.93253421783439
 68
     2
 69
     2
1001
ACAD
1000
MVIEW
1002
{
1070
    16
1010
0.0
1020
0.0
1030
0.0
1010
0.0
1020
0.0
1030
1.0
1040
0.0
1040
25942.55904403147
1040
2377.604457077377
1040
-7591.5176687056619
1040
50.0
1040
0.0
1040
0.0
1070
     0
1070
   600
1070
     1
1070
     1
1070
     0
1070
     0
1070
     0
1070
     0
1040
0.0
1040
0.0
1040
0.0
1040
1.0
1040
1.0
1040
0.0
1040
0.0
1070
     0
1002
{
1002
}
1002
}
  0
ENDSEC
  0
EOF
