  0
SECTION
  2
HEADER
  9
$ACADVER
  1
AC1009
  9
$INSBASE
 10
0.0
 20
0.0
 30
0.0
  9
$EXTMIN
 10
0.0
 20
-4102.4999999999973
 30
0.0
  9
$EXTMAX
 10
12387.100000000009
 20
770.0
 30
0.0
  9
$LIMMIN
 10
0.0
 20
0.0
  9
$LIMMAX
 10
210.0
 20
297.0
  9
$ORTHOMODE
 70
     0
  9
$REGENMODE
 70
     1
  9
$FILLMODE
 70
     1
  9
$QTEXTMODE
 70
     0
  9
$MIRRTEXT
 70
     0
  9
$DRAGMODE
 70
     2
  9
$LTSCALE
 40
1.0
  9
$OSMODE
 70
  2557
  9
$ATTMODE
 70
     1
  9
$TEXTSIZE
 40
4.0
  9
$TRACEWID
 40
0.05
  9
$TEXTSTYLE
  7
STANDARD
  9
$CLAYER
  8
0
  9
$CELTYPE
  6
BYLAYER
  9
$CECOLOR
 62
   256
  9
$DIMSCALE
 40
10.0
  9
$DIMASZ
 40
2.0
  9
$DIMEXO
 40
1.0
  9
$DIMDLI
 40
10.0
  9
$DIMRND
 40
0.0
  9
$DIMDLE
 40
0.0
  9
$DIMEXE
 40
1.0
  9
$DIMTP
 40
0.0
  9
$DIMTM
 40
0.0
  9
$DIMTXT
 40
3.2000000000000002
  9
$DIMCEN
 40
0.0
  9
$DIMTSZ
 40
0.0
  9
$DIMTOL
 70
     0
  9
$DIMLIM
 70
     0
  9
$DIMTIH
 70
     0
  9
$DIMTOH
 70
     0
  9
$DIMSE1
 70
     0
  9
$DIMSE2
 70
     0
  9
$DIMTAD
 70
     1
  9
$DIMZIN
 70
     8
  9
$DIMBLK
  1
OPEN30
  9
$DIMASO
 70
     1
  9
$DIMSHO
 70
     1
  9
$DIMPOST
  1

  9
$DIMAPOST
  1

  9
$DIMALT
 70
     0
  9
$DIMALTD
 70
     2
  9
$DIMALTF
 40
25.399999999999999
  9
$DIMLFAC
 40
1.0
  9
$DIMTOFL
 70
     1
  9
$DIMTVP
 40
0.0
  9
$DIMTIX
 70
     0
  9
$DIMSOXD
 70
     0
  9
$DIMSAH
 70
     0
  9
$DIMBLK1
  1

  9
$DIMBLK2
  1

  9
$DIMSTYLE
  2
S10
  9
$DIMCLRD
 70
   256
  9
$DIMCLRE
 70
   256
  9
$DIMCLRT
 70
   256
  9
$DIMTFAC
 40
1.0
  9
$DIMGAP
 40
0.9
  9
$LUNITS
 70
     2
  9
$LUPREC
 70
     2
  9
$SKETCHINC
 40
0.1
  9
$FILLETRAD
 40
0.0
  9
$AUNITS
 70
     0
  9
$AUPREC
 70
     2
  9
$MENU
  1
ACAD
  9
$ELEVATION
 40
0.0
  9
$PELEVATION
 40
0.0
  9
$THICKNESS
 40
0.0
  9
$LIMCHECK
 70
     0
  9
$BLIPMODE
 70
     0
  9
$CHAMFERA
 40
2.0
  9
$CHAMFERB
 40
2.0
  9
$SKPOLY
 70
     0
  9
$TDCREATE
 40
2453095.4929404748
  9
$TDUPDATE
 40
2456554.4666764122
  9
$TDINDWG
 40
19.079981330999999
  9
$TDUSRTIMER
 40
19.079980428199999
  9
$USRTIMER
 70
     1
  9
$ANGBASE
 50
0.0
  9
$ANGDIR
 70
     0
  9
$PDMODE
 70
    35
  9
$PDSIZE
 40
2.0
  9
$PLINEWID
 40
0.0
  9
$COORDS
 70
     1
  9
$SPLFRAME
 70
     0
  9
$SPLINETYPE
 70
     6
  9
$SPLINESEGS
 70
     8
  9
$ATTDIA
 70
     1
  9
$ATTREQ
 70
     1
  9
$HANDLING
 70
     1
  9
$HANDSEED
  5
1440AF
  9
$SURFTAB1
 70
     6
  9
$SURFTAB2
 70
     6
  9
$SURFTYPE
 70
     6
  9
$SURFU
 70
     6
  9
$SURFV
 70
     6
  9
$UCSNAME
  2

  9
$UCSORG
 10
0.0
 20
0.0
 30
0.0
  9
$UCSXDIR
 10
1.0
 20
0.0
 30
0.0
  9
$UCSYDIR
 10
0.0
 20
1.0
 30
0.0
  9
$PUCSNAME
  2

  9
$PUCSORG
 10
0.0
 20
0.0
 30
0.0
  9
$PUCSXDIR
 10
1.0
 20
0.0
 30
0.0
  9
$PUCSYDIR
 10
0.0
 20
1.0
 30
0.0
  9
$USERI1
 70
     0
  9
$USERI2
 70
     0
  9
$USERI3
 70
     0
  9
$USERI4
 70
     0
  9
$USERI5
 70
     0
  9
$USERR1
 40
0.0
  9
$USERR2
 40
0.0
  9
$USERR3
 40
0.0
  9
$USERR4
 40
0.0
  9
$USERR5
 40
0.0
  9
$WORLDVIEW
 70
     1
  9
$SHADEDGE
 70
     3
  9
$SHADEDIF
 70
    70
  9
$TILEMODE
 70
     1
  9
$MAXACTVP
 70
    64
  9
$PLIMCHECK
 70
     0
  9
$PEXTMIN
 10
29.066066288948051
 20
20.366566777229309
 30
0.0
  9
$PEXTMAX
 10
261.5945966005325
 20
183.29910099506381
 30
0.0
  9
$PLIMMIN
 10
-3.17498779296875
 20
-3.1749999523162842
  9
$PLIMMAX
 10
293.83566284179687
 20
206.8406708240509
  9
$UNITMODE
 70
     0
  9
$VISRETAIN
 70
     1
  9
$PLINEGEN
 70
     0
  9
$PSLTSCALE
 70
     1
  0
ENDSEC
  0
SECTION
  2
TABLES
  0
TABLE
  2
VPORT
 70
     1
  0
VPORT
  2
*ACTIVE
 70
     0
 10
0.0
 20
0.0
 11
1.0
 21
1.0
 12
9029.3943528105883
 22
-1779.4046073008631
 13
0.0
 23
0.0
 14
1.0
 24
1.0
 15
0.0
 25
0.0
 16
0.0
 26
0.0
 36
1.0
 17
0.0
 27
0.0
 37
0.0
 40
18766.830321459522
 41
1.958525345622119
 42
50.0
 43
0.0
 44
0.0
 50
0.0
 51
0.0
 71
     0
 72
   600
 73
     1
 74
     1
 75
     0
 76
     0
 77
     0
 78
     0
  0
ENDTAB
  0
TABLE
  2
LTYPE
 70
     3
  0
LTYPE
  2
CONTINUOUS
 70
     0
  3
Solid line
 72
    65
 73
     0
 40
0.0
  0
LTYPE
  2
ACAD_ISO08W100
 70
     0
  3
ISO long-dash short-dash ____ __ ____ __ ____ _
 72
    65
 73
     4
 40
36.0
 49
24.0
 49
-3.0
 49
6.0
 49
-3.0
  0
LTYPE
  2
ACAD_ISO02W100
 70
     0
  3
ISO dash __ __ __ __ __ __ __ __ __ __ __ __ __
 72
    65
 73
     2
 40
15.0
 49
12.0
 49
-3.0
  0
ENDTAB
  0
TABLE
  2
LAYER
 70
     8
  0
LAYER
  2
0
 70
     0
 62
     7
  6
CONTINUOUS
  0
LAYER
  2
DEFPOINTS
 70
     0
 62
     7
  6
CONTINUOUS
  0
LAYER
  2
DIM
 70
     0
 62
     7
  6
CONTINUOUS
  0
LAYER
  2
OBJECT
 70
     0
 62
     4
  6
CONTINUOUS
  0
LAYER
  2
HIDDEN
 70
     0
 62
     2
  6
ACAD_ISO02W100
  0
LAYER
  2
CENTER
 70
     0
 62
     2
  6
ACAD_ISO08W100
  0
LAYER
  2
DOTS
 70
     0
 62
     1
  6
CONTINUOUS
  0
LAYER
  2
SLIM
 70
     0
 62
     2
  6
CONTINUOUS
  0
ENDTAB
  0
TABLE
  2
STYLE
 70
     2
  0
STYLE
  2
STANDARD
 70
     0
 40
0.0
 41
0.75
 50
0.0
 71
     0
 42
4.0
  3
simplex.shx
  4
bigfont.shx
  0
ENDTAB
  0
TABLE
  2
VIEW
 70
     0
  0
ENDTAB
  0
TABLE
  2
UCS
 70
     0
  0
ENDTAB
  0
TABLE
  2
APPID
 70
    19
  0
APPID
  2
ACAD
 70
     0
  0
APPID
  2
ACADANNOTATIVE
 70
     0
  0
APPID
  2
ACAD_PSEXT
 70
     0
  0
APPID
  2
ACAD_EXEMPT_FROM_CAD_STANDARDS
 70
     0
  0
APPID
  2
ACAECLAYERSTANDARD
 70
     0
  0
APPID
  2
ACAUTHENVIRON
 70
     0
  0
APPID
  2
ACDBDYNAMICBLOCKTRUENAME
 70
     0
  0
APPID
  2
ACDBDYNAMICBLOCKGUID
 70
     0
  0
APPID
  2
ACDBBLOCKREPETAG
 70
     0
  0
APPID
  2
ACDBBLOCKREPBTAG
 70
     0
  0
APPID
  2
ACAD_NAV_VCDISPLAY
 70
     0
  0
APPID
  2
ACAD_DSTYLE_DIMRADIAL_EXTENSION
 70
     0
  0
APPID
  2
ACAD_DSTYLE_DIMJAG
 70
     0
  0
APPID
  2
ACAD_DSTYLE_DIMTALN
 70
     0
  0
APPID
  2
ACADANNOPO
 70
     0
  0
APPID
  2
GRADIENTCOLOR1ACI
 70
     0
  0
APPID
  2
GRADIENTCOLOR2ACI
 70
     0
  0
APPID
  2
CONTENTBLOCKICON
 70
     0
  0
APPID
  2
ACAD_MLEADERVER
 70
     0
  0
ENDTAB
  0
TABLE
  2
DIMSTYLE
 70
     3
  0
DIMSTYLE
  2
STANDARD
 70
     0
  3

  4

  5

  6

  7

 40
1.0
 41
0.18
 42
0.0625
 43
0.38
 44
0.18
 45
0.0
 46
0.0
 47
0.0
 48
0.0
140
0.18
141
0.09
142
0.0
143
25.399999999999999
144
1.0
145
0.0
146
1.0
147
0.09
 71
     0
 72
     0
 73
     1
 74
     1
 75
     0
 76
     0
 77
     0
 78
     0
170
     0
171
     2
172
     0
173
     0
174
     0
175
     0
176
     0
177
     0
178
     0
  0
DIMSTYLE
  2
S10
 70
     0
  3

  4

  5

  6

  7

 40
10.0
 41
2.0
 42
1.0
 43
10.0
 44
1.0
 45
0.0
 46
0.0
 47
0.0
 48
0.0
140
3.2000000000000002
141
0.0
142
0.0
143
25.399999999999999
144
1.0
145
0.0
146
1.0
147
0.9
 71
     0
 72
     0
 73
     0
 74
     0
 75
     0
 76
     0
 77
     1
 78
     8
170
     0
171
     2
172
     1
173
     0
174
     0
175
     0
176
   256
177
   256
178
   256
  0
ENDTAB
  0
ENDSEC
  0
SECTION
  2
BLOCKS
  0
BLOCK
  8
0
  2
$MODEL_SPACE
 70
     0
 10
0.0
 20
0.0
 30
0.0
  3
$MODEL_SPACE
  1

  0
ENDBLK
  5
143BB4
  8
0
  0
BLOCK
 67
     1
  8
0
  2
$PAPER_SPACE
 70
     0
 10
0.0
 20
0.0
 30
0.0
  3
$PAPER_SPACE
  1

  0
ENDBLK
  5
143BB0
 67
     1
  8
0
  0
BLOCK
  8
0
  2
_OPEN30
 70
     0
 10
0.0
 20
0.0
 30
0.0
  3
_OPEN30
  1

  0
LINE
  5
202
  8
0
  6
BYBLOCK
 62
     0
 10
-1.0
 20
0.26794919
 30
0.0
 11
0.0
 21
0.0
 31
0.0
  0
LINE
  5
203
  8
0
  6
BYBLOCK
 62
     0
 10
0.0
 20
0.0
 30
0.0
 11
-1.0
 21
-0.26794919
 31
0.0
  0
LINE
  5
204
  8
0
  6
BYBLOCK
 62
     0
 10
0.0
 20
0.0
 30
0.0
 11
-1.0
 21
0.0
 31
0.0
  0
ENDBLK
  5
206
  8
0
  0
BLOCK
  8
0
  2
*U504
 70
     1
 10
0.0
 20
0.0
 30
0.0
  3
*U504
  1

  0
TEXT
  5
143AA1
  8
SLIM
 10
112.6666666638545
 20
-560.75000000000909
 30
0.0
 40
26.0
  1
100Z
  0
ENDBLK
  5
143AA3
  8
0
  0
BLOCK
  8
0
  2
*U505
 70
     1
 10
0.0
 20
0.0
 30
0.0
  3
*U505
  1

  0
TEXT
  5
143AA5
  8
SLIM
 10
241.26666666385449
 20
-560.75000000000909
 30
0.0
 40
26.0
  1
通気
  0
ENDBLK
  5
143AA7
  8
0
  0
BLOCK
  8
0
  2
*U506
 70
     1
 10
0.0
 20
0.0
 30
0.0
  3
*U506
  1

  0
TEXT
  5
143AA9
  8
SLIM
 10
472.66666666393797
 20
-560.75000000000909
 30
0.0
 40
26.0
  1
100Z
  0
ENDBLK
  5
143AAB
  8
0
  0
BLOCK
  8
0
  2
*U507
 70
     1
 10
0.0
 20
0.0
 30
0.0
  3
*U507
  1

  0
TEXT
  5
143AAD
  8
SLIM
 10
601.26666666393817
 20
-560.75000000000909
 30
0.0
 40
26.0
  1
通気
  0
ENDBLK
  5
143AAF
  8
0
  0
BLOCK
  8
0
  2
*U508
 70
     1
 10
0.0
 20
0.0
 30
0.0
  3
*U508
  1

  0
TEXT
  5
143AB1
  8
SLIM
 10
472.66666666393797
 20
-96.750000000002743
 30
0.0
 40
26.0
  1
100Z
  0
ENDBLK
  5
143AB3
  8
0
  0
BLOCK
  8
0
  2
*U509
 70
     1
 10
0.0
 20
0.0
 30
0.0
  3
*U509
  1

  0
TEXT
  5
143AB5
  8
SLIM
 10
601.26666666393817
 20
-96.750000000002743
 30
0.0
 40
26.0
  1
通気
  0
ENDBLK
  5
143AB7
  8
0
  0
BLOCK
  8
0
  2
*U510
 70
     1
 10
0.0
 20
0.0
 30
0.0
  3
*U510
  1

  0
TEXT
  5
143AB9
  8
SLIM
 10
112.6666666638545
 20
-96.750000000002743
 30
0.0
 40
26.0
  1
100Z
  0
ENDBLK
  5
143ABB
  8
0
  0
BLOCK
  8
0
  2
*U511
 70
     1
 10
0.0
 20
0.0
 30
0.0
  3
*U511
  1

  0
TEXT
  5
143ABD
  8
SLIM
 10
241.26666666385449
 20
-96.750000000002743
 30
0.0
 40
26.0
  1
通気
  0
ENDBLK
  5
143ABF
  8
0
  0
BLOCK
  8
0
  2
*U512
 70
     1
 10
0.0
 20
0.0
 30
0.0
  3
*U512
  1

  0
TEXT
  5
143AC1
  8
SLIM
 10
257.9999999971879
 20
-698.95238095179661
 30
0.0
 40
26.0
  1
75
 50
270.0
  0
ENDBLK
  5
143AC3
  8
0
  0
BLOCK
  8
0
  2
*U513
 70
     1
 10
0.0
 20
0.0
 30
0.0
  3
*U513
  1

  0
TEXT
  5
143AC5
  8
SLIM
 10
625.24999999727152
 20
-689.04761904703435
 30
0.0
 40
26.0
  1
100
 50
270.0
  0
ENDBLK
  5
143AC7
  8
0
  0
BLOCK
  8
0
  2
*U514
 70
     1
 10
0.0
 20
0.0
 30
0.0
  3
*U514
  1

  0
TEXT
  5
143AC9
  8
SLIM
 10
617.99999999727129
 20
-234.95238095179019
 30
0.0
 40
26.0
  1
65
 50
270.0
  0
ENDBLK
  5
143ACB
  8
0
  0
BLOCK
  8
0
  2
*U515
 70
     1
 10
0.0
 20
0.0
 30
0.0
  3
*U515
  1

  0
TEXT
  5
143ACD
  8
SLIM
 10
257.9999999971879
 20
-234.95238095179019
 30
0.0
 40
26.0
  1
50
 50
270.0
  0
ENDBLK
  5
143ACF
  8
0
  0
BLOCK
  8
0
  2
*U516
 70
     1
 10
0.0
 20
0.0
 30
0.0
  3
*U516
  1

  0
TEXT
  5
143AE5
  8
DIM
 10
2209.479620594459
 20
-3589.1428571428528
 30
0.0
 40
32.0
  1
A
 50
90.0
 41
0.75
  0
ENDBLK
  5
143AE7
  8
0
  0
BLOCK
  8
0
  2
*U517
 70
     1
 10
0.0
 20
0.0
 30
0.0
  3
*U517
  1

  0
TEXT
  5
143AE9
  8
DIM
 10
2207.840928403733
 20
-3970.9999999999959
 30
0.0
 40
32.0
  1
B
 50
90.0
 41
0.75
  0
ENDBLK
  5
143AEB
  8
0
  0
BLOCK
  8
0
  2
*U518
 70
     1
 10
0.0
 20
0.0
 30
0.0
  3
*U518
  1

  0
TEXT
  5
143AED
  8
DIM
 10
2061.428571428572
 20
-3443.208121984444
 30
0.0
 40
32.0
  1
C
 41
0.75
  0
ENDBLK
  5
143AEF
  8
0
  0
ENDSEC
  0
SECTION
  2
ENTITIES
  0
LINE
  5
125736
  8
OBJECT
 10
1825.0
 20
-3984.9999999999959
 30
0.0
 11
5575.0
 21
-3984.9999999999959
 31
0.0
  0
LINE
  5
125738
  8
SLIM
 10
2616.0
 20
-3042.5000160472709
 30
0.0
 11
2616.0
 21
-3372.5000160472709
 31
0.0
  0
LINE
  5
125739
  8
SLIM
 10
2740.0
 20
-3042.5000160472709
 30
0.0
 11
2740.0
 21
-3372.5000160472709
 31
0.0
  0
LINE
  5
12573A
  8
SLIM
 10
2870.0
 20
-3102.50001604727
 30
0.0
 11
2870.0
 21
-3372.5000160472709
 31
0.0
  0
LINE
  5
12573B
  8
SLIM
 10
3000.0
 20
-3102.50001604727
 30
0.0
 11
3000.0
 21
-3372.5000160472709
 31
0.0
  0
LINE
  5
12573C
  8
SLIM
 10
3130.0
 20
-3372.5000160472709
 30
0.0
 11
3130.0
 21
-3102.50001604727
 31
0.0
  0
LINE
  5
12573D
  8
SLIM
 10
3260.0
 20
-3372.5000160472709
 30
0.0
 11
3260.0
 21
-3042.5000160472709
 31
0.0
  0
LINE
  5
12573E
  8
SLIM
 10
3260.0
 20
-3042.5000160472709
 30
0.0
 11
2616.0
 21
-3042.5000160472709
 31
0.0
  0
LINE
  5
12573F
  8
SLIM
 10
3260.0
 20
-3102.50001604727
 30
0.0
 11
2740.0
 21
-3102.50001604727
 31
0.0
  0
LINE
  5
125740
  8
SLIM
 10
3260.0
 20
-3162.50001604727
 30
0.0
 11
2616.0
 21
-3162.50001604727
 31
0.0
  0
LINE
  5
125741
  8
SLIM
 10
3260.0
 20
-3232.50001604727
 30
0.0
 11
2616.0
 21
-3232.50001604727
 31
0.0
  0
LINE
  5
125742
  8
SLIM
 10
3260.0
 20
-3302.50001604727
 30
0.0
 11
2616.0
 21
-3302.50001604727
 31
0.0
  0
LINE
  5
125743
  8
SLIM
 10
3260.0
 20
-3372.5000160472709
 30
0.0
 11
2616.0
 21
-3372.5000160472709
 31
0.0
  0
LINE
  5
125758
  8
SLIM
 10
2740.0
 20
-3162.50001604727
 30
0.0
 11
2615.9999722746579
 21
-3042.5
 31
0.0
  0
TEXT
  5
12579F
  8
SLIM
 10
-0.0000000000000011
 20
282.5
 30
0.0
 40
35.0
  1
※ 100枝（4）がある場合、品名の最後に【管底】が付きます。
 41
0.9
 11
0.0
 21
300.0
 31
0.0
 73
     2
  0
LINE
  5
13EBC0
  8
CENTER
 10
5310.0
 20
-3912.9999999999968
 30
0.0
 11
5490.0
 21
-3912.9999999999968
 31
0.0
1001
ACDBBLOCKREPETAG
1070
     1
1071
       23
1005
13EBC0
  0
CIRCLE
  5
13EBC1
  8
OBJECT
 10
5400.0
 20
-3912.9999999999968
 30
0.0
 40
53.5
1001
ACDBBLOCKREPETAG
1070
     1
1071
       24
1005
13EBC1
  0
CIRCLE
  5
13EBC2
  8
OBJECT
 10
5400.0
 20
-3912.9999999999968
 30
0.0
 40
67.0
1001
ACDBBLOCKREPETAG
1070
     1
1071
       25
1005
13EBC2
  0
ARC
  5
13EBC3
  8
OBJECT
 10
5400.0
 20
-3912.9999999999968
 30
0.0
 40
75.0
 50
286.26020470824
 51
253.73979529175989
1001
ACDBBLOCKREPETAG
1070
     1
1071
       27
1005
13EBC3
  0
LINE
  5
13EBC4
  8
OBJECT
 10
5379.0
 20
-3984.9999999999968
 30
0.0
 11
5421.0
 21
-3984.9999999999968
 31
0.0
1001
ACDBBLOCKREPETAG
1070
     1
1071
       28
1005
13EBC4
  0
LINE
  5
13EBC5
  8
CENTER
 10
5400.0
 20
-3822.9999999999968
 30
0.0
 11
5400.0
 21
-3999.9999999999959
 31
0.0
1001
ACDBBLOCKREPETAG
1070
     1
1071
       20
1005
13EBC5
  0
LINE
  5
13EBC6
  8
OBJECT
 10
5325.0
 20
-3863.9999999999968
 30
0.0
 11
5325.0
 21
-3987.9999999999968
 31
0.0
1001
ACDBBLOCKREPETAG
1070
     1
1071
       21
1005
13EBC6
  0
LINE
  5
13EBC7
  8
OBJECT
 10
5474.9999999997126
 20
-3863.9999999999968
 30
0.0
 11
5456.780278266313
 21
-3863.9999999999959
 31
0.0
1001
ACDBBLOCKREPETAG
1070
     1
1071
       23
1005
13EBC7
  0
LINE
  5
13EBC8
  8
OBJECT
 10
5474.9999999997126
 20
-3863.9999999999968
 30
0.0
 11
5474.999999999859
 21
-3987.9999999999968
 31
0.0
1001
ACDBBLOCKREPETAG
1070
     1
1071
       28
1005
13EBC8
  0
LINE
  5
13EBC9
  8
OBJECT
 10
5460.0
 20
-3858.9999999999968
 30
0.0
 11
5452.0480547186917
 21
-3858.9999999999968
 31
0.0
1001
ACDBBLOCKREPETAG
1070
     1
1071
       29
1005
13EBC9
  0
ARC
  5
13EBCA
  8
OBJECT
 10
5340.0
 20
-3861.9999999999959
 30
0.0
 40
3.0
 50
90.0
 51
180.0
1001
ACDBBLOCKREPETAG
1070
     1
1071
       30
1005
13EBCA
  0
LINE
  5
13EBCB
  8
OBJECT
 10
5337.0
 20
-3861.9999999999959
 30
0.0
 11
5337.0
 21
-3863.9999999999968
 31
0.0
1001
ACDBBLOCKREPETAG
1070
     1
1071
       31
1005
13EBCB
  0
LINE
  5
13EBCC
  8
OBJECT
 10
5463.0
 20
-3861.9999999999959
 30
0.0
 11
5463.0
 21
-3863.9999999999968
 31
0.0
1001
ACDBBLOCKREPETAG
1070
     1
1071
       32
1005
13EBCC
  0
ARC
  5
13EBCD
  8
OBJECT
 10
5460.0
 20
-3861.9999999999959
 30
0.0
 40
3.0
 50
0.0
 51
90.0
1001
ACDBBLOCKREPETAG
1070
     1
1071
       33
1005
13EBCD
  0
POINT
  5
13EBCE
  8
DOTS
 10
5400.0
 20
-3984.9999999999968
 30
0.0
1001
ACDBBLOCKREPETAG
1070
     1
1071
      136
1005
13EBCE
  0
LINE
  5
13EBCF
  8
OBJECT
 10
5347.9519452813092
 20
-3858.9999999999968
 30
0.0
 11
5340.0
 21
-3858.9999999999968
 31
0.0
1001
ACDBBLOCKREPETAG
1070
     1
1071
       29
1005
13EBC9
  0
LINE
  5
13EBD0
  8
OBJECT
 10
5343.219721733687
 20
-3863.9999999999959
 30
0.0
 11
5325.0
 21
-3863.9999999999968
 31
0.0
1001
ACDBBLOCKREPETAG
1070
     1
1071
       23
1005
13EBC7
  0
CIRCLE
  5
141477
  8
OBJECT
 10
515.99999999718784
 20
-720.00000000000273
 30
0.0
 40
63.0
1001
ACDBBLOCKREPETAG
1070
     1
1071
       43
1005
141477
  0
CIRCLE
  5
141478
  8
OBJECT
 10
515.99999999718784
 20
-720.00000000000273
 30
0.0
 40
75.0
1001
ACDBBLOCKREPETAG
1070
     1
1071
       44
1005
141478
  0
ARC
  5
141479
  8
OBJECT
 10
515.99999999718784
 20
-720.00000000000273
 30
0.0
 40
80.0
 50
140.8050325737787
 51
219.1949674262213
1001
ACDBBLOCKREPETAG
1070
     1
1071
       45
1005
141479
  0
LINE
  5
14147A
  8
OBJECT
 10
453.99999999718767
 20
-677.79810430798443
 30
0.0
 11
453.99999999718767
 21
-640.00000000000273
 31
0.0
1001
ACDBBLOCKREPETAG
1070
     1
1071
       46
1005
14147A
  0
LINE
  5
14147B
  8
OBJECT
 10
577.99999999718784
 20
-658.00000000000273
 30
0.0
 11
577.99999999718784
 21
-640.00000000000273
 31
0.0
1001
ACDBBLOCKREPETAG
1070
     1
1071
       22
1005
14147B
  0
LINE
  5
14147C
  8
OBJECT
 10
577.99999999718784
 20
-658.00000000000273
 30
0.0
 11
595.99999999718784
 21
-658.00000000000273
 31
0.0
1001
ACDBBLOCKREPETAG
1070
     1
1071
       24
1005
14147C
  0
LINE
  5
14147D
  8
OBJECT
 10
577.99999999718784
 20
-782.00000000000273
 30
0.0
 11
595.99999999718784
 21
-782.00000000000273
 31
0.0
1001
ACDBBLOCKREPETAG
1070
     1
1071
       25
1005
14147D
  0
LINE
  5
14147E
  8
OBJECT
 10
577.99999999718784
 20
-782.00000000000273
 30
0.0
 11
577.99999999718784
 21
-800.00000000000239
 31
0.0
1001
ACDBBLOCKREPETAG
1070
     1
1071
       27
1005
14147E
  0
LINE
  5
14147F
  8
OBJECT
 10
453.99999999718767
 20
-762.20189569202114
 30
0.0
 11
453.99999999718767
 21
-800.00000000000239
 31
0.0
1001
ACDBBLOCKREPETAG
1070
     1
1071
       28
1005
14147F
  0
LINE
  5
141480
  8
OBJECT
 10
569.03300858617888
 20
-773.03300858899365
 30
0.0
 11
577.99999999718784
 21
-782.00000000000273
 31
0.0
1001
ACDBBLOCKREPETAG
1070
     1
1071
       37
1005
141480
  0
LINE
  5
141481
  8
OBJECT
 10
569.03300858617888
 20
-666.96699141101169
 30
0.0
 11
577.99999999718784
 21
-658.00000000000273
 31
0.0
1001
ACDBBLOCKREPETAG
1070
     1
1071
       38
1005
141481
  0
POINT
  5
141482
  8
DOTS
 10
515.99999999718784
 20
-720.00000000000273
 30
0.0
1001
ACDBBLOCKREPETAG
1070
     1
1071
       39
1005
141482
  0
CIRCLE
  5
141483
  8
OBJECT
 10
155.99999999718781
 20
-720.00000000000273
 30
0.0
 40
63.0
1001
ACDBBLOCKREPETAG
1070
     1
1071
       43
1005
141483
  0
CIRCLE
  5
141484
  8
OBJECT
 10
155.99999999718781
 20
-720.00000000000273
 30
0.0
 40
75.0
1001
ACDBBLOCKREPETAG
1070
     1
1071
       44
1005
141484
  0
ARC
  5
141485
  8
OBJECT
 10
155.99999999718781
 20
-720.00000000000273
 30
0.0
 40
80.0
 50
140.80503257377961
 51
219.1949674262203
1001
ACDBBLOCKREPETAG
1070
     1
1071
       45
1005
141485
  0
LINE
  5
141486
  8
OBJECT
 10
93.999999997187857
 20
-677.79810430798443
 30
0.0
 11
93.999999997187857
 21
-640.00000000000273
 31
0.0
1001
ACDBBLOCKREPETAG
1070
     1
1071
       46
1005
141486
  0
LINE
  5
141487
  8
OBJECT
 10
217.9999999971879
 20
-658.00000000000273
 30
0.0
 11
217.9999999971879
 21
-640.00000000000273
 31
0.0
1001
ACDBBLOCKREPETAG
1070
     1
1071
       22
1005
141487
  0
LINE
  5
141488
  8
OBJECT
 10
217.9999999971879
 20
-658.00000000000273
 30
0.0
 11
235.99999999718781
 21
-658.00000000000273
 31
0.0
1001
ACDBBLOCKREPETAG
1070
     1
1071
       24
1005
141488
  0
LINE
  5
141489
  8
OBJECT
 10
217.9999999971879
 20
-782.00000000000273
 30
0.0
 11
235.99999999718781
 21
-782.00000000000273
 31
0.0
1001
ACDBBLOCKREPETAG
1070
     1
1071
       25
1005
141489
  0
LINE
  5
14148A
  8
OBJECT
 10
217.9999999971879
 20
-782.00000000000273
 30
0.0
 11
217.9999999971879
 21
-800.00000000000239
 31
0.0
1001
ACDBBLOCKREPETAG
1070
     1
1071
       27
1005
14148A
  0
LINE
  5
14148B
  8
OBJECT
 10
93.999999997187857
 20
-762.20189569202114
 30
0.0
 11
93.999999997187857
 21
-800.00000000000239
 31
0.0
1001
ACDBBLOCKREPETAG
1070
     1
1071
       28
1005
14148B
  0
LINE
  5
14148C
  8
OBJECT
 10
209.03300858617891
 20
-773.03300858899365
 30
0.0
 11
217.9999999971879
 21
-782.00000000000273
 31
0.0
1001
ACDBBLOCKREPETAG
1070
     1
1071
       37
1005
14148C
  0
LINE
  5
14148D
  8
OBJECT
 10
209.03300858617891
 20
-666.96699141101169
 30
0.0
 11
217.9999999971879
 21
-658.00000000000273
 31
0.0
1001
ACDBBLOCKREPETAG
1070
     1
1071
       38
1005
14148D
  0
POINT
  5
14148E
  8
DOTS
 10
155.99999999718781
 20
-720.00000000000273
 30
0.0
1001
ACDBBLOCKREPETAG
1070
     1
1071
       39
1005
14148E
  0
CIRCLE
  5
14148F
  8
OBJECT
 10
515.99999999718784
 20
-256.00000000000267
 30
0.0
 40
63.0
1001
ACDBBLOCKREPETAG
1070
     1
1071
       43
1005
14148F
  0
CIRCLE
  5
141490
  8
OBJECT
 10
515.99999999718784
 20
-256.00000000000267
 30
0.0
 40
75.0
1001
ACDBBLOCKREPETAG
1070
     1
1071
       44
1005
141490
  0
ARC
  5
141491
  8
OBJECT
 10
515.99999999718784
 20
-256.00000000000267
 30
0.0
 40
80.0
 50
140.80503257378001
 51
219.1949674262213
1001
ACDBBLOCKREPETAG
1070
     1
1071
       45
1005
141491
  0
LINE
  5
141492
  8
OBJECT
 10
453.99999999718767
 20
-213.7981043079844
 30
0.0
 11
453.99999999718767
 21
-176.00000000000259
 31
0.0
1001
ACDBBLOCKREPETAG
1070
     1
1071
       46
1005
141492
  0
LINE
  5
141493
  8
OBJECT
 10
577.99999999718784
 20
-194.0000000000027
 30
0.0
 11
577.99999999718784
 21
-176.00000000000259
 31
0.0
1001
ACDBBLOCKREPETAG
1070
     1
1071
       22
1005
141493
  0
LINE
  5
141494
  8
OBJECT
 10
577.99999999718784
 20
-194.0000000000027
 30
0.0
 11
595.99999999718784
 21
-194.0000000000027
 31
0.0
1001
ACDBBLOCKREPETAG
1070
     1
1071
       24
1005
141494
  0
LINE
  5
141495
  8
OBJECT
 10
577.99999999718784
 20
-318.00000000000267
 30
0.0
 11
595.99999999718784
 21
-318.00000000000267
 31
0.0
1001
ACDBBLOCKREPETAG
1070
     1
1071
       25
1005
141495
  0
LINE
  5
141496
  8
OBJECT
 10
577.99999999718784
 20
-318.00000000000267
 30
0.0
 11
577.99999999718784
 21
-336.00000000000267
 31
0.0
1001
ACDBBLOCKREPETAG
1070
     1
1071
       27
1005
141496
  0
LINE
  5
141497
  8
OBJECT
 10
453.99999999718767
 20
-298.2018956920212
 30
0.0
 11
453.99999999718767
 21
-336.00000000000267
 31
0.0
1001
ACDBBLOCKREPETAG
1070
     1
1071
       28
1005
141497
  0
LINE
  5
141498
  8
OBJECT
 10
569.03300858617888
 20
-309.03300858899382
 30
0.0
 11
577.99999999718784
 21
-318.00000000000267
 31
0.0
1001
ACDBBLOCKREPETAG
1070
     1
1071
       37
1005
141498
  0
LINE
  5
141499
  8
OBJECT
 10
569.03300858617888
 20
-202.96699141101169
 30
0.0
 11
577.99999999718784
 21
-194.0000000000027
 31
0.0
1001
ACDBBLOCKREPETAG
1070
     1
1071
       38
1005
141499
  0
POINT
  5
14149A
  8
DOTS
 10
515.99999999718784
 20
-256.00000000000267
 30
0.0
1001
ACDBBLOCKREPETAG
1070
     1
1071
       39
1005
14149A
  0
CIRCLE
  5
14149B
  8
OBJECT
 10
155.99999999718781
 20
-256.00000000000267
 30
0.0
 40
63.0
1001
ACDBBLOCKREPETAG
1070
     1
1071
       43
1005
14149B
  0
CIRCLE
  5
14149C
  8
OBJECT
 10
155.99999999718781
 20
-256.00000000000267
 30
0.0
 40
75.0
1001
ACDBBLOCKREPETAG
1070
     1
1071
       44
1005
14149C
  0
ARC
  5
14149D
  8
OBJECT
 10
155.99999999718781
 20
-256.00000000000267
 30
0.0
 40
80.0
 50
140.80503257378101
 51
219.1949674262203
1001
ACDBBLOCKREPETAG
1070
     1
1071
       45
1005
14149D
  0
LINE
  5
14149E
  8
OBJECT
 10
93.999999997187857
 20
-213.7981043079844
 30
0.0
 11
93.999999997187857
 21
-176.00000000000259
 31
0.0
1001
ACDBBLOCKREPETAG
1070
     1
1071
       46
1005
14149E
  0
LINE
  5
14149F
  8
OBJECT
 10
217.9999999971879
 20
-194.0000000000027
 30
0.0
 11
217.9999999971879
 21
-176.00000000000259
 31
0.0
1001
ACDBBLOCKREPETAG
1070
     1
1071
       22
1005
14149F
  0
LINE
  5
1414A0
  8
OBJECT
 10
217.9999999971879
 20
-194.0000000000027
 30
0.0
 11
235.99999999718781
 21
-194.0000000000027
 31
0.0
1001
ACDBBLOCKREPETAG
1070
     1
1071
       24
1005
1414A0
  0
LINE
  5
1414A1
  8
OBJECT
 10
217.9999999971879
 20
-318.00000000000267
 30
0.0
 11
235.99999999718781
 21
-318.00000000000267
 31
0.0
1001
ACDBBLOCKREPETAG
1070
     1
1071
       25
1005
1414A1
  0
LINE
  5
1414A2
  8
OBJECT
 10
217.9999999971879
 20
-318.00000000000267
 30
0.0
 11
217.9999999971879
 21
-336.00000000000267
 31
0.0
1001
ACDBBLOCKREPETAG
1070
     1
1071
       27
1005
1414A2
  0
LINE
  5
1414A3
  8
OBJECT
 10
93.999999997187857
 20
-298.2018956920212
 30
0.0
 11
93.999999997187857
 21
-336.00000000000267
 31
0.0
1001
ACDBBLOCKREPETAG
1070
     1
1071
       28
1005
1414A3
  0
LINE
  5
1414A4
  8
OBJECT
 10
209.03300858617891
 20
-309.03300858899382
 30
0.0
 11
217.9999999971879
 21
-318.00000000000267
 31
0.0
1001
ACDBBLOCKREPETAG
1070
     1
1071
       37
1005
1414A4
  0
LINE
  5
1414A5
  8
OBJECT
 10
209.03300858617891
 20
-202.96699141101169
 30
0.0
 11
217.9999999971879
 21
-194.0000000000027
 31
0.0
1001
ACDBBLOCKREPETAG
1070
     1
1071
       38
1005
1414A5
  0
POINT
  5
1414A6
  8
DOTS
 10
155.99999999718781
 20
-256.00000000000267
 30
0.0
1001
ACDBBLOCKREPETAG
1070
     1
1071
       39
1005
1414A6
  0
LINE
  5
1414A7
  8
OBJECT
 10
80.999999997187842
 20
-520.00000000000887
 30
0.0
 11
80.999999997187842
 21
-527.00000000000909
 31
0.0
1001
ACDBBLOCKREPETAG
1070
     1
1071
      394
1005
1414A7
  0
LINE
  5
1414A8
  8
OBJECT
 10
80.999999997187842
 20
-527.00000000000909
 30
0.0
 11
230.99999999718781
 21
-527.00000000000909
 31
0.0
1001
ACDBBLOCKREPETAG
1070
     1
1071
      395
1005
1414A8
  0
LINE
  5
1414A9
  8
OBJECT
 10
83.999999997187857
 20
-568.50000000000898
 30
0.0
 11
227.99999999718781
 21
-568.50000000000898
 31
0.0
1001
ACDBBLOCKREPETAG
1070
     1
1071
      396
1005
1414A9
  0
LINE
  5
1414AA
  8
OBJECT
 10
90.499999997187828
 20
-580.00000000000887
 30
0.0
 11
221.49999999718781
 21
-580.00000000000887
 31
0.0
1001
ACDBBLOCKREPETAG
1070
     1
1071
      397
1005
1414AA
  0
LINE
  5
1414AB
  8
OBJECT
 10
230.99999999718781
 20
-527.00000000000909
 30
0.0
 11
230.99999999718781
 21
-520.00000000000887
 31
0.0
1001
ACDBBLOCKREPETAG
1070
     1
1071
      398
1005
1414AB
  0
LINE
  5
1414AC
  8
OBJECT
 10
230.99999999718781
 20
-520.00000000000887
 30
0.0
 11
80.999999997187842
 21
-520.00000000000887
 31
0.0
1001
ACDBBLOCKREPETAG
1070
     1
1071
      399
1005
1414AC
  0
LINE
  5
1414AD
  8
OBJECT
 10
217.9999999971879
 20
-584.00000000000887
 30
0.0
 11
217.9999999971879
 21
-640.00000000000898
 31
0.0
1001
ACDBBLOCKREPETAG
1070
     1
1071
      400
1005
1414AD
  0
LINE
  5
1414AE
  8
OBJECT
 10
227.99999999718781
 20
-527.00000000000909
 30
0.0
 11
227.99999999718781
 21
-568.50000000000898
 31
0.0
1001
ACDBBLOCKREPETAG
1070
     1
1071
      401
1005
1414AE
  0
LINE
  5
1414AF
  8
OBJECT
 10
227.99999999718781
 20
-568.50000000000898
 30
0.0
 11
221.49999999718781
 21
-580.00000000000887
 31
0.0
1001
ACDBBLOCKREPETAG
1070
     1
1071
      402
1005
1414AF
  0
LINE
  5
1414B0
  8
OBJECT
 10
221.49999999718781
 20
-580.00000000000887
 30
0.0
 11
217.9999999971879
 21
-584.00000000000887
 31
0.0
1001
ACDBBLOCKREPETAG
1070
     1
1071
      403
1005
1414B0
  0
LINE
  5
1414B1
  8
OBJECT
 10
83.999999997187857
 20
-568.50000000000898
 30
0.0
 11
90.499999997187828
 21
-580.00000000000887
 31
0.0
1001
ACDBBLOCKREPETAG
1070
     1
1071
      404
1005
1414B1
  0
LINE
  5
1414B2
  8
OBJECT
 10
90.499999997187828
 20
-580.00000000000887
 30
0.0
 11
93.999999997187857
 21
-584.00000000000887
 31
0.0
1001
ACDBBLOCKREPETAG
1070
     1
1071
      405
1005
1414B2
  0
ARC
  5
1414B3
  8
OBJECT
 10
155.99999999718781
 20
-202.10000000000861
 30
0.0
 40
386.89999999999998
 50
260.77870136257792
 51
279.22129863742049
1001
ACDBBLOCKREPETAG
1070
     1
1071
      406
1005
1414B3
  0
LINE
  5
1414B4
  8
OBJECT
 10
93.999999997187857
 20
-584.00000000000887
 30
0.0
 11
93.999999997187857
 21
-640.00000000000898
 31
0.0
1001
ACDBBLOCKREPETAG
1070
     1
1071
      407
1005
1414B4
  0
LINE
  5
1414B5
  8
OBJECT
 10
83.999999997187857
 20
-527.00000000000909
 30
0.0
 11
83.999999997187857
 21
-568.50000000000898
 31
0.0
1001
ACDBBLOCKREPETAG
1070
     1
1071
      408
1005
1414B5
  0
ARC
  5
1414B6
  8
OBJECT
 10
155.99999999718781
 20
942.33642381098241
 30
0.0
 40
1545.58047021477
 50
267.70099855412718
 51
272.29900144587282
1001
ACDBBLOCKREPETAG
1070
     1
1071
      410
1005
1414B6
  0
ARC
  5
1414B7
  8
OBJECT
 10
155.99999999718781
 20
912.33642381085144
 30
0.0
 40
1545.580470214647
 50
267.70099855412718
 51
272.29900144587282
1001
ACDBBLOCKREPETAG
1070
     1
1071
      411
1005
1414B7
  0
INSERT
  5
1414B8
  8
0
  2
*U504
 10
0.0
 20
0.0
 30
0.0
  0
INSERT
  5
1414B9
  8
0
  2
*U505
 10
0.0
 20
0.0
 30
0.0
  0
LINE
  5
1414BA
  8
HIDDEN
 10
212.99999999718781
 20
-572.00000000000898
 30
0.0
 11
98.999999997187857
 21
-572.00000000000898
 31
0.0
1001
ACDBBLOCKREPETAG
1070
     1
1071
      433
1005
1414BA
  0
LINE
  5
1414BB
  8
OBJECT
 10
440.99999999727152
 20
-520.00000000000887
 30
0.0
 11
440.99999999727152
 21
-527.00000000000909
 31
0.0
1001
ACDBBLOCKREPETAG
1070
     1
1071
      394
1005
1414BB
  0
LINE
  5
1414BC
  8
OBJECT
 10
440.99999999727152
 20
-527.00000000000909
 30
0.0
 11
590.99999999727152
 21
-527.00000000000909
 31
0.0
1001
ACDBBLOCKREPETAG
1070
     1
1071
      395
1005
1414BC
  0
LINE
  5
1414BD
  8
OBJECT
 10
443.99999999727152
 20
-568.50000000000898
 30
0.0
 11
587.99999999727152
 21
-568.50000000000898
 31
0.0
1001
ACDBBLOCKREPETAG
1070
     1
1071
      396
1005
1414BD
  0
LINE
  5
1414BE
  8
OBJECT
 10
450.49999999727152
 20
-580.00000000000887
 30
0.0
 11
581.49999999727152
 21
-580.00000000000887
 31
0.0
1001
ACDBBLOCKREPETAG
1070
     1
1071
      397
1005
1414BE
  0
LINE
  5
1414BF
  8
OBJECT
 10
590.99999999727152
 20
-527.00000000000909
 30
0.0
 11
590.99999999727152
 21
-520.00000000000887
 31
0.0
1001
ACDBBLOCKREPETAG
1070
     1
1071
      398
1005
1414BF
  0
LINE
  5
1414C0
  8
OBJECT
 10
590.99999999727152
 20
-520.00000000000887
 30
0.0
 11
440.99999999727152
 21
-520.00000000000887
 31
0.0
1001
ACDBBLOCKREPETAG
1070
     1
1071
      399
1005
1414C0
  0
LINE
  5
1414C1
  8
OBJECT
 10
577.99999999727152
 20
-584.00000000000887
 30
0.0
 11
577.99999999727152
 21
-640.00000000000898
 31
0.0
1001
ACDBBLOCKREPETAG
1070
     1
1071
      400
1005
1414C1
  0
LINE
  5
1414C2
  8
OBJECT
 10
587.99999999727152
 20
-527.00000000000909
 30
0.0
 11
587.99999999727152
 21
-568.50000000000898
 31
0.0
1001
ACDBBLOCKREPETAG
1070
     1
1071
      401
1005
1414C2
  0
LINE
  5
1414C3
  8
OBJECT
 10
587.99999999727152
 20
-568.50000000000898
 30
0.0
 11
581.49999999727152
 21
-580.00000000000887
 31
0.0
1001
ACDBBLOCKREPETAG
1070
     1
1071
      402
1005
1414C3
  0
LINE
  5
1414C4
  8
OBJECT
 10
581.49999999727152
 20
-580.00000000000887
 30
0.0
 11
577.99999999727152
 21
-584.00000000000887
 31
0.0
1001
ACDBBLOCKREPETAG
1070
     1
1071
      403
1005
1414C4
  0
LINE
  5
1414C5
  8
OBJECT
 10
443.99999999727152
 20
-568.50000000000898
 30
0.0
 11
450.49999999727152
 21
-580.00000000000887
 31
0.0
1001
ACDBBLOCKREPETAG
1070
     1
1071
      404
1005
1414C5
  0
LINE
  5
1414C6
  8
OBJECT
 10
450.49999999727152
 20
-580.00000000000887
 30
0.0
 11
453.99999999727152
 21
-584.00000000000887
 31
0.0
1001
ACDBBLOCKREPETAG
1070
     1
1071
      405
1005
1414C6
  0
ARC
  5
1414C7
  8
OBJECT
 10
515.99999999727152
 20
-202.10000000000861
 30
0.0
 40
386.89999999999998
 50
260.77870136257951
 51
279.22129863742049
1001
ACDBBLOCKREPETAG
1070
     1
1071
      406
1005
1414C7
  0
LINE
  5
1414C8
  8
OBJECT
 10
453.99999999727152
 20
-584.00000000000887
 30
0.0
 11
453.99999999727152
 21
-640.00000000000898
 31
0.0
1001
ACDBBLOCKREPETAG
1070
     1
1071
      407
1005
1414C8
  0
LINE
  5
1414C9
  8
OBJECT
 10
443.99999999727152
 20
-527.00000000000909
 30
0.0
 11
443.99999999727152
 21
-568.50000000000898
 31
0.0
1001
ACDBBLOCKREPETAG
1070
     1
1071
      408
1005
1414C9
  0
ARC
  5
1414CA
  8
OBJECT
 10
515.99999999727152
 20
942.33642381098241
 30
0.0
 40
1545.58047021477
 50
267.70099855412718
 51
272.29900144587282
1001
ACDBBLOCKREPETAG
1070
     1
1071
      410
1005
1414CA
  0
ARC
  5
1414CB
  8
OBJECT
 10
515.99999999727152
 20
912.33642381085144
 30
0.0
 40
1545.580470214647
 50
267.70099855412718
 51
272.29900144587282
1001
ACDBBLOCKREPETAG
1070
     1
1071
      411
1005
1414CB
  0
INSERT
  5
1414CC
  8
0
  2
*U506
 10
0.0
 20
0.0
 30
0.0
  0
INSERT
  5
1414CD
  8
0
  2
*U507
 10
0.0
 20
0.0
 30
0.0
  0
LINE
  5
1414CE
  8
HIDDEN
 10
572.99999999727152
 20
-572.00000000000898
 30
0.0
 11
458.99999999727152
 21
-572.00000000000898
 31
0.0
1001
ACDBBLOCKREPETAG
1070
     1
1071
      433
1005
1414CE
  0
LINE
  5
1414CF
  8
OBJECT
 10
440.99999999727152
 20
-56.000000000002728
 30
0.0
 11
440.99999999727152
 21
-63.000000000002728
 31
0.0
1001
ACDBBLOCKREPETAG
1070
     1
1071
      394
1005
1414CF
  0
LINE
  5
1414D0
  8
OBJECT
 10
440.99999999727152
 20
-63.000000000002728
 30
0.0
 11
590.99999999727152
 21
-63.000000000002728
 31
0.0
1001
ACDBBLOCKREPETAG
1070
     1
1071
      395
1005
1414D0
  0
LINE
  5
1414D1
  8
OBJECT
 10
443.99999999727152
 20
-104.5000000000027
 30
0.0
 11
587.99999999727152
 21
-104.5000000000027
 31
0.0
1001
ACDBBLOCKREPETAG
1070
     1
1071
      396
1005
1414D1
  0
LINE
  5
1414D2
  8
OBJECT
 10
450.49999999727152
 20
-116.0000000000027
 30
0.0
 11
581.49999999727152
 21
-116.0000000000027
 31
0.0
1001
ACDBBLOCKREPETAG
1070
     1
1071
      397
1005
1414D2
  0
LINE
  5
1414D3
  8
OBJECT
 10
590.99999999727152
 20
-63.000000000002728
 30
0.0
 11
590.99999999727152
 21
-56.000000000002728
 31
0.0
1001
ACDBBLOCKREPETAG
1070
     1
1071
      398
1005
1414D3
  0
LINE
  5
1414D4
  8
OBJECT
 10
590.99999999727152
 20
-56.000000000002728
 30
0.0
 11
440.99999999727152
 21
-56.000000000002728
 31
0.0
1001
ACDBBLOCKREPETAG
1070
     1
1071
      399
1005
1414D4
  0
LINE
  5
1414D5
  8
OBJECT
 10
577.99999999727152
 20
-120.0000000000027
 30
0.0
 11
577.99999999727152
 21
-176.00000000000259
 31
0.0
1001
ACDBBLOCKREPETAG
1070
     1
1071
      400
1005
1414D5
  0
LINE
  5
1414D6
  8
OBJECT
 10
587.99999999727152
 20
-63.000000000002728
 30
0.0
 11
587.99999999727152
 21
-104.5000000000027
 31
0.0
1001
ACDBBLOCKREPETAG
1070
     1
1071
      401
1005
1414D6
  0
LINE
  5
1414D7
  8
OBJECT
 10
587.99999999727152
 20
-104.5000000000027
 30
0.0
 11
581.49999999727152
 21
-116.0000000000027
 31
0.0
1001
ACDBBLOCKREPETAG
1070
     1
1071
      402
1005
1414D7
  0
LINE
  5
1414D8
  8
OBJECT
 10
581.49999999727152
 20
-116.0000000000027
 30
0.0
 11
577.99999999727152
 21
-120.0000000000027
 31
0.0
1001
ACDBBLOCKREPETAG
1070
     1
1071
      403
1005
1414D8
  0
LINE
  5
1414D9
  8
OBJECT
 10
443.99999999727152
 20
-104.5000000000027
 30
0.0
 11
450.49999999727152
 21
-116.0000000000027
 31
0.0
1001
ACDBBLOCKREPETAG
1070
     1
1071
      404
1005
1414D9
  0
LINE
  5
1414DA
  8
OBJECT
 10
450.49999999727152
 20
-116.0000000000027
 30
0.0
 11
453.99999999727152
 21
-120.0000000000027
 31
0.0
1001
ACDBBLOCKREPETAG
1070
     1
1071
      405
1005
1414DA
  0
ARC
  5
1414DB
  8
OBJECT
 10
515.99999999727152
 20
261.89999999999782
 30
0.0
 40
386.89999999999998
 50
260.778701362579
 51
279.221298637421
1001
ACDBBLOCKREPETAG
1070
     1
1071
      406
1005
1414DB
  0
LINE
  5
1414DC
  8
OBJECT
 10
453.99999999727152
 20
-120.0000000000027
 30
0.0
 11
453.99999999727152
 21
-176.00000000000259
 31
0.0
1001
ACDBBLOCKREPETAG
1070
     1
1071
      407
1005
1414DC
  0
LINE
  5
1414DD
  8
OBJECT
 10
443.99999999727152
 20
-63.000000000002728
 30
0.0
 11
443.99999999727152
 21
-104.5000000000027
 31
0.0
1001
ACDBBLOCKREPETAG
1070
     1
1071
      408
1005
1414DD
  0
ARC
  5
1414DE
  8
OBJECT
 10
515.99999999727152
 20
1406.3364238109889
 30
0.0
 40
1545.58047021477
 50
267.70099855412718
 51
272.29900144587282
1001
ACDBBLOCKREPETAG
1070
     1
1071
      410
1005
1414DE
  0
ARC
  5
1414DF
  8
OBJECT
 10
515.99999999727152
 20
1376.3364238108579
 30
0.0
 40
1545.580470214647
 50
267.70099855412718
 51
272.29900144587282
1001
ACDBBLOCKREPETAG
1070
     1
1071
      411
1005
1414DF
  0
INSERT
  5
1414E0
  8
0
  2
*U508
 10
0.0
 20
0.0
 30
0.0
  0
INSERT
  5
1414E1
  8
0
  2
*U509
 10
0.0
 20
0.0
 30
0.0
  0
LINE
  5
1414E2
  8
HIDDEN
 10
572.99999999727152
 20
-108.0000000000027
 30
0.0
 11
458.99999999727152
 21
-108.0000000000027
 31
0.0
1001
ACDBBLOCKREPETAG
1070
     1
1071
      433
1005
1414E2
  0
LINE
  5
1414E3
  8
OBJECT
 10
80.999999997187842
 20
-56.000000000002728
 30
0.0
 11
80.999999997187842
 21
-63.000000000002728
 31
0.0
1001
ACDBBLOCKREPETAG
1070
     1
1071
      394
1005
1414E3
  0
LINE
  5
1414E4
  8
OBJECT
 10
80.999999997187842
 20
-63.000000000002728
 30
0.0
 11
230.99999999718781
 21
-63.000000000002728
 31
0.0
1001
ACDBBLOCKREPETAG
1070
     1
1071
      395
1005
1414E4
  0
LINE
  5
1414E5
  8
OBJECT
 10
83.999999997187857
 20
-104.5000000000027
 30
0.0
 11
227.99999999718781
 21
-104.5000000000027
 31
0.0
1001
ACDBBLOCKREPETAG
1070
     1
1071
      396
1005
1414E5
  0
LINE
  5
1414E6
  8
OBJECT
 10
90.499999997187828
 20
-116.0000000000027
 30
0.0
 11
221.49999999718781
 21
-116.0000000000027
 31
0.0
1001
ACDBBLOCKREPETAG
1070
     1
1071
      397
1005
1414E6
  0
LINE
  5
1414E7
  8
OBJECT
 10
230.99999999718781
 20
-63.000000000002728
 30
0.0
 11
230.99999999718781
 21
-56.000000000002728
 31
0.0
1001
ACDBBLOCKREPETAG
1070
     1
1071
      398
1005
1414E7
  0
LINE
  5
1414E8
  8
OBJECT
 10
230.99999999718781
 20
-56.000000000002728
 30
0.0
 11
80.999999997187842
 21
-56.000000000002728
 31
0.0
1001
ACDBBLOCKREPETAG
1070
     1
1071
      399
1005
1414E8
  0
LINE
  5
1414E9
  8
OBJECT
 10
217.9999999971879
 20
-120.0000000000027
 30
0.0
 11
217.9999999971879
 21
-176.00000000000259
 31
0.0
1001
ACDBBLOCKREPETAG
1070
     1
1071
      400
1005
1414E9
  0
LINE
  5
1414EA
  8
OBJECT
 10
227.99999999718781
 20
-63.000000000002728
 30
0.0
 11
227.99999999718781
 21
-104.5000000000027
 31
0.0
1001
ACDBBLOCKREPETAG
1070
     1
1071
      401
1005
1414EA
  0
LINE
  5
1414EB
  8
OBJECT
 10
227.99999999718781
 20
-104.5000000000027
 30
0.0
 11
221.49999999718781
 21
-116.0000000000027
 31
0.0
1001
ACDBBLOCKREPETAG
1070
     1
1071
      402
1005
1414EB
  0
LINE
  5
1414EC
  8
OBJECT
 10
221.49999999718781
 20
-116.0000000000027
 30
0.0
 11
217.9999999971879
 21
-120.0000000000027
 31
0.0
1001
ACDBBLOCKREPETAG
1070
     1
1071
      403
1005
1414EC
  0
LINE
  5
1414ED
  8
OBJECT
 10
83.999999997187857
 20
-104.5000000000027
 30
0.0
 11
90.499999997187828
 21
-116.0000000000027
 31
0.0
1001
ACDBBLOCKREPETAG
1070
     1
1071
      404
1005
1414ED
  0
LINE
  5
1414EE
  8
OBJECT
 10
90.499999997187828
 20
-116.0000000000027
 30
0.0
 11
93.999999997187857
 21
-120.0000000000027
 31
0.0
1001
ACDBBLOCKREPETAG
1070
     1
1071
      405
1005
1414EE
  0
ARC
  5
1414EF
  8
OBJECT
 10
155.99999999718781
 20
261.89999999999782
 30
0.0
 40
386.89999999999998
 50
260.77870136257729
 51
279.221298637421
1001
ACDBBLOCKREPETAG
1070
     1
1071
      406
1005
1414EF
  0
LINE
  5
1414F0
  8
OBJECT
 10
93.999999997187857
 20
-120.0000000000027
 30
0.0
 11
93.999999997187857
 21
-176.00000000000259
 31
0.0
1001
ACDBBLOCKREPETAG
1070
     1
1071
      407
1005
1414F0
  0
LINE
  5
1414F1
  8
OBJECT
 10
83.999999997187857
 20
-63.000000000002728
 30
0.0
 11
83.999999997187857
 21
-104.5000000000027
 31
0.0
1001
ACDBBLOCKREPETAG
1070
     1
1071
      408
1005
1414F1
  0
ARC
  5
1414F2
  8
OBJECT
 10
155.99999999718781
 20
1406.3364238109889
 30
0.0
 40
1545.58047021477
 50
267.70099855412718
 51
272.29900144587282
1001
ACDBBLOCKREPETAG
1070
     1
1071
      410
1005
1414F2
  0
ARC
  5
1414F3
  8
OBJECT
 10
155.99999999718781
 20
1376.3364238108579
 30
0.0
 40
1545.580470214647
 50
267.70099855412718
 51
272.29900144587282
1001
ACDBBLOCKREPETAG
1070
     1
1071
      411
1005
1414F3
  0
INSERT
  5
1414F4
  8
0
  2
*U510
 10
0.0
 20
0.0
 30
0.0
  0
INSERT
  5
1414F5
  8
0
  2
*U511
 10
0.0
 20
0.0
 30
0.0
  0
LINE
  5
1414F6
  8
HIDDEN
 10
212.99999999718781
 20
-108.0000000000027
 30
0.0
 11
98.999999997187857
 21
-108.0000000000027
 31
0.0
1001
ACDBBLOCKREPETAG
1070
     1
1071
      433
1005
1414F6
  0
LINE
  5
1414F7
  8
OBJECT
 10
93.999999997187857
 20
-802.99999999941554
 30
0.0
 11
93.999999997187857
 21
-799.99999999941554
 31
0.0
1001
ACDBBLOCKREPETAG
1070
     1
1071
      418
1005
1414F7
  0
ARC
  5
1414F8
  8
OBJECT
 10
96.999999997187842
 20
-802.99999999941554
 30
0.0
 40
3.0
 50
180.0
 51
270.0
1001
ACDBBLOCKREPETAG
1070
     1
1071
      419
1005
1414F8
  0
LINE
  5
1414F9
  8
OBJECT
 10
217.9999999971879
 20
-799.99999999941554
 30
0.0
 11
217.9999999971879
 21
-802.99999999941554
 31
0.0
1001
ACDBBLOCKREPETAG
1070
     1
1071
      420
1005
1414F9
  0
ARC
  5
1414FA
  8
OBJECT
 10
214.99999999718781
 20
-802.99999999941554
 30
0.0
 40
3.0
 50
270.0
 51
0.0
1001
ACDBBLOCKREPETAG
1070
     1
1071
      421
1005
1414FA
  0
LINE
  5
1414FB
  8
OBJECT
 10
214.99999999718781
 20
-805.99999999941565
 30
0.0
 11
96.999999997187842
 21
-805.99999999941565
 31
0.0
1001
ACDBBLOCKREPETAG
1070
     1
1071
      422
1005
1414FB
  0
INSERT
  5
1414FC
  8
0
  2
*U512
 10
0.0
 20
0.0
 30
0.0
  0
LINE
  5
1414FD
  8
OBJECT
 10
288.9999999971879
 20
-657.99999999941554
 30
0.0
 11
295.99999999718779
 21
-657.99999999941554
 31
0.0
1001
ACDBBLOCKREPETAG
1070
     1
1071
       39
1005
1414FD
  0
LINE
  5
1414FE
  8
OBJECT
 10
295.99999999718779
 20
-657.99999999941554
 30
0.0
 11
295.99999999718779
 21
-781.99999999941554
 31
0.0
1001
ACDBBLOCKREPETAG
1070
     1
1071
       40
1005
1414FE
  0
LINE
  5
1414FF
  8
OBJECT
 10
295.99999999718779
 20
-781.99999999941554
 30
0.0
 11
288.9999999971879
 21
-781.99999999941554
 31
0.0
1001
ACDBBLOCKREPETAG
1070
     1
1071
       41
1005
1414FF
  0
LINE
  5
141500
  8
OBJECT
 10
288.9999999971879
 20
-781.99999999941554
 30
0.0
 11
288.9999999971879
 21
-657.99999999941554
 31
0.0
1001
ACDBBLOCKREPETAG
1070
     1
1071
       42
1005
141500
  0
LINE
  5
141501
  8
OBJECT
 10
288.9999999971879
 20
-660.99999999941554
 30
0.0
 11
252.99999999718781
 21
-660.99999999941554
 31
0.0
1001
ACDBBLOCKREPETAG
1070
     1
1071
       43
1005
141501
  0
LINE
  5
141502
  8
OBJECT
 10
252.99999999718781
 20
-660.99999999941554
 30
0.0
 11
252.99999999718781
 21
-778.99999999941554
 31
0.0
1001
ACDBBLOCKREPETAG
1070
     1
1071
       44
1005
141502
  0
LINE
  5
141503
  8
OBJECT
 10
252.99999999718781
 20
-778.99999999941554
 30
0.0
 11
288.9999999971879
 21
-778.99999999941554
 31
0.0
1001
ACDBBLOCKREPETAG
1070
     1
1071
       45
1005
141503
  0
LINE
  5
141504
  8
OBJECT
 10
248.99999999718781
 20
-665.49999999941554
 30
0.0
 11
241.99999999718781
 21
-665.49999999941554
 31
0.0
1001
ACDBBLOCKREPETAG
1070
     1
1071
       46
1005
141504
  0
LINE
  5
141505
  8
OBJECT
 10
241.99999999718781
 20
-774.49999999941554
 30
0.0
 11
248.99999999718781
 21
-774.49999999941554
 31
0.0
1001
ACDBBLOCKREPETAG
1070
     1
1071
       47
1005
141505
  0
LINE
  5
141506
  8
OBJECT
 10
248.99999999718781
 20
-774.49999999941554
 30
0.0
 11
248.99999999718781
 21
-665.49999999941554
 31
0.0
1001
ACDBBLOCKREPETAG
1070
     1
1071
       48
1005
141506
  0
LINE
  5
141507
  8
OBJECT
 10
252.99999999718781
 20
-660.99999999941554
 30
0.0
 11
248.99999999718781
 21
-665.49999999941554
 31
0.0
1001
ACDBBLOCKREPETAG
1070
     1
1071
       49
1005
141507
  0
LINE
  5
141508
  8
OBJECT
 10
252.99999999718781
 20
-778.99999999941554
 30
0.0
 11
248.99999999718781
 21
-774.49999999941554
 31
0.0
1001
ACDBBLOCKREPETAG
1070
     1
1071
       50
1005
141508
  0
LINE
  5
141509
  8
OBJECT
 10
238.99999999718969
 20
-657.99999999941554
 30
0.0
 11
235.99999999718781
 21
-657.99999999941554
 31
0.0
1001
ACDBBLOCKREPETAG
1070
     1
1071
       51
1005
141509
  0
ARC
  5
14150A
  8
OBJECT
 10
238.99999999718969
 20
-660.99999999941554
 30
0.0
 40
3.0
 50
0.0
 51
90.0
1001
ACDBBLOCKREPETAG
1070
     1
1071
       52
1005
14150A
  0
LINE
  5
14150B
  8
OBJECT
 10
235.99999999718781
 20
-781.99999999941554
 30
0.0
 11
238.99999999718599
 21
-781.99999999941554
 31
0.0
1001
ACDBBLOCKREPETAG
1070
     1
1071
       53
1005
14150B
  0
ARC
  5
14150C
  8
OBJECT
 10
238.99999999718599
 20
-778.99999999941554
 30
0.0
 40
3.0
 50
270.0
 51
0.0
1001
ACDBBLOCKREPETAG
1070
     1
1071
       54
1005
14150C
  0
LINE
  5
14150D
  8
OBJECT
 10
241.99999999718599
 20
-778.99999999941554
 30
0.0
 11
241.99999999718969
 21
-660.99999999941554
 31
0.0
1001
ACDBBLOCKREPETAG
1070
     1
1071
       55
1005
14150D
  0
LINE
  5
14150E
  8
HIDDEN
 10
243.99999999718781
 20
-675.49999999941554
 30
0.0
 11
243.99999999718781
 21
-764.49999999941554
 31
0.0
1001
ACDBBLOCKREPETAG
1070
     1
1071
      430
1005
14150E
  0
LINE
  5
14150F
  8
OBJECT
 10
453.99999999727152
 20
-802.99999999941554
 30
0.0
 11
453.99999999727152
 21
-799.99999999941554
 31
0.0
1001
ACDBBLOCKREPETAG
1070
     1
1071
      418
1005
14150F
  0
ARC
  5
141510
  8
OBJECT
 10
456.99999999727152
 20
-802.99999999941554
 30
0.0
 40
3.0
 50
180.0
 51
270.0
1001
ACDBBLOCKREPETAG
1070
     1
1071
      419
1005
141510
  0
LINE
  5
141511
  8
OBJECT
 10
577.99999999727152
 20
-799.99999999941554
 30
0.0
 11
577.99999999727152
 21
-802.99999999941554
 31
0.0
1001
ACDBBLOCKREPETAG
1070
     1
1071
      420
1005
141511
  0
ARC
  5
141512
  8
OBJECT
 10
574.99999999727152
 20
-802.99999999941554
 30
0.0
 40
3.0
 50
270.0
 51
0.0
1001
ACDBBLOCKREPETAG
1070
     1
1071
      421
1005
141512
  0
LINE
  5
141513
  8
OBJECT
 10
574.99999999727152
 20
-805.99999999941565
 30
0.0
 11
456.99999999727152
 21
-805.99999999941565
 31
0.0
1001
ACDBBLOCKREPETAG
1070
     1
1071
      422
1005
141513
  0
LINE
  5
141514
  8
OBJECT
 10
665.99999999727152
 20
-644.99999999941554
 30
0.0
 11
658.99999999727152
 21
-644.99999999941554
 31
0.0
1001
ACDBBLOCKREPETAG
1070
     1
1071
       57
1005
141514
  0
LINE
  5
141515
  8
OBJECT
 10
658.99999999727152
 20
-644.99999999941554
 30
0.0
 11
658.99999999727152
 21
-794.99999999941554
 31
0.0
1001
ACDBBLOCKREPETAG
1070
     1
1071
       58
1005
141515
  0
LINE
  5
141516
  8
OBJECT
 10
617.4999999972714
 20
-647.99999999941554
 30
0.0
 11
617.4999999972714
 21
-791.99999999941554
 31
0.0
1001
ACDBBLOCKREPETAG
1070
     1
1071
       59
1005
141516
  0
LINE
  5
141517
  8
OBJECT
 10
605.99999999727152
 20
-654.49999999941554
 30
0.0
 11
605.99999999727152
 21
-785.49999999941554
 31
0.0
1001
ACDBBLOCKREPETAG
1070
     1
1071
       60
1005
141517
  0
LINE
  5
141518
  8
OBJECT
 10
658.99999999727152
 20
-794.99999999941554
 30
0.0
 11
665.99999999727152
 21
-794.99999999941554
 31
0.0
1001
ACDBBLOCKREPETAG
1070
     1
1071
       61
1005
141518
  0
LINE
  5
141519
  8
OBJECT
 10
665.99999999727152
 20
-794.99999999941554
 30
0.0
 11
665.99999999727152
 21
-644.99999999941554
 31
0.0
1001
ACDBBLOCKREPETAG
1070
     1
1071
       62
1005
141519
  0
LINE
  5
14151A
  8
OBJECT
 10
601.99999999727152
 20
-781.99999999941554
 30
0.0
 11
595.99999999727152
 21
-781.99999999941554
 31
0.0
1001
ACDBBLOCKREPETAG
1070
     1
1071
       63
1005
14151A
  0
LINE
  5
14151B
  8
OBJECT
 10
658.99999999727152
 20
-791.99999999941554
 30
0.0
 11
617.4999999972714
 21
-791.99999999941554
 31
0.0
1001
ACDBBLOCKREPETAG
1070
     1
1071
       64
1005
14151B
  0
LINE
  5
14151C
  8
OBJECT
 10
617.4999999972714
 20
-791.99999999941554
 30
0.0
 11
605.99999999727152
 21
-785.49999999941554
 31
0.0
1001
ACDBBLOCKREPETAG
1070
     1
1071
       65
1005
14151C
  0
LINE
  5
14151D
  8
OBJECT
 10
605.99999999727152
 20
-785.49999999941554
 30
0.0
 11
601.99999999727152
 21
-781.99999999941554
 31
0.0
1001
ACDBBLOCKREPETAG
1070
     1
1071
       66
1005
14151D
  0
LINE
  5
14151E
  8
OBJECT
 10
617.4999999972714
 20
-647.99999999941554
 30
0.0
 11
605.99999999727152
 21
-654.49999999941554
 31
0.0
1001
ACDBBLOCKREPETAG
1070
     1
1071
       67
1005
14151E
  0
LINE
  5
14151F
  8
OBJECT
 10
605.99999999727152
 20
-654.49999999941554
 30
0.0
 11
601.99999999727152
 21
-657.99999999941554
 31
0.0
1001
ACDBBLOCKREPETAG
1070
     1
1071
       68
1005
14151F
  0
ARC
  5
141520
  8
OBJECT
 10
983.89999999727274
 20
-719.99999999941554
 30
0.0
 40
386.89999999999998
 50
170.7787013626384
 51
189.22129863736151
1001
ACDBBLOCKREPETAG
1070
     1
1071
       69
1005
141520
  0
LINE
  5
141521
  8
OBJECT
 10
601.99999999727152
 20
-657.99999999941554
 30
0.0
 11
595.99999999727152
 21
-657.99999999941554
 31
0.0
1001
ACDBBLOCKREPETAG
1070
     1
1071
       70
1005
141521
  0
LINE
  5
141522
  8
OBJECT
 10
658.99999999727152
 20
-647.99999999941554
 30
0.0
 11
617.4999999972714
 21
-647.99999999941554
 31
0.0
1001
ACDBBLOCKREPETAG
1070
     1
1071
       71
1005
141522
  0
INSERT
  5
141523
  8
0
  2
*U513
 10
0.0
 20
0.0
 30
0.0
  0
LINE
  5
141524
  8
HIDDEN
 10
613.99999999727152
 20
-776.99999999941554
 30
0.0
 11
613.99999999727152
 21
-662.99999999941554
 31
0.0
1001
ACDBBLOCKREPETAG
1070
     1
1071
      437
1005
141524
  0
LINE
  5
141525
  8
OBJECT
 10
453.99999999727152
 20
-338.99999999940928
 30
0.0
 11
453.99999999727152
 21
-335.99999999940928
 31
0.0
1001
ACDBBLOCKREPETAG
1070
     1
1071
      418
1005
141525
  0
ARC
  5
141526
  8
OBJECT
 10
456.99999999727152
 20
-338.99999999940928
 30
0.0
 40
3.0
 50
180.0
 51
270.0
1001
ACDBBLOCKREPETAG
1070
     1
1071
      419
1005
141526
  0
LINE
  5
141527
  8
OBJECT
 10
577.99999999727152
 20
-335.99999999940928
 30
0.0
 11
577.99999999727152
 21
-338.99999999940928
 31
0.0
1001
ACDBBLOCKREPETAG
1070
     1
1071
      420
1005
141527
  0
ARC
  5
141528
  8
OBJECT
 10
574.99999999727152
 20
-338.99999999940928
 30
0.0
 40
3.0
 50
270.0
 51
0.0
1001
ACDBBLOCKREPETAG
1070
     1
1071
      421
1005
141528
  0
LINE
  5
141529
  8
OBJECT
 10
574.99999999727152
 20
-341.99999999940928
 30
0.0
 11
456.99999999727152
 21
-341.99999999940928
 31
0.0
1001
ACDBBLOCKREPETAG
1070
     1
1071
      422
1005
141529
  0
INSERT
  5
14152A
  8
0
  2
*U514
 10
0.0
 20
0.0
 30
0.0
  0
LINE
  5
14152B
  8
OBJECT
 10
648.99999999727152
 20
-200.99999999940931
 30
0.0
 11
655.99999999727152
 21
-200.99999999940931
 31
0.0
1001
ACDBBLOCKREPETAG
1070
     1
1071
       20
1005
14152B
  0
LINE
  5
14152C
  8
OBJECT
 10
655.99999999727152
 20
-200.99999999940931
 30
0.0
 11
655.99999999727152
 21
-310.99999999940928
 31
0.0
1001
ACDBBLOCKREPETAG
1070
     1
1071
       21
1005
14152C
  0
LINE
  5
14152D
  8
OBJECT
 10
655.99999999727152
 20
-310.99999999940928
 30
0.0
 11
648.99999999727152
 21
-310.99999999940928
 31
0.0
1001
ACDBBLOCKREPETAG
1070
     1
1071
       22
1005
14152D
  0
LINE
  5
14152E
  8
OBJECT
 10
648.99999999727152
 20
-310.99999999940928
 30
0.0
 11
648.99999999727152
 21
-200.99999999940931
 31
0.0
1001
ACDBBLOCKREPETAG
1070
     1
1071
       23
1005
14152E
  0
LINE
  5
14152F
  8
OBJECT
 10
648.99999999727152
 20
-203.99999999940931
 30
0.0
 11
612.99999999727152
 21
-203.99999999940931
 31
0.0
1001
ACDBBLOCKREPETAG
1070
     1
1071
       24
1005
14152F
  0
LINE
  5
141530
  8
OBJECT
 10
612.99999999727152
 20
-203.99999999940931
 30
0.0
 11
612.99999999727152
 21
-307.99999999940928
 31
0.0
1001
ACDBBLOCKREPETAG
1070
     1
1071
       25
1005
141530
  0
LINE
  5
141531
  8
OBJECT
 10
612.99999999727152
 20
-307.99999999940928
 30
0.0
 11
648.99999999727152
 21
-307.99999999940928
 31
0.0
1001
ACDBBLOCKREPETAG
1070
     1
1071
       26
1005
141531
  0
LINE
  5
141532
  8
OBJECT
 10
608.99999999727152
 20
-208.49999999940931
 30
0.0
 11
601.99999999727152
 21
-208.49999999940931
 31
0.0
1001
ACDBBLOCKREPETAG
1070
     1
1071
       27
1005
141532
  0
LINE
  5
141533
  8
OBJECT
 10
601.99999999727152
 20
-303.49999999940928
 30
0.0
 11
608.99999999727152
 21
-303.49999999940928
 31
0.0
1001
ACDBBLOCKREPETAG
1070
     1
1071
       28
1005
141533
  0
LINE
  5
141534
  8
OBJECT
 10
608.99999999727152
 20
-303.49999999940928
 30
0.0
 11
608.99999999727152
 21
-208.49999999940931
 31
0.0
1001
ACDBBLOCKREPETAG
1070
     1
1071
       29
1005
141534
  0
LINE
  5
141535
  8
OBJECT
 10
612.99999999727152
 20
-203.99999999940931
 30
0.0
 11
608.99999999727152
 21
-208.49999999940931
 31
0.0
1001
ACDBBLOCKREPETAG
1070
     1
1071
       30
1005
141535
  0
LINE
  5
141536
  8
OBJECT
 10
612.99999999727152
 20
-307.99999999940928
 30
0.0
 11
608.99999999727152
 21
-303.49999999940928
 31
0.0
1001
ACDBBLOCKREPETAG
1070
     1
1071
       31
1005
141536
  0
LINE
  5
141537
  8
OBJECT
 10
598.99999999727322
 20
-193.99999999940931
 30
0.0
 11
595.99999999727152
 21
-193.99999999940931
 31
0.0
1001
ACDBBLOCKREPETAG
1070
     1
1071
       32
1005
141537
  0
ARC
  5
141538
  8
OBJECT
 10
598.99999999727322
 20
-196.99999999940931
 30
0.0
 40
3.0
 50
0.0
 51
90.0
1001
ACDBBLOCKREPETAG
1070
     1
1071
       33
1005
141538
  0
LINE
  5
141539
  8
OBJECT
 10
595.99999999727152
 20
-317.99999999940928
 30
0.0
 11
598.99999999726947
 21
-317.99999999940928
 31
0.0
1001
ACDBBLOCKREPETAG
1070
     1
1071
       34
1005
141539
  0
ARC
  5
14153A
  8
OBJECT
 10
598.99999999726947
 20
-314.99999999940928
 30
0.0
 40
3.0
 50
270.0
 51
0.0
1001
ACDBBLOCKREPETAG
1070
     1
1071
       35
1005
14153A
  0
LINE
  5
14153B
  8
OBJECT
 10
601.99999999726958
 20
-314.99999999940928
 30
0.0
 11
601.99999999727322
 21
-196.99999999940931
 31
0.0
1001
ACDBBLOCKREPETAG
1070
     1
1071
       36
1005
14153B
  0
LINE
  5
14153C
  8
HIDDEN
 10
603.99999999727152
 20
-217.99999999940931
 30
0.0
 11
603.99999999727152
 21
-293.99999999940928
 31
0.0
1001
ACDBBLOCKREPETAG
1070
     1
1071
      427
1005
14153C
  0
LINE
  5
14153D
  8
OBJECT
 10
93.999999997187857
 20
-338.99999999940928
 30
0.0
 11
93.999999997187857
 21
-335.99999999940928
 31
0.0
1001
ACDBBLOCKREPETAG
1070
     1
1071
      418
1005
14153D
  0
ARC
  5
14153E
  8
OBJECT
 10
96.999999997187842
 20
-338.99999999940928
 30
0.0
 40
3.0
 50
180.0
 51
270.0
1001
ACDBBLOCKREPETAG
1070
     1
1071
      419
1005
14153E
  0
LINE
  5
14153F
  8
OBJECT
 10
217.9999999971879
 20
-335.99999999940928
 30
0.0
 11
217.9999999971879
 21
-338.99999999940928
 31
0.0
1001
ACDBBLOCKREPETAG
1070
     1
1071
      420
1005
14153F
  0
ARC
  5
141540
  8
OBJECT
 10
214.99999999718781
 20
-338.99999999940928
 30
0.0
 40
3.0
 50
270.0
 51
0.0
1001
ACDBBLOCKREPETAG
1070
     1
1071
      421
1005
141540
  0
LINE
  5
141541
  8
OBJECT
 10
214.99999999718781
 20
-341.99999999940928
 30
0.0
 11
96.999999997187842
 21
-341.99999999940928
 31
0.0
1001
ACDBBLOCKREPETAG
1070
     1
1071
      422
1005
141541
  0
INSERT
  5
141542
  8
0
  2
*U515
 10
0.0
 20
0.0
 30
0.0
  0
LINE
  5
141543
  8
OBJECT
 10
288.9999999971879
 20
-208.99999999940931
 30
0.0
 11
295.99999999718779
 21
-208.99999999940931
 31
0.0
1001
ACDBBLOCKREPETAG
1070
     1
1071
        1
1005
141543
  0
LINE
  5
141544
  8
OBJECT
 10
295.99999999718779
 20
-208.99999999940931
 30
0.0
 11
295.99999999718779
 21
-302.99999999940928
 31
0.0
1001
ACDBBLOCKREPETAG
1070
     1
1071
        2
1005
141544
  0
LINE
  5
141545
  8
OBJECT
 10
295.99999999718779
 20
-302.99999999940928
 30
0.0
 11
288.9999999971879
 21
-302.99999999940928
 31
0.0
1001
ACDBBLOCKREPETAG
1070
     1
1071
        3
1005
141545
  0
LINE
  5
141546
  8
OBJECT
 10
288.9999999971879
 20
-302.99999999940928
 30
0.0
 11
288.9999999971879
 21
-208.99999999940931
 31
0.0
1001
ACDBBLOCKREPETAG
1070
     1
1071
        4
1005
141546
  0
LINE
  5
141547
  8
OBJECT
 10
288.9999999971879
 20
-211.99999999940931
 30
0.0
 11
252.99999999718781
 21
-211.99999999940931
 31
0.0
1001
ACDBBLOCKREPETAG
1070
     1
1071
        5
1005
141547
  0
LINE
  5
141548
  8
OBJECT
 10
252.99999999718781
 20
-211.99999999940931
 30
0.0
 11
252.99999999718781
 21
-299.99999999940928
 31
0.0
1001
ACDBBLOCKREPETAG
1070
     1
1071
        6
1005
141548
  0
LINE
  5
141549
  8
OBJECT
 10
252.99999999718781
 20
-299.99999999940928
 30
0.0
 11
288.9999999971879
 21
-299.99999999940928
 31
0.0
1001
ACDBBLOCKREPETAG
1070
     1
1071
        7
1005
141549
  0
LINE
  5
14154A
  8
OBJECT
 10
248.99999999718781
 20
-216.49999999940931
 30
0.0
 11
241.99999999718781
 21
-216.49999999940931
 31
0.0
1001
ACDBBLOCKREPETAG
1070
     1
1071
        8
1005
14154A
  0
LINE
  5
14154B
  8
OBJECT
 10
241.99999999718781
 20
-295.49999999940928
 30
0.0
 11
248.99999999718781
 21
-295.49999999940928
 31
0.0
1001
ACDBBLOCKREPETAG
1070
     1
1071
        9
1005
14154B
  0
LINE
  5
14154C
  8
OBJECT
 10
248.99999999718781
 20
-295.49999999940928
 30
0.0
 11
248.99999999718781
 21
-216.49999999940931
 31
0.0
1001
ACDBBLOCKREPETAG
1070
     1
1071
       10
1005
14154C
  0
LINE
  5
14154D
  8
OBJECT
 10
252.99999999718781
 20
-211.99999999940931
 30
0.0
 11
248.99999999718781
 21
-216.49999999940931
 31
0.0
1001
ACDBBLOCKREPETAG
1070
     1
1071
       11
1005
14154D
  0
LINE
  5
14154E
  8
OBJECT
 10
252.99999999718781
 20
-299.99999999940928
 30
0.0
 11
248.99999999718781
 21
-295.49999999940928
 31
0.0
1001
ACDBBLOCKREPETAG
1070
     1
1071
       12
1005
14154E
  0
LINE
  5
14154F
  8
OBJECT
 10
238.99999999718969
 20
-193.99999999940931
 30
0.0
 11
235.99999999718781
 21
-193.99999999940931
 31
0.0
1001
ACDBBLOCKREPETAG
1070
     1
1071
       13
1005
14154F
  0
ARC
  5
141550
  8
OBJECT
 10
238.99999999718969
 20
-196.99999999940931
 30
0.0
 40
3.0
 50
0.0
 51
90.0
1001
ACDBBLOCKREPETAG
1070
     1
1071
       14
1005
141550
  0
LINE
  5
141551
  8
OBJECT
 10
235.99999999718781
 20
-317.99999999940928
 30
0.0
 11
238.99999999718599
 21
-317.99999999940928
 31
0.0
1001
ACDBBLOCKREPETAG
1070
     1
1071
       15
1005
141551
  0
ARC
  5
141552
  8
OBJECT
 10
238.99999999718599
 20
-314.99999999940928
 30
0.0
 40
3.0
 50
270.0
 51
0.0
1001
ACDBBLOCKREPETAG
1070
     1
1071
       16
1005
141552
  0
LINE
  5
141553
  8
OBJECT
 10
241.99999999718599
 20
-314.99999999940928
 30
0.0
 11
241.99999999718969
 21
-196.99999999940931
 31
0.0
1001
ACDBBLOCKREPETAG
1070
     1
1071
       17
1005
141553
  0
LINE
  5
141554
  8
HIDDEN
 10
243.99999999718781
 20
-225.99999999940931
 30
0.0
 11
243.99999999718781
 21
-285.99999999940928
 31
0.0
1001
ACDBBLOCKREPETAG
1070
     1
1071
      424
1005
141554
  0
LINE
  5
141555
  8
CENTER
 10
12077.0
 20
-696.0
 30
0.0
 11
11923.0
 21
-696.0
 31
0.0
1001
ACDBBLOCKREPETAG
1070
     1
1071
       17
1005
141555
  0
CIRCLE
  5
141556
  8
OBJECT
 10
12000.0
 20
-696.0
 30
0.0
 40
41.5
1001
ACDBBLOCKREPETAG
1070
     1
1071
       19
1005
141556
  0
CIRCLE
  5
141557
  8
OBJECT
 10
12000.0
 20
-696.0
 30
0.0
 40
54.0
1001
ACDBBLOCKREPETAG
1070
     1
1071
       20
1005
141557
  0
ARC
  5
141558
  8
OBJECT
 10
12000.0
 20
-696.0
 30
0.0
 40
62.0
 50
287.89655112920718
 51
252.10344887079279
1001
ACDBBLOCKREPETAG
1070
     1
1071
       21
1005
141558
  0
LINE
  5
141559
  8
OBJECT
 10
11980.947441116739
 20
-755.0
 30
0.0
 11
12019.052558883261
 21
-755.0
 31
0.0
1001
ACDBBLOCKREPETAG
1070
     1
1071
       22
1005
141559
  0
LINE
  5
14155A
  8
CENTER
 10
12000.0
 20
-613.99999999999966
 30
0.0
 11
12000.0
 21
-889.99999999999955
 31
0.0
1001
ACDBBLOCKREPETAG
1070
     1
1071
       34
1005
14155A
  0
LINE
  5
14155B
  8
OBJECT
 10
11920.0
 20
-877.99999999999955
 30
0.0
 11
12080.0
 21
-877.99999999999955
 31
0.0
1001
ACDBBLOCKREPETAG
1070
     1
1071
       35
1005
14155B
  0
LINE
  5
14155C
  8
OBJECT
 10
12080.0
 20
-633.99999999999955
 30
0.0
 11
11920.0
 21
-633.99999999999955
 31
0.0
1001
ACDBBLOCKREPETAG
1070
     1
1071
       36
1005
14155C
  0
LINE
  5
14155D
  8
OBJECT
 10
11920.0
 20
-877.99999999999955
 30
0.0
 11
11920.0
 21
-889.99999999999955
 31
0.0
1001
ACDBBLOCKREPETAG
1070
     1
1071
       37
1005
14155D
  0
LINE
  5
14155E
  8
OBJECT
 10
11920.0
 20
-889.99999999999955
 30
0.0
 11
12080.0
 21
-889.99999999999955
 31
0.0
1001
ACDBBLOCKREPETAG
1070
     1
1071
       38
1005
14155E
  0
LINE
  5
14155F
  8
OBJECT
 10
12080.0
 20
-889.99999999999955
 30
0.0
 11
12080.0
 21
-877.99999999999955
 31
0.0
1001
ACDBBLOCKREPETAG
1070
     1
1071
       39
1005
14155F
  0
LINE
  5
141560
  8
OBJECT
 10
12074.99999999986
 20
-757.99999999985016
 30
0.0
 11
12075.0
 21
-877.99999999999955
 31
0.0
1001
ACDBBLOCKREPETAG
1070
     1
1071
       43
1005
141560
  0
LINE
  5
141561
  8
OBJECT
 10
12074.99999080298
 20
-757.99998602702112
 30
0.0
 11
12080.0
 21
-757.99998602702112
 31
0.0
1001
ACDBBLOCKREPETAG
1070
     1
1071
       44
1005
141561
  0
LINE
  5
141562
  8
OBJECT
 10
11925.00000000014
 20
-757.99999999985016
 30
0.0
 11
11925.0
 21
-877.99999999999955
 31
0.0
1001
ACDBBLOCKREPETAG
1070
     1
1071
       45
1005
141562
  0
LINE
  5
141563
  8
OBJECT
 10
11925.000009197011
 20
-757.99998602702112
 30
0.0
 11
11920.0
 21
-757.99998602702112
 31
0.0
1001
ACDBBLOCKREPETAG
1070
     1
1071
       46
1005
141563
  0
LINE
  5
141564
  8
OBJECT
 10
12060.0
 20
-628.99999999999955
 30
0.0
 11
11940.0
 21
-628.99999999999955
 31
0.0
1001
ACDBBLOCKREPETAG
1070
     1
1071
       47
1005
141564
  0
ARC
  5
141565
  8
OBJECT
 10
11940.0
 20
-631.99999999999955
 30
0.0
 40
3.0
 50
90.0
 51
180.0
1001
ACDBBLOCKREPETAG
1070
     1
1071
       48
1005
141565
  0
LINE
  5
141566
  8
OBJECT
 10
11937.0
 20
-631.99999999999955
 30
0.0
 11
11937.0
 21
-633.99999999999955
 31
0.0
1001
ACDBBLOCKREPETAG
1070
     1
1071
       49
1005
141566
  0
LINE
  5
141567
  8
OBJECT
 10
12063.0
 20
-631.99999999999955
 30
0.0
 11
12063.0
 21
-633.99999999999955
 31
0.0
1001
ACDBBLOCKREPETAG
1070
     1
1071
       50
1005
141567
  0
ARC
  5
141568
  8
OBJECT
 10
12060.0
 20
-631.99999999999955
 30
0.0
 40
3.0
 50
0.0
 51
90.0
1001
ACDBBLOCKREPETAG
1070
     1
1071
       51
1005
141568
  0
ARC
  5
141569
  8
OBJECT
 10
12200.687274671671
 20
-749.40809941010718
 30
0.0
 40
170.6350503965856
 50
137.44134459184301
 51
149.91949581337221
1001
ACDBBLOCKREPETAG
1070
     1
1071
       52
1005
141569
  0
ARC
  5
14156A
  8
OBJECT
 10
12200.687274671671
 20
-642.59190058989179
 30
0.0
 40
170.6350503965856
 50
210.08050418662771
 51
222.55865540815699
1001
ACDBBLOCKREPETAG
1070
     1
1071
       53
1005
14156A
  0
ARC
  5
14156B
  8
OBJECT
 10
11799.312725328329
 20
-749.40809941010718
 30
0.0
 40
170.6350503965856
 50
30.08050418662782
 51
42.558655408456282
1001
ACDBBLOCKREPETAG
1070
     1
1071
       54
1005
14156B
  0
ARC
  5
14156C
  8
OBJECT
 10
11799.312725328329
 20
-642.59190058989179
 30
0.0
 40
170.6350503965856
 50
317.44134459154373
 51
329.91949581337218
1001
ACDBBLOCKREPETAG
1070
     1
1071
       55
1005
14156C
  0
POINT
  5
14156D
  8
DOTS
 10
12000.0
 20
-754.99999999999955
 30
0.0
1001
ACDBBLOCKREPETAG
1070
     1
1071
      133
1005
14156D
  0
LINE
  5
14156E
  8
SLIM
 10
11954.23692654717
 20
-137.99999999999909
 30
0.0
 11
11972.75077447633
 21
-119.4861520708364
 31
0.0
1001
GRADIENTCOLOR1ACI
1070
     5
1001
GRADIENTCOLOR2ACI
1070
     2
1001
ACAD
1010
0.0
1020
0.0
1030
0.0
1001
ACDBBLOCKREPETAG
1070
     1
1071
      441
1005
14156E
  0
LINE
  5
14156F
  8
SLIM
 10
11969.921507996291
 20
-131.2956746719467
 30
0.0
 11
11984.857514674861
 21
-116.359667993377
 31
0.0
1001
GRADIENTCOLOR1ACI
1070
     5
1001
GRADIENTCOLOR2ACI
1070
     2
1001
ACAD
1010
0.0
1020
0.0
1030
0.0
1001
ACDBBLOCKREPETAG
1070
     1
1071
      442
1005
14156F
  0
LINE
  5
141570
  8
SLIM
 10
11983.31883633275
 20
-126.87860245655401
 30
0.0
 11
11995.05338120025
 21
-115.1440575890517
 31
0.0
1001
GRADIENTCOLOR1ACI
1070
     5
1001
GRADIENTCOLOR2ACI
1070
     2
1001
ACAD
1010
0.0
1020
0.0
1030
0.0
1001
ACDBBLOCKREPETAG
1070
     1
1071
      443
1005
141570
  0
LINE
  5
141571
  8
SLIM
 10
11993.9318052486
 20
-125.245889661777
 30
0.0
 11
12000.0
 21
-119.1776949103767
 31
0.0
1001
GRADIENTCOLOR1ACI
1070
     5
1001
GRADIENTCOLOR2ACI
1070
     2
1001
ACAD
1010
0.0
1020
0.0
1030
0.0
1001
ACDBBLOCKREPETAG
1070
     1
1071
      444
1005
141571
  0
LINE
  5
141572
  8
SLIM
 10
12000.0
 20
-119.1776949103767
 30
0.0
 11
12004.0797313529
 21
-115.0979635574724
 31
0.0
1001
GRADIENTCOLOR1ACI
1070
     5
1001
GRADIENTCOLOR2ACI
1070
     2
1001
ACAD
1010
0.0
1020
0.0
1030
0.0
1001
ACDBBLOCKREPETAG
1070
     1
1071
      445
1005
141572
  0
LINE
  5
141573
  8
SLIM
 10
12003.094100787839
 20
-125.0638502435924
 30
0.0
 11
12012.267978410569
 21
-115.88997262087101
 31
0.0
1001
GRADIENTCOLOR1ACI
1070
     5
1001
GRADIENTCOLOR2ACI
1070
     2
1001
ACAD
1010
0.0
1020
0.0
1030
0.0
1001
ACDBBLOCKREPETAG
1070
     1
1071
      446
1005
141573
  0
LINE
  5
141574
  8
SLIM
 10
12011.28442576865
 20
-125.85378138386341
 30
0.0
 11
12019.799941457361
 21
-117.3382656951526
 31
0.0
1001
GRADIENTCOLOR1ACI
1070
     5
1001
GRADIENTCOLOR2ACI
1070
     2
1001
ACAD
1010
0.0
1020
0.0
1030
0.0
1001
ACDBBLOCKREPETAG
1070
     1
1071
      447
1005
141574
  0
LINE
  5
141575
  8
SLIM
 10
12018.73958846552
 20
-127.3788748080627
 30
0.0
 11
12026.787203867279
 21
-119.3312594063044
 31
0.0
1001
GRADIENTCOLOR1ACI
1070
     5
1001
GRADIENTCOLOR2ACI
1070
     2
1001
ACAD
1010
0.0
1020
0.0
1030
0.0
1001
ACDBBLOCKREPETAG
1070
     1
1071
      448
1005
141575
  0
LINE
  5
141576
  8
SLIM
 10
12025.595886626959
 20
-129.50283276769261
 30
0.0
 11
12033.303003076029
 21
-121.7957163186195
 31
0.0
1001
GRADIENTCOLOR1ACI
1070
     5
1001
GRADIENTCOLOR2ACI
1070
     2
1001
ACAD
1010
0.0
1020
0.0
1030
0.0
1001
ACDBBLOCKREPETAG
1070
     1
1071
      449
1005
141576
  0
LINE
  5
141577
  8
SLIM
 10
12031.9385859461
 20
-132.1403895696169
 30
0.0
 11
12039.397311984379
 21
-124.6816635313439
 31
0.0
1001
GRADIENTCOLOR1ACI
1070
     5
1001
GRADIENTCOLOR2ACI
1070
     2
1001
ACAD
1010
0.0
1020
0.0
1030
0.0
1001
ACDBBLOCKREPETAG
1070
     1
1071
      450
1005
141577
  0
LINE
  5
141578
  8
SLIM
 10
12037.82336543762
 20
-135.2358661991679
 30
0.0
 11
12045.10477053437
 21
-127.95446110242381
 31
0.0
1001
GRADIENTCOLOR1ACI
1070
     5
1001
GRADIENTCOLOR2ACI
1070
     2
1001
ACAD
1010
0.0
1020
0.0
1030
0.0
1001
ACDBBLOCKREPETAG
1070
     1
1071
      451
1005
141578
  0
LINE
  5
141579
  8
SLIM
 10
12044.03948775786
 20
-137.99999999999909
 30
0.0
 11
12050.449155789191
 21
-131.59033196866449
 31
0.0
1001
GRADIENTCOLOR1ACI
1070
     5
1001
GRADIENTCOLOR2ACI
1070
     2
1001
ACAD
1010
0.0
1020
0.0
1030
0.0
1001
ACDBBLOCKREPETAG
1070
     1
1071
      452
1005
141579
  0
LINE
  5
14157A
  8
SLIM
 10
12053.01974387892
 20
-137.99999999999909
 30
0.0
 11
12055.445994186401
 21
-135.57374969252561
 31
0.0
1001
GRADIENTCOLOR1ACI
1070
     5
1001
GRADIENTCOLOR2ACI
1070
     2
1001
ACAD
1010
0.0
1020
0.0
1030
0.0
1001
ACDBBLOCKREPETAG
1070
     1
1071
      453
1005
14157A
  0
LINE
  5
14157B
  8
CENTER
 10
12000.0
 20
-279.99999999999909
 30
0.0
 11
12000.0
 21
-99.999999999999091
 31
0.0
1001
ACDBBLOCKREPETAG
1070
     1
1071
      160
1005
14157B
  0
LINE
  5
14157C
  8
OBJECT
 10
12042.20189569202
 20
-137.99999999999909
 30
0.0
 11
12080.0
 21
-137.99999999999909
 31
0.0
1001
ACDBBLOCKREPETAG
1070
     1
1071
      164
1005
14157C
  0
LINE
  5
14157D
  8
OBJECT
 10
12062.0
 20
-261.99999999999909
 30
0.0
 11
12080.0
 21
-261.99999999999909
 31
0.0
1001
ACDBBLOCKREPETAG
1070
     1
1071
      165
1005
14157D
  0
LINE
  5
14157E
  8
OBJECT
 10
12062.0
 20
-261.99999999999909
 30
0.0
 11
12062.0
 21
-279.99999999999909
 31
0.0
1001
ACDBBLOCKREPETAG
1070
     1
1071
      167
1005
14157E
  0
LINE
  5
14157F
  8
OBJECT
 10
11938.0
 20
-261.99999999999909
 30
0.0
 11
11938.0
 21
-279.99999999999909
 31
0.0
1001
ACDBBLOCKREPETAG
1070
     1
1071
      168
1005
14157F
  0
LINE
  5
141580
  8
OBJECT
 10
11938.0
 20
-261.99999999999909
 30
0.0
 11
11920.0
 21
-261.99999999999909
 31
0.0
1001
ACDBBLOCKREPETAG
1070
     1
1071
      170
1005
141580
  0
LINE
  5
141581
  8
OBJECT
 10
11957.79810430798
 20
-137.99999999999909
 30
0.0
 11
11920.0
 21
-137.99999999999909
 31
0.0
1001
ACDBBLOCKREPETAG
1070
     1
1071
      171
1005
141581
  0
LINE
  5
141582
  8
OBJECT
 10
11946.966991411011
 20
-253.03300858899021
 30
0.0
 11
11938.0
 21
-261.99999999999909
 31
0.0
1001
ACDBBLOCKREPETAG
1070
     1
1071
      180
1005
141582
  0
LINE
  5
141583
  8
OBJECT
 10
12053.03300858898
 20
-253.03300858899021
 30
0.0
 11
12062.0
 21
-261.99999999999909
 31
0.0
1001
ACDBBLOCKREPETAG
1070
     1
1071
      181
1005
141583
  0
ARC
  5
141584
  8
OBJECT
 10
12000.0
 20
-199.99999999999909
 30
0.0
 40
85.0
 50
46.837102859844251
 51
133.16289714015571
1001
ACDBBLOCKREPETAG
1070
     1
1071
      183
1005
141584
  0
POINT
  5
141585
  8
DOTS
 10
12000.0
 20
-199.99999999999909
 30
0.0
 50
270.0
1001
ACDBBLOCKREPETAG
1070
     1
1071
      364
1005
141585
  0
LINE
  5
141586
  8
CENTER
 10
12080.0
 20
-199.99999999999909
 30
0.0
 11
11920.0
 21
-199.99999999999909
 31
0.0
1001
ACDBBLOCKREPETAG
1070
     1
1071
      158
1005
141586
  0
CIRCLE
  5
141587
  8
OBJECT
 10
12000.0
 20
-199.99999999999909
 30
0.0
 40
63.0
1001
ACDBBLOCKREPETAG
1070
     1
1071
      428
1005
141587
  0
CIRCLE
  5
141588
  8
OBJECT
 10
12000.0
 20
-199.99999999999909
 30
0.0
 40
75.0
1001
ACDBBLOCKREPETAG
1070
     1
1071
      429
1005
141588
  0
LINE
  5
141589
  8
CENTER
 10
11899.0
 20
-199.99999999999909
 30
0.0
 11
11920.0
 21
-199.99999999999909
 31
0.0
1001
ACDBBLOCKREPETAG
1070
     1
1071
        0
1005
141589
  0
LINE
  5
14158A
  8
OBJECT
 10
11917.0
 20
-261.99999999999909
 30
0.0
 11
11920.0
 21
-261.99999999999909
 31
0.0
1001
ACDBBLOCKREPETAG
1070
     1
1071
        1
1005
14158A
  0
ARC
  5
14158B
  8
OBJECT
 10
11917.0
 20
-258.99999999999909
 30
0.0
 40
3.0
 50
180.0
 51
270.0
1001
ACDBBLOCKREPETAG
1070
     1
1071
        2
1005
14158B
  0
LINE
  5
14158C
  8
OBJECT
 10
11920.0
 20
-137.99999999999909
 30
0.0
 11
11917.0
 21
-137.99999999999909
 31
0.0
1001
ACDBBLOCKREPETAG
1070
     1
1071
        3
1005
14158C
  0
ARC
  5
14158D
  8
OBJECT
 10
11917.0
 20
-140.99999999999909
 30
0.0
 40
3.0
 50
90.0
 51
180.0
1001
ACDBBLOCKREPETAG
1070
     1
1071
        4
1005
14158D
  0
LINE
  5
14158E
  8
OBJECT
 10
11914.0
 20
-140.99999999999909
 30
0.0
 11
11914.0
 21
-258.99999999999909
 31
0.0
1001
ACDBBLOCKREPETAG
1070
     1
1071
        5
1005
14158E
  0
LINE
  5
14158F
  8
OBJECT
 10
12062.0
 20
-332.99999999999898
 30
0.0
 11
12062.0
 21
-339.99999999999909
 31
0.0
1001
ACDBBLOCKREPETAG
1070
     1
1071
       47
1005
14158F
  0
LINE
  5
141590
  8
OBJECT
 10
12062.0
 20
-339.99999999999909
 30
0.0
 11
11938.0
 21
-339.99999999999909
 31
0.0
1001
ACDBBLOCKREPETAG
1070
     1
1071
       48
1005
141590
  0
LINE
  5
141591
  8
OBJECT
 10
11938.0
 20
-339.99999999999909
 30
0.0
 11
11938.0
 21
-332.99999999999898
 31
0.0
1001
ACDBBLOCKREPETAG
1070
     1
1071
       49
1005
141591
  0
LINE
  5
141592
  8
OBJECT
 10
11938.0
 20
-332.99999999999898
 30
0.0
 11
12062.0
 21
-332.99999999999898
 31
0.0
1001
ACDBBLOCKREPETAG
1070
     1
1071
       50
1005
141592
  0
LINE
  5
141593
  8
CENTER
 10
12000.0
 20
-354.99999999999909
 30
0.0
 11
12000.0
 21
-279.99999999999909
 31
0.0
1001
ACDBBLOCKREPETAG
1070
     1
1071
       51
1005
141593
  0
LINE
  5
141594
  8
OBJECT
 10
12059.0
 20
-332.99999999999898
 30
0.0
 11
12059.0
 21
-296.99999999999898
 31
0.0
1001
ACDBBLOCKREPETAG
1070
     1
1071
       52
1005
141594
  0
LINE
  5
141595
  8
OBJECT
 10
12059.0
 20
-296.99999999999898
 30
0.0
 11
11941.0
 21
-296.99999999999898
 31
0.0
1001
ACDBBLOCKREPETAG
1070
     1
1071
       53
1005
141595
  0
LINE
  5
141596
  8
OBJECT
 10
11941.0
 20
-296.99999999999898
 30
0.0
 11
11941.0
 21
-332.99999999999898
 31
0.0
1001
ACDBBLOCKREPETAG
1070
     1
1071
       54
1005
141596
  0
LINE
  5
141597
  8
OBJECT
 10
12054.5
 20
-292.99999999999898
 30
0.0
 11
12054.5
 21
-285.99999999999898
 31
0.0
1001
ACDBBLOCKREPETAG
1070
     1
1071
       55
1005
141597
  0
LINE
  5
141598
  8
OBJECT
 10
11945.5
 20
-285.99999999999898
 30
0.0
 11
11945.5
 21
-292.99999999999898
 31
0.0
1001
ACDBBLOCKREPETAG
1070
     1
1071
       56
1005
141598
  0
LINE
  5
141599
  8
OBJECT
 10
11945.5
 20
-292.99999999999898
 30
0.0
 11
12054.5
 21
-292.99999999999898
 31
0.0
1001
ACDBBLOCKREPETAG
1070
     1
1071
       57
1005
141599
  0
LINE
  5
14159A
  8
OBJECT
 10
12059.0
 20
-296.99999999999898
 30
0.0
 11
12054.5
 21
-292.99999999999898
 31
0.0
1001
ACDBBLOCKREPETAG
1070
     1
1071
       58
1005
14159A
  0
LINE
  5
14159B
  8
OBJECT
 10
11941.0
 20
-296.99999999999898
 30
0.0
 11
11945.5
 21
-292.99999999999898
 31
0.0
1001
ACDBBLOCKREPETAG
1070
     1
1071
       59
1005
14159B
  0
LINE
  5
14159C
  8
OBJECT
 10
12062.0
 20
-283.0
 30
0.0
 11
12062.0
 21
-279.99999999999909
 31
0.0
1001
ACDBBLOCKREPETAG
1070
     1
1071
       60
1005
14159C
  0
ARC
  5
14159D
  8
OBJECT
 10
12059.0
 20
-283.0
 30
0.0
 40
3.0
 50
270.0
 51
0.0
1001
ACDBBLOCKREPETAG
1070
     1
1071
       61
1005
14159D
  0
LINE
  5
14159E
  8
OBJECT
 10
11938.0
 20
-279.99999999999909
 30
0.0
 11
11938.0
 21
-282.99999999999818
 31
0.0
1001
ACDBBLOCKREPETAG
1070
     1
1071
       62
1005
14159E
  0
ARC
  5
14159F
  8
OBJECT
 10
11941.0
 20
-282.99999999999818
 30
0.0
 40
3.0
 50
180.0
 51
270.0
1001
ACDBBLOCKREPETAG
1070
     1
1071
       63
1005
14159F
  0
LINE
  5
1415A0
  8
OBJECT
 10
11941.0
 20
-285.99999999999818
 30
0.0
 11
12059.0
 21
-286.0
 31
0.0
1001
ACDBBLOCKREPETAG
1070
     1
1071
       64
1005
1415A0
  0
LINE
  5
1415A1
  8
HIDDEN
 10
12044.5
 20
-287.99999999999909
 30
0.0
 11
11955.5
 21
-287.99999999999909
 31
0.0
1001
ACDBBLOCKREPETAG
1070
     1
1071
       65
1005
1415A1
  0
LINE
  5
1415A2
  8
OBJECT
 10
12200.0
 20
-124.9999999999991
 30
0.0
 11
12193.0
 21
-124.9999999999991
 31
0.0
1001
ACDBBLOCKREPETAG
1070
     1
1071
      135
1005
1415A2
  0
LINE
  5
1415A3
  8
OBJECT
 10
12193.0
 20
-124.9999999999991
 30
0.0
 11
12193.0
 21
-274.99999999999909
 31
0.0
1001
ACDBBLOCKREPETAG
1070
     1
1071
      136
1005
1415A3
  0
LINE
  5
1415A4
  8
OBJECT
 10
12151.5
 20
-127.9999999999991
 30
0.0
 11
12151.5
 21
-271.99999999999909
 31
0.0
1001
ACDBBLOCKREPETAG
1070
     1
1071
      137
1005
1415A4
  0
LINE
  5
1415A5
  8
OBJECT
 10
12140.0
 20
-134.49999999999909
 30
0.0
 11
12140.0
 21
-265.49999999999909
 31
0.0
1001
ACDBBLOCKREPETAG
1070
     1
1071
      138
1005
1415A5
  0
LINE
  5
1415A6
  8
OBJECT
 10
12193.0
 20
-274.99999999999909
 30
0.0
 11
12200.0
 21
-274.99999999999909
 31
0.0
1001
ACDBBLOCKREPETAG
1070
     1
1071
      139
1005
1415A6
  0
LINE
  5
1415A7
  8
OBJECT
 10
12200.0
 20
-274.99999999999909
 30
0.0
 11
12200.0
 21
-124.9999999999991
 31
0.0
1001
ACDBBLOCKREPETAG
1070
     1
1071
      140
1005
1415A7
  0
LINE
  5
1415A8
  8
HIDDEN
 10
12148.0
 20
-256.99999999999909
 30
0.0
 11
12148.0
 21
-142.99999999999909
 31
0.0
1001
ACDBBLOCKREPETAG
1070
     1
1071
      141
1005
1415A8
  0
LINE
  5
1415A9
  8
CENTER
 10
12215.0
 20
-199.99999999999909
 30
0.0
 11
12080.0
 21
-199.99999999999909
 31
0.0
1001
ACDBBLOCKREPETAG
1070
     1
1071
      142
1005
1415A9
  0
LINE
  5
1415AA
  8
OBJECT
 10
12136.0
 20
-261.99999999999909
 30
0.0
 11
12080.0
 21
-261.99999999999909
 31
0.0
1001
ACDBBLOCKREPETAG
1070
     1
1071
      143
1005
1415AA
  0
LINE
  5
1415AB
  8
OBJECT
 10
12193.0
 20
-271.99999999999909
 30
0.0
 11
12151.5
 21
-271.99999999999909
 31
0.0
1001
ACDBBLOCKREPETAG
1070
     1
1071
      144
1005
1415AB
  0
LINE
  5
1415AC
  8
OBJECT
 10
12151.5
 20
-271.99999999999909
 30
0.0
 11
12140.0
 21
-265.49999999999909
 31
0.0
1001
ACDBBLOCKREPETAG
1070
     1
1071
      145
1005
1415AC
  0
LINE
  5
1415AD
  8
OBJECT
 10
12140.0
 20
-265.49999999999909
 30
0.0
 11
12136.0
 21
-261.99999999999909
 31
0.0
1001
ACDBBLOCKREPETAG
1070
     1
1071
      146
1005
1415AD
  0
LINE
  5
1415AE
  8
OBJECT
 10
12151.5
 20
-127.9999999999991
 30
0.0
 11
12140.0
 21
-134.49999999999909
 31
0.0
1001
ACDBBLOCKREPETAG
1070
     1
1071
      147
1005
1415AE
  0
LINE
  5
1415AF
  8
OBJECT
 10
12140.0
 20
-134.49999999999909
 30
0.0
 11
12136.0
 21
-137.99999999999909
 31
0.0
1001
ACDBBLOCKREPETAG
1070
     1
1071
      148
1005
1415AF
  0
ARC
  5
1415B0
  8
OBJECT
 10
12517.9
 20
-199.99999999999909
 30
0.0
 40
386.89999999999998
 50
170.77870136258679
 51
189.22129863741321
1001
ACDBBLOCKREPETAG
1070
     1
1071
      149
1005
1415B0
  0
LINE
  5
1415B1
  8
OBJECT
 10
12136.0
 20
-137.99999999999909
 30
0.0
 11
12080.0
 21
-137.99999999999909
 31
0.0
1001
ACDBBLOCKREPETAG
1070
     1
1071
      150
1005
1415B1
  0
LINE
  5
1415B2
  8
OBJECT
 10
12193.0
 20
-127.9999999999991
 30
0.0
 11
12151.5
 21
-127.9999999999991
 31
0.0
1001
ACDBBLOCKREPETAG
1070
     1
1071
      151
1005
1415B2
  0
ARC
  5
1415B3
  8
OBJECT
 10
13662.33642381099
 20
-199.99999999999909
 30
0.0
 40
1545.58047021477
 50
177.70099855412801
 51
182.29900144587191
1001
ACDBBLOCKREPETAG
1070
     1
1071
      153
1005
1415B3
  0
ARC
  5
1415B4
  8
OBJECT
 10
13632.336423810861
 20
-199.99999999999909
 30
0.0
 40
1545.580470214647
 50
177.70099855412801
 51
182.29900144587191
1001
ACDBBLOCKREPETAG
1070
     1
1071
      154
1005
1415B4
  0
LINE
  5
1415B5
  8
OBJECT
 10
11917.0
 20
-634.0
 30
0.0
 11
11920.0
 21
-634.0
 31
0.0
1001
ACDBBLOCKREPETAG
1070
     1
1071
        1
1005
1415B5
  0
ARC
  5
1415B6
  8
OBJECT
 10
11917.0
 20
-637.0
 30
0.0
 40
3.0
 50
90.0
 51
180.0
1001
ACDBBLOCKREPETAG
1070
     1
1071
        2
1005
1415B6
  0
LINE
  5
1415B7
  8
OBJECT
 10
11920.0
 20
-758.0
 30
0.0
 11
11917.0
 21
-758.0
 31
0.0
1001
ACDBBLOCKREPETAG
1070
     1
1071
        3
1005
1415B7
  0
ARC
  5
1415B8
  8
OBJECT
 10
11917.0
 20
-755.0
 30
0.0
 40
3.0
 50
180.0
 51
270.0
1001
ACDBBLOCKREPETAG
1070
     1
1071
        4
1005
1415B8
  0
LINE
  5
1415B9
  8
OBJECT
 10
11914.0
 20
-755.0
 30
0.0
 11
11914.0
 21
-637.0
 31
0.0
1001
ACDBBLOCKREPETAG
1070
     1
1071
        5
1005
1415B9
  0
LINE
  5
1415BA
  8
OBJECT
 10
12079.999999999991
 20
-758.0
 30
0.0
 11
12089.244046403781
 21
-758.0
 31
0.0
1001
ACDBBLOCKREPETAG
1070
     1
1071
      130
1005
1415BA
  0
LINE
  5
1415BB
  8
OBJECT
 10
12086.75595359621
 20
-634.0
 30
0.0
 11
12080.0
 21
-634.0
 31
0.0
1001
ACDBBLOCKREPETAG
1070
     1
1071
      131
1005
1415BB
  0
LINE
  5
1415BC
  8
OBJECT
 10
12086.75595359621
 20
-634.0
 30
0.0
 11
12116.755953596219
 21
-616.0
 31
0.0
1001
ACDBBLOCKREPETAG
1070
     1
1071
      132
1005
1415BC
  0
LINE
  5
1415BD
  8
OBJECT
 10
12116.755953596219
 20
-616.0
 30
0.0
 11
12130.0
 21
-616.0000000000008
 31
0.0
1001
ACDBBLOCKREPETAG
1070
     1
1071
      133
1005
1415BD
  0
LINE
  5
1415BE
  8
OBJECT
 10
12130.0
 20
-740.0
 30
0.0
 11
12119.244046403781
 21
-740.00000000000102
 31
0.0
1001
ACDBBLOCKREPETAG
1070
     1
1071
      134
1005
1415BE
  0
LINE
  5
1415BF
  8
OBJECT
 10
12119.244046403781
 20
-740.00000000000102
 30
0.0
 11
12089.244046403781
 21
-758.0
 31
0.0
1001
ACDBBLOCKREPETAG
1070
     1
1071
      135
1005
1415BF
  0
LINE
  5
1415C0
  8
OBJECT
 10
12086.75595359621
 20
-634.0
 30
0.0
 11
12089.244046403781
 21
-758.0
 31
0.0
1001
ACDBBLOCKREPETAG
1070
     1
1071
      136
1005
1415C0
  0
LINE
  5
1415C1
  8
OBJECT
 10
12119.244046403781
 20
-740.00000000000102
 30
0.0
 11
12116.755953596219
 21
-616.0
 31
0.0
1001
ACDBBLOCKREPETAG
1070
     1
1071
      137
1005
1415C1
  0
LINE
  5
1415C2
  8
OBJECT
 10
12200.0
 20
-590.0
 30
0.0
 11
12193.0
 21
-590.0
 31
0.0
1001
ACDBBLOCKREPETAG
1070
     1
1071
      138
1005
1415C2
  0
LINE
  5
1415C3
  8
OBJECT
 10
12193.0
 20
-590.0
 30
0.0
 11
12193.0
 21
-737.0
 31
0.0
1001
ACDBBLOCKREPETAG
1070
     1
1071
      139
1005
1415C3
  0
LINE
  5
1415C4
  8
OBJECT
 10
12151.5
 20
-593.0
 30
0.0
 11
12151.5
 21
-737.0
 31
0.0
1001
ACDBBLOCKREPETAG
1070
     1
1071
      140
1005
1415C4
  0
LINE
  5
1415C5
  8
OBJECT
 10
12140.0
 20
-599.5
 30
0.0
 11
12140.0
 21
-730.49999999999989
 31
0.0
1001
ACDBBLOCKREPETAG
1070
     1
1071
      141
1005
1415C5
  0
LINE
  5
1415C6
  8
OBJECT
 10
12136.0
 20
-671.50000000000625
 30
0.0
 11
12136.0
 21
-737.0
 31
0.0
1001
ACDBBLOCKREPETAG
1070
     1
1071
      142
1005
1415C6
  0
LINE
  5
1415C7
  8
OBJECT
 10
12200.0
 20
-737.0
 30
0.0
 11
12200.0
 21
-590.0
 31
0.0
1001
ACDBBLOCKREPETAG
1070
     1
1071
      143
1005
1415C7
  0
LINE
  5
1415C8
  8
CENTER
 10
12215.0
 20
-665.0
 30
0.0
 11
12120.41441441441
 21
-665.0
 31
0.0
1001
ACDBBLOCKREPETAG
1070
     1
1071
      144
1005
1415C8
  0
LINE
  5
1415C9
  8
OBJECT
 10
12133.0
 20
-740.0
 30
0.0
 11
12130.0
 21
-740.0
 31
0.0
1001
ACDBBLOCKREPETAG
1070
     1
1071
      145
1005
1415C9
  0
ARC
  5
1415CA
  8
OBJECT
 10
12133.0
 20
-737.0
 30
0.0
 40
3.0
 50
270.0
 51
350.69274391267629
1001
ACDBBLOCKREPETAG
1070
     1
1071
      146
1005
1415CA
  0
ARC
  5
1415CB
  8
OBJECT
 10
12141.881517183059
 20
-738.45555918014554
 30
0.0
 40
6.0
 50
60.524110996874072
 51
170.69274391267621
1001
ACDBBLOCKREPETAG
1070
     1
1071
      147
1005
1415CB
  0
LINE
  5
1415CC
  8
OBJECT
 10
12131.0
 20
-616.0000000000008
 30
0.0
 11
12130.0
 21
-616.0000000000008
 31
0.0
1001
ACDBBLOCKREPETAG
1070
     1
1071
      148
1005
1415CC
  0
LINE
  5
1415CD
  8
OBJECT
 10
12200.0
 20
-737.0
 30
0.0
 11
12151.5
 21
-737.0
 31
0.0
1001
ACDBBLOCKREPETAG
1070
     1
1071
      149
1005
1415CD
  0
LINE
  5
1415CE
  8
OBJECT
 10
12151.5
 20
-593.0
 30
0.0
 11
12140.0
 21
-599.5
 31
0.0
1001
ACDBBLOCKREPETAG
1070
     1
1071
      150
1005
1415CE
  0
LINE
  5
1415CF
  8
OBJECT
 10
12193.0
 20
-593.0
 30
0.0
 11
12151.5
 21
-593.0
 31
0.0
1001
ACDBBLOCKREPETAG
1070
     1
1071
      151
1005
1415CF
  0
LINE
  5
1415D0
  8
OBJECT
 10
12140.0
 20
-599.5
 30
0.0
 11
12131.0
 21
-616.0
 31
0.0
1001
ACDBBLOCKREPETAG
1070
     1
1071
      152
1005
1415D0
  0
LINE
  5
1415D1
  8
OBJECT
 10
12136.0
 20
-671.50000000000625
 30
0.0
 11
12131.0
 21
-616.0000000000008
 31
0.0
1001
ACDBBLOCKREPETAG
1070
     1
1071
      153
1005
1415D1
  0
LINE
  5
1415D2
  8
OBJECT
 10
12151.5
 20
-737.0
 30
0.0
 11
12144.833860723071
 21
-733.23218214782253
 31
0.0
1001
ACDBBLOCKREPETAG
1070
     1
1071
      154
1005
1415D2
  0
LINE
  5
1415D3
  8
HIDDEN
 10
12148.0
 20
-722.0
 30
0.0
 11
12148.0
 21
-608.0
 31
0.0
1001
ACDBBLOCKREPETAG
1070
     1
1071
      155
1005
1415D3
  0
LINE
  5
1415D4
  8
CENTER
 10
10077.0
 20
-696.0
 30
0.0
 11
9923.0
 21
-696.0
 31
0.0
1001
ACDBBLOCKREPETAG
1070
     1
1071
       17
1005
1415D4
  0
CIRCLE
  5
1415D5
  8
OBJECT
 10
10000.0
 20
-696.0
 30
0.0
 40
41.5
1001
ACDBBLOCKREPETAG
1070
     1
1071
       19
1005
1415D5
  0
CIRCLE
  5
1415D6
  8
OBJECT
 10
10000.0
 20
-696.0
 30
0.0
 40
54.0
1001
ACDBBLOCKREPETAG
1070
     1
1071
       20
1005
1415D6
  0
ARC
  5
1415D7
  8
OBJECT
 10
10000.0
 20
-696.0
 30
0.0
 40
62.0
 50
287.89655112920718
 51
252.10344887079279
1001
ACDBBLOCKREPETAG
1070
     1
1071
       21
1005
1415D7
  0
LINE
  5
1415D8
  8
OBJECT
 10
9980.9474411167466
 20
-755.0
 30
0.0
 11
10019.05255888325
 21
-755.0
 31
0.0
1001
ACDBBLOCKREPETAG
1070
     1
1071
       22
1005
1415D8
  0
LINE
  5
1415D9
  8
CENTER
 10
10000.0
 20
-613.99999999999966
 30
0.0
 11
10000.0
 21
-889.99999999999955
 31
0.0
1001
ACDBBLOCKREPETAG
1070
     1
1071
       34
1005
1415D9
  0
LINE
  5
1415DA
  8
OBJECT
 10
9920.0
 20
-877.99999999999955
 30
0.0
 11
10080.0
 21
-877.99999999999955
 31
0.0
1001
ACDBBLOCKREPETAG
1070
     1
1071
       35
1005
1415DA
  0
LINE
  5
1415DB
  8
OBJECT
 10
10080.0
 20
-633.99999999999955
 30
0.0
 11
9920.0
 21
-633.99999999999955
 31
0.0
1001
ACDBBLOCKREPETAG
1070
     1
1071
       36
1005
1415DB
  0
LINE
  5
1415DC
  8
OBJECT
 10
9920.0
 20
-877.99999999999955
 30
0.0
 11
9920.0
 21
-889.99999999999955
 31
0.0
1001
ACDBBLOCKREPETAG
1070
     1
1071
       37
1005
1415DC
  0
LINE
  5
1415DD
  8
OBJECT
 10
9920.0
 20
-889.99999999999955
 30
0.0
 11
10080.0
 21
-889.99999999999955
 31
0.0
1001
ACDBBLOCKREPETAG
1070
     1
1071
       38
1005
1415DD
  0
LINE
  5
1415DE
  8
OBJECT
 10
10080.0
 20
-889.99999999999955
 30
0.0
 11
10080.0
 21
-877.99999999999955
 31
0.0
1001
ACDBBLOCKREPETAG
1070
     1
1071
       39
1005
1415DE
  0
LINE
  5
1415DF
  8
OBJECT
 10
10074.99999999986
 20
-757.99999999985016
 30
0.0
 11
10075.0
 21
-877.99999999999955
 31
0.0
1001
ACDBBLOCKREPETAG
1070
     1
1071
       43
1005
1415DF
  0
LINE
  5
1415E0
  8
OBJECT
 10
10074.99999080298
 20
-757.99998602702112
 30
0.0
 11
10080.0
 21
-757.99998602702112
 31
0.0
1001
ACDBBLOCKREPETAG
1070
     1
1071
       44
1005
1415E0
  0
LINE
  5
1415E1
  8
OBJECT
 10
9925.0000000001382
 20
-757.99999999985016
 30
0.0
 11
9925.0
 21
-877.99999999999955
 31
0.0
1001
ACDBBLOCKREPETAG
1070
     1
1071
       45
1005
1415E1
  0
LINE
  5
1415E2
  8
OBJECT
 10
9925.0000091970142
 20
-757.99998602702112
 30
0.0
 11
9920.0
 21
-757.99998602702112
 31
0.0
1001
ACDBBLOCKREPETAG
1070
     1
1071
       46
1005
1415E2
  0
LINE
  5
1415E3
  8
OBJECT
 10
10060.0
 20
-628.99999999999955
 30
0.0
 11
9940.0
 21
-628.99999999999955
 31
0.0
1001
ACDBBLOCKREPETAG
1070
     1
1071
       47
1005
1415E3
  0
ARC
  5
1415E4
  8
OBJECT
 10
9940.0
 20
-631.99999999999955
 30
0.0
 40
3.0
 50
90.0
 51
180.0
1001
ACDBBLOCKREPETAG
1070
     1
1071
       48
1005
1415E4
  0
LINE
  5
1415E5
  8
OBJECT
 10
9937.0
 20
-631.99999999999955
 30
0.0
 11
9937.0
 21
-633.99999999999955
 31
0.0
1001
ACDBBLOCKREPETAG
1070
     1
1071
       49
1005
1415E5
  0
LINE
  5
1415E6
  8
OBJECT
 10
10063.0
 20
-631.99999999999955
 30
0.0
 11
10063.0
 21
-633.99999999999955
 31
0.0
1001
ACDBBLOCKREPETAG
1070
     1
1071
       50
1005
1415E6
  0
ARC
  5
1415E7
  8
OBJECT
 10
10060.0
 20
-631.99999999999955
 30
0.0
 40
3.0
 50
0.0
 51
90.0
1001
ACDBBLOCKREPETAG
1070
     1
1071
       51
1005
1415E7
  0
ARC
  5
1415E8
  8
OBJECT
 10
10200.687274671671
 20
-749.40809941010718
 30
0.0
 40
170.6350503965856
 50
137.44134459184301
 51
149.91949581337221
1001
ACDBBLOCKREPETAG
1070
     1
1071
       52
1005
1415E8
  0
ARC
  5
1415E9
  8
OBJECT
 10
10200.687274671671
 20
-642.59190058989179
 30
0.0
 40
170.6350503965856
 50
210.08050418662771
 51
222.55865540815699
1001
ACDBBLOCKREPETAG
1070
     1
1071
       53
1005
1415E9
  0
ARC
  5
1415EA
  8
OBJECT
 10
9799.3127253283274
 20
-749.40809941010718
 30
0.0
 40
170.6350503965856
 50
30.08050418662782
 51
42.558655408456282
1001
ACDBBLOCKREPETAG
1070
     1
1071
       54
1005
1415EA
  0
ARC
  5
1415EB
  8
OBJECT
 10
9799.3127253283274
 20
-642.59190058989179
 30
0.0
 40
170.6350503965856
 50
317.44134459154373
 51
329.91949581337218
1001
ACDBBLOCKREPETAG
1070
     1
1071
       55
1005
1415EB
  0
POINT
  5
1415EC
  8
DOTS
 10
10000.0
 20
-754.99999999999955
 30
0.0
1001
ACDBBLOCKREPETAG
1070
     1
1071
      133
1005
1415EC
  0
LINE
  5
1415ED
  8
SLIM
 10
9954.2369265471734
 20
-137.99999999999909
 30
0.0
 11
9972.7507744763316
 21
-119.4861520708364
 31
0.0
1001
GRADIENTCOLOR1ACI
1070
     5
1001
GRADIENTCOLOR2ACI
1070
     2
1001
ACAD
1010
0.0
1020
0.0
1030
0.0
1001
ACDBBLOCKREPETAG
1070
     1
1071
      441
1005
1415ED
  0
LINE
  5
1415EE
  8
SLIM
 10
9969.9215079962923
 20
-131.2956746719467
 30
0.0
 11
9984.8575146748644
 21
-116.359667993377
 31
0.0
1001
GRADIENTCOLOR1ACI
1070
     5
1001
GRADIENTCOLOR2ACI
1070
     2
1001
ACAD
1010
0.0
1020
0.0
1030
0.0
1001
ACDBBLOCKREPETAG
1070
     1
1071
      442
1005
1415EE
  0
LINE
  5
1415EF
  8
SLIM
 10
9983.3188363327517
 20
-126.87860245655401
 30
0.0
 11
9995.0533812002577
 21
-115.1440575890517
 31
0.0
1001
GRADIENTCOLOR1ACI
1070
     5
1001
GRADIENTCOLOR2ACI
1070
     2
1001
ACAD
1010
0.0
1020
0.0
1030
0.0
1001
ACDBBLOCKREPETAG
1070
     1
1071
      443
1005
1415EF
  0
LINE
  5
1415F0
  8
SLIM
 10
9993.9318052485996
 20
-125.245889661777
 30
0.0
 11
10000.0
 21
-119.1776949103767
 31
0.0
1001
GRADIENTCOLOR1ACI
1070
     5
1001
GRADIENTCOLOR2ACI
1070
     2
1001
ACAD
1010
0.0
1020
0.0
1030
0.0
1001
ACDBBLOCKREPETAG
1070
     1
1071
      444
1005
1415F0
  0
LINE
  5
1415F1
  8
SLIM
 10
10000.0
 20
-119.1776949103767
 30
0.0
 11
10004.0797313529
 21
-115.0979635574724
 31
0.0
1001
GRADIENTCOLOR1ACI
1070
     5
1001
GRADIENTCOLOR2ACI
1070
     2
1001
ACAD
1010
0.0
1020
0.0
1030
0.0
1001
ACDBBLOCKREPETAG
1070
     1
1071
      445
1005
1415F1
  0
LINE
  5
1415F2
  8
SLIM
 10
10003.09410078785
 20
-125.0638502435924
 30
0.0
 11
10012.26797841056
 21
-115.88997262087101
 31
0.0
1001
GRADIENTCOLOR1ACI
1070
     5
1001
GRADIENTCOLOR2ACI
1070
     2
1001
ACAD
1010
0.0
1020
0.0
1030
0.0
1001
ACDBBLOCKREPETAG
1070
     1
1071
      446
1005
1415F2
  0
LINE
  5
1415F3
  8
SLIM
 10
10011.28442576865
 20
-125.85378138386341
 30
0.0
 11
10019.799941457361
 21
-117.3382656951526
 31
0.0
1001
GRADIENTCOLOR1ACI
1070
     5
1001
GRADIENTCOLOR2ACI
1070
     2
1001
ACAD
1010
0.0
1020
0.0
1030
0.0
1001
ACDBBLOCKREPETAG
1070
     1
1071
      447
1005
1415F3
  0
LINE
  5
1415F4
  8
SLIM
 10
10018.73958846552
 20
-127.3788748080627
 30
0.0
 11
10026.787203867279
 21
-119.3312594063044
 31
0.0
1001
GRADIENTCOLOR1ACI
1070
     5
1001
GRADIENTCOLOR2ACI
1070
     2
1001
ACAD
1010
0.0
1020
0.0
1030
0.0
1001
ACDBBLOCKREPETAG
1070
     1
1071
      448
1005
1415F4
  0
LINE
  5
1415F5
  8
SLIM
 10
10025.595886626959
 20
-129.50283276769261
 30
0.0
 11
10033.303003076029
 21
-121.7957163186195
 31
0.0
1001
GRADIENTCOLOR1ACI
1070
     5
1001
GRADIENTCOLOR2ACI
1070
     2
1001
ACAD
1010
0.0
1020
0.0
1030
0.0
1001
ACDBBLOCKREPETAG
1070
     1
1071
      449
1005
1415F5
  0
LINE
  5
1415F6
  8
SLIM
 10
10031.9385859461
 20
-132.1403895696169
 30
0.0
 11
10039.39731198437
 21
-124.6816635313439
 31
0.0
1001
GRADIENTCOLOR1ACI
1070
     5
1001
GRADIENTCOLOR2ACI
1070
     2
1001
ACAD
1010
0.0
1020
0.0
1030
0.0
1001
ACDBBLOCKREPETAG
1070
     1
1071
      450
1005
1415F6
  0
LINE
  5
1415F7
  8
SLIM
 10
10037.82336543762
 20
-135.2358661991679
 30
0.0
 11
10045.104770534361
 21
-127.95446110242381
 31
0.0
1001
GRADIENTCOLOR1ACI
1070
     5
1001
GRADIENTCOLOR2ACI
1070
     2
1001
ACAD
1010
0.0
1020
0.0
1030
0.0
1001
ACDBBLOCKREPETAG
1070
     1
1071
      451
1005
1415F7
  0
LINE
  5
1415F8
  8
SLIM
 10
10044.03948775786
 20
-137.99999999999909
 30
0.0
 11
10050.449155789191
 21
-131.59033196866449
 31
0.0
1001
GRADIENTCOLOR1ACI
1070
     5
1001
GRADIENTCOLOR2ACI
1070
     2
1001
ACAD
1010
0.0
1020
0.0
1030
0.0
1001
ACDBBLOCKREPETAG
1070
     1
1071
      452
1005
1415F8
  0
LINE
  5
1415F9
  8
SLIM
 10
10053.019743878929
 20
-137.99999999999909
 30
0.0
 11
10055.445994186401
 21
-135.57374969252561
 31
0.0
1001
GRADIENTCOLOR1ACI
1070
     5
1001
GRADIENTCOLOR2ACI
1070
     2
1001
ACAD
1010
0.0
1020
0.0
1030
0.0
1001
ACDBBLOCKREPETAG
1070
     1
1071
      453
1005
1415F9
  0
LINE
  5
1415FA
  8
CENTER
 10
10000.0
 20
-279.99999999999909
 30
0.0
 11
10000.0
 21
-99.999999999999091
 31
0.0
1001
ACDBBLOCKREPETAG
1070
     1
1071
      160
1005
1415FA
  0
LINE
  5
1415FB
  8
OBJECT
 10
10042.20189569202
 20
-137.99999999999909
 30
0.0
 11
10080.0
 21
-137.99999999999909
 31
0.0
1001
ACDBBLOCKREPETAG
1070
     1
1071
      164
1005
1415FB
  0
LINE
  5
1415FC
  8
OBJECT
 10
10062.0
 20
-261.99999999999909
 30
0.0
 11
10080.0
 21
-261.99999999999909
 31
0.0
1001
ACDBBLOCKREPETAG
1070
     1
1071
      165
1005
1415FC
  0
LINE
  5
1415FD
  8
OBJECT
 10
10062.0
 20
-261.99999999999909
 30
0.0
 11
10062.0
 21
-279.99999999999909
 31
0.0
1001
ACDBBLOCKREPETAG
1070
     1
1071
      167
1005
1415FD
  0
LINE
  5
1415FE
  8
OBJECT
 10
9938.0
 20
-261.99999999999909
 30
0.0
 11
9938.0
 21
-279.99999999999909
 31
0.0
1001
ACDBBLOCKREPETAG
1070
     1
1071
      168
1005
1415FE
  0
LINE
  5
1415FF
  8
OBJECT
 10
9938.0
 20
-261.99999999999909
 30
0.0
 11
9920.0
 21
-261.99999999999909
 31
0.0
1001
ACDBBLOCKREPETAG
1070
     1
1071
      170
1005
1415FF
  0
LINE
  5
141600
  8
OBJECT
 10
9957.7981043079835
 20
-137.99999999999909
 30
0.0
 11
9920.0
 21
-137.99999999999909
 31
0.0
1001
ACDBBLOCKREPETAG
1070
     1
1071
      171
1005
141600
  0
LINE
  5
141601
  8
OBJECT
 10
9946.9669914110091
 20
-253.03300858899021
 30
0.0
 11
9938.0
 21
-261.99999999999909
 31
0.0
1001
ACDBBLOCKREPETAG
1070
     1
1071
      180
1005
141601
  0
LINE
  5
141602
  8
OBJECT
 10
10053.03300858898
 20
-253.03300858899021
 30
0.0
 11
10062.0
 21
-261.99999999999909
 31
0.0
1001
ACDBBLOCKREPETAG
1070
     1
1071
      181
1005
141602
  0
ARC
  5
141603
  8
OBJECT
 10
10000.0
 20
-199.99999999999909
 30
0.0
 40
85.0
 50
46.837102859844251
 51
133.16289714015571
1001
ACDBBLOCKREPETAG
1070
     1
1071
      183
1005
141603
  0
POINT
  5
141604
  8
DOTS
 10
10000.0
 20
-199.99999999999909
 30
0.0
 50
270.0
1001
ACDBBLOCKREPETAG
1070
     1
1071
      364
1005
141604
  0
LINE
  5
141605
  8
CENTER
 10
10080.0
 20
-199.99999999999909
 30
0.0
 11
9920.0
 21
-199.99999999999909
 31
0.0
1001
ACDBBLOCKREPETAG
1070
     1
1071
      158
1005
141605
  0
CIRCLE
  5
141606
  8
OBJECT
 10
10000.0
 20
-199.99999999999909
 30
0.0
 40
63.0
1001
ACDBBLOCKREPETAG
1070
     1
1071
      428
1005
141606
  0
CIRCLE
  5
141607
  8
OBJECT
 10
10000.0
 20
-199.99999999999909
 30
0.0
 40
75.0
1001
ACDBBLOCKREPETAG
1070
     1
1071
      429
1005
141607
  0
LINE
  5
141608
  8
CENTER
 10
9899.0
 20
-199.99999999999909
 30
0.0
 11
9920.0
 21
-199.99999999999909
 31
0.0
1001
ACDBBLOCKREPETAG
1070
     1
1071
        0
1005
141608
  0
LINE
  5
141609
  8
OBJECT
 10
9917.0
 20
-261.99999999999909
 30
0.0
 11
9920.0
 21
-261.99999999999909
 31
0.0
1001
ACDBBLOCKREPETAG
1070
     1
1071
        1
1005
141609
  0
ARC
  5
14160A
  8
OBJECT
 10
9917.0
 20
-258.99999999999909
 30
0.0
 40
3.0
 50
180.0
 51
270.0
1001
ACDBBLOCKREPETAG
1070
     1
1071
        2
1005
14160A
  0
LINE
  5
14160B
  8
OBJECT
 10
9920.0
 20
-137.99999999999909
 30
0.0
 11
9917.0
 21
-137.99999999999909
 31
0.0
1001
ACDBBLOCKREPETAG
1070
     1
1071
        3
1005
14160B
  0
ARC
  5
14160C
  8
OBJECT
 10
9917.0
 20
-140.99999999999909
 30
0.0
 40
3.0
 50
90.0
 51
180.0
1001
ACDBBLOCKREPETAG
1070
     1
1071
        4
1005
14160C
  0
LINE
  5
14160D
  8
OBJECT
 10
9914.0
 20
-140.99999999999909
 30
0.0
 11
9914.0
 21
-258.99999999999909
 31
0.0
1001
ACDBBLOCKREPETAG
1070
     1
1071
        5
1005
14160D
  0
LINE
  5
14160E
  8
OBJECT
 10
10062.0
 20
-332.99999999999898
 30
0.0
 11
10062.0
 21
-339.99999999999909
 31
0.0
1001
ACDBBLOCKREPETAG
1070
     1
1071
       47
1005
14160E
  0
LINE
  5
14160F
  8
OBJECT
 10
10062.0
 20
-339.99999999999909
 30
0.0
 11
9938.0
 21
-339.99999999999909
 31
0.0
1001
ACDBBLOCKREPETAG
1070
     1
1071
       48
1005
14160F
  0
LINE
  5
141610
  8
OBJECT
 10
9938.0
 20
-339.99999999999909
 30
0.0
 11
9938.0
 21
-332.99999999999898
 31
0.0
1001
ACDBBLOCKREPETAG
1070
     1
1071
       49
1005
141610
  0
LINE
  5
141611
  8
OBJECT
 10
9938.0
 20
-332.99999999999898
 30
0.0
 11
10062.0
 21
-332.99999999999898
 31
0.0
1001
ACDBBLOCKREPETAG
1070
     1
1071
       50
1005
141611
  0
LINE
  5
141612
  8
CENTER
 10
10000.0
 20
-354.99999999999909
 30
0.0
 11
10000.0
 21
-279.99999999999909
 31
0.0
1001
ACDBBLOCKREPETAG
1070
     1
1071
       51
1005
141612
  0
LINE
  5
141613
  8
OBJECT
 10
10059.0
 20
-332.99999999999898
 30
0.0
 11
10059.0
 21
-296.99999999999898
 31
0.0
1001
ACDBBLOCKREPETAG
1070
     1
1071
       52
1005
141613
  0
LINE
  5
141614
  8
OBJECT
 10
10059.0
 20
-296.99999999999898
 30
0.0
 11
9941.0
 21
-296.99999999999898
 31
0.0
1001
ACDBBLOCKREPETAG
1070
     1
1071
       53
1005
141614
  0
LINE
  5
141615
  8
OBJECT
 10
9941.0
 20
-296.99999999999898
 30
0.0
 11
9941.0
 21
-332.99999999999898
 31
0.0
1001
ACDBBLOCKREPETAG
1070
     1
1071
       54
1005
141615
  0
LINE
  5
141616
  8
OBJECT
 10
10054.5
 20
-292.99999999999898
 30
0.0
 11
10054.5
 21
-285.99999999999898
 31
0.0
1001
ACDBBLOCKREPETAG
1070
     1
1071
       55
1005
141616
  0
LINE
  5
141617
  8
OBJECT
 10
9945.5
 20
-285.99999999999898
 30
0.0
 11
9945.5
 21
-292.99999999999898
 31
0.0
1001
ACDBBLOCKREPETAG
1070
     1
1071
       56
1005
141617
  0
LINE
  5
141618
  8
OBJECT
 10
9945.5
 20
-292.99999999999898
 30
0.0
 11
10054.5
 21
-292.99999999999898
 31
0.0
1001
ACDBBLOCKREPETAG
1070
     1
1071
       57
1005
141618
  0
LINE
  5
141619
  8
OBJECT
 10
10059.0
 20
-296.99999999999898
 30
0.0
 11
10054.5
 21
-292.99999999999898
 31
0.0
1001
ACDBBLOCKREPETAG
1070
     1
1071
       58
1005
141619
  0
LINE
  5
14161A
  8
OBJECT
 10
9941.0
 20
-296.99999999999898
 30
0.0
 11
9945.5
 21
-292.99999999999898
 31
0.0
1001
ACDBBLOCKREPETAG
1070
     1
1071
       59
1005
14161A
  0
LINE
  5
14161B
  8
OBJECT
 10
10062.0
 20
-283.0
 30
0.0
 11
10062.0
 21
-279.99999999999909
 31
0.0
1001
ACDBBLOCKREPETAG
1070
     1
1071
       60
1005
14161B
  0
ARC
  5
14161C
  8
OBJECT
 10
10059.0
 20
-283.0
 30
0.0
 40
3.0
 50
270.0
 51
0.0
1001
ACDBBLOCKREPETAG
1070
     1
1071
       61
1005
14161C
  0
LINE
  5
14161D
  8
OBJECT
 10
9938.0
 20
-279.99999999999909
 30
0.0
 11
9938.0
 21
-282.99999999999818
 31
0.0
1001
ACDBBLOCKREPETAG
1070
     1
1071
       62
1005
14161D
  0
ARC
  5
14161E
  8
OBJECT
 10
9941.0
 20
-282.99999999999818
 30
0.0
 40
3.0
 50
180.0
 51
270.0
1001
ACDBBLOCKREPETAG
1070
     1
1071
       63
1005
14161E
  0
LINE
  5
14161F
  8
OBJECT
 10
9941.0
 20
-285.99999999999818
 30
0.0
 11
10059.0
 21
-286.0
 31
0.0
1001
ACDBBLOCKREPETAG
1070
     1
1071
       64
1005
14161F
  0
LINE
  5
141620
  8
HIDDEN
 10
10044.5
 20
-287.99999999999909
 30
0.0
 11
9955.5
 21
-287.99999999999909
 31
0.0
1001
ACDBBLOCKREPETAG
1070
     1
1071
       65
1005
141620
  0
LINE
  5
141621
  8
OBJECT
 10
10200.0
 20
-124.9999999999991
 30
0.0
 11
10193.0
 21
-124.9999999999991
 31
0.0
1001
ACDBBLOCKREPETAG
1070
     1
1071
      135
1005
141621
  0
LINE
  5
141622
  8
OBJECT
 10
10193.0
 20
-124.9999999999991
 30
0.0
 11
10193.0
 21
-274.99999999999909
 31
0.0
1001
ACDBBLOCKREPETAG
1070
     1
1071
      136
1005
141622
  0
LINE
  5
141623
  8
OBJECT
 10
10151.5
 20
-127.9999999999991
 30
0.0
 11
10151.5
 21
-271.99999999999909
 31
0.0
1001
ACDBBLOCKREPETAG
1070
     1
1071
      137
1005
141623
  0
LINE
  5
141624
  8
OBJECT
 10
10140.0
 20
-134.49999999999909
 30
0.0
 11
10140.0
 21
-265.49999999999909
 31
0.0
1001
ACDBBLOCKREPETAG
1070
     1
1071
      138
1005
141624
  0
LINE
  5
141625
  8
OBJECT
 10
10193.0
 20
-274.99999999999909
 30
0.0
 11
10200.0
 21
-274.99999999999909
 31
0.0
1001
ACDBBLOCKREPETAG
1070
     1
1071
      139
1005
141625
  0
LINE
  5
141626
  8
OBJECT
 10
10200.0
 20
-274.99999999999909
 30
0.0
 11
10200.0
 21
-124.9999999999991
 31
0.0
1001
ACDBBLOCKREPETAG
1070
     1
1071
      140
1005
141626
  0
LINE
  5
141627
  8
HIDDEN
 10
10148.0
 20
-256.99999999999909
 30
0.0
 11
10148.0
 21
-142.99999999999909
 31
0.0
1001
ACDBBLOCKREPETAG
1070
     1
1071
      141
1005
141627
  0
LINE
  5
141628
  8
CENTER
 10
10215.0
 20
-199.99999999999909
 30
0.0
 11
10080.0
 21
-199.99999999999909
 31
0.0
1001
ACDBBLOCKREPETAG
1070
     1
1071
      142
1005
141628
  0
LINE
  5
141629
  8
OBJECT
 10
10136.0
 20
-261.99999999999909
 30
0.0
 11
10080.0
 21
-261.99999999999909
 31
0.0
1001
ACDBBLOCKREPETAG
1070
     1
1071
      143
1005
141629
  0
LINE
  5
14162A
  8
OBJECT
 10
10193.0
 20
-271.99999999999909
 30
0.0
 11
10151.5
 21
-271.99999999999909
 31
0.0
1001
ACDBBLOCKREPETAG
1070
     1
1071
      144
1005
14162A
  0
LINE
  5
14162B
  8
OBJECT
 10
10151.5
 20
-271.99999999999909
 30
0.0
 11
10140.0
 21
-265.49999999999909
 31
0.0
1001
ACDBBLOCKREPETAG
1070
     1
1071
      145
1005
14162B
  0
LINE
  5
14162C
  8
OBJECT
 10
10140.0
 20
-265.49999999999909
 30
0.0
 11
10136.0
 21
-261.99999999999909
 31
0.0
1001
ACDBBLOCKREPETAG
1070
     1
1071
      146
1005
14162C
  0
LINE
  5
14162D
  8
OBJECT
 10
10151.5
 20
-127.9999999999991
 30
0.0
 11
10140.0
 21
-134.49999999999909
 31
0.0
1001
ACDBBLOCKREPETAG
1070
     1
1071
      147
1005
14162D
  0
LINE
  5
14162E
  8
OBJECT
 10
10140.0
 20
-134.49999999999909
 30
0.0
 11
10136.0
 21
-137.99999999999909
 31
0.0
1001
ACDBBLOCKREPETAG
1070
     1
1071
      148
1005
14162E
  0
ARC
  5
14162F
  8
OBJECT
 10
10517.9
 20
-199.99999999999909
 30
0.0
 40
386.89999999999998
 50
170.77870136258679
 51
189.22129863741321
1001
ACDBBLOCKREPETAG
1070
     1
1071
      149
1005
14162F
  0
LINE
  5
141630
  8
OBJECT
 10
10136.0
 20
-137.99999999999909
 30
0.0
 11
10080.0
 21
-137.99999999999909
 31
0.0
1001
ACDBBLOCKREPETAG
1070
     1
1071
      150
1005
141630
  0
LINE
  5
141631
  8
OBJECT
 10
10193.0
 20
-127.9999999999991
 30
0.0
 11
10151.5
 21
-127.9999999999991
 31
0.0
1001
ACDBBLOCKREPETAG
1070
     1
1071
      151
1005
141631
  0
ARC
  5
141632
  8
OBJECT
 10
11662.33642381099
 20
-199.99999999999909
 30
0.0
 40
1545.58047021477
 50
177.70099855412801
 51
182.29900144587191
1001
ACDBBLOCKREPETAG
1070
     1
1071
      153
1005
141632
  0
ARC
  5
141633
  8
OBJECT
 10
11632.336423810861
 20
-199.99999999999909
 30
0.0
 40
1545.580470214647
 50
177.70099855412801
 51
182.29900144587191
1001
ACDBBLOCKREPETAG
1070
     1
1071
      154
1005
141633
  0
LINE
  5
141634
  8
OBJECT
 10
9917.0
 20
-634.0
 30
0.0
 11
9920.0
 21
-634.0
 31
0.0
1001
ACDBBLOCKREPETAG
1070
     1
1071
        1
1005
141634
  0
ARC
  5
141635
  8
OBJECT
 10
9917.0
 20
-637.0
 30
0.0
 40
3.0
 50
90.0
 51
180.0
1001
ACDBBLOCKREPETAG
1070
     1
1071
        2
1005
141635
  0
LINE
  5
141636
  8
OBJECT
 10
9920.0
 20
-758.0
 30
0.0
 11
9917.0
 21
-758.0
 31
0.0
1001
ACDBBLOCKREPETAG
1070
     1
1071
        3
1005
141636
  0
ARC
  5
141637
  8
OBJECT
 10
9917.0
 20
-755.0
 30
0.0
 40
3.0
 50
180.0
 51
270.0
1001
ACDBBLOCKREPETAG
1070
     1
1071
        4
1005
141637
  0
LINE
  5
141638
  8
OBJECT
 10
9914.0
 20
-755.0
 30
0.0
 11
9914.0
 21
-637.0
 31
0.0
1001
ACDBBLOCKREPETAG
1070
     1
1071
        5
1005
141638
  0
LINE
  5
141639
  8
OBJECT
 10
10080.0
 20
-758.0
 30
0.0
 11
10089.244046403781
 21
-758.0
 31
0.0
1001
ACDBBLOCKREPETAG
1070
     1
1071
      130
1005
141639
  0
LINE
  5
14163A
  8
OBJECT
 10
10086.75595359621
 20
-634.0
 30
0.0
 11
10080.0
 21
-634.0
 31
0.0
1001
ACDBBLOCKREPETAG
1070
     1
1071
      131
1005
14163A
  0
LINE
  5
14163B
  8
OBJECT
 10
10086.75595359621
 20
-634.0
 30
0.0
 11
10116.755953596219
 21
-616.0
 31
0.0
1001
ACDBBLOCKREPETAG
1070
     1
1071
      132
1005
14163B
  0
LINE
  5
14163C
  8
OBJECT
 10
10116.755953596219
 20
-616.0
 30
0.0
 11
10130.0
 21
-616.0000000000008
 31
0.0
1001
ACDBBLOCKREPETAG
1070
     1
1071
      133
1005
14163C
  0
LINE
  5
14163D
  8
OBJECT
 10
10130.0
 20
-740.0
 30
0.0
 11
10119.244046403781
 21
-740.00000000000102
 31
0.0
1001
ACDBBLOCKREPETAG
1070
     1
1071
      134
1005
14163D
  0
LINE
  5
14163E
  8
OBJECT
 10
10119.244046403781
 20
-740.00000000000102
 30
0.0
 11
10089.244046403781
 21
-758.0
 31
0.0
1001
ACDBBLOCKREPETAG
1070
     1
1071
      135
1005
14163E
  0
LINE
  5
14163F
  8
OBJECT
 10
10086.75595359621
 20
-634.0
 30
0.0
 11
10089.244046403781
 21
-758.0
 31
0.0
1001
ACDBBLOCKREPETAG
1070
     1
1071
      136
1005
14163F
  0
LINE
  5
141640
  8
OBJECT
 10
10119.244046403781
 20
-740.00000000000102
 30
0.0
 11
10116.755953596219
 21
-616.0
 31
0.0
1001
ACDBBLOCKREPETAG
1070
     1
1071
      137
1005
141640
  0
LINE
  5
141641
  8
OBJECT
 10
10200.0
 20
-590.0
 30
0.0
 11
10193.0
 21
-590.0
 31
0.0
1001
ACDBBLOCKREPETAG
1070
     1
1071
      138
1005
141641
  0
LINE
  5
141642
  8
OBJECT
 10
10193.0
 20
-590.0
 30
0.0
 11
10193.0
 21
-737.0
 31
0.0
1001
ACDBBLOCKREPETAG
1070
     1
1071
      139
1005
141642
  0
LINE
  5
141643
  8
OBJECT
 10
10151.5
 20
-593.0
 30
0.0
 11
10151.5
 21
-737.0
 31
0.0
1001
ACDBBLOCKREPETAG
1070
     1
1071
      140
1005
141643
  0
LINE
  5
141644
  8
OBJECT
 10
10140.0
 20
-599.5
 30
0.0
 11
10140.0
 21
-730.49999999999989
 31
0.0
1001
ACDBBLOCKREPETAG
1070
     1
1071
      141
1005
141644
  0
LINE
  5
141645
  8
OBJECT
 10
10136.0
 20
-671.50000000000625
 30
0.0
 11
10136.0
 21
-737.0
 31
0.0
1001
ACDBBLOCKREPETAG
1070
     1
1071
      142
1005
141645
  0
LINE
  5
141646
  8
OBJECT
 10
10200.0
 20
-737.0
 30
0.0
 11
10200.0
 21
-590.0
 31
0.0
1001
ACDBBLOCKREPETAG
1070
     1
1071
      143
1005
141646
  0
LINE
  5
141647
  8
CENTER
 10
10215.0
 20
-665.0
 30
0.0
 11
10120.41441441441
 21
-665.0
 31
0.0
1001
ACDBBLOCKREPETAG
1070
     1
1071
      144
1005
141647
  0
LINE
  5
141648
  8
OBJECT
 10
10133.0
 20
-740.0
 30
0.0
 11
10130.0
 21
-740.0
 31
0.0
1001
ACDBBLOCKREPETAG
1070
     1
1071
      145
1005
141648
  0
ARC
  5
141649
  8
OBJECT
 10
10133.0
 20
-737.0
 30
0.0
 40
3.0
 50
270.0
 51
350.69274391267629
1001
ACDBBLOCKREPETAG
1070
     1
1071
      146
1005
141649
  0
ARC
  5
14164A
  8
OBJECT
 10
10141.881517183059
 20
-738.45555918014554
 30
0.0
 40
6.0
 50
60.524110996874072
 51
170.69274391267621
1001
ACDBBLOCKREPETAG
1070
     1
1071
      147
1005
14164A
  0
LINE
  5
14164B
  8
OBJECT
 10
10131.0
 20
-616.0000000000008
 30
0.0
 11
10130.0
 21
-616.0000000000008
 31
0.0
1001
ACDBBLOCKREPETAG
1070
     1
1071
      148
1005
14164B
  0
LINE
  5
14164C
  8
OBJECT
 10
10200.0
 20
-737.0
 30
0.0
 11
10151.5
 21
-737.0
 31
0.0
1001
ACDBBLOCKREPETAG
1070
     1
1071
      149
1005
14164C
  0
LINE
  5
14164D
  8
OBJECT
 10
10151.5
 20
-593.0
 30
0.0
 11
10140.0
 21
-599.5
 31
0.0
1001
ACDBBLOCKREPETAG
1070
     1
1071
      150
1005
14164D
  0
LINE
  5
14164E
  8
OBJECT
 10
10193.0
 20
-593.0
 30
0.0
 11
10151.5
 21
-593.0
 31
0.0
1001
ACDBBLOCKREPETAG
1070
     1
1071
      151
1005
14164E
  0
LINE
  5
14164F
  8
OBJECT
 10
10140.0
 20
-599.5
 30
0.0
 11
10131.0
 21
-616.0
 31
0.0
1001
ACDBBLOCKREPETAG
1070
     1
1071
      152
1005
14164F
  0
LINE
  5
141650
  8
OBJECT
 10
10136.0
 20
-671.50000000000625
 30
0.0
 11
10131.0
 21
-616.0000000000008
 31
0.0
1001
ACDBBLOCKREPETAG
1070
     1
1071
      153
1005
141650
  0
LINE
  5
141651
  8
OBJECT
 10
10151.5
 20
-737.0
 30
0.0
 11
10144.833860723071
 21
-733.23218214782253
 31
0.0
1001
ACDBBLOCKREPETAG
1070
     1
1071
      154
1005
141651
  0
LINE
  5
141652
  8
HIDDEN
 10
10148.0
 20
-722.0
 30
0.0
 11
10148.0
 21
-608.0
 31
0.0
1001
ACDBBLOCKREPETAG
1070
     1
1071
      155
1005
141652
  0
LINE
  5
141653
  8
CENTER
 10
8077.0
 20
-696.0
 30
0.0
 11
7923.0
 21
-696.0
 31
0.0
1001
ACDBBLOCKREPETAG
1070
     1
1071
       17
1005
141653
  0
CIRCLE
  5
141654
  8
OBJECT
 10
8000.0
 20
-696.0
 30
0.0
 40
41.5
1001
ACDBBLOCKREPETAG
1070
     1
1071
       19
1005
141654
  0
CIRCLE
  5
141655
  8
OBJECT
 10
8000.0
 20
-696.0
 30
0.0
 40
54.0
1001
ACDBBLOCKREPETAG
1070
     1
1071
       20
1005
141655
  0
ARC
  5
141656
  8
OBJECT
 10
8000.0
 20
-696.0
 30
0.0
 40
62.0
 50
287.89655112920718
 51
252.10344887079279
1001
ACDBBLOCKREPETAG
1070
     1
1071
       21
1005
141656
  0
LINE
  5
141657
  8
OBJECT
 10
7980.947441116743
 20
-755.0
 30
0.0
 11
8019.0525588832579
 21
-755.0
 31
0.0
1001
ACDBBLOCKREPETAG
1070
     1
1071
       22
1005
141657
  0
LINE
  5
141658
  8
CENTER
 10
8000.0
 20
-613.99999999999966
 30
0.0
 11
8000.0
 21
-889.99999999999955
 31
0.0
1001
ACDBBLOCKREPETAG
1070
     1
1071
       34
1005
141658
  0
LINE
  5
141659
  8
OBJECT
 10
7920.0
 20
-877.99999999999955
 30
0.0
 11
8080.0
 21
-877.99999999999955
 31
0.0
1001
ACDBBLOCKREPETAG
1070
     1
1071
       35
1005
141659
  0
LINE
  5
14165A
  8
OBJECT
 10
8080.0
 20
-633.99999999999955
 30
0.0
 11
7920.0
 21
-633.99999999999955
 31
0.0
1001
ACDBBLOCKREPETAG
1070
     1
1071
       36
1005
14165A
  0
LINE
  5
14165B
  8
OBJECT
 10
7920.0
 20
-877.99999999999955
 30
0.0
 11
7920.0
 21
-889.99999999999955
 31
0.0
1001
ACDBBLOCKREPETAG
1070
     1
1071
       37
1005
14165B
  0
LINE
  5
14165C
  8
OBJECT
 10
7920.0
 20
-889.99999999999955
 30
0.0
 11
8080.0
 21
-889.99999999999955
 31
0.0
1001
ACDBBLOCKREPETAG
1070
     1
1071
       38
1005
14165C
  0
LINE
  5
14165D
  8
OBJECT
 10
8080.0
 20
-889.99999999999955
 30
0.0
 11
8080.0
 21
-877.99999999999955
 31
0.0
1001
ACDBBLOCKREPETAG
1070
     1
1071
       39
1005
14165D
  0
LINE
  5
14165E
  8
OBJECT
 10
8074.9999999998618
 20
-757.99999999985016
 30
0.0
 11
8075.0
 21
-877.99999999999955
 31
0.0
1001
ACDBBLOCKREPETAG
1070
     1
1071
       43
1005
14165E
  0
LINE
  5
14165F
  8
OBJECT
 10
8074.9999908029858
 20
-757.99998602702112
 30
0.0
 11
8080.0
 21
-757.99998602702112
 31
0.0
1001
ACDBBLOCKREPETAG
1070
     1
1071
       44
1005
14165F
  0
LINE
  5
141660
  8
OBJECT
 10
7925.0000000001382
 20
-757.99999999985016
 30
0.0
 11
7925.0
 21
-877.99999999999955
 31
0.0
1001
ACDBBLOCKREPETAG
1070
     1
1071
       45
1005
141660
  0
LINE
  5
141661
  8
OBJECT
 10
7925.0000091970132
 20
-757.99998602702112
 30
0.0
 11
7920.0
 21
-757.99998602702112
 31
0.0
1001
ACDBBLOCKREPETAG
1070
     1
1071
       46
1005
141661
  0
LINE
  5
141662
  8
OBJECT
 10
8060.0
 20
-628.99999999999955
 30
0.0
 11
7940.0
 21
-628.99999999999955
 31
0.0
1001
ACDBBLOCKREPETAG
1070
     1
1071
       47
1005
141662
  0
ARC
  5
141663
  8
OBJECT
 10
7940.0
 20
-631.99999999999955
 30
0.0
 40
3.0
 50
90.0
 51
180.0
1001
ACDBBLOCKREPETAG
1070
     1
1071
       48
1005
141663
  0
LINE
  5
141664
  8
OBJECT
 10
7937.0
 20
-631.99999999999955
 30
0.0
 11
7937.0
 21
-633.99999999999955
 31
0.0
1001
ACDBBLOCKREPETAG
1070
     1
1071
       49
1005
141664
  0
LINE
  5
141665
  8
OBJECT
 10
8063.0
 20
-631.99999999999955
 30
0.0
 11
8063.0
 21
-633.99999999999955
 31
0.0
1001
ACDBBLOCKREPETAG
1070
     1
1071
       50
1005
141665
  0
ARC
  5
141666
  8
OBJECT
 10
8060.0
 20
-631.99999999999955
 30
0.0
 40
3.0
 50
0.0
 51
90.0
1001
ACDBBLOCKREPETAG
1070
     1
1071
       51
1005
141666
  0
ARC
  5
141667
  8
OBJECT
 10
8200.6872746716726
 20
-749.40809941010718
 30
0.0
 40
170.6350503965856
 50
137.44134459184301
 51
149.91949581337221
1001
ACDBBLOCKREPETAG
1070
     1
1071
       52
1005
141667
  0
ARC
  5
141668
  8
OBJECT
 10
8200.6872746716726
 20
-642.59190058989179
 30
0.0
 40
170.6350503965856
 50
210.08050418662771
 51
222.55865540815699
1001
ACDBBLOCKREPETAG
1070
     1
1071
       53
1005
141668
  0
ARC
  5
141669
  8
OBJECT
 10
7799.3127253283265
 20
-749.40809941010718
 30
0.0
 40
170.6350503965856
 50
30.08050418662782
 51
42.558655408456282
1001
ACDBBLOCKREPETAG
1070
     1
1071
       54
1005
141669
  0
ARC
  5
14166A
  8
OBJECT
 10
7799.3127253283265
 20
-642.59190058989179
 30
0.0
 40
170.6350503965856
 50
317.44134459154373
 51
329.91949581337218
1001
ACDBBLOCKREPETAG
1070
     1
1071
       55
1005
14166A
  0
POINT
  5
14166B
  8
DOTS
 10
8000.0
 20
-754.99999999999955
 30
0.0
1001
ACDBBLOCKREPETAG
1070
     1
1071
      133
1005
14166B
  0
LINE
  5
14166C
  8
SLIM
 10
7954.2369265471707
 20
-137.99999999999909
 30
0.0
 11
7972.7507744763334
 21
-119.4861520708364
 31
0.0
1001
GRADIENTCOLOR1ACI
1070
     5
1001
GRADIENTCOLOR2ACI
1070
     2
1001
ACAD
1010
0.0
1020
0.0
1030
0.0
1001
ACDBBLOCKREPETAG
1070
     1
1071
      441
1005
14166C
  0
LINE
  5
14166D
  8
SLIM
 10
7969.9215079962914
 20
-131.2956746719467
 30
0.0
 11
7984.8575146748608
 21
-116.359667993377
 31
0.0
1001
GRADIENTCOLOR1ACI
1070
     5
1001
GRADIENTCOLOR2ACI
1070
     2
1001
ACAD
1010
0.0
1020
0.0
1030
0.0
1001
ACDBBLOCKREPETAG
1070
     1
1071
      442
1005
14166D
  0
LINE
  5
14166E
  8
SLIM
 10
7983.3188363327517
 20
-126.87860245655401
 30
0.0
 11
7995.0533812002559
 21
-115.1440575890517
 31
0.0
1001
GRADIENTCOLOR1ACI
1070
     5
1001
GRADIENTCOLOR2ACI
1070
     2
1001
ACAD
1010
0.0
1020
0.0
1030
0.0
1001
ACDBBLOCKREPETAG
1070
     1
1071
      443
1005
14166E
  0
LINE
  5
14166F
  8
SLIM
 10
7993.9318052485969
 20
-125.245889661777
 30
0.0
 11
8000.0
 21
-119.1776949103767
 31
0.0
1001
GRADIENTCOLOR1ACI
1070
     5
1001
GRADIENTCOLOR2ACI
1070
     2
1001
ACAD
1010
0.0
1020
0.0
1030
0.0
1001
ACDBBLOCKREPETAG
1070
     1
1071
      444
1005
14166F
  0
LINE
  5
141670
  8
SLIM
 10
8000.0
 20
-119.1776949103767
 30
0.0
 11
8004.0797313529074
 21
-115.0979635574724
 31
0.0
1001
GRADIENTCOLOR1ACI
1070
     5
1001
GRADIENTCOLOR2ACI
1070
     2
1001
ACAD
1010
0.0
1020
0.0
1030
0.0
1001
ACDBBLOCKREPETAG
1070
     1
1071
      445
1005
141670
  0
LINE
  5
141671
  8
SLIM
 10
8003.0941007878528
 20
-125.0638502435924
 30
0.0
 11
8012.2679784105749
 21
-115.88997262087101
 31
0.0
1001
GRADIENTCOLOR1ACI
1070
     5
1001
GRADIENTCOLOR2ACI
1070
     2
1001
ACAD
1010
0.0
1020
0.0
1030
0.0
1001
ACDBBLOCKREPETAG
1070
     1
1071
      446
1005
141671
  0
LINE
  5
141672
  8
SLIM
 10
8011.284425768652
 20
-125.85378138386341
 30
0.0
 11
8019.7999414573624
 21
-117.3382656951526
 31
0.0
1001
GRADIENTCOLOR1ACI
1070
     5
1001
GRADIENTCOLOR2ACI
1070
     2
1001
ACAD
1010
0.0
1020
0.0
1030
0.0
1001
ACDBBLOCKREPETAG
1070
     1
1071
      447
1005
141672
  0
LINE
  5
141673
  8
SLIM
 10
8018.7395884655189
 20
-127.3788748080627
 30
0.0
 11
8026.7872038672767
 21
-119.3312594063044
 31
0.0
1001
GRADIENTCOLOR1ACI
1070
     5
1001
GRADIENTCOLOR2ACI
1070
     2
1001
ACAD
1010
0.0
1020
0.0
1030
0.0
1001
ACDBBLOCKREPETAG
1070
     1
1071
      448
1005
141673
  0
LINE
  5
141674
  8
SLIM
 10
8025.5958866269621
 20
-129.50283276769261
 30
0.0
 11
8033.3030030760328
 21
-121.7957163186195
 31
0.0
1001
GRADIENTCOLOR1ACI
1070
     5
1001
GRADIENTCOLOR2ACI
1070
     2
1001
ACAD
1010
0.0
1020
0.0
1030
0.0
1001
ACDBBLOCKREPETAG
1070
     1
1071
      449
1005
141674
  0
LINE
  5
141675
  8
SLIM
 10
8031.9385859461063
 20
-132.1403895696169
 30
0.0
 11
8039.3973119843777
 21
-124.6816635313439
 31
0.0
1001
GRADIENTCOLOR1ACI
1070
     5
1001
GRADIENTCOLOR2ACI
1070
     2
1001
ACAD
1010
0.0
1020
0.0
1030
0.0
1001
ACDBBLOCKREPETAG
1070
     1
1071
      450
1005
141675
  0
LINE
  5
141676
  8
SLIM
 10
8037.8233654376218
 20
-135.2358661991679
 30
0.0
 11
8045.1047705343699
 21
-127.95446110242381
 31
0.0
1001
GRADIENTCOLOR1ACI
1070
     5
1001
GRADIENTCOLOR2ACI
1070
     2
1001
ACAD
1010
0.0
1020
0.0
1030
0.0
1001
ACDBBLOCKREPETAG
1070
     1
1071
      451
1005
141676
  0
LINE
  5
141677
  8
SLIM
 10
8044.0394877578619
 20
-137.99999999999909
 30
0.0
 11
8050.449155789197
 21
-131.59033196866449
 31
0.0
1001
GRADIENTCOLOR1ACI
1070
     5
1001
GRADIENTCOLOR2ACI
1070
     2
1001
ACAD
1010
0.0
1020
0.0
1030
0.0
1001
ACDBBLOCKREPETAG
1070
     1
1071
      452
1005
141677
  0
LINE
  5
141678
  8
SLIM
 10
8053.0197438789319
 20
-137.99999999999909
 30
0.0
 11
8055.4459941864034
 21
-135.57374969252561
 31
0.0
1001
GRADIENTCOLOR1ACI
1070
     5
1001
GRADIENTCOLOR2ACI
1070
     2
1001
ACAD
1010
0.0
1020
0.0
1030
0.0
1001
ACDBBLOCKREPETAG
1070
     1
1071
      453
1005
141678
  0
LINE
  5
141679
  8
CENTER
 10
8000.0
 20
-279.99999999999909
 30
0.0
 11
8000.0
 21
-99.999999999999091
 31
0.0
1001
ACDBBLOCKREPETAG
1070
     1
1071
      160
1005
141679
  0
LINE
  5
14167A
  8
OBJECT
 10
8042.2018956920156
 20
-137.99999999999909
 30
0.0
 11
8080.0
 21
-137.99999999999909
 31
0.0
1001
ACDBBLOCKREPETAG
1070
     1
1071
      164
1005
14167A
  0
LINE
  5
14167B
  8
OBJECT
 10
8062.0
 20
-261.99999999999909
 30
0.0
 11
8080.0
 21
-261.99999999999909
 31
0.0
1001
ACDBBLOCKREPETAG
1070
     1
1071
      165
1005
14167B
  0
LINE
  5
14167C
  8
OBJECT
 10
8062.0
 20
-261.99999999999909
 30
0.0
 11
8062.0
 21
-279.99999999999909
 31
0.0
1001
ACDBBLOCKREPETAG
1070
     1
1071
      167
1005
14167C
  0
LINE
  5
14167D
  8
OBJECT
 10
7938.0
 20
-261.99999999999909
 30
0.0
 11
7938.0
 21
-279.99999999999909
 31
0.0
1001
ACDBBLOCKREPETAG
1070
     1
1071
      168
1005
14167D
  0
LINE
  5
14167E
  8
OBJECT
 10
7938.0
 20
-261.99999999999909
 30
0.0
 11
7920.0
 21
-261.99999999999909
 31
0.0
1001
ACDBBLOCKREPETAG
1070
     1
1071
      170
1005
14167E
  0
LINE
  5
14167F
  8
OBJECT
 10
7957.7981043079817
 20
-137.99999999999909
 30
0.0
 11
7920.0
 21
-137.99999999999909
 31
0.0
1001
ACDBBLOCKREPETAG
1070
     1
1071
      171
1005
14167F
  0
LINE
  5
141680
  8
OBJECT
 10
7946.9669914110091
 20
-253.03300858899021
 30
0.0
 11
7938.0
 21
-261.99999999999909
 31
0.0
1001
ACDBBLOCKREPETAG
1070
     1
1071
      180
1005
141680
  0
LINE
  5
141681
  8
OBJECT
 10
8053.0330085889909
 20
-253.03300858899021
 30
0.0
 11
8062.0
 21
-261.99999999999909
 31
0.0
1001
ACDBBLOCKREPETAG
1070
     1
1071
      181
1005
141681
  0
ARC
  5
141682
  8
OBJECT
 10
8000.0
 20
-199.99999999999909
 30
0.0
 40
85.0
 50
46.837102859806208
 51
133.16289714019371
1001
ACDBBLOCKREPETAG
1070
     1
1071
      183
1005
141682
  0
POINT
  5
141683
  8
DOTS
 10
8000.0
 20
-199.99999999999909
 30
0.0
 50
270.0
1001
ACDBBLOCKREPETAG
1070
     1
1071
      364
1005
141683
  0
LINE
  5
141684
  8
CENTER
 10
8080.0
 20
-199.99999999999909
 30
0.0
 11
7920.0
 21
-199.99999999999909
 31
0.0
1001
ACDBBLOCKREPETAG
1070
     1
1071
      158
1005
141684
  0
CIRCLE
  5
141685
  8
OBJECT
 10
8000.0
 20
-199.99999999999909
 30
0.0
 40
63.0
1001
ACDBBLOCKREPETAG
1070
     1
1071
      428
1005
141685
  0
CIRCLE
  5
141686
  8
OBJECT
 10
8000.0
 20
-199.99999999999909
 30
0.0
 40
75.0
1001
ACDBBLOCKREPETAG
1070
     1
1071
      429
1005
141686
  0
LINE
  5
141687
  8
CENTER
 10
7899.0
 20
-199.99999999999909
 30
0.0
 11
7920.0
 21
-199.99999999999909
 31
0.0
1001
ACDBBLOCKREPETAG
1070
     1
1071
        0
1005
141687
  0
LINE
  5
141688
  8
OBJECT
 10
7917.0
 20
-261.99999999999909
 30
0.0
 11
7920.0
 21
-261.99999999999909
 31
0.0
1001
ACDBBLOCKREPETAG
1070
     1
1071
        1
1005
141688
  0
ARC
  5
141689
  8
OBJECT
 10
7917.0
 20
-258.99999999999909
 30
0.0
 40
3.0
 50
180.0
 51
270.0
1001
ACDBBLOCKREPETAG
1070
     1
1071
        2
1005
141689
  0
LINE
  5
14168A
  8
OBJECT
 10
7920.0
 20
-137.99999999999909
 30
0.0
 11
7917.0
 21
-137.99999999999909
 31
0.0
1001
ACDBBLOCKREPETAG
1070
     1
1071
        3
1005
14168A
  0
ARC
  5
14168B
  8
OBJECT
 10
7917.0
 20
-140.99999999999909
 30
0.0
 40
3.0
 50
90.0
 51
180.0
1001
ACDBBLOCKREPETAG
1070
     1
1071
        4
1005
14168B
  0
LINE
  5
14168C
  8
OBJECT
 10
7914.0
 20
-140.99999999999909
 30
0.0
 11
7914.0
 21
-258.99999999999909
 31
0.0
1001
ACDBBLOCKREPETAG
1070
     1
1071
        5
1005
14168C
  0
LINE
  5
14168D
  8
OBJECT
 10
8062.0
 20
-332.99999999999898
 30
0.0
 11
8062.0
 21
-339.99999999999909
 31
0.0
1001
ACDBBLOCKREPETAG
1070
     1
1071
       47
1005
14168D
  0
LINE
  5
14168E
  8
OBJECT
 10
8062.0
 20
-339.99999999999909
 30
0.0
 11
7938.0
 21
-339.99999999999909
 31
0.0
1001
ACDBBLOCKREPETAG
1070
     1
1071
       48
1005
14168E
  0
LINE
  5
14168F
  8
OBJECT
 10
7938.0
 20
-339.99999999999909
 30
0.0
 11
7938.0
 21
-332.99999999999898
 31
0.0
1001
ACDBBLOCKREPETAG
1070
     1
1071
       49
1005
14168F
  0
LINE
  5
141690
  8
OBJECT
 10
7938.0
 20
-332.99999999999898
 30
0.0
 11
8062.0
 21
-332.99999999999898
 31
0.0
1001
ACDBBLOCKREPETAG
1070
     1
1071
       50
1005
141690
  0
LINE
  5
141691
  8
CENTER
 10
8000.0
 20
-354.99999999999909
 30
0.0
 11
8000.0
 21
-279.99999999999909
 31
0.0
1001
ACDBBLOCKREPETAG
1070
     1
1071
       51
1005
141691
  0
LINE
  5
141692
  8
OBJECT
 10
8059.0
 20
-332.99999999999898
 30
0.0
 11
8059.0
 21
-296.99999999999898
 31
0.0
1001
ACDBBLOCKREPETAG
1070
     1
1071
       52
1005
141692
  0
LINE
  5
141693
  8
OBJECT
 10
8059.0
 20
-296.99999999999898
 30
0.0
 11
7941.0
 21
-296.99999999999898
 31
0.0
1001
ACDBBLOCKREPETAG
1070
     1
1071
       53
1005
141693
  0
LINE
  5
141694
  8
OBJECT
 10
7941.0
 20
-296.99999999999898
 30
0.0
 11
7941.0
 21
-332.99999999999898
 31
0.0
1001
ACDBBLOCKREPETAG
1070
     1
1071
       54
1005
141694
  0
LINE
  5
141695
  8
OBJECT
 10
8054.5
 20
-292.99999999999898
 30
0.0
 11
8054.5
 21
-285.99999999999898
 31
0.0
1001
ACDBBLOCKREPETAG
1070
     1
1071
       55
1005
141695
  0
LINE
  5
141696
  8
OBJECT
 10
7945.5
 20
-285.99999999999898
 30
0.0
 11
7945.5
 21
-292.99999999999898
 31
0.0
1001
ACDBBLOCKREPETAG
1070
     1
1071
       56
1005
141696
  0
LINE
  5
141697
  8
OBJECT
 10
7945.5
 20
-292.99999999999898
 30
0.0
 11
8054.5
 21
-292.99999999999898
 31
0.0
1001
ACDBBLOCKREPETAG
1070
     1
1071
       57
1005
141697
  0
LINE
  5
141698
  8
OBJECT
 10
8059.0
 20
-296.99999999999898
 30
0.0
 11
8054.5
 21
-292.99999999999898
 31
0.0
1001
ACDBBLOCKREPETAG
1070
     1
1071
       58
1005
141698
  0
LINE
  5
141699
  8
OBJECT
 10
7941.0
 20
-296.99999999999898
 30
0.0
 11
7945.5
 21
-292.99999999999898
 31
0.0
1001
ACDBBLOCKREPETAG
1070
     1
1071
       59
1005
141699
  0
LINE
  5
14169A
  8
OBJECT
 10
8062.0
 20
-283.0
 30
0.0
 11
8062.0
 21
-279.99999999999909
 31
0.0
1001
ACDBBLOCKREPETAG
1070
     1
1071
       60
1005
14169A
  0
ARC
  5
14169B
  8
OBJECT
 10
8059.0
 20
-283.0
 30
0.0
 40
3.0
 50
270.0
 51
0.0
1001
ACDBBLOCKREPETAG
1070
     1
1071
       61
1005
14169B
  0
LINE
  5
14169C
  8
OBJECT
 10
7938.0
 20
-279.99999999999909
 30
0.0
 11
7938.0
 21
-282.99999999999818
 31
0.0
1001
ACDBBLOCKREPETAG
1070
     1
1071
       62
1005
14169C
  0
ARC
  5
14169D
  8
OBJECT
 10
7941.0
 20
-282.99999999999818
 30
0.0
 40
3.0
 50
180.0
 51
270.0
1001
ACDBBLOCKREPETAG
1070
     1
1071
       63
1005
14169D
  0
LINE
  5
14169E
  8
OBJECT
 10
7941.0
 20
-285.99999999999818
 30
0.0
 11
8059.0
 21
-286.0
 31
0.0
1001
ACDBBLOCKREPETAG
1070
     1
1071
       64
1005
14169E
  0
LINE
  5
14169F
  8
HIDDEN
 10
8044.5000000000036
 20
-287.99999999999909
 30
0.0
 11
7955.5
 21
-287.99999999999909
 31
0.0
1001
ACDBBLOCKREPETAG
1070
     1
1071
       65
1005
14169F
  0
LINE
  5
1416A0
  8
OBJECT
 10
8200.0
 20
-124.9999999999991
 30
0.0
 11
8193.0
 21
-124.9999999999991
 31
0.0
1001
ACDBBLOCKREPETAG
1070
     1
1071
      135
1005
1416A0
  0
LINE
  5
1416A1
  8
OBJECT
 10
8193.0
 20
-124.9999999999991
 30
0.0
 11
8193.0
 21
-274.99999999999909
 31
0.0
1001
ACDBBLOCKREPETAG
1070
     1
1071
      136
1005
1416A1
  0
LINE
  5
1416A2
  8
OBJECT
 10
8151.5
 20
-127.9999999999991
 30
0.0
 11
8151.5
 21
-271.99999999999909
 31
0.0
1001
ACDBBLOCKREPETAG
1070
     1
1071
      137
1005
1416A2
  0
LINE
  5
1416A3
  8
OBJECT
 10
8140.0
 20
-134.49999999999909
 30
0.0
 11
8140.0
 21
-265.49999999999909
 31
0.0
1001
ACDBBLOCKREPETAG
1070
     1
1071
      138
1005
1416A3
  0
LINE
  5
1416A4
  8
OBJECT
 10
8193.0
 20
-274.99999999999909
 30
0.0
 11
8200.0
 21
-274.99999999999909
 31
0.0
1001
ACDBBLOCKREPETAG
1070
     1
1071
      139
1005
1416A4
  0
LINE
  5
1416A5
  8
OBJECT
 10
8200.0
 20
-274.99999999999909
 30
0.0
 11
8200.0
 21
-124.9999999999991
 31
0.0
1001
ACDBBLOCKREPETAG
1070
     1
1071
      140
1005
1416A5
  0
LINE
  5
1416A6
  8
HIDDEN
 10
8148.0
 20
-256.99999999999909
 30
0.0
 11
8148.0
 21
-142.99999999999909
 31
0.0
1001
ACDBBLOCKREPETAG
1070
     1
1071
      141
1005
1416A6
  0
LINE
  5
1416A7
  8
CENTER
 10
8215.0
 20
-199.99999999999909
 30
0.0
 11
8080.0
 21
-199.99999999999909
 31
0.0
1001
ACDBBLOCKREPETAG
1070
     1
1071
      142
1005
1416A7
  0
LINE
  5
1416A8
  8
OBJECT
 10
8136.0
 20
-261.99999999999909
 30
0.0
 11
8080.0
 21
-261.99999999999909
 31
0.0
1001
ACDBBLOCKREPETAG
1070
     1
1071
      143
1005
1416A8
  0
LINE
  5
1416A9
  8
OBJECT
 10
8193.0
 20
-271.99999999999909
 30
0.0
 11
8151.5
 21
-271.99999999999909
 31
0.0
1001
ACDBBLOCKREPETAG
1070
     1
1071
      144
1005
1416A9
  0
LINE
  5
1416AA
  8
OBJECT
 10
8151.5
 20
-271.99999999999909
 30
0.0
 11
8140.0
 21
-265.49999999999909
 31
0.0
1001
ACDBBLOCKREPETAG
1070
     1
1071
      145
1005
1416AA
  0
LINE
  5
1416AB
  8
OBJECT
 10
8140.0
 20
-265.49999999999909
 30
0.0
 11
8136.0
 21
-261.99999999999909
 31
0.0
1001
ACDBBLOCKREPETAG
1070
     1
1071
      146
1005
1416AB
  0
LINE
  5
1416AC
  8
OBJECT
 10
8151.5
 20
-127.9999999999991
 30
0.0
 11
8140.0
 21
-134.49999999999909
 31
0.0
1001
ACDBBLOCKREPETAG
1070
     1
1071
      147
1005
1416AC
  0
LINE
  5
1416AD
  8
OBJECT
 10
8140.0
 20
-134.49999999999909
 30
0.0
 11
8136.0
 21
-137.99999999999909
 31
0.0
1001
ACDBBLOCKREPETAG
1070
     1
1071
      148
1005
1416AD
  0
ARC
  5
1416AE
  8
OBJECT
 10
8517.9000000000015
 20
-199.99999999999909
 30
0.0
 40
386.89999999999998
 50
170.7787013625784
 51
189.22129863742151
1001
ACDBBLOCKREPETAG
1070
     1
1071
      149
1005
1416AE
  0
LINE
  5
1416AF
  8
OBJECT
 10
8136.0
 20
-137.99999999999909
 30
0.0
 11
8080.0
 21
-137.99999999999909
 31
0.0
1001
ACDBBLOCKREPETAG
1070
     1
1071
      150
1005
1416AF
  0
LINE
  5
1416B0
  8
OBJECT
 10
8193.0
 20
-127.9999999999991
 30
0.0
 11
8151.5
 21
-127.9999999999991
 31
0.0
1001
ACDBBLOCKREPETAG
1070
     1
1071
      151
1005
1416B0
  0
ARC
  5
1416B1
  8
OBJECT
 10
9662.3364238109916
 20
-199.99999999999909
 30
0.0
 40
1545.58047021477
 50
177.70099855412801
 51
182.29900144587191
1001
ACDBBLOCKREPETAG
1070
     1
1071
      153
1005
1416B1
  0
ARC
  5
1416B2
  8
OBJECT
 10
9632.3364238108625
 20
-199.99999999999909
 30
0.0
 40
1545.580470214647
 50
177.70099855412801
 51
182.29900144587191
1001
ACDBBLOCKREPETAG
1070
     1
1071
      154
1005
1416B2
  0
LINE
  5
1416B3
  8
OBJECT
 10
7917.0
 20
-634.0
 30
0.0
 11
7920.0
 21
-634.0
 31
0.0
1001
ACDBBLOCKREPETAG
1070
     1
1071
        1
1005
1416B3
  0
ARC
  5
1416B4
  8
OBJECT
 10
7917.0
 20
-637.0
 30
0.0
 40
3.0
 50
90.0
 51
180.0
1001
ACDBBLOCKREPETAG
1070
     1
1071
        2
1005
1416B4
  0
LINE
  5
1416B5
  8
OBJECT
 10
7920.0
 20
-758.0
 30
0.0
 11
7917.0
 21
-758.0
 31
0.0
1001
ACDBBLOCKREPETAG
1070
     1
1071
        3
1005
1416B5
  0
ARC
  5
1416B6
  8
OBJECT
 10
7917.0
 20
-755.0
 30
0.0
 40
3.0
 50
180.0
 51
270.0
1001
ACDBBLOCKREPETAG
1070
     1
1071
        4
1005
1416B6
  0
LINE
  5
1416B7
  8
OBJECT
 10
7914.0
 20
-755.0
 30
0.0
 11
7914.0
 21
-637.0
 31
0.0
1001
ACDBBLOCKREPETAG
1070
     1
1071
        5
1005
1416B7
  0
LINE
  5
1416B8
  8
OBJECT
 10
8079.9999999999964
 20
-758.0
 30
0.0
 11
8089.2440464037791
 21
-758.0
 31
0.0
1001
ACDBBLOCKREPETAG
1070
     1
1071
      130
1005
1416B8
  0
LINE
  5
1416B9
  8
OBJECT
 10
8086.7559535962146
 20
-634.0
 30
0.0
 11
8080.0000000000027
 21
-634.0
 31
0.0
1001
ACDBBLOCKREPETAG
1070
     1
1071
      131
1005
1416B9
  0
LINE
  5
1416BA
  8
OBJECT
 10
8086.7559535962146
 20
-634.0
 30
0.0
 11
8116.7559535962228
 21
-616.0
 31
0.0
1001
ACDBBLOCKREPETAG
1070
     1
1071
      132
1005
1416BA
  0
LINE
  5
1416BB
  8
OBJECT
 10
8116.7559535962228
 20
-616.0
 30
0.0
 11
8130.0
 21
-616.0000000000008
 31
0.0
1001
ACDBBLOCKREPETAG
1070
     1
1071
      133
1005
1416BB
  0
LINE
  5
1416BC
  8
OBJECT
 10
8130.0000000000018
 20
-740.0
 30
0.0
 11
8119.2440464037854
 21
-740.00000000000102
 31
0.0
1001
ACDBBLOCKREPETAG
1070
     1
1071
      134
1005
1416BC
  0
LINE
  5
1416BD
  8
OBJECT
 10
8119.2440464037854
 20
-740.00000000000102
 30
0.0
 11
8089.2440464037791
 21
-758.0
 31
0.0
1001
ACDBBLOCKREPETAG
1070
     1
1071
      135
1005
1416BD
  0
LINE
  5
1416BE
  8
OBJECT
 10
8086.7559535962146
 20
-634.0
 30
0.0
 11
8089.2440464037791
 21
-758.0
 31
0.0
1001
ACDBBLOCKREPETAG
1070
     1
1071
      136
1005
1416BE
  0
LINE
  5
1416BF
  8
OBJECT
 10
8119.2440464037854
 20
-740.00000000000102
 30
0.0
 11
8116.7559535962228
 21
-616.0
 31
0.0
1001
ACDBBLOCKREPETAG
1070
     1
1071
      137
1005
1416BF
  0
LINE
  5
1416C0
  8
OBJECT
 10
8200.0
 20
-590.0
 30
0.0
 11
8193.0
 21
-590.0
 31
0.0
1001
ACDBBLOCKREPETAG
1070
     1
1071
      138
1005
1416C0
  0
LINE
  5
1416C1
  8
OBJECT
 10
8193.0
 20
-590.0
 30
0.0
 11
8193.0
 21
-737.0
 31
0.0
1001
ACDBBLOCKREPETAG
1070
     1
1071
      139
1005
1416C1
  0
LINE
  5
1416C2
  8
OBJECT
 10
8151.5
 20
-593.0
 30
0.0
 11
8151.5
 21
-737.0
 31
0.0
1001
ACDBBLOCKREPETAG
1070
     1
1071
      140
1005
1416C2
  0
LINE
  5
1416C3
  8
OBJECT
 10
8140.0
 20
-599.5
 30
0.0
 11
8140.0
 21
-730.49999999999989
 31
0.0
1001
ACDBBLOCKREPETAG
1070
     1
1071
      141
1005
1416C3
  0
LINE
  5
1416C4
  8
OBJECT
 10
8136.0
 20
-671.50000000000625
 30
0.0
 11
8136.0
 21
-737.0
 31
0.0
1001
ACDBBLOCKREPETAG
1070
     1
1071
      142
1005
1416C4
  0
LINE
  5
1416C5
  8
OBJECT
 10
8200.0
 20
-737.0
 30
0.0
 11
8200.0
 21
-590.0
 31
0.0
1001
ACDBBLOCKREPETAG
1070
     1
1071
      143
1005
1416C5
  0
LINE
  5
1416C6
  8
CENTER
 10
8215.0
 20
-665.0
 30
0.0
 11
8120.4144144144166
 21
-665.0
 31
0.0
1001
ACDBBLOCKREPETAG
1070
     1
1071
      144
1005
1416C6
  0
LINE
  5
1416C7
  8
OBJECT
 10
8133.0000000000018
 20
-740.0
 30
0.0
 11
8130.0
 21
-740.0
 31
0.0
1001
ACDBBLOCKREPETAG
1070
     1
1071
      145
1005
1416C7
  0
ARC
  5
1416C8
  8
OBJECT
 10
8133.0
 20
-737.0
 30
0.0
 40
3.0
 50
270.0
 51
350.69274391268482
1001
ACDBBLOCKREPETAG
1070
     1
1071
      146
1005
1416C8
  0
ARC
  5
1416C9
  8
OBJECT
 10
8141.881517183062
 20
-738.45555918014554
 30
0.0
 40
6.0
 50
60.524110996874072
 51
170.6927439126847
1001
ACDBBLOCKREPETAG
1070
     1
1071
      147
1005
1416C9
  0
LINE
  5
1416CA
  8
OBJECT
 10
8131.0
 20
-616.0000000000008
 30
0.0
 11
8130.0
 21
-616.0000000000008
 31
0.0
1001
ACDBBLOCKREPETAG
1070
     1
1071
      148
1005
1416CA
  0
LINE
  5
1416CB
  8
OBJECT
 10
8200.0
 20
-737.0
 30
0.0
 11
8151.5
 21
-737.0
 31
0.0
1001
ACDBBLOCKREPETAG
1070
     1
1071
      149
1005
1416CB
  0
LINE
  5
1416CC
  8
OBJECT
 10
8151.5
 20
-593.0
 30
0.0
 11
8140.0
 21
-599.5
 31
0.0
1001
ACDBBLOCKREPETAG
1070
     1
1071
      150
1005
1416CC
  0
LINE
  5
1416CD
  8
OBJECT
 10
8193.0
 20
-593.0
 30
0.0
 11
8151.5
 21
-593.0
 31
0.0
1001
ACDBBLOCKREPETAG
1070
     1
1071
      151
1005
1416CD
  0
LINE
  5
1416CE
  8
OBJECT
 10
8140.0
 20
-599.5
 30
0.0
 11
8131.0
 21
-616.0
 31
0.0
1001
ACDBBLOCKREPETAG
1070
     1
1071
      152
1005
1416CE
  0
LINE
  5
1416CF
  8
OBJECT
 10
8136.0
 20
-671.50000000000625
 30
0.0
 11
8131.0
 21
-616.0000000000008
 31
0.0
1001
ACDBBLOCKREPETAG
1070
     1
1071
      153
1005
1416CF
  0
LINE
  5
1416D0
  8
OBJECT
 10
8151.5
 20
-737.0
 30
0.0
 11
8144.8338607230726
 21
-733.23218214782253
 31
0.0
1001
ACDBBLOCKREPETAG
1070
     1
1071
      154
1005
1416D0
  0
LINE
  5
1416D1
  8
HIDDEN
 10
8148.0
 20
-722.0
 30
0.0
 11
8148.0
 21
-608.0
 31
0.0
1001
ACDBBLOCKREPETAG
1070
     1
1071
      155
1005
1416D1
  0
LINE
  5
1416D2
  8
CENTER
 10
6077.0
 20
-696.0
 30
0.0
 11
5923.0
 21
-696.0
 31
0.0
1001
ACDBBLOCKREPETAG
1070
     1
1071
       17
1005
1416D2
  0
CIRCLE
  5
1416D3
  8
OBJECT
 10
6000.0
 20
-696.0
 30
0.0
 40
41.5
1001
ACDBBLOCKREPETAG
1070
     1
1071
       19
1005
1416D3
  0
CIRCLE
  5
1416D4
  8
OBJECT
 10
6000.0
 20
-696.0
 30
0.0
 40
54.0
1001
ACDBBLOCKREPETAG
1070
     1
1071
       20
1005
1416D4
  0
ARC
  5
1416D5
  8
OBJECT
 10
6000.0
 20
-696.0
 30
0.0
 40
62.0
 50
287.89655112920718
 51
252.10344887079279
1001
ACDBBLOCKREPETAG
1070
     1
1071
       21
1005
1416D5
  0
LINE
  5
1416D6
  8
OBJECT
 10
5980.947441116743
 20
-755.0
 30
0.0
 11
6019.052558883257
 21
-755.0
 31
0.0
1001
ACDBBLOCKREPETAG
1070
     1
1071
       22
1005
1416D6
  0
LINE
  5
1416D7
  8
CENTER
 10
6000.0
 20
-613.99999999999966
 30
0.0
 11
6000.0
 21
-889.99999999999955
 31
0.0
1001
ACDBBLOCKREPETAG
1070
     1
1071
       34
1005
1416D7
  0
LINE
  5
1416D8
  8
OBJECT
 10
5920.0
 20
-877.99999999999955
 30
0.0
 11
6080.0
 21
-877.99999999999955
 31
0.0
1001
ACDBBLOCKREPETAG
1070
     1
1071
       35
1005
1416D8
  0
LINE
  5
1416D9
  8
OBJECT
 10
6080.0
 20
-633.99999999999955
 30
0.0
 11
5920.0
 21
-633.99999999999955
 31
0.0
1001
ACDBBLOCKREPETAG
1070
     1
1071
       36
1005
1416D9
  0
LINE
  5
1416DA
  8
OBJECT
 10
5920.0
 20
-877.99999999999955
 30
0.0
 11
5920.0
 21
-889.99999999999955
 31
0.0
1001
ACDBBLOCKREPETAG
1070
     1
1071
       37
1005
1416DA
  0
LINE
  5
1416DB
  8
OBJECT
 10
5920.0
 20
-889.99999999999955
 30
0.0
 11
6080.0
 21
-889.99999999999955
 31
0.0
1001
ACDBBLOCKREPETAG
1070
     1
1071
       38
1005
1416DB
  0
LINE
  5
1416DC
  8
OBJECT
 10
6080.0
 20
-889.99999999999955
 30
0.0
 11
6080.0
 21
-877.99999999999955
 31
0.0
1001
ACDBBLOCKREPETAG
1070
     1
1071
       39
1005
1416DC
  0
LINE
  5
1416DD
  8
OBJECT
 10
6074.9999999998618
 20
-757.99999999985016
 30
0.0
 11
6075.0
 21
-877.99999999999955
 31
0.0
1001
ACDBBLOCKREPETAG
1070
     1
1071
       43
1005
1416DD
  0
LINE
  5
1416DE
  8
OBJECT
 10
6074.9999908029858
 20
-757.99998602702112
 30
0.0
 11
6080.0
 21
-757.99998602702112
 31
0.0
1001
ACDBBLOCKREPETAG
1070
     1
1071
       44
1005
1416DE
  0
LINE
  5
1416DF
  8
OBJECT
 10
5925.0000000001392
 20
-757.99999999985016
 30
0.0
 11
5925.0
 21
-877.99999999999955
 31
0.0
1001
ACDBBLOCKREPETAG
1070
     1
1071
       45
1005
1416DF
  0
LINE
  5
1416E0
  8
OBJECT
 10
5925.0000091970142
 20
-757.99998602702112
 30
0.0
 11
5920.0
 21
-757.99998602702112
 31
0.0
1001
ACDBBLOCKREPETAG
1070
     1
1071
       46
1005
1416E0
  0
LINE
  5
1416E1
  8
OBJECT
 10
6060.0
 20
-628.99999999999955
 30
0.0
 11
5940.0
 21
-628.99999999999955
 31
0.0
1001
ACDBBLOCKREPETAG
1070
     1
1071
       47
1005
1416E1
  0
ARC
  5
1416E2
  8
OBJECT
 10
5940.0
 20
-631.99999999999955
 30
0.0
 40
3.0
 50
90.0
 51
180.0
1001
ACDBBLOCKREPETAG
1070
     1
1071
       48
1005
1416E2
  0
LINE
  5
1416E3
  8
OBJECT
 10
5937.0
 20
-631.99999999999955
 30
0.0
 11
5937.0
 21
-633.99999999999955
 31
0.0
1001
ACDBBLOCKREPETAG
1070
     1
1071
       49
1005
1416E3
  0
LINE
  5
1416E4
  8
OBJECT
 10
6063.0
 20
-631.99999999999955
 30
0.0
 11
6063.0
 21
-633.99999999999955
 31
0.0
1001
ACDBBLOCKREPETAG
1070
     1
1071
       50
1005
1416E4
  0
ARC
  5
1416E5
  8
OBJECT
 10
6060.0
 20
-631.99999999999955
 30
0.0
 40
3.0
 50
0.0
 51
90.0
1001
ACDBBLOCKREPETAG
1070
     1
1071
       51
1005
1416E5
  0
ARC
  5
1416E6
  8
OBJECT
 10
6200.6872746716735
 20
-749.40809941010718
 30
0.0
 40
170.6350503965856
 50
137.44134459184301
 51
149.91949581337221
1001
ACDBBLOCKREPETAG
1070
     1
1071
       52
1005
1416E6
  0
ARC
  5
1416E7
  8
OBJECT
 10
6200.6872746716735
 20
-642.59190058989179
 30
0.0
 40
170.6350503965856
 50
210.08050418662771
 51
222.55865540815699
1001
ACDBBLOCKREPETAG
1070
     1
1071
       53
1005
1416E7
  0
ARC
  5
1416E8
  8
OBJECT
 10
5799.3127253283274
 20
-749.40809941010718
 30
0.0
 40
170.6350503965856
 50
30.08050418662782
 51
42.558655408456282
1001
ACDBBLOCKREPETAG
1070
     1
1071
       54
1005
1416E8
  0
ARC
  5
1416E9
  8
OBJECT
 10
5799.3127253283274
 20
-642.59190058989179
 30
0.0
 40
170.6350503965856
 50
317.44134459154373
 51
329.91949581337218
1001
ACDBBLOCKREPETAG
1070
     1
1071
       55
1005
1416E9
  0
POINT
  5
1416EA
  8
DOTS
 10
6000.0
 20
-754.99999999999955
 30
0.0
1001
ACDBBLOCKREPETAG
1070
     1
1071
      133
1005
1416EA
  0
POINT
  5
1416EB
  8
DOTS
 10
6000.0
 20
-199.99999999999909
 30
0.0
 50
270.0
1001
ACDBBLOCKREPETAG
1070
     1
1071
      153
1005
1416EB
  0
LINE
  5
1416EC
  8
CENTER
 10
6080.0
 20
-199.99999999999909
 30
0.0
 11
5920.0
 21
-199.99999999999909
 31
0.0
1001
ACDBBLOCKREPETAG
1070
     1
1071
       49
1005
1416EC
  0
LINE
  5
1416ED
  8
CENTER
 10
6000.0
 20
-279.99999999999909
 30
0.0
 11
6000.0
 21
-104.9999999999991
 31
0.0
1001
ACDBBLOCKREPETAG
1070
     1
1071
       50
1005
1416ED
  0
CIRCLE
  5
1416EE
  8
OBJECT
 10
6000.0
 20
-199.99999999999909
 30
0.0
 40
63.0
1001
ACDBBLOCKREPETAG
1070
     1
1071
       51
1005
1416EE
  0
CIRCLE
  5
1416EF
  8
OBJECT
 10
6000.0
 20
-199.99999999999909
 30
0.0
 40
75.0
1001
ACDBBLOCKREPETAG
1070
     1
1071
       52
1005
1416EF
  0
ARC
  5
1416F0
  8
OBJECT
 10
6000.0
 20
-199.99999999999909
 30
0.0
 40
80.0
 50
50.80503257388439
 51
129.1949674261156
1001
ACDBBLOCKREPETAG
1070
     1
1071
       53
1005
1416F0
  0
LINE
  5
1416F1
  8
OBJECT
 10
6042.2018956920174
 20
-137.99999999999909
 30
0.0
 11
6080.0
 21
-137.99999999999909
 31
0.0
1001
ACDBBLOCKREPETAG
1070
     1
1071
       54
1005
1416F1
  0
LINE
  5
1416F2
  8
OBJECT
 10
6062.0
 20
-261.99999999999909
 30
0.0
 11
6080.0
 21
-261.99999999999909
 31
0.0
1001
ACDBBLOCKREPETAG
1070
     1
1071
       55
1005
1416F2
  0
LINE
  5
1416F3
  8
OBJECT
 10
6062.0
 20
-261.99999999999909
 30
0.0
 11
6062.0
 21
-279.99999999999909
 31
0.0
1001
ACDBBLOCKREPETAG
1070
     1
1071
       57
1005
1416F3
  0
LINE
  5
1416F4
  8
OBJECT
 10
5938.0
 20
-261.99999999999909
 30
0.0
 11
5938.0
 21
-279.99999999999909
 31
0.0
1001
ACDBBLOCKREPETAG
1070
     1
1071
       58
1005
1416F4
  0
LINE
  5
1416F5
  8
OBJECT
 10
5938.0
 20
-261.99999999999909
 30
0.0
 11
5920.0
 21
-261.99999999999909
 31
0.0
1001
ACDBBLOCKREPETAG
1070
     1
1071
       60
1005
1416F5
  0
LINE
  5
1416F6
  8
OBJECT
 10
5957.7981043079826
 20
-137.99999999999909
 30
0.0
 11
5920.0
 21
-137.99999999999909
 31
0.0
1001
ACDBBLOCKREPETAG
1070
     1
1071
       61
1005
1416F6
  0
LINE
  5
1416F7
  8
OBJECT
 10
5946.9669914110091
 20
-253.03300858899021
 30
0.0
 11
5938.0
 21
-261.99999999999909
 31
0.0
1001
ACDBBLOCKREPETAG
1070
     1
1071
       42
1005
1416F7
  0
LINE
  5
1416F8
  8
OBJECT
 10
6053.03300858899
 20
-253.03300858899021
 30
0.0
 11
6062.0
 21
-261.99999999999909
 31
0.0
1001
ACDBBLOCKREPETAG
1070
     1
1071
       43
1005
1416F8
  0
LINE
  5
1416F9
  8
CENTER
 10
5899.0
 20
-199.99999999999909
 30
0.0
 11
5920.0
 21
-199.99999999999909
 31
0.0
1001
ACDBBLOCKREPETAG
1070
     1
1071
        0
1005
1416F9
  0
LINE
  5
1416FA
  8
OBJECT
 10
5917.0
 20
-261.99999999999909
 30
0.0
 11
5920.0
 21
-261.99999999999909
 31
0.0
1001
ACDBBLOCKREPETAG
1070
     1
1071
        1
1005
1416FA
  0
ARC
  5
1416FB
  8
OBJECT
 10
5917.0
 20
-258.99999999999909
 30
0.0
 40
3.0
 50
180.0
 51
270.0
1001
ACDBBLOCKREPETAG
1070
     1
1071
        2
1005
1416FB
  0
LINE
  5
1416FC
  8
OBJECT
 10
5920.0
 20
-137.99999999999909
 30
0.0
 11
5917.0
 21
-137.99999999999909
 31
0.0
1001
ACDBBLOCKREPETAG
1070
     1
1071
        3
1005
1416FC
  0
ARC
  5
1416FD
  8
OBJECT
 10
5917.0
 20
-140.99999999999909
 30
0.0
 40
3.0
 50
90.0
 51
180.0
1001
ACDBBLOCKREPETAG
1070
     1
1071
        4
1005
1416FD
  0
LINE
  5
1416FE
  8
OBJECT
 10
5914.0
 20
-140.99999999999909
 30
0.0
 11
5914.0
 21
-258.99999999999909
 31
0.0
1001
ACDBBLOCKREPETAG
1070
     1
1071
        5
1005
1416FE
  0
LINE
  5
1416FF
  8
OBJECT
 10
6062.0
 20
-332.99999999999898
 30
0.0
 11
6062.0
 21
-339.99999999999909
 31
0.0
1001
ACDBBLOCKREPETAG
1070
     1
1071
       47
1005
1416FF
  0
LINE
  5
141700
  8
OBJECT
 10
6062.0
 20
-339.99999999999909
 30
0.0
 11
5938.0
 21
-339.99999999999909
 31
0.0
1001
ACDBBLOCKREPETAG
1070
     1
1071
       48
1005
141700
  0
LINE
  5
141701
  8
OBJECT
 10
5938.0
 20
-339.99999999999909
 30
0.0
 11
5938.0
 21
-332.99999999999898
 31
0.0
1001
ACDBBLOCKREPETAG
1070
     1
1071
       49
1005
141701
  0
LINE
  5
141702
  8
OBJECT
 10
5938.0
 20
-332.99999999999898
 30
0.0
 11
6062.0
 21
-332.99999999999898
 31
0.0
1001
ACDBBLOCKREPETAG
1070
     1
1071
       50
1005
141702
  0
LINE
  5
141703
  8
CENTER
 10
6000.0
 20
-354.99999999999909
 30
0.0
 11
6000.0
 21
-279.99999999999909
 31
0.0
1001
ACDBBLOCKREPETAG
1070
     1
1071
       51
1005
141703
  0
LINE
  5
141704
  8
OBJECT
 10
6059.0
 20
-332.99999999999898
 30
0.0
 11
6059.0
 21
-296.99999999999898
 31
0.0
1001
ACDBBLOCKREPETAG
1070
     1
1071
       52
1005
141704
  0
LINE
  5
141705
  8
OBJECT
 10
6059.0
 20
-296.99999999999898
 30
0.0
 11
5941.0
 21
-296.99999999999898
 31
0.0
1001
ACDBBLOCKREPETAG
1070
     1
1071
       53
1005
141705
  0
LINE
  5
141706
  8
OBJECT
 10
5941.0
 20
-296.99999999999898
 30
0.0
 11
5941.0
 21
-332.99999999999898
 31
0.0
1001
ACDBBLOCKREPETAG
1070
     1
1071
       54
1005
141706
  0
LINE
  5
141707
  8
OBJECT
 10
6054.5
 20
-292.99999999999898
 30
0.0
 11
6054.5
 21
-285.99999999999898
 31
0.0
1001
ACDBBLOCKREPETAG
1070
     1
1071
       55
1005
141707
  0
LINE
  5
141708
  8
OBJECT
 10
5945.5
 20
-285.99999999999898
 30
0.0
 11
5945.5
 21
-292.99999999999898
 31
0.0
1001
ACDBBLOCKREPETAG
1070
     1
1071
       56
1005
141708
  0
LINE
  5
141709
  8
OBJECT
 10
5945.5
 20
-292.99999999999898
 30
0.0
 11
6054.5
 21
-292.99999999999898
 31
0.0
1001
ACDBBLOCKREPETAG
1070
     1
1071
       57
1005
141709
  0
LINE
  5
14170A
  8
OBJECT
 10
6059.0
 20
-296.99999999999898
 30
0.0
 11
6054.5
 21
-292.99999999999898
 31
0.0
1001
ACDBBLOCKREPETAG
1070
     1
1071
       58
1005
14170A
  0
LINE
  5
14170B
  8
OBJECT
 10
5941.0
 20
-296.99999999999898
 30
0.0
 11
5945.5
 21
-292.99999999999898
 31
0.0
1001
ACDBBLOCKREPETAG
1070
     1
1071
       59
1005
14170B
  0
LINE
  5
14170C
  8
OBJECT
 10
6062.0
 20
-283.0
 30
0.0
 11
6062.0
 21
-279.99999999999909
 31
0.0
1001
ACDBBLOCKREPETAG
1070
     1
1071
       60
1005
14170C
  0
ARC
  5
14170D
  8
OBJECT
 10
6059.0
 20
-283.0
 30
0.0
 40
3.0
 50
270.0
 51
0.0
1001
ACDBBLOCKREPETAG
1070
     1
1071
       61
1005
14170D
  0
LINE
  5
14170E
  8
OBJECT
 10
5938.0
 20
-279.99999999999909
 30
0.0
 11
5938.0
 21
-282.99999999999818
 31
0.0
1001
ACDBBLOCKREPETAG
1070
     1
1071
       62
1005
14170E
  0
ARC
  5
14170F
  8
OBJECT
 10
5941.0
 20
-282.99999999999818
 30
0.0
 40
3.0
 50
180.0
 51
270.0
1001
ACDBBLOCKREPETAG
1070
     1
1071
       63
1005
14170F
  0
LINE
  5
141710
  8
OBJECT
 10
5941.0
 20
-285.99999999999818
 30
0.0
 11
6059.0
 21
-286.0
 31
0.0
1001
ACDBBLOCKREPETAG
1070
     1
1071
       64
1005
141710
  0
LINE
  5
141711
  8
HIDDEN
 10
6044.5
 20
-287.99999999999909
 30
0.0
 11
5955.5
 21
-287.99999999999909
 31
0.0
1001
ACDBBLOCKREPETAG
1070
     1
1071
       65
1005
141711
  0
LINE
  5
141712
  8
OBJECT
 10
6200.0
 20
-124.9999999999991
 30
0.0
 11
6193.0
 21
-124.9999999999991
 31
0.0
1001
ACDBBLOCKREPETAG
1070
     1
1071
      135
1005
141712
  0
LINE
  5
141713
  8
OBJECT
 10
6193.0
 20
-124.9999999999991
 30
0.0
 11
6193.0
 21
-274.99999999999909
 31
0.0
1001
ACDBBLOCKREPETAG
1070
     1
1071
      136
1005
141713
  0
LINE
  5
141714
  8
OBJECT
 10
6151.5
 20
-127.9999999999991
 30
0.0
 11
6151.5
 21
-271.99999999999909
 31
0.0
1001
ACDBBLOCKREPETAG
1070
     1
1071
      137
1005
141714
  0
LINE
  5
141715
  8
OBJECT
 10
6140.0
 20
-134.49999999999909
 30
0.0
 11
6140.0
 21
-265.49999999999909
 31
0.0
1001
ACDBBLOCKREPETAG
1070
     1
1071
      138
1005
141715
  0
LINE
  5
141716
  8
OBJECT
 10
6193.0
 20
-274.99999999999909
 30
0.0
 11
6200.0
 21
-274.99999999999909
 31
0.0
1001
ACDBBLOCKREPETAG
1070
     1
1071
      139
1005
141716
  0
LINE
  5
141717
  8
OBJECT
 10
6200.0
 20
-274.99999999999909
 30
0.0
 11
6200.0
 21
-124.9999999999991
 31
0.0
1001
ACDBBLOCKREPETAG
1070
     1
1071
      140
1005
141717
  0
LINE
  5
141718
  8
HIDDEN
 10
6148.0
 20
-256.99999999999909
 30
0.0
 11
6148.0
 21
-142.99999999999909
 31
0.0
1001
ACDBBLOCKREPETAG
1070
     1
1071
      141
1005
141718
  0
LINE
  5
141719
  8
CENTER
 10
6215.0
 20
-199.99999999999909
 30
0.0
 11
6080.0
 21
-199.99999999999909
 31
0.0
1001
ACDBBLOCKREPETAG
1070
     1
1071
      142
1005
141719
  0
LINE
  5
14171A
  8
OBJECT
 10
6136.0
 20
-261.99999999999909
 30
0.0
 11
6080.0
 21
-261.99999999999909
 31
0.0
1001
ACDBBLOCKREPETAG
1070
     1
1071
      143
1005
14171A
  0
LINE
  5
14171B
  8
OBJECT
 10
6193.0
 20
-271.99999999999909
 30
0.0
 11
6151.5
 21
-271.99999999999909
 31
0.0
1001
ACDBBLOCKREPETAG
1070
     1
1071
      144
1005
14171B
  0
LINE
  5
14171C
  8
OBJECT
 10
6151.5
 20
-271.99999999999909
 30
0.0
 11
6140.0
 21
-265.49999999999909
 31
0.0
1001
ACDBBLOCKREPETAG
1070
     1
1071
      145
1005
14171C
  0
LINE
  5
14171D
  8
OBJECT
 10
6140.0
 20
-265.49999999999909
 30
0.0
 11
6136.0
 21
-261.99999999999909
 31
0.0
1001
ACDBBLOCKREPETAG
1070
     1
1071
      146
1005
14171D
  0
LINE
  5
14171E
  8
OBJECT
 10
6151.5
 20
-127.9999999999991
 30
0.0
 11
6140.0
 21
-134.49999999999909
 31
0.0
1001
ACDBBLOCKREPETAG
1070
     1
1071
      147
1005
14171E
  0
LINE
  5
14171F
  8
OBJECT
 10
6140.0
 20
-134.49999999999909
 30
0.0
 11
6136.0
 21
-137.99999999999909
 31
0.0
1001
ACDBBLOCKREPETAG
1070
     1
1071
      148
1005
14171F
  0
ARC
  5
141720
  8
OBJECT
 10
6517.9000000000005
 20
-199.99999999999909
 30
0.0
 40
386.89999999999998
 50
170.7787013625784
 51
189.22129863742151
1001
ACDBBLOCKREPETAG
1070
     1
1071
      149
1005
141720
  0
LINE
  5
141721
  8
OBJECT
 10
6136.0
 20
-137.99999999999909
 30
0.0
 11
6080.0
 21
-137.99999999999909
 31
0.0
1001
ACDBBLOCKREPETAG
1070
     1
1071
      150
1005
141721
  0
LINE
  5
141722
  8
OBJECT
 10
6193.0
 20
-127.9999999999991
 30
0.0
 11
6151.5
 21
-127.9999999999991
 31
0.0
1001
ACDBBLOCKREPETAG
1070
     1
1071
      151
1005
141722
  0
ARC
  5
141723
  8
OBJECT
 10
7662.336423810988
 20
-199.99999999999909
 30
0.0
 40
1545.58047021477
 50
177.70099855412801
 51
182.29900144587191
1001
ACDBBLOCKREPETAG
1070
     1
1071
      153
1005
141723
  0
ARC
  5
141724
  8
OBJECT
 10
7632.3364238108579
 20
-199.99999999999909
 30
0.0
 40
1545.580470214647
 50
177.70099855412801
 51
182.29900144587191
1001
ACDBBLOCKREPETAG
1070
     1
1071
      154
1005
141724
  0
LINE
  5
141725
  8
OBJECT
 10
5917.0
 20
-634.0
 30
0.0
 11
5920.0
 21
-634.0
 31
0.0
1001
ACDBBLOCKREPETAG
1070
     1
1071
        1
1005
141725
  0
ARC
  5
141726
  8
OBJECT
 10
5917.0
 20
-637.0
 30
0.0
 40
3.0
 50
90.0
 51
180.0
1001
ACDBBLOCKREPETAG
1070
     1
1071
        2
1005
141726
  0
LINE
  5
141727
  8
OBJECT
 10
5920.0
 20
-758.0
 30
0.0
 11
5917.0
 21
-758.0
 31
0.0
1001
ACDBBLOCKREPETAG
1070
     1
1071
        3
1005
141727
  0
ARC
  5
141728
  8
OBJECT
 10
5917.0
 20
-755.0
 30
0.0
 40
3.0
 50
180.0
 51
270.0
1001
ACDBBLOCKREPETAG
1070
     1
1071
        4
1005
141728
  0
LINE
  5
141729
  8
OBJECT
 10
5914.0
 20
-755.0
 30
0.0
 11
5914.0
 21
-637.0
 31
0.0
1001
ACDBBLOCKREPETAG
1070
     1
1071
        5
1005
141729
  0
LINE
  5
14172A
  8
OBJECT
 10
6079.9999999999982
 20
-758.0
 30
0.0
 11
6089.2440464037791
 21
-758.0
 31
0.0
1001
ACDBBLOCKREPETAG
1070
     1
1071
      130
1005
14172A
  0
LINE
  5
14172B
  8
OBJECT
 10
6086.7559535962127
 20
-634.0
 30
0.0
 11
6080.0000000000036
 21
-634.0
 31
0.0
1001
ACDBBLOCKREPETAG
1070
     1
1071
      131
1005
14172B
  0
LINE
  5
14172C
  8
OBJECT
 10
6086.7559535962127
 20
-634.0
 30
0.0
 11
6116.7559535962209
 21
-616.0
 31
0.0
1001
ACDBBLOCKREPETAG
1070
     1
1071
      132
1005
14172C
  0
LINE
  5
14172D
  8
OBJECT
 10
6116.7559535962209
 20
-616.0
 30
0.0
 11
6130.0
 21
-616.0000000000008
 31
0.0
1001
ACDBBLOCKREPETAG
1070
     1
1071
      133
1005
14172D
  0
LINE
  5
14172E
  8
OBJECT
 10
6130.0000000000036
 20
-740.0
 30
0.0
 11
6119.2440464037854
 21
-740.00000000000102
 31
0.0
1001
ACDBBLOCKREPETAG
1070
     1
1071
      134
1005
14172E
  0
LINE
  5
14172F
  8
OBJECT
 10
6119.2440464037854
 20
-740.00000000000102
 30
0.0
 11
6089.2440464037791
 21
-758.0
 31
0.0
1001
ACDBBLOCKREPETAG
1070
     1
1071
      135
1005
14172F
  0
LINE
  5
141730
  8
OBJECT
 10
6086.7559535962127
 20
-634.0
 30
0.0
 11
6089.2440464037791
 21
-758.0
 31
0.0
1001
ACDBBLOCKREPETAG
1070
     1
1071
      136
1005
141730
  0
LINE
  5
141731
  8
OBJECT
 10
6119.2440464037854
 20
-740.00000000000102
 30
0.0
 11
6116.7559535962209
 21
-616.0
 31
0.0
1001
ACDBBLOCKREPETAG
1070
     1
1071
      137
1005
141731
  0
LINE
  5
141732
  8
OBJECT
 10
6200.0
 20
-590.0
 30
0.0
 11
6193.0
 21
-590.0
 31
0.0
1001
ACDBBLOCKREPETAG
1070
     1
1071
      138
1005
141732
  0
LINE
  5
141733
  8
OBJECT
 10
6193.0
 20
-590.0
 30
0.0
 11
6193.0
 21
-737.0
 31
0.0
1001
ACDBBLOCKREPETAG
1070
     1
1071
      139
1005
141733
  0
LINE
  5
141734
  8
OBJECT
 10
6151.5
 20
-593.0
 30
0.0
 11
6151.5
 21
-737.0
 31
0.0
1001
ACDBBLOCKREPETAG
1070
     1
1071
      140
1005
141734
  0
LINE
  5
141735
  8
OBJECT
 10
6140.0
 20
-599.5
 30
0.0
 11
6140.0
 21
-730.49999999999989
 31
0.0
1001
ACDBBLOCKREPETAG
1070
     1
1071
      141
1005
141735
  0
LINE
  5
141736
  8
OBJECT
 10
6136.0
 20
-671.50000000000625
 30
0.0
 11
6136.0
 21
-737.0
 31
0.0
1001
ACDBBLOCKREPETAG
1070
     1
1071
      142
1005
141736
  0
LINE
  5
141737
  8
OBJECT
 10
6200.0
 20
-737.0
 30
0.0
 11
6200.0
 21
-590.0
 31
0.0
1001
ACDBBLOCKREPETAG
1070
     1
1071
      143
1005
141737
  0
LINE
  5
141738
  8
CENTER
 10
6215.0
 20
-665.0
 30
0.0
 11
6120.4144144144148
 21
-665.0
 31
0.0
1001
ACDBBLOCKREPETAG
1070
     1
1071
      144
1005
141738
  0
LINE
  5
141739
  8
OBJECT
 10
6133.0000000000036
 20
-740.0
 30
0.0
 11
6130.0
 21
-740.0
 31
0.0
1001
ACDBBLOCKREPETAG
1070
     1
1071
      145
1005
141739
  0
ARC
  5
14173A
  8
OBJECT
 10
6133.0
 20
-737.0
 30
0.0
 40
3.0
 50
270.0
 51
350.69274391268482
1001
ACDBBLOCKREPETAG
1070
     1
1071
      146
1005
14173A
  0
ARC
  5
14173B
  8
OBJECT
 10
6141.8815171830647
 20
-738.45555918014554
 30
0.0
 40
6.0
 50
60.524110996874072
 51
170.6927439126847
1001
ACDBBLOCKREPETAG
1070
     1
1071
      147
1005
14173B
  0
LINE
  5
14173C
  8
OBJECT
 10
6131.0
 20
-616.0000000000008
 30
0.0
 11
6130.0
 21
-616.0000000000008
 31
0.0
1001
ACDBBLOCKREPETAG
1070
     1
1071
      148
1005
14173C
  0
LINE
  5
14173D
  8
OBJECT
 10
6200.0
 20
-737.0
 30
0.0
 11
6151.5
 21
-737.0
 31
0.0
1001
ACDBBLOCKREPETAG
1070
     1
1071
      149
1005
14173D
  0
LINE
  5
14173E
  8
OBJECT
 10
6151.5
 20
-593.0
 30
0.0
 11
6140.0
 21
-599.5
 31
0.0
1001
ACDBBLOCKREPETAG
1070
     1
1071
      150
1005
14173E
  0
LINE
  5
14173F
  8
OBJECT
 10
6193.0
 20
-593.0
 30
0.0
 11
6151.5
 21
-593.0
 31
0.0
1001
ACDBBLOCKREPETAG
1070
     1
1071
      151
1005
14173F
  0
LINE
  5
141740
  8
OBJECT
 10
6140.0
 20
-599.5
 30
0.0
 11
6131.0
 21
-616.0
 31
0.0
1001
ACDBBLOCKREPETAG
1070
     1
1071
      152
1005
141740
  0
LINE
  5
141741
  8
OBJECT
 10
6136.0
 20
-671.50000000000625
 30
0.0
 11
6131.0
 21
-616.0000000000008
 31
0.0
1001
ACDBBLOCKREPETAG
1070
     1
1071
      153
1005
141741
  0
LINE
  5
141742
  8
OBJECT
 10
6151.5
 20
-737.0
 30
0.0
 11
6144.8338607230717
 21
-733.23218214782253
 31
0.0
1001
ACDBBLOCKREPETAG
1070
     1
1071
      154
1005
141742
  0
LINE
  5
141743
  8
HIDDEN
 10
6148.0
 20
-722.0
 30
0.0
 11
6148.0
 21
-608.0
 31
0.0
1001
ACDBBLOCKREPETAG
1070
     1
1071
      155
1005
141743
  0
LINE
  5
141744
  8
CENTER
 10
4077.0
 20
-696.0
 30
0.0
 11
3923.0
 21
-696.0
 31
0.0
1001
ACDBBLOCKREPETAG
1070
     1
1071
       17
1005
141744
  0
CIRCLE
  5
141745
  8
OBJECT
 10
4000.0
 20
-696.0
 30
0.0
 40
41.5
1001
ACDBBLOCKREPETAG
1070
     1
1071
       19
1005
141745
  0
CIRCLE
  5
141746
  8
OBJECT
 10
4000.0
 20
-696.0
 30
0.0
 40
54.0
1001
ACDBBLOCKREPETAG
1070
     1
1071
       20
1005
141746
  0
ARC
  5
141747
  8
OBJECT
 10
4000.0
 20
-696.0
 30
0.0
 40
62.0
 50
287.89655112920718
 51
252.10344887079279
1001
ACDBBLOCKREPETAG
1070
     1
1071
       21
1005
141747
  0
LINE
  5
141748
  8
OBJECT
 10
3980.947441116743
 20
-755.0
 30
0.0
 11
4019.052558883257
 21
-755.0
 31
0.0
1001
ACDBBLOCKREPETAG
1070
     1
1071
       22
1005
141748
  0
LINE
  5
141749
  8
CENTER
 10
4000.0
 20
-613.99999999999966
 30
0.0
 11
4000.0
 21
-889.99999999999955
 31
0.0
1001
ACDBBLOCKREPETAG
1070
     1
1071
       34
1005
141749
  0
LINE
  5
14174A
  8
OBJECT
 10
3920.0
 20
-877.99999999999955
 30
0.0
 11
4080.0
 21
-877.99999999999955
 31
0.0
1001
ACDBBLOCKREPETAG
1070
     1
1071
       35
1005
14174A
  0
LINE
  5
14174B
  8
OBJECT
 10
4080.0
 20
-633.99999999999955
 30
0.0
 11
3920.0
 21
-633.99999999999955
 31
0.0
1001
ACDBBLOCKREPETAG
1070
     1
1071
       36
1005
14174B
  0
LINE
  5
14174C
  8
OBJECT
 10
3920.0
 20
-877.99999999999955
 30
0.0
 11
3920.0
 21
-889.99999999999955
 31
0.0
1001
ACDBBLOCKREPETAG
1070
     1
1071
       37
1005
14174C
  0
LINE
  5
14174D
  8
OBJECT
 10
3920.0
 20
-889.99999999999955
 30
0.0
 11
4080.0
 21
-889.99999999999955
 31
0.0
1001
ACDBBLOCKREPETAG
1070
     1
1071
       38
1005
14174D
  0
LINE
  5
14174E
  8
OBJECT
 10
4080.0
 20
-889.99999999999955
 30
0.0
 11
4080.0
 21
-877.99999999999955
 31
0.0
1001
ACDBBLOCKREPETAG
1070
     1
1071
       39
1005
14174E
  0
LINE
  5
14174F
  8
OBJECT
 10
4074.9999999998631
 20
-757.99999999985016
 30
0.0
 11
4075.0
 21
-877.99999999999955
 31
0.0
1001
ACDBBLOCKREPETAG
1070
     1
1071
       43
1005
14174F
  0
LINE
  5
141750
  8
OBJECT
 10
4074.9999908029849
 20
-757.99998602702112
 30
0.0
 11
4080.0
 21
-757.99998602702112
 31
0.0
1001
ACDBBLOCKREPETAG
1070
     1
1071
       44
1005
141750
  0
LINE
  5
141751
  8
OBJECT
 10
3925.0000000001392
 20
-757.99999999985016
 30
0.0
 11
3925.0
 21
-877.99999999999955
 31
0.0
1001
ACDBBLOCKREPETAG
1070
     1
1071
       45
1005
141751
  0
LINE
  5
141752
  8
OBJECT
 10
3925.0000091970151
 20
-757.99998602702112
 30
0.0
 11
3920.0
 21
-757.99998602702112
 31
0.0
1001
ACDBBLOCKREPETAG
1070
     1
1071
       46
1005
141752
  0
LINE
  5
141753
  8
OBJECT
 10
4060.0
 20
-628.99999999999955
 30
0.0
 11
3940.0
 21
-628.99999999999955
 31
0.0
1001
ACDBBLOCKREPETAG
1070
     1
1071
       47
1005
141753
  0
ARC
  5
141754
  8
OBJECT
 10
3940.0
 20
-631.99999999999955
 30
0.0
 40
3.0
 50
90.0
 51
180.0
1001
ACDBBLOCKREPETAG
1070
     1
1071
       48
1005
141754
  0
LINE
  5
141755
  8
OBJECT
 10
3937.0
 20
-631.99999999999955
 30
0.0
 11
3937.0
 21
-633.99999999999955
 31
0.0
1001
ACDBBLOCKREPETAG
1070
     1
1071
       49
1005
141755
  0
LINE
  5
141756
  8
OBJECT
 10
4063.0
 20
-631.99999999999955
 30
0.0
 11
4063.0
 21
-633.99999999999955
 31
0.0
1001
ACDBBLOCKREPETAG
1070
     1
1071
       50
1005
141756
  0
ARC
  5
141757
  8
OBJECT
 10
4060.0
 20
-631.99999999999955
 30
0.0
 40
3.0
 50
0.0
 51
90.0
1001
ACDBBLOCKREPETAG
1070
     1
1071
       51
1005
141757
  0
ARC
  5
141758
  8
OBJECT
 10
4200.6872746716726
 20
-749.40809941010718
 30
0.0
 40
170.6350503965856
 50
137.44134459184301
 51
149.91949581337221
1001
ACDBBLOCKREPETAG
1070
     1
1071
       52
1005
141758
  0
ARC
  5
141759
  8
OBJECT
 10
4200.6872746716726
 20
-642.59190058989179
 30
0.0
 40
170.6350503965856
 50
210.08050418662771
 51
222.55865540815699
1001
ACDBBLOCKREPETAG
1070
     1
1071
       53
1005
141759
  0
ARC
  5
14175A
  8
OBJECT
 10
3799.3127253283278
 20
-749.40809941010718
 30
0.0
 40
170.6350503965856
 50
30.08050418662782
 51
42.558655408456282
1001
ACDBBLOCKREPETAG
1070
     1
1071
       54
1005
14175A
  0
ARC
  5
14175B
  8
OBJECT
 10
3799.3127253283278
 20
-642.59190058989179
 30
0.0
 40
170.6350503965856
 50
317.44134459154373
 51
329.91949581337218
1001
ACDBBLOCKREPETAG
1070
     1
1071
       55
1005
14175B
  0
POINT
  5
14175C
  8
DOTS
 10
4000.0
 20
-754.99999999999955
 30
0.0
1001
ACDBBLOCKREPETAG
1070
     1
1071
      133
1005
14175C
  0
POINT
  5
14175D
  8
DOTS
 10
4000.0
 20
-199.99999999999909
 30
0.0
 50
270.0
1001
ACDBBLOCKREPETAG
1070
     1
1071
      153
1005
14175D
  0
LINE
  5
14175E
  8
CENTER
 10
4080.0
 20
-199.99999999999909
 30
0.0
 11
3920.0
 21
-199.99999999999909
 31
0.0
1001
ACDBBLOCKREPETAG
1070
     1
1071
       49
1005
14175E
  0
LINE
  5
14175F
  8
CENTER
 10
4000.0
 20
-279.99999999999909
 30
0.0
 11
4000.0
 21
-104.9999999999991
 31
0.0
1001
ACDBBLOCKREPETAG
1070
     1
1071
       50
1005
14175F
  0
CIRCLE
  5
141760
  8
OBJECT
 10
4000.0
 20
-199.99999999999909
 30
0.0
 40
63.0
1001
ACDBBLOCKREPETAG
1070
     1
1071
       51
1005
141760
  0
CIRCLE
  5
141761
  8
OBJECT
 10
4000.0
 20
-199.99999999999909
 30
0.0
 40
75.0
1001
ACDBBLOCKREPETAG
1070
     1
1071
       52
1005
141761
  0
ARC
  5
141762
  8
OBJECT
 10
4000.0
 20
-199.99999999999909
 30
0.0
 40
80.0
 50
50.805032573864182
 51
129.1949674261358
1001
ACDBBLOCKREPETAG
1070
     1
1071
       53
1005
141762
  0
LINE
  5
141763
  8
OBJECT
 10
4042.2018956920169
 20
-137.99999999999909
 30
0.0
 11
4080.0
 21
-137.99999999999909
 31
0.0
1001
ACDBBLOCKREPETAG
1070
     1
1071
       54
1005
141763
  0
LINE
  5
141764
  8
OBJECT
 10
4062.0
 20
-261.99999999999909
 30
0.0
 11
4080.0
 21
-261.99999999999909
 31
0.0
1001
ACDBBLOCKREPETAG
1070
     1
1071
       55
1005
141764
  0
LINE
  5
141765
  8
OBJECT
 10
4062.0
 20
-261.99999999999909
 30
0.0
 11
4062.0
 21
-279.99999999999909
 31
0.0
1001
ACDBBLOCKREPETAG
1070
     1
1071
       57
1005
141765
  0
LINE
  5
141766
  8
OBJECT
 10
3938.0
 20
-261.99999999999909
 30
0.0
 11
3938.0
 21
-279.99999999999909
 31
0.0
1001
ACDBBLOCKREPETAG
1070
     1
1071
       58
1005
141766
  0
LINE
  5
141767
  8
OBJECT
 10
3938.0
 20
-261.99999999999909
 30
0.0
 11
3920.0
 21
-261.99999999999909
 31
0.0
1001
ACDBBLOCKREPETAG
1070
     1
1071
       60
1005
141767
  0
LINE
  5
141768
  8
OBJECT
 10
3957.7981043079831
 20
-137.99999999999909
 30
0.0
 11
3920.0
 21
-137.99999999999909
 31
0.0
1001
ACDBBLOCKREPETAG
1070
     1
1071
       61
1005
141768
  0
LINE
  5
141769
  8
OBJECT
 10
3946.9669914110091
 20
-253.03300858899021
 30
0.0
 11
3938.0
 21
-261.99999999999909
 31
0.0
1001
ACDBBLOCKREPETAG
1070
     1
1071
       42
1005
141769
  0
LINE
  5
14176A
  8
OBJECT
 10
4053.03300858899
 20
-253.03300858899021
 30
0.0
 11
4062.0
 21
-261.99999999999909
 31
0.0
1001
ACDBBLOCKREPETAG
1070
     1
1071
       43
1005
14176A
  0
LINE
  5
14176B
  8
CENTER
 10
3899.0
 20
-199.99999999999909
 30
0.0
 11
3920.0
 21
-199.99999999999909
 31
0.0
1001
ACDBBLOCKREPETAG
1070
     1
1071
        0
1005
14176B
  0
LINE
  5
14176C
  8
OBJECT
 10
3917.0
 20
-261.99999999999909
 30
0.0
 11
3920.0
 21
-261.99999999999909
 31
0.0
1001
ACDBBLOCKREPETAG
1070
     1
1071
        1
1005
14176C
  0
ARC
  5
14176D
  8
OBJECT
 10
3917.0
 20
-258.99999999999909
 30
0.0
 40
3.0
 50
180.0
 51
270.0
1001
ACDBBLOCKREPETAG
1070
     1
1071
        2
1005
14176D
  0
LINE
  5
14176E
  8
OBJECT
 10
3920.0
 20
-137.99999999999909
 30
0.0
 11
3917.0
 21
-137.99999999999909
 31
0.0
1001
ACDBBLOCKREPETAG
1070
     1
1071
        3
1005
14176E
  0
ARC
  5
14176F
  8
OBJECT
 10
3917.0
 20
-140.99999999999909
 30
0.0
 40
3.0
 50
90.0
 51
180.0
1001
ACDBBLOCKREPETAG
1070
     1
1071
        4
1005
14176F
  0
LINE
  5
141770
  8
OBJECT
 10
3914.0
 20
-140.99999999999909
 30
0.0
 11
3914.0
 21
-258.99999999999909
 31
0.0
1001
ACDBBLOCKREPETAG
1070
     1
1071
        5
1005
141770
  0
LINE
  5
141771
  8
OBJECT
 10
4062.0
 20
-332.99999999999898
 30
0.0
 11
4062.0
 21
-339.99999999999909
 31
0.0
1001
ACDBBLOCKREPETAG
1070
     1
1071
       47
1005
141771
  0
LINE
  5
141772
  8
OBJECT
 10
4062.0
 20
-339.99999999999909
 30
0.0
 11
3938.0
 21
-339.99999999999909
 31
0.0
1001
ACDBBLOCKREPETAG
1070
     1
1071
       48
1005
141772
  0
LINE
  5
141773
  8
OBJECT
 10
3938.0
 20
-339.99999999999909
 30
0.0
 11
3938.0
 21
-332.99999999999898
 31
0.0
1001
ACDBBLOCKREPETAG
1070
     1
1071
       49
1005
141773
  0
LINE
  5
141774
  8
OBJECT
 10
3938.0
 20
-332.99999999999898
 30
0.0
 11
4062.0
 21
-332.99999999999898
 31
0.0
1001
ACDBBLOCKREPETAG
1070
     1
1071
       50
1005
141774
  0
LINE
  5
141775
  8
CENTER
 10
4000.0
 20
-354.99999999999909
 30
0.0
 11
4000.0
 21
-279.99999999999909
 31
0.0
1001
ACDBBLOCKREPETAG
1070
     1
1071
       51
1005
141775
  0
LINE
  5
141776
  8
OBJECT
 10
4059.0
 20
-332.99999999999898
 30
0.0
 11
4059.0
 21
-296.99999999999898
 31
0.0
1001
ACDBBLOCKREPETAG
1070
     1
1071
       52
1005
141776
  0
LINE
  5
141777
  8
OBJECT
 10
4059.0
 20
-296.99999999999898
 30
0.0
 11
3941.0
 21
-296.99999999999898
 31
0.0
1001
ACDBBLOCKREPETAG
1070
     1
1071
       53
1005
141777
  0
LINE
  5
141778
  8
OBJECT
 10
3941.0
 20
-296.99999999999898
 30
0.0
 11
3941.0
 21
-332.99999999999898
 31
0.0
1001
ACDBBLOCKREPETAG
1070
     1
1071
       54
1005
141778
  0
LINE
  5
141779
  8
OBJECT
 10
4054.4999999999991
 20
-292.99999999999898
 30
0.0
 11
4054.4999999999991
 21
-285.99999999999898
 31
0.0
1001
ACDBBLOCKREPETAG
1070
     1
1071
       55
1005
141779
  0
LINE
  5
14177A
  8
OBJECT
 10
3945.5
 20
-285.99999999999898
 30
0.0
 11
3945.5
 21
-292.99999999999898
 31
0.0
1001
ACDBBLOCKREPETAG
1070
     1
1071
       56
1005
14177A
  0
LINE
  5
14177B
  8
OBJECT
 10
3945.5
 20
-292.99999999999898
 30
0.0
 11
4054.4999999999991
 21
-292.99999999999898
 31
0.0
1001
ACDBBLOCKREPETAG
1070
     1
1071
       57
1005
14177B
  0
LINE
  5
14177C
  8
OBJECT
 10
4059.0
 20
-296.99999999999898
 30
0.0
 11
4054.4999999999991
 21
-292.99999999999898
 31
0.0
1001
ACDBBLOCKREPETAG
1070
     1
1071
       58
1005
14177C
  0
LINE
  5
14177D
  8
OBJECT
 10
3941.0
 20
-296.99999999999898
 30
0.0
 11
3945.5
 21
-292.99999999999898
 31
0.0
1001
ACDBBLOCKREPETAG
1070
     1
1071
       59
1005
14177D
  0
LINE
  5
14177E
  8
OBJECT
 10
4062.0
 20
-283.0
 30
0.0
 11
4062.0
 21
-279.99999999999909
 31
0.0
1001
ACDBBLOCKREPETAG
1070
     1
1071
       60
1005
14177E
  0
ARC
  5
14177F
  8
OBJECT
 10
4059.0
 20
-283.0
 30
0.0
 40
3.0
 50
270.0
 51
0.0
1001
ACDBBLOCKREPETAG
1070
     1
1071
       61
1005
14177F
  0
LINE
  5
141780
  8
OBJECT
 10
3938.0
 20
-279.99999999999909
 30
0.0
 11
3938.0
 21
-282.99999999999818
 31
0.0
1001
ACDBBLOCKREPETAG
1070
     1
1071
       62
1005
141780
  0
ARC
  5
141781
  8
OBJECT
 10
3941.0
 20
-282.99999999999818
 30
0.0
 40
3.0
 50
180.0
 51
270.0
1001
ACDBBLOCKREPETAG
1070
     1
1071
       63
1005
141781
  0
LINE
  5
141782
  8
OBJECT
 10
3941.0
 20
-285.99999999999818
 30
0.0
 11
4059.0
 21
-286.0
 31
0.0
1001
ACDBBLOCKREPETAG
1070
     1
1071
       64
1005
141782
  0
LINE
  5
141783
  8
HIDDEN
 10
4044.5
 20
-287.99999999999909
 30
0.0
 11
3955.5
 21
-287.99999999999909
 31
0.0
1001
ACDBBLOCKREPETAG
1070
     1
1071
       65
1005
141783
  0
LINE
  5
141784
  8
OBJECT
 10
4200.0
 20
-124.9999999999991
 30
0.0
 11
4193.0
 21
-124.9999999999991
 31
0.0
1001
ACDBBLOCKREPETAG
1070
     1
1071
      135
1005
141784
  0
LINE
  5
141785
  8
OBJECT
 10
4193.0
 20
-124.9999999999991
 30
0.0
 11
4193.0
 21
-274.99999999999909
 31
0.0
1001
ACDBBLOCKREPETAG
1070
     1
1071
      136
1005
141785
  0
LINE
  5
141786
  8
OBJECT
 10
4151.5
 20
-127.9999999999991
 30
0.0
 11
4151.5
 21
-271.99999999999909
 31
0.0
1001
ACDBBLOCKREPETAG
1070
     1
1071
      137
1005
141786
  0
LINE
  5
141787
  8
OBJECT
 10
4140.0
 20
-134.49999999999909
 30
0.0
 11
4140.0
 21
-265.49999999999909
 31
0.0
1001
ACDBBLOCKREPETAG
1070
     1
1071
      138
1005
141787
  0
LINE
  5
141788
  8
OBJECT
 10
4193.0
 20
-274.99999999999909
 30
0.0
 11
4200.0
 21
-274.99999999999909
 31
0.0
1001
ACDBBLOCKREPETAG
1070
     1
1071
      139
1005
141788
  0
LINE
  5
141789
  8
OBJECT
 10
4200.0
 20
-274.99999999999909
 30
0.0
 11
4200.0
 21
-124.9999999999991
 31
0.0
1001
ACDBBLOCKREPETAG
1070
     1
1071
      140
1005
141789
  0
LINE
  5
14178A
  8
HIDDEN
 10
4148.0
 20
-256.99999999999909
 30
0.0
 11
4148.0
 21
-142.99999999999909
 31
0.0
1001
ACDBBLOCKREPETAG
1070
     1
1071
      141
1005
14178A
  0
LINE
  5
14178B
  8
CENTER
 10
4215.0
 20
-199.99999999999909
 30
0.0
 11
4080.0
 21
-199.99999999999909
 31
0.0
1001
ACDBBLOCKREPETAG
1070
     1
1071
      142
1005
14178B
  0
LINE
  5
14178C
  8
OBJECT
 10
4136.0
 20
-261.99999999999909
 30
0.0
 11
4080.0
 21
-261.99999999999909
 31
0.0
1001
ACDBBLOCKREPETAG
1070
     1
1071
      143
1005
14178C
  0
LINE
  5
14178D
  8
OBJECT
 10
4193.0
 20
-271.99999999999909
 30
0.0
 11
4151.5
 21
-271.99999999999909
 31
0.0
1001
ACDBBLOCKREPETAG
1070
     1
1071
      144
1005
14178D
  0
LINE
  5
14178E
  8
OBJECT
 10
4151.5
 20
-271.99999999999909
 30
0.0
 11
4140.0
 21
-265.49999999999909
 31
0.0
1001
ACDBBLOCKREPETAG
1070
     1
1071
      145
1005
14178E
  0
LINE
  5
14178F
  8
OBJECT
 10
4140.0
 20
-265.49999999999909
 30
0.0
 11
4136.0
 21
-261.99999999999909
 31
0.0
1001
ACDBBLOCKREPETAG
1070
     1
1071
      146
1005
14178F
  0
LINE
  5
141790
  8
OBJECT
 10
4151.5
 20
-127.9999999999991
 30
0.0
 11
4140.0
 21
-134.49999999999909
 31
0.0
1001
ACDBBLOCKREPETAG
1070
     1
1071
      147
1005
141790
  0
LINE
  5
141791
  8
OBJECT
 10
4140.0
 20
-134.49999999999909
 30
0.0
 11
4136.0
 21
-137.99999999999909
 31
0.0
1001
ACDBBLOCKREPETAG
1070
     1
1071
      148
1005
141791
  0
ARC
  5
141792
  8
OBJECT
 10
4517.9000000000005
 20
-199.99999999999909
 30
0.0
 40
386.89999999999998
 50
170.7787013625784
 51
189.22129863742151
1001
ACDBBLOCKREPETAG
1070
     1
1071
      149
1005
141792
  0
LINE
  5
141793
  8
OBJECT
 10
4136.0
 20
-137.99999999999909
 30
0.0
 11
4080.0
 21
-137.99999999999909
 31
0.0
1001
ACDBBLOCKREPETAG
1070
     1
1071
      150
1005
141793
  0
LINE
  5
141794
  8
OBJECT
 10
4193.0
 20
-127.9999999999991
 30
0.0
 11
4151.5
 21
-127.9999999999991
 31
0.0
1001
ACDBBLOCKREPETAG
1070
     1
1071
      151
1005
141794
  0
ARC
  5
141795
  8
OBJECT
 10
5662.3364238109898
 20
-199.99999999999909
 30
0.0
 40
1545.58047021477
 50
177.7009985541269
 51
182.29900144587299
1001
ACDBBLOCKREPETAG
1070
     1
1071
      153
1005
141795
  0
ARC
  5
141796
  8
OBJECT
 10
5632.3364238108579
 20
-199.99999999999909
 30
0.0
 40
1545.580470214647
 50
177.7009985541269
 51
182.29900144587299
1001
ACDBBLOCKREPETAG
1070
     1
1071
      154
1005
141796
  0
LINE
  5
141797
  8
OBJECT
 10
3917.0
 20
-634.0
 30
0.0
 11
3920.0
 21
-634.0
 31
0.0
1001
ACDBBLOCKREPETAG
1070
     1
1071
        1
1005
141797
  0
ARC
  5
141798
  8
OBJECT
 10
3917.0
 20
-637.0
 30
0.0
 40
3.0
 50
90.0
 51
180.0
1001
ACDBBLOCKREPETAG
1070
     1
1071
        2
1005
141798
  0
LINE
  5
141799
  8
OBJECT
 10
3920.0
 20
-758.0
 30
0.0
 11
3917.0
 21
-758.0
 31
0.0
1001
ACDBBLOCKREPETAG
1070
     1
1071
        3
1005
141799
  0
ARC
  5
14179A
  8
OBJECT
 10
3917.0
 20
-755.0
 30
0.0
 40
3.0
 50
180.0
 51
270.0
1001
ACDBBLOCKREPETAG
1070
     1
1071
        4
1005
14179A
  0
LINE
  5
14179B
  8
OBJECT
 10
3914.0
 20
-755.0
 30
0.0
 11
3914.0
 21
-637.0
 31
0.0
1001
ACDBBLOCKREPETAG
1070
     1
1071
        5
1005
14179B
  0
LINE
  5
14179C
  8
OBJECT
 10
4079.9999999999959
 20
-758.0
 30
0.0
 11
4089.24404640378
 21
-758.0
 31
0.0
1001
ACDBBLOCKREPETAG
1070
     1
1071
      130
1005
14179C
  0
LINE
  5
14179D
  8
OBJECT
 10
4086.7559535962118
 20
-634.0
 30
0.0
 11
4080.0000000000041
 21
-634.0
 31
0.0
1001
ACDBBLOCKREPETAG
1070
     1
1071
      131
1005
14179D
  0
LINE
  5
14179E
  8
OBJECT
 10
4086.7559535962118
 20
-634.0
 30
0.0
 11
4116.7559535962209
 21
-616.0
 31
0.0
1001
ACDBBLOCKREPETAG
1070
     1
1071
      132
1005
14179E
  0
LINE
  5
14179F
  8
OBJECT
 10
4116.7559535962209
 20
-616.0
 30
0.0
 11
4130.0
 21
-616.0000000000008
 31
0.0
1001
ACDBBLOCKREPETAG
1070
     1
1071
      133
1005
14179F
  0
LINE
  5
1417A0
  8
OBJECT
 10
4130.0000000000045
 20
-740.0
 30
0.0
 11
4119.2440464037854
 21
-740.00000000000102
 31
0.0
1001
ACDBBLOCKREPETAG
1070
     1
1071
      134
1005
1417A0
  0
LINE
  5
1417A1
  8
OBJECT
 10
4119.2440464037854
 20
-740.00000000000102
 30
0.0
 11
4089.24404640378
 21
-758.0
 31
0.0
1001
ACDBBLOCKREPETAG
1070
     1
1071
      135
1005
1417A1
  0
LINE
  5
1417A2
  8
OBJECT
 10
4086.7559535962118
 20
-634.0
 30
0.0
 11
4089.24404640378
 21
-758.0
 31
0.0
1001
ACDBBLOCKREPETAG
1070
     1
1071
      136
1005
1417A2
  0
LINE
  5
1417A3
  8
OBJECT
 10
4119.2440464037854
 20
-740.00000000000102
 30
0.0
 11
4116.7559535962209
 21
-616.0
 31
0.0
1001
ACDBBLOCKREPETAG
1070
     1
1071
      137
1005
1417A3
  0
LINE
  5
1417A4
  8
OBJECT
 10
4200.0
 20
-590.0
 30
0.0
 11
4193.0
 21
-590.0
 31
0.0
1001
ACDBBLOCKREPETAG
1070
     1
1071
      138
1005
1417A4
  0
LINE
  5
1417A5
  8
OBJECT
 10
4193.0
 20
-590.0
 30
0.0
 11
4193.0
 21
-737.0
 31
0.0
1001
ACDBBLOCKREPETAG
1070
     1
1071
      139
1005
1417A5
  0
LINE
  5
1417A6
  8
OBJECT
 10
4151.5
 20
-593.0
 30
0.0
 11
4151.5
 21
-737.0
 31
0.0
1001
ACDBBLOCKREPETAG
1070
     1
1071
      140
1005
1417A6
  0
LINE
  5
1417A7
  8
OBJECT
 10
4140.0
 20
-599.5
 30
0.0
 11
4140.0
 21
-730.49999999999989
 31
0.0
1001
ACDBBLOCKREPETAG
1070
     1
1071
      141
1005
1417A7
  0
LINE
  5
1417A8
  8
OBJECT
 10
4136.0
 20
-671.50000000000625
 30
0.0
 11
4136.0
 21
-737.0
 31
0.0
1001
ACDBBLOCKREPETAG
1070
     1
1071
      142
1005
1417A8
  0
LINE
  5
1417A9
  8
OBJECT
 10
4200.0
 20
-737.0
 30
0.0
 11
4200.0
 21
-590.0
 31
0.0
1001
ACDBBLOCKREPETAG
1070
     1
1071
      143
1005
1417A9
  0
LINE
  5
1417AA
  8
CENTER
 10
4215.0
 20
-665.0
 30
0.0
 11
4120.4144144144148
 21
-665.0
 31
0.0
1001
ACDBBLOCKREPETAG
1070
     1
1071
      144
1005
1417AA
  0
LINE
  5
1417AB
  8
OBJECT
 10
4133.0000000000018
 20
-740.0
 30
0.0
 11
4130.0
 21
-740.0
 31
0.0
1001
ACDBBLOCKREPETAG
1070
     1
1071
      145
1005
1417AB
  0
ARC
  5
1417AC
  8
OBJECT
 10
4133.0
 20
-737.0
 30
0.0
 40
3.0
 50
270.0
 51
350.69274391268482
1001
ACDBBLOCKREPETAG
1070
     1
1071
      146
1005
1417AC
  0
ARC
  5
1417AD
  8
OBJECT
 10
4141.8815171830638
 20
-738.45555918014554
 30
0.0
 40
6.0
 50
60.524110996896773
 51
170.6927439126847
1001
ACDBBLOCKREPETAG
1070
     1
1071
      147
1005
1417AD
  0
LINE
  5
1417AE
  8
OBJECT
 10
4131.0
 20
-616.0000000000008
 30
0.0
 11
4130.0
 21
-616.0000000000008
 31
0.0
1001
ACDBBLOCKREPETAG
1070
     1
1071
      148
1005
1417AE
  0
LINE
  5
1417AF
  8
OBJECT
 10
4200.0
 20
-737.0
 30
0.0
 11
4151.5
 21
-737.0
 31
0.0
1001
ACDBBLOCKREPETAG
1070
     1
1071
      149
1005
1417AF
  0
LINE
  5
1417B0
  8
OBJECT
 10
4151.5
 20
-593.0
 30
0.0
 11
4140.0
 21
-599.5
 31
0.0
1001
ACDBBLOCKREPETAG
1070
     1
1071
      150
1005
1417B0
  0
LINE
  5
1417B1
  8
OBJECT
 10
4193.0
 20
-593.0
 30
0.0
 11
4151.5
 21
-593.0
 31
0.0
1001
ACDBBLOCKREPETAG
1070
     1
1071
      151
1005
1417B1
  0
LINE
  5
1417B2
  8
OBJECT
 10
4140.0
 20
-599.5
 30
0.0
 11
4131.0
 21
-616.0
 31
0.0
1001
ACDBBLOCKREPETAG
1070
     1
1071
      152
1005
1417B2
  0
LINE
  5
1417B3
  8
OBJECT
 10
4136.0
 20
-671.50000000000625
 30
0.0
 11
4131.0
 21
-616.0000000000008
 31
0.0
1001
ACDBBLOCKREPETAG
1070
     1
1071
      153
1005
1417B3
  0
LINE
  5
1417B4
  8
OBJECT
 10
4151.5
 20
-737.0
 30
0.0
 11
4144.8338607230708
 21
-733.23218214782253
 31
0.0
1001
ACDBBLOCKREPETAG
1070
     1
1071
      154
1005
1417B4
  0
LINE
  5
1417B5
  8
HIDDEN
 10
4148.0
 20
-722.0
 30
0.0
 11
4148.0
 21
-608.0
 31
0.0
1001
ACDBBLOCKREPETAG
1070
     1
1071
      155
1005
1417B5
  0
LINE
  5
1417B6
  8
CENTER
 10
2077.0
 20
-696.0
 30
0.0
 11
1923.0
 21
-696.0
 31
0.0
1001
ACDBBLOCKREPETAG
1070
     1
1071
       17
1005
1417B6
  0
CIRCLE
  5
1417B7
  8
OBJECT
 10
2000.0
 20
-696.0
 30
0.0
 40
41.5
1001
ACDBBLOCKREPETAG
1070
     1
1071
       19
1005
1417B7
  0
CIRCLE
  5
1417B8
  8
OBJECT
 10
2000.0
 20
-696.0
 30
0.0
 40
54.0
1001
ACDBBLOCKREPETAG
1070
     1
1071
       20
1005
1417B8
  0
ARC
  5
1417B9
  8
OBJECT
 10
2000.0
 20
-696.0
 30
0.0
 40
62.0
 50
287.89655112920718
 51
252.10344887079279
1001
ACDBBLOCKREPETAG
1070
     1
1071
       21
1005
1417B9
  0
LINE
  5
1417BA
  8
OBJECT
 10
1980.947441116743
 20
-755.0
 30
0.0
 11
2019.052558883257
 21
-755.0
 31
0.0
1001
ACDBBLOCKREPETAG
1070
     1
1071
       22
1005
1417BA
  0
LINE
  5
1417BB
  8
CENTER
 10
2000.0
 20
-613.99999999999966
 30
0.0
 11
2000.0
 21
-889.99999999999955
 31
0.0
1001
ACDBBLOCKREPETAG
1070
     1
1071
       34
1005
1417BB
  0
LINE
  5
1417BC
  8
OBJECT
 10
1920.0
 20
-877.99999999999955
 30
0.0
 11
2080.0
 21
-877.99999999999955
 31
0.0
1001
ACDBBLOCKREPETAG
1070
     1
1071
       35
1005
1417BC
  0
LINE
  5
1417BD
  8
OBJECT
 10
2080.0
 20
-633.99999999999955
 30
0.0
 11
1920.0
 21
-633.99999999999955
 31
0.0
1001
ACDBBLOCKREPETAG
1070
     1
1071
       36
1005
1417BD
  0
LINE
  5
1417BE
  8
OBJECT
 10
1920.0
 20
-877.99999999999955
 30
0.0
 11
1920.0
 21
-889.99999999999955
 31
0.0
1001
ACDBBLOCKREPETAG
1070
     1
1071
       37
1005
1417BE
  0
LINE
  5
1417BF
  8
OBJECT
 10
1920.0
 20
-889.99999999999955
 30
0.0
 11
2080.0
 21
-889.99999999999955
 31
0.0
1001
ACDBBLOCKREPETAG
1070
     1
1071
       38
1005
1417BF
  0
LINE
  5
1417C0
  8
OBJECT
 10
2080.0
 20
-889.99999999999955
 30
0.0
 11
2080.0
 21
-877.99999999999955
 31
0.0
1001
ACDBBLOCKREPETAG
1070
     1
1071
       39
1005
1417C0
  0
LINE
  5
1417C1
  8
OBJECT
 10
2074.9999999998622
 20
-757.99999999985016
 30
0.0
 11
2075.0
 21
-877.99999999999955
 31
0.0
1001
ACDBBLOCKREPETAG
1070
     1
1071
       43
1005
1417C1
  0
LINE
  5
1417C2
  8
OBJECT
 10
2074.9999908029849
 20
-757.99998602702112
 30
0.0
 11
2080.0
 21
-757.99998602702112
 31
0.0
1001
ACDBBLOCKREPETAG
1070
     1
1071
       44
1005
1417C2
  0
LINE
  5
1417C3
  8
OBJECT
 10
1925.000000000138
 20
-757.99999999985016
 30
0.0
 11
1925.0
 21
-877.99999999999955
 31
0.0
1001
ACDBBLOCKREPETAG
1070
     1
1071
       45
1005
1417C3
  0
LINE
  5
1417C4
  8
OBJECT
 10
1925.000009197013
 20
-757.99998602702112
 30
0.0
 11
1920.0
 21
-757.99998602702112
 31
0.0
1001
ACDBBLOCKREPETAG
1070
     1
1071
       46
1005
1417C4
  0
LINE
  5
1417C5
  8
OBJECT
 10
2060.0
 20
-628.99999999999955
 30
0.0
 11
1940.0
 21
-628.99999999999955
 31
0.0
1001
ACDBBLOCKREPETAG
1070
     1
1071
       47
1005
1417C5
  0
ARC
  5
1417C6
  8
OBJECT
 10
1940.0
 20
-631.99999999999955
 30
0.0
 40
3.0
 50
90.0
 51
180.0
1001
ACDBBLOCKREPETAG
1070
     1
1071
       48
1005
1417C6
  0
LINE
  5
1417C7
  8
OBJECT
 10
1937.0
 20
-631.99999999999955
 30
0.0
 11
1937.0
 21
-633.99999999999955
 31
0.0
1001
ACDBBLOCKREPETAG
1070
     1
1071
       49
1005
1417C7
  0
LINE
  5
1417C8
  8
OBJECT
 10
2063.0
 20
-631.99999999999955
 30
0.0
 11
2063.0
 21
-633.99999999999955
 31
0.0
1001
ACDBBLOCKREPETAG
1070
     1
1071
       50
1005
1417C8
  0
ARC
  5
1417C9
  8
OBJECT
 10
2060.0
 20
-631.99999999999955
 30
0.0
 40
3.0
 50
0.0
 51
90.0
1001
ACDBBLOCKREPETAG
1070
     1
1071
       51
1005
1417C9
  0
ARC
  5
1417CA
  8
OBJECT
 10
2200.6872746716731
 20
-749.40809941010718
 30
0.0
 40
170.6350503965856
 50
137.44134459184301
 51
149.91949581336559
1001
ACDBBLOCKREPETAG
1070
     1
1071
       52
1005
1417CA
  0
ARC
  5
1417CB
  8
OBJECT
 10
2200.6872746716731
 20
-642.59190058989179
 30
0.0
 40
170.6350503965856
 50
210.0805041866343
 51
222.55865540815699
1001
ACDBBLOCKREPETAG
1070
     1
1071
       53
1005
1417CB
  0
ARC
  5
1417CC
  8
OBJECT
 10
1799.312725328326
 20
-749.40809941010718
 30
0.0
 40
170.6350503965856
 50
30.080504186634339
 51
42.558655408447443
1001
ACDBBLOCKREPETAG
1070
     1
1071
       54
1005
1417CC
  0
ARC
  5
1417CD
  8
OBJECT
 10
1799.312725328326
 20
-642.59190058989179
 30
0.0
 40
170.6350503965856
 50
317.44134459155248
 51
329.91949581336559
1001
ACDBBLOCKREPETAG
1070
     1
1071
       55
1005
1417CD
  0
POINT
  5
1417CE
  8
DOTS
 10
2000.0
 20
-754.99999999999955
 30
0.0
1001
ACDBBLOCKREPETAG
1070
     1
1071
      133
1005
1417CE
  0
LINE
  5
1417CF
  8
CENTER
 10
5000.0
 20
-3843.9999999999959
 30
0.0
 11
5000.0
 21
-3999.9999999999959
 31
0.0
1001
ACDBBLOCKREPETAG
1070
     1
1071
        0
1005
1417CF
  0
LINE
  5
1417D0
  8
OBJECT
 10
4925.0
 20
-3863.9999999999968
 30
0.0
 11
4925.0
 21
-3987.9999860270182
 31
0.0
1001
ACDBBLOCKREPETAG
1070
     1
1071
        1
1005
1417D0
  0
LINE
  5
1417D1
  8
OBJECT
 10
5080.0
 20
-3863.9999999999968
 30
0.0
 11
4925.0
 21
-3863.9999999999968
 31
0.0
1001
ACDBBLOCKREPETAG
1070
     1
1071
        3
1005
1417D1
  0
LINE
  5
1417D2
  8
OBJECT
 10
5074.9999908029858
 20
-3987.9999860270182
 30
0.0
 11
5080.0
 21
-3987.9999860270182
 31
0.0
1001
ACDBBLOCKREPETAG
1070
     1
1071
        9
1005
1417D2
  0
LINE
  5
1417D3
  8
OBJECT
 10
5060.0
 20
-3858.9999999999968
 30
0.0
 11
4940.0
 21
-3858.9999999999968
 31
0.0
1001
ACDBBLOCKREPETAG
1070
     1
1071
       10
1005
1417D3
  0
ARC
  5
1417D4
  8
OBJECT
 10
4940.0
 20
-3861.9999999999959
 30
0.0
 40
3.0
 50
90.0
 51
180.0
1001
ACDBBLOCKREPETAG
1070
     1
1071
       11
1005
1417D4
  0
LINE
  5
1417D5
  8
OBJECT
 10
4937.0
 20
-3861.9999999999959
 30
0.0
 11
4937.0
 21
-3863.9999999999968
 31
0.0
1001
ACDBBLOCKREPETAG
1070
     1
1071
       12
1005
1417D5
  0
LINE
  5
1417D6
  8
OBJECT
 10
5063.0
 20
-3861.9999999999959
 30
0.0
 11
5063.0
 21
-3863.9999999999968
 31
0.0
1001
ACDBBLOCKREPETAG
1070
     1
1071
       13
1005
1417D6
  0
ARC
  5
1417D7
  8
OBJECT
 10
5060.0
 20
-3861.9999999999959
 30
0.0
 40
3.0
 50
0.0
 51
90.0
1001
ACDBBLOCKREPETAG
1070
     1
1071
       14
1005
1417D7
  0
ARC
  5
1417D8
  8
OBJECT
 10
5200.6872746716726
 20
-3979.4080994101041
 30
0.0
 40
170.6350503965856
 50
137.44134459184301
 51
149.9194958133665
1001
ACDBBLOCKREPETAG
1070
     1
1071
       15
1005
1417D8
  0
ARC
  5
1417D9
  8
OBJECT
 10
5118.8455987040506
 20
-3935.8827266953608
 30
0.0
 40
78.072222021763665
 50
147.4551531038623
 51
164.66365997719291
1001
ACDBBLOCKREPETAG
1070
     1
1071
       16
1005
1417D9
  0
ARC
  5
1417DA
  8
OBJECT
 10
5085.7554349608727
 20
-3925.9999999999959
 30
0.0
 40
43.55353926885617
 50
165.68845230068331
 51
194.31154769931661
1001
ACDBBLOCKREPETAG
1070
     1
1071
       17
1005
1417DA
  0
ARC
  5
1417DB
  8
OBJECT
 10
5200.6872746716726
 20
-3872.59190058989
 30
0.0
 40
170.6350503965856
 50
210.0805041866335
 51
222.55865540815699
1001
ACDBBLOCKREPETAG
1070
     1
1071
       18
1005
1417DB
  0
ARC
  5
1417DC
  8
OBJECT
 10
5118.8455987040506
 20
-3916.1172733046319
 30
0.0
 40
78.072222021763665
 50
195.33634002280701
 51
212.5448468961377
1001
ACDBBLOCKREPETAG
1070
     1
1071
       19
1005
1417DC
  0
POINT
  5
1417DD
  8
DOTS
 10
5000.0
 20
-3984.9999999999968
 30
0.0
1001
ACDBBLOCKREPETAG
1070
     1
1071
      135
1005
1417DD
  0
POINT
  5
1417DE
  8
DOTS
 10
5000.0
 20
-3579.9999999999959
 30
0.0
 50
270.0
1001
ACDBBLOCKREPETAG
1070
     1
1071
      362
1005
1417DE
  0
LINE
  5
1417DF
  8
CENTER
 10
5080.0
 20
-3579.9999999999959
 30
0.0
 11
4905.0
 21
-3579.9999999999959
 31
0.0
1001
ACDBBLOCKREPETAG
1070
     1
1071
       14
1005
1417DF
  0
LINE
  5
1417E0
  8
CENTER
 10
5000.0
 20
-3674.9999999999959
 30
0.0
 11
5000.0
 21
-3484.9999999999959
 31
0.0
1001
ACDBBLOCKREPETAG
1070
     1
1071
       15
1005
1417E0
  0
ARC
  5
1417E1
  8
OBJECT
 10
5000.0
 20
-3579.9999999999959
 30
0.0
 40
80.0
 50
50.805032573882329
 51
309.19496742611773
1001
ACDBBLOCKREPETAG
1070
     1
1071
       18
1005
1417E1
  0
LINE
  5
1417E2
  8
OBJECT
 10
5042.2018956920174
 20
-3517.9999999999959
 30
0.0
 11
5080.0
 21
-3517.9999999999959
 31
0.0
1001
ACDBBLOCKREPETAG
1070
     1
1071
       19
1005
1417E2
  0
LINE
  5
1417E3
  8
OBJECT
 10
5042.2018956920174
 20
-3641.9999999999959
 30
0.0
 11
5080.0
 21
-3641.9999999999959
 31
0.0
1001
ACDBBLOCKREPETAG
1070
     1
1071
       20
1005
1417E3
  0
CIRCLE
  5
1417E4
  8
OBJECT
 10
5000.0
 20
-3579.9999999999959
 30
0.0
 40
63.0
1001
ACDBBLOCKREPETAG
1070
     1
1071
      436
1005
1417E4
  0
CIRCLE
  5
1417E5
  8
OBJECT
 10
5000.0
 20
-3579.9999999999959
 30
0.0
 40
75.0
1001
ACDBBLOCKREPETAG
1070
     1
1071
      437
1005
1417E5
  0
LINE
  5
1417E6
  8
CENTER
 10
4400.0
 20
-3843.9999999999959
 30
0.0
 11
4400.0
 21
-3999.9999999999959
 31
0.0
1001
ACDBBLOCKREPETAG
1070
     1
1071
       20
1005
1417E6
  0
LINE
  5
1417E7
  8
OBJECT
 10
4325.0
 20
-3863.9999999999968
 30
0.0
 11
4325.0
 21
-3987.9999999999968
 31
0.0
1001
ACDBBLOCKREPETAG
1070
     1
1071
       21
1005
1417E7
  0
LINE
  5
1417E8
  8
OBJECT
 10
4474.9999999997108
 20
-3863.9999999999968
 30
0.0
 11
4325.0
 21
-3863.9999999999968
 31
0.0
1001
ACDBBLOCKREPETAG
1070
     1
1071
       23
1005
1417E8
  0
LINE
  5
1417E9
  8
OBJECT
 10
4474.9999999997108
 20
-3863.9999999999968
 30
0.0
 11
4474.999999999859
 21
-3987.9999999999968
 31
0.0
1001
ACDBBLOCKREPETAG
1070
     1
1071
       28
1005
1417E9
  0
LINE
  5
1417EA
  8
OBJECT
 10
4460.0
 20
-3858.9999999999968
 30
0.0
 11
4340.0
 21
-3858.9999999999968
 31
0.0
1001
ACDBBLOCKREPETAG
1070
     1
1071
       29
1005
1417EA
  0
ARC
  5
1417EB
  8
OBJECT
 10
4340.0
 20
-3861.9999999999959
 30
0.0
 40
3.0
 50
90.0
 51
180.0
1001
ACDBBLOCKREPETAG
1070
     1
1071
       30
1005
1417EB
  0
LINE
  5
1417EC
  8
OBJECT
 10
4337.0
 20
-3861.9999999999959
 30
0.0
 11
4337.0
 21
-3863.9999999999968
 31
0.0
1001
ACDBBLOCKREPETAG
1070
     1
1071
       31
1005
1417EC
  0
LINE
  5
1417ED
  8
OBJECT
 10
4463.0
 20
-3861.9999999999959
 30
0.0
 11
4463.0
 21
-3863.9999999999968
 31
0.0
1001
ACDBBLOCKREPETAG
1070
     1
1071
       32
1005
1417ED
  0
ARC
  5
1417EE
  8
OBJECT
 10
4460.0
 20
-3861.9999999999959
 30
0.0
 40
3.0
 50
0.0
 51
90.0
1001
ACDBBLOCKREPETAG
1070
     1
1071
       33
1005
1417EE
  0
POINT
  5
1417EF
  8
DOTS
 10
4400.0
 20
-3984.9999999999968
 30
0.0
1001
ACDBBLOCKREPETAG
1070
     1
1071
      136
1005
1417EF
  0
LINE
  5
1417F0
  8
CENTER
 10
4000.0
 20
-3843.9999999999959
 30
0.0
 11
4000.0
 21
-3999.9999999999959
 31
0.0
1001
ACDBBLOCKREPETAG
1070
     1
1071
        0
1005
1417F0
  0
LINE
  5
1417F1
  8
OBJECT
 10
3925.0
 20
-3863.9999999999968
 30
0.0
 11
3925.0
 21
-3987.9999860270182
 31
0.0
1001
ACDBBLOCKREPETAG
1070
     1
1071
        1
1005
1417F1
  0
LINE
  5
1417F2
  8
OBJECT
 10
4080.0
 20
-3863.9999999999968
 30
0.0
 11
3925.0
 21
-3863.9999999999968
 31
0.0
1001
ACDBBLOCKREPETAG
1070
     1
1071
        3
1005
1417F2
  0
LINE
  5
1417F3
  8
OBJECT
 10
4074.9999908029849
 20
-3987.9999860270182
 30
0.0
 11
4080.0
 21
-3987.9999860270182
 31
0.0
1001
ACDBBLOCKREPETAG
1070
     1
1071
        9
1005
1417F3
  0
LINE
  5
1417F4
  8
OBJECT
 10
4060.0
 20
-3858.9999999999968
 30
0.0
 11
3940.0
 21
-3858.9999999999968
 31
0.0
1001
ACDBBLOCKREPETAG
1070
     1
1071
       10
1005
1417F4
  0
ARC
  5
1417F5
  8
OBJECT
 10
3940.0
 20
-3861.9999999999959
 30
0.0
 40
3.0
 50
90.0
 51
180.0
1001
ACDBBLOCKREPETAG
1070
     1
1071
       11
1005
1417F5
  0
LINE
  5
1417F6
  8
OBJECT
 10
3937.0
 20
-3861.9999999999959
 30
0.0
 11
3937.0
 21
-3863.9999999999968
 31
0.0
1001
ACDBBLOCKREPETAG
1070
     1
1071
       12
1005
1417F6
  0
LINE
  5
1417F7
  8
OBJECT
 10
4063.0
 20
-3861.9999999999959
 30
0.0
 11
4063.0
 21
-3863.9999999999968
 31
0.0
1001
ACDBBLOCKREPETAG
1070
     1
1071
       13
1005
1417F7
  0
ARC
  5
1417F8
  8
OBJECT
 10
4060.0
 20
-3861.9999999999959
 30
0.0
 40
3.0
 50
0.0
 51
90.0
1001
ACDBBLOCKREPETAG
1070
     1
1071
       14
1005
1417F8
  0
ARC
  5
1417F9
  8
OBJECT
 10
4200.6872746716726
 20
-3979.4080994101041
 30
0.0
 40
170.6350503965856
 50
137.44134459184301
 51
149.9194958133665
1001
ACDBBLOCKREPETAG
1070
     1
1071
       15
1005
1417F9
  0
ARC
  5
1417FA
  8
OBJECT
 10
4118.8455987040506
 20
-3935.8827266953608
 30
0.0
 40
78.072222021763665
 50
147.4551531038623
 51
164.663659977186
1001
ACDBBLOCKREPETAG
1070
     1
1071
       16
1005
1417FA
  0
ARC
  5
1417FB
  8
OBJECT
 10
4085.7554349608722
 20
-3925.9999999999959
 30
0.0
 40
43.55353926885617
 50
165.68845230068979
 51
194.3115476993101
1001
ACDBBLOCKREPETAG
1070
     1
1071
       17
1005
1417FB
  0
ARC
  5
1417FC
  8
OBJECT
 10
4200.6872746716726
 20
-3872.59190058989
 30
0.0
 40
170.6350503965856
 50
210.0805041866335
 51
222.55865540815699
1001
ACDBBLOCKREPETAG
1070
     1
1071
       18
1005
1417FC
  0
ARC
  5
1417FD
  8
OBJECT
 10
4118.8455987040506
 20
-3916.1172733046319
 30
0.0
 40
78.072222021763665
 50
195.33634002281391
 51
212.5448468961377
1001
ACDBBLOCKREPETAG
1070
     1
1071
       19
1005
1417FD
  0
POINT
  5
1417FE
  8
DOTS
 10
4000.0
 20
-3984.9999999999968
 30
0.0
1001
ACDBBLOCKREPETAG
1070
     1
1071
      135
1005
1417FE
  0
POINT
  5
1417FF
  8
DOTS
 10
4000.0
 20
-3579.9999999999959
 30
0.0
 50
270.0
1001
ACDBBLOCKREPETAG
1070
     1
1071
      362
1005
1417FF
  0
LINE
  5
141800
  8
CENTER
 10
4080.0
 20
-3579.9999999999959
 30
0.0
 11
3905.0
 21
-3579.9999999999959
 31
0.0
1001
ACDBBLOCKREPETAG
1070
     1
1071
       14
1005
141800
  0
LINE
  5
141801
  8
CENTER
 10
4000.0
 20
-3674.9999999999959
 30
0.0
 11
4000.0
 21
-3484.9999999999959
 31
0.0
1001
ACDBBLOCKREPETAG
1070
     1
1071
       15
1005
141801
  0
ARC
  5
141802
  8
OBJECT
 10
4000.0
 20
-3579.9999999999959
 30
0.0
 40
80.0
 50
50.805032573862128
 51
309.19496742613791
1001
ACDBBLOCKREPETAG
1070
     1
1071
       18
1005
141802
  0
LINE
  5
141803
  8
OBJECT
 10
4042.2018956920169
 20
-3517.9999999999959
 30
0.0
 11
4080.0
 21
-3517.9999999999959
 31
0.0
1001
ACDBBLOCKREPETAG
1070
     1
1071
       19
1005
141803
  0
LINE
  5
141804
  8
OBJECT
 10
4042.2018956920169
 20
-3641.9999999999959
 30
0.0
 11
4080.0
 21
-3641.9999999999959
 31
0.0
1001
ACDBBLOCKREPETAG
1070
     1
1071
       20
1005
141804
  0
CIRCLE
  5
141805
  8
OBJECT
 10
4000.0
 20
-3579.9999999999959
 30
0.0
 40
63.0
1001
ACDBBLOCKREPETAG
1070
     1
1071
      436
1005
141805
  0
CIRCLE
  5
141806
  8
OBJECT
 10
4000.0
 20
-3579.9999999999959
 30
0.0
 40
75.0
1001
ACDBBLOCKREPETAG
1070
     1
1071
      437
1005
141806
  0
LINE
  5
141807
  8
CENTER
 10
3400.0
 20
-3843.9999999999959
 30
0.0
 11
3400.0
 21
-3999.9999999999959
 31
0.0
1001
ACDBBLOCKREPETAG
1070
     1
1071
       20
1005
141807
  0
LINE
  5
141808
  8
OBJECT
 10
3325.0
 20
-3863.9999999999968
 30
0.0
 11
3325.0
 21
-3987.9999999999968
 31
0.0
1001
ACDBBLOCKREPETAG
1070
     1
1071
       21
1005
141808
  0
LINE
  5
141809
  8
OBJECT
 10
3474.9999999997131
 20
-3863.9999999999968
 30
0.0
 11
3325.0
 21
-3863.9999999999968
 31
0.0
1001
ACDBBLOCKREPETAG
1070
     1
1071
       23
1005
141809
  0
LINE
  5
14180A
  8
OBJECT
 10
3474.9999999997131
 20
-3863.9999999999968
 30
0.0
 11
3474.999999999859
 21
-3987.9999999999968
 31
0.0
1001
ACDBBLOCKREPETAG
1070
     1
1071
       28
1005
14180A
  0
LINE
  5
14180B
  8
OBJECT
 10
3460.0
 20
-3858.9999999999968
 30
0.0
 11
3340.0
 21
-3858.9999999999968
 31
0.0
1001
ACDBBLOCKREPETAG
1070
     1
1071
       29
1005
14180B
  0
ARC
  5
14180C
  8
OBJECT
 10
3340.0
 20
-3861.9999999999959
 30
0.0
 40
3.0
 50
90.0
 51
180.0
1001
ACDBBLOCKREPETAG
1070
     1
1071
       30
1005
14180C
  0
LINE
  5
14180D
  8
OBJECT
 10
3337.0
 20
-3861.9999999999959
 30
0.0
 11
3337.0
 21
-3863.9999999999968
 31
0.0
1001
ACDBBLOCKREPETAG
1070
     1
1071
       31
1005
14180D
  0
LINE
  5
14180E
  8
OBJECT
 10
3463.0
 20
-3861.9999999999959
 30
0.0
 11
3463.0
 21
-3863.9999999999968
 31
0.0
1001
ACDBBLOCKREPETAG
1070
     1
1071
       32
1005
14180E
  0
ARC
  5
14180F
  8
OBJECT
 10
3460.0
 20
-3861.9999999999959
 30
0.0
 40
3.0
 50
0.0
 51
90.0
1001
ACDBBLOCKREPETAG
1070
     1
1071
       33
1005
14180F
  0
POINT
  5
141810
  8
DOTS
 10
3400.0
 20
-3984.9999999999968
 30
0.0
1001
ACDBBLOCKREPETAG
1070
     1
1071
      136
1005
141810
  0
LINE
  5
141811
  8
CENTER
 10
3000.0
 20
-3843.9999999999959
 30
0.0
 11
3000.0
 21
-3999.9999999999959
 31
0.0
1001
ACDBBLOCKREPETAG
1070
     1
1071
        0
1005
141811
  0
LINE
  5
141812
  8
OBJECT
 10
2925.0
 20
-3863.9999999999968
 30
0.0
 11
2925.0
 21
-3987.9999860270182
 31
0.0
1001
ACDBBLOCKREPETAG
1070
     1
1071
        1
1005
141812
  0
LINE
  5
141813
  8
OBJECT
 10
3080.0
 20
-3863.9999999999968
 30
0.0
 11
2925.0
 21
-3863.9999999999968
 31
0.0
1001
ACDBBLOCKREPETAG
1070
     1
1071
        3
1005
141813
  0
LINE
  5
141814
  8
OBJECT
 10
3074.9999908029849
 20
-3987.9999860270182
 30
0.0
 11
3080.0
 21
-3987.9999860270182
 31
0.0
1001
ACDBBLOCKREPETAG
1070
     1
1071
        9
1005
141814
  0
LINE
  5
141815
  8
OBJECT
 10
3060.0
 20
-3858.9999999999968
 30
0.0
 11
2940.0
 21
-3858.9999999999968
 31
0.0
1001
ACDBBLOCKREPETAG
1070
     1
1071
       10
1005
141815
  0
ARC
  5
141816
  8
OBJECT
 10
2940.0
 20
-3861.9999999999959
 30
0.0
 40
3.0
 50
90.0
 51
180.0
1001
ACDBBLOCKREPETAG
1070
     1
1071
       11
1005
141816
  0
LINE
  5
141817
  8
OBJECT
 10
2937.0
 20
-3861.9999999999959
 30
0.0
 11
2937.0
 21
-3863.9999999999968
 31
0.0
1001
ACDBBLOCKREPETAG
1070
     1
1071
       12
1005
141817
  0
LINE
  5
141818
  8
OBJECT
 10
3063.0
 20
-3861.9999999999959
 30
0.0
 11
3063.0
 21
-3863.9999999999968
 31
0.0
1001
ACDBBLOCKREPETAG
1070
     1
1071
       13
1005
141818
  0
ARC
  5
141819
  8
OBJECT
 10
3060.0
 20
-3861.9999999999959
 30
0.0
 40
3.0
 50
0.0
 51
90.0
1001
ACDBBLOCKREPETAG
1070
     1
1071
       14
1005
141819
  0
ARC
  5
14181A
  8
OBJECT
 10
3200.6872746716722
 20
-3979.4080994101041
 30
0.0
 40
170.6350503965856
 50
137.44134459184301
 51
149.9194958133665
1001
ACDBBLOCKREPETAG
1070
     1
1071
       15
1005
14181A
  0
ARC
  5
14181B
  8
OBJECT
 10
3118.8455987040511
 20
-3935.8827266953608
 30
0.0
 40
78.072222021763665
 50
147.4551531038623
 51
164.663659977186
1001
ACDBBLOCKREPETAG
1070
     1
1071
       16
1005
14181B
  0
ARC
  5
14181C
  8
OBJECT
 10
3085.7554349608731
 20
-3925.9999999999959
 30
0.0
 40
43.55353926885617
 50
165.68845230068979
 51
194.3115476993101
1001
ACDBBLOCKREPETAG
1070
     1
1071
       17
1005
14181C
  0
ARC
  5
14181D
  8
OBJECT
 10
3200.6872746716722
 20
-3872.59190058989
 30
0.0
 40
170.6350503965856
 50
210.0805041866335
 51
222.55865540815699
1001
ACDBBLOCKREPETAG
1070
     1
1071
       18
1005
14181D
  0
ARC
  5
14181E
  8
OBJECT
 10
3118.8455987040511
 20
-3916.1172733046319
 30
0.0
 40
78.072222021763665
 50
195.33634002281391
 51
212.5448468961377
1001
ACDBBLOCKREPETAG
1070
     1
1071
       19
1005
14181E
  0
POINT
  5
14181F
  8
DOTS
 10
3000.0
 20
-3984.9999999999968
 30
0.0
1001
ACDBBLOCKREPETAG
1070
     1
1071
      135
1005
14181F
  0
POINT
  5
141820
  8
DOTS
 10
3000.0
 20
-3579.9999999999959
 30
0.0
 50
270.0
1001
ACDBBLOCKREPETAG
1070
     1
1071
      362
1005
141820
  0
LINE
  5
141821
  8
CENTER
 10
3080.0
 20
-3579.9999999999959
 30
0.0
 11
2905.0
 21
-3579.9999999999959
 31
0.0
1001
ACDBBLOCKREPETAG
1070
     1
1071
       14
1005
141821
  0
LINE
  5
141822
  8
CENTER
 10
3000.0
 20
-3674.9999999999959
 30
0.0
 11
3000.0
 21
-3484.9999999999959
 31
0.0
1001
ACDBBLOCKREPETAG
1070
     1
1071
       15
1005
141822
  0
ARC
  5
141823
  8
OBJECT
 10
3000.0
 20
-3579.9999999999959
 30
0.0
 40
80.0
 50
50.805032573862128
 51
309.19496742613791
1001
ACDBBLOCKREPETAG
1070
     1
1071
       18
1005
141823
  0
LINE
  5
141824
  8
OBJECT
 10
3042.2018956920201
 20
-3517.9999999999959
 30
0.0
 11
3080.0
 21
-3517.9999999999959
 31
0.0
1001
ACDBBLOCKREPETAG
1070
     1
1071
       19
1005
141824
  0
LINE
  5
141825
  8
OBJECT
 10
3042.2018956920201
 20
-3641.9999999999959
 30
0.0
 11
3080.0
 21
-3641.9999999999959
 31
0.0
1001
ACDBBLOCKREPETAG
1070
     1
1071
       20
1005
141825
  0
CIRCLE
  5
141826
  8
OBJECT
 10
3000.0
 20
-3579.9999999999959
 30
0.0
 40
63.0
1001
ACDBBLOCKREPETAG
1070
     1
1071
      436
1005
141826
  0
CIRCLE
  5
141827
  8
OBJECT
 10
3000.0
 20
-3579.9999999999959
 30
0.0
 40
75.0
1001
ACDBBLOCKREPETAG
1070
     1
1071
      437
1005
141827
  0
LINE
  5
141828
  8
CENTER
 10
2400.0
 20
-3843.9999999999959
 30
0.0
 11
2400.0
 21
-3999.9999999999959
 31
0.0
1001
ACDBBLOCKREPETAG
1070
     1
1071
       20
1005
141828
  0
LINE
  5
141829
  8
OBJECT
 10
2325.0
 20
-3863.9999999999968
 30
0.0
 11
2325.0
 21
-3987.9999999999968
 31
0.0
1001
ACDBBLOCKREPETAG
1070
     1
1071
       21
1005
141829
  0
LINE
  5
14182A
  8
OBJECT
 10
2474.9999999997131
 20
-3863.9999999999968
 30
0.0
 11
2325.0
 21
-3863.9999999999968
 31
0.0
1001
ACDBBLOCKREPETAG
1070
     1
1071
       23
1005
14182A
  0
LINE
  5
14182B
  8
OBJECT
 10
2474.9999999997131
 20
-3863.9999999999968
 30
0.0
 11
2474.999999999859
 21
-3987.9999999999968
 31
0.0
1001
ACDBBLOCKREPETAG
1070
     1
1071
       28
1005
14182B
  0
LINE
  5
14182C
  8
OBJECT
 10
2460.0
 20
-3858.9999999999968
 30
0.0
 11
2340.0
 21
-3858.9999999999968
 31
0.0
1001
ACDBBLOCKREPETAG
1070
     1
1071
       29
1005
14182C
  0
ARC
  5
14182D
  8
OBJECT
 10
2340.0
 20
-3861.9999999999959
 30
0.0
 40
3.0
 50
90.0
 51
180.0
1001
ACDBBLOCKREPETAG
1070
     1
1071
       30
1005
14182D
  0
LINE
  5
14182E
  8
OBJECT
 10
2337.0
 20
-3861.9999999999959
 30
0.0
 11
2337.0
 21
-3863.9999999999968
 31
0.0
1001
ACDBBLOCKREPETAG
1070
     1
1071
       31
1005
14182E
  0
LINE
  5
14182F
  8
OBJECT
 10
2463.0
 20
-3861.9999999999959
 30
0.0
 11
2463.0
 21
-3863.9999999999968
 31
0.0
1001
ACDBBLOCKREPETAG
1070
     1
1071
       32
1005
14182F
  0
ARC
  5
141830
  8
OBJECT
 10
2460.0
 20
-3861.9999999999959
 30
0.0
 40
3.0
 50
0.0
 51
90.0
1001
ACDBBLOCKREPETAG
1070
     1
1071
       33
1005
141830
  0
POINT
  5
141831
  8
DOTS
 10
2400.0
 20
-3984.9999999999968
 30
0.0
1001
ACDBBLOCKREPETAG
1070
     1
1071
      136
1005
141831
  0
LINE
  5
141832
  8
CENTER
 10
2000.0
 20
-3843.9999999999959
 30
0.0
 11
2000.0
 21
-3999.9999999999959
 31
0.0
1001
ACDBBLOCKREPETAG
1070
     1
1071
        0
1005
141832
  0
LINE
  5
141833
  8
OBJECT
 10
1925.0
 20
-3863.9999999999968
 30
0.0
 11
1925.0
 21
-3987.9999860270182
 31
0.0
1001
ACDBBLOCKREPETAG
1070
     1
1071
        1
1005
141833
  0
LINE
  5
141834
  8
OBJECT
 10
2080.0
 20
-3863.9999999999968
 30
0.0
 11
1925.0
 21
-3863.9999999999968
 31
0.0
1001
ACDBBLOCKREPETAG
1070
     1
1071
        3
1005
141834
  0
LINE
  5
141835
  8
OBJECT
 10
2074.9999908029849
 20
-3987.9999860270182
 30
0.0
 11
2080.0
 21
-3987.9999860270182
 31
0.0
1001
ACDBBLOCKREPETAG
1070
     1
1071
        9
1005
141835
  0
LINE
  5
141836
  8
OBJECT
 10
2060.0
 20
-3858.9999999999968
 30
0.0
 11
1940.0
 21
-3858.9999999999968
 31
0.0
1001
ACDBBLOCKREPETAG
1070
     1
1071
       10
1005
141836
  0
ARC
  5
141837
  8
OBJECT
 10
1940.0
 20
-3861.9999999999959
 30
0.0
 40
3.0
 50
90.0
 51
180.0
1001
ACDBBLOCKREPETAG
1070
     1
1071
       11
1005
141837
  0
LINE
  5
141838
  8
OBJECT
 10
1937.0
 20
-3861.9999999999959
 30
0.0
 11
1937.0
 21
-3863.9999999999968
 31
0.0
1001
ACDBBLOCKREPETAG
1070
     1
1071
       12
1005
141838
  0
LINE
  5
141839
  8
OBJECT
 10
2063.0
 20
-3861.9999999999959
 30
0.0
 11
2063.0
 21
-3863.9999999999968
 31
0.0
1001
ACDBBLOCKREPETAG
1070
     1
1071
       13
1005
141839
  0
ARC
  5
14183A
  8
OBJECT
 10
2060.0
 20
-3861.9999999999959
 30
0.0
 40
3.0
 50
0.0
 51
90.0
1001
ACDBBLOCKREPETAG
1070
     1
1071
       14
1005
14183A
  0
ARC
  5
14183B
  8
OBJECT
 10
2200.6872746716731
 20
-3979.4080994101041
 30
0.0
 40
170.6350503965856
 50
137.44134459184301
 51
149.91949581335999
1001
ACDBBLOCKREPETAG
1070
     1
1071
       15
1005
14183B
  0
ARC
  5
14183C
  8
OBJECT
 10
2118.8455987040511
 20
-3935.8827266953608
 30
0.0
 40
78.072222021763665
 50
147.4551531038623
 51
164.6636599771895
1001
ACDBBLOCKREPETAG
1070
     1
1071
       16
1005
14183C
  0
ARC
  5
14183D
  8
OBJECT
 10
2085.7554349608731
 20
-3925.9999999999959
 30
0.0
 40
43.55353926885617
 50
165.68845230068661
 51
194.31154769931339
1001
ACDBBLOCKREPETAG
1070
     1
1071
       17
1005
14183D
  0
ARC
  5
14183E
  8
OBJECT
 10
2200.6872746716731
 20
-3872.59190058989
 30
0.0
 40
170.6350503965856
 50
210.08050418664001
 51
222.55865540815699
1001
ACDBBLOCKREPETAG
1070
     1
1071
       18
1005
14183E
  0
ARC
  5
14183F
  8
OBJECT
 10
2118.8455987040511
 20
-3916.1172733046319
 30
0.0
 40
78.072222021763665
 50
195.3363400228105
 51
212.5448468961377
1001
ACDBBLOCKREPETAG
1070
     1
1071
       19
1005
14183F
  0
POINT
  5
141840
  8
DOTS
 10
2000.0
 20
-3984.9999999999968
 30
0.0
1001
ACDBBLOCKREPETAG
1070
     1
1071
      135
1005
141840
  0
POINT
  5
141841
  8
DOTS
 10
2000.0
 20
-3579.9999999999959
 30
0.0
 50
270.0
1001
ACDBBLOCKREPETAG
1070
     1
1071
      362
1005
141841
  0
LINE
  5
141842
  8
CENTER
 10
2080.0
 20
-3579.9999999999959
 30
0.0
 11
1905.0
 21
-3579.9999999999959
 31
0.0
1001
ACDBBLOCKREPETAG
1070
     1
1071
       14
1005
141842
  0
LINE
  5
141843
  8
CENTER
 10
2000.0
 20
-3674.9999999999959
 30
0.0
 11
2000.0
 21
-3484.9999999999959
 31
0.0
1001
ACDBBLOCKREPETAG
1070
     1
1071
       15
1005
141843
  0
ARC
  5
141844
  8
OBJECT
 10
2000.0
 20
-3579.9999999999959
 30
0.0
 40
80.0
 50
50.805032573862128
 51
309.19496742613791
1001
ACDBBLOCKREPETAG
1070
     1
1071
       18
1005
141844
  0
LINE
  5
141845
  8
OBJECT
 10
2042.2018956920181
 20
-3517.9999999999959
 30
0.0
 11
2080.0
 21
-3517.9999999999959
 31
0.0
1001
ACDBBLOCKREPETAG
1070
     1
1071
       19
1005
141845
  0
LINE
  5
141846
  8
OBJECT
 10
2042.2018956920181
 20
-3641.9999999999959
 30
0.0
 11
2080.0
 21
-3641.9999999999959
 31
0.0
1001
ACDBBLOCKREPETAG
1070
     1
1071
       20
1005
141846
  0
CIRCLE
  5
141847
  8
OBJECT
 10
2000.0
 20
-3579.9999999999959
 30
0.0
 40
63.0
1001
ACDBBLOCKREPETAG
1070
     1
1071
      436
1005
141847
  0
CIRCLE
  5
141848
  8
OBJECT
 10
2000.0
 20
-3579.9999999999959
 30
0.0
 40
75.0
1001
ACDBBLOCKREPETAG
1070
     1
1071
      437
1005
141848
  0
TEXT
  5
141849
  8
SLIM
 10
492.85714285696088
 20
-907.999999999691
 30
0.0
 40
48.0
  1
Z84
 41
0.75
1001
ACDBBLOCKREPETAG
1070
     1
1071
      119
1005
0
  0
TEXT
  5
14184A
  8
SLIM
 10
133.7142857142257
 20
-907.999999999691
 30
0.0
 40
48.0
  1
Z83
 41
0.75
1001
ACDBBLOCKREPETAG
1070
     1
1071
      119
1005
0
  0
TEXT
  5
14184B
  8
SLIM
 10
493.71428571410371
 20
-443.99999999984919
 30
0.0
 40
48.0
  1
Z82
 41
0.75
1001
ACDBBLOCKREPETAG
1070
     1
1071
      119
1005
0
  0
TEXT
  5
14184C
  8
SLIM
 10
141.42857142851139
 20
-443.99999999984919
 30
0.0
 40
48.0
  1
Z81
 41
0.75
1001
ACDBBLOCKREPETAG
1070
     1
1071
      119
1005
0
  0
POLYLINE
  5
14184D
  8
HIDDEN
 66
     1
 10
0.0
 20
0.0
 30
0.0
 70
     1
1001
ACDBBLOCKREPETAG
1070
     1
1071
      105
1005
0
  0
VERTEX
  5
144007
  8
HIDDEN
 10
359.99999999987818
 20
0.0
 30
0.0
  0
VERTEX
  5
144008
  8
HIDDEN
 10
719.99999999975626
 20
0.0
 30
0.0
  0
VERTEX
  5
144009
  8
HIDDEN
 10
719.99999999975626
 20
-463.99999999984158
 30
0.0
  0
VERTEX
  5
14400A
  8
HIDDEN
 10
359.99999999987818
 20
-463.99999999984158
 30
0.0
  0
SEQEND
  5
14400B
  8
HIDDEN
  0
POLYLINE
  5
14184E
  8
HIDDEN
 66
     1
 10
0.0
 20
0.0
 30
0.0
 70
     1
1001
ACDBBLOCKREPETAG
1070
     1
1071
      110
1005
0
  0
VERTEX
  5
14400C
  8
HIDDEN
 10
0.0
 20
0.0
 30
0.0
  0
VERTEX
  5
14400D
  8
HIDDEN
 10
359.99999999987818
 20
0.0
 30
0.0
  0
VERTEX
  5
14400E
  8
HIDDEN
 10
359.99999999987818
 20
-463.99999999984158
 30
0.0
  0
VERTEX
  5
14400F
  8
HIDDEN
 10
0.0
 20
-463.99999999984158
 30
0.0
  0
SEQEND
  5
144010
  8
HIDDEN
  0
POLYLINE
  5
14184F
  8
HIDDEN
 66
     1
 10
0.0
 20
0.0
 30
0.0
 70
     1
1001
ACDBBLOCKREPETAG
1070
     1
1071
      120
1005
0
  0
VERTEX
  5
144011
  8
HIDDEN
 10
359.99999999987818
 20
-463.99999999984158
 30
0.0
  0
VERTEX
  5
144012
  8
HIDDEN
 10
719.99999999975626
 20
-463.99999999984158
 30
0.0
  0
VERTEX
  5
144013
  8
HIDDEN
 10
719.99999999975626
 20
-927.99999999968372
 30
0.0
  0
VERTEX
  5
144014
  8
HIDDEN
 10
359.99999999987818
 20
-927.99999999968372
 30
0.0
  0
SEQEND
  5
144015
  8
HIDDEN
  0
POLYLINE
  5
141850
  8
HIDDEN
 66
     1
 10
0.0
 20
0.0
 30
0.0
 70
     1
1001
ACDBBLOCKREPETAG
1070
     1
1071
      125
1005
0
  0
VERTEX
  5
144016
  8
HIDDEN
 10
0.0
 20
-463.99999999984158
 30
0.0
  0
VERTEX
  5
144017
  8
HIDDEN
 10
359.99999999987818
 20
-463.99999999984158
 30
0.0
  0
VERTEX
  5
144018
  8
HIDDEN
 10
359.99999999987818
 20
-927.99999999968372
 30
0.0
  0
VERTEX
  5
144019
  8
HIDDEN
 10
0.0
 20
-927.99999999968372
 30
0.0
  0
SEQEND
  5
14401A
  8
HIDDEN
  0
POINT
  5
141851
  8
DOTS
 10
2000.0
 20
-199.99999999999909
 30
0.0
 50
270.0
1001
ACDBBLOCKREPETAG
1070
     1
1071
      153
1005
141851
  0
LINE
  5
141852
  8
CENTER
 10
2080.0
 20
-199.99999999999909
 30
0.0
 11
1920.0
 21
-199.99999999999909
 31
0.0
1001
ACDBBLOCKREPETAG
1070
     1
1071
       49
1005
141852
  0
LINE
  5
141853
  8
CENTER
 10
2000.0
 20
-279.99999999999909
 30
0.0
 11
2000.0
 21
-104.9999999999991
 31
0.0
1001
ACDBBLOCKREPETAG
1070
     1
1071
       50
1005
141853
  0
CIRCLE
  5
141854
  8
OBJECT
 10
2000.0
 20
-199.99999999999909
 30
0.0
 40
63.0
1001
ACDBBLOCKREPETAG
1070
     1
1071
       51
1005
141854
  0
CIRCLE
  5
141855
  8
OBJECT
 10
2000.0
 20
-199.99999999999909
 30
0.0
 40
75.0
1001
ACDBBLOCKREPETAG
1070
     1
1071
       52
1005
141855
  0
ARC
  5
141856
  8
OBJECT
 10
2000.0
 20
-199.99999999999909
 30
0.0
 40
80.0
 50
50.805032573864182
 51
129.1949674261358
1001
ACDBBLOCKREPETAG
1070
     1
1071
       53
1005
141856
  0
LINE
  5
141857
  8
OBJECT
 10
2042.2018956920181
 20
-137.99999999999909
 30
0.0
 11
2080.0
 21
-137.99999999999909
 31
0.0
1001
ACDBBLOCKREPETAG
1070
     1
1071
       54
1005
141857
  0
LINE
  5
141858
  8
OBJECT
 10
2062.0
 20
-261.99999999999909
 30
0.0
 11
2080.0
 21
-261.99999999999909
 31
0.0
1001
ACDBBLOCKREPETAG
1070
     1
1071
       55
1005
141858
  0
LINE
  5
141859
  8
OBJECT
 10
2062.0
 20
-261.99999999999909
 30
0.0
 11
2062.0
 21
-279.99999999999909
 31
0.0
1001
ACDBBLOCKREPETAG
1070
     1
1071
       57
1005
141859
  0
LINE
  5
14185A
  8
OBJECT
 10
1938.0
 20
-261.99999999999909
 30
0.0
 11
1938.0
 21
-279.99999999999909
 31
0.0
1001
ACDBBLOCKREPETAG
1070
     1
1071
       58
1005
14185A
  0
LINE
  5
14185B
  8
OBJECT
 10
1938.0
 20
-261.99999999999909
 30
0.0
 11
1920.0
 21
-261.99999999999909
 31
0.0
1001
ACDBBLOCKREPETAG
1070
     1
1071
       60
1005
14185B
  0
LINE
  5
14185C
  8
OBJECT
 10
1957.7981043079819
 20
-137.99999999999909
 30
0.0
 11
1920.0
 21
-137.99999999999909
 31
0.0
1001
ACDBBLOCKREPETAG
1070
     1
1071
       61
1005
14185C
  0
LINE
  5
14185D
  8
OBJECT
 10
1946.9669914110079
 20
-253.03300858899021
 30
0.0
 11
1938.0
 21
-261.99999999999909
 31
0.0
1001
ACDBBLOCKREPETAG
1070
     1
1071
       42
1005
14185D
  0
LINE
  5
14185E
  8
OBJECT
 10
2053.0330085889909
 20
-253.03300858899021
 30
0.0
 11
2062.0
 21
-261.99999999999909
 31
0.0
1001
ACDBBLOCKREPETAG
1070
     1
1071
       43
1005
14185E
  0
TEXT
  5
14185F
  8
SLIM
 10
0.0000035665234464
 20
24.000004585317601
 30
0.0
 40
79.999999999972701
  1
枝管バリエーション
 41
0.75
1001
ACDBBLOCKREPETAG
1070
     1
1071
      119
1005
138921
  0
LINE
  5
141860
  8
CENTER
 10
1899.0
 20
-199.99999999999909
 30
0.0
 11
1920.0
 21
-199.99999999999909
 31
0.0
1001
ACDBBLOCKREPETAG
1070
     1
1071
        0
1005
141860
  0
LINE
  5
141861
  8
OBJECT
 10
1917.0
 20
-261.99999999999909
 30
0.0
 11
1920.0
 21
-261.99999999999909
 31
0.0
1001
ACDBBLOCKREPETAG
1070
     1
1071
        1
1005
141861
  0
ARC
  5
141862
  8
OBJECT
 10
1917.0
 20
-258.99999999999909
 30
0.0
 40
3.0
 50
180.0
 51
270.0
1001
ACDBBLOCKREPETAG
1070
     1
1071
        2
1005
141862
  0
LINE
  5
141863
  8
OBJECT
 10
1920.0
 20
-137.99999999999909
 30
0.0
 11
1917.0
 21
-137.99999999999909
 31
0.0
1001
ACDBBLOCKREPETAG
1070
     1
1071
        3
1005
141863
  0
ARC
  5
141864
  8
OBJECT
 10
1917.0
 20
-140.99999999999909
 30
0.0
 40
3.0
 50
90.0
 51
180.0
1001
ACDBBLOCKREPETAG
1070
     1
1071
        4
1005
141864
  0
LINE
  5
141865
  8
OBJECT
 10
1914.0
 20
-140.99999999999909
 30
0.0
 11
1914.0
 21
-258.99999999999909
 31
0.0
1001
ACDBBLOCKREPETAG
1070
     1
1071
        5
1005
141865
  0
LINE
  5
141866
  8
OBJECT
 10
2062.0
 20
-332.99999999999898
 30
0.0
 11
2062.0
 21
-339.99999999999909
 31
0.0
1001
ACDBBLOCKREPETAG
1070
     1
1071
       47
1005
141866
  0
LINE
  5
141867
  8
OBJECT
 10
2062.0
 20
-339.99999999999909
 30
0.0
 11
1938.0
 21
-339.99999999999909
 31
0.0
1001
ACDBBLOCKREPETAG
1070
     1
1071
       48
1005
141867
  0
LINE
  5
141868
  8
OBJECT
 10
1938.0
 20
-339.99999999999909
 30
0.0
 11
1938.0
 21
-332.99999999999898
 31
0.0
1001
ACDBBLOCKREPETAG
1070
     1
1071
       49
1005
141868
  0
LINE
  5
141869
  8
OBJECT
 10
1938.0
 20
-332.99999999999898
 30
0.0
 11
2062.0
 21
-332.99999999999898
 31
0.0
1001
ACDBBLOCKREPETAG
1070
     1
1071
       50
1005
141869
  0
LINE
  5
14186A
  8
CENTER
 10
2000.0
 20
-354.99999999999909
 30
0.0
 11
2000.0
 21
-279.99999999999909
 31
0.0
1001
ACDBBLOCKREPETAG
1070
     1
1071
       51
1005
14186A
  0
LINE
  5
14186B
  8
OBJECT
 10
2059.0
 20
-332.99999999999898
 30
0.0
 11
2059.0
 21
-296.99999999999898
 31
0.0
1001
ACDBBLOCKREPETAG
1070
     1
1071
       52
1005
14186B
  0
LINE
  5
14186C
  8
OBJECT
 10
2059.0
 20
-296.99999999999898
 30
0.0
 11
1941.0
 21
-296.99999999999898
 31
0.0
1001
ACDBBLOCKREPETAG
1070
     1
1071
       53
1005
14186C
  0
LINE
  5
14186D
  8
OBJECT
 10
1941.0
 20
-296.99999999999898
 30
0.0
 11
1941.0
 21
-332.99999999999898
 31
0.0
1001
ACDBBLOCKREPETAG
1070
     1
1071
       54
1005
14186D
  0
LINE
  5
14186E
  8
OBJECT
 10
2054.5
 20
-292.99999999999898
 30
0.0
 11
2054.5
 21
-285.99999999999898
 31
0.0
1001
ACDBBLOCKREPETAG
1070
     1
1071
       55
1005
14186E
  0
LINE
  5
14186F
  8
OBJECT
 10
1945.5
 20
-285.99999999999898
 30
0.0
 11
1945.5
 21
-292.99999999999898
 31
0.0
1001
ACDBBLOCKREPETAG
1070
     1
1071
       56
1005
14186F
  0
LINE
  5
141870
  8
OBJECT
 10
1945.5
 20
-292.99999999999898
 30
0.0
 11
2054.5
 21
-292.99999999999898
 31
0.0
1001
ACDBBLOCKREPETAG
1070
     1
1071
       57
1005
141870
  0
LINE
  5
141871
  8
OBJECT
 10
2059.0
 20
-296.99999999999898
 30
0.0
 11
2054.5
 21
-292.99999999999898
 31
0.0
1001
ACDBBLOCKREPETAG
1070
     1
1071
       58
1005
141871
  0
LINE
  5
141872
  8
OBJECT
 10
1941.0
 20
-296.99999999999898
 30
0.0
 11
1945.5
 21
-292.99999999999898
 31
0.0
1001
ACDBBLOCKREPETAG
1070
     1
1071
       59
1005
141872
  0
LINE
  5
141873
  8
OBJECT
 10
2062.0
 20
-283.0
 30
0.0
 11
2062.0
 21
-279.99999999999909
 31
0.0
1001
ACDBBLOCKREPETAG
1070
     1
1071
       60
1005
141873
  0
ARC
  5
141874
  8
OBJECT
 10
2059.0
 20
-283.0
 30
0.0
 40
3.0
 50
270.0
 51
0.0
1001
ACDBBLOCKREPETAG
1070
     1
1071
       61
1005
141874
  0
LINE
  5
141875
  8
OBJECT
 10
1938.0
 20
-279.99999999999909
 30
0.0
 11
1938.0
 21
-282.99999999999818
 31
0.0
1001
ACDBBLOCKREPETAG
1070
     1
1071
       62
1005
141875
  0
ARC
  5
141876
  8
OBJECT
 10
1941.0
 20
-282.99999999999818
 30
0.0
 40
3.0
 50
180.0
 51
270.0
1001
ACDBBLOCKREPETAG
1070
     1
1071
       63
1005
141876
  0
LINE
  5
141877
  8
OBJECT
 10
1941.0
 20
-285.99999999999818
 30
0.0
 11
2059.0
 21
-286.0
 31
0.0
1001
ACDBBLOCKREPETAG
1070
     1
1071
       64
1005
141877
  0
LINE
  5
141878
  8
HIDDEN
 10
2044.5
 20
-287.99999999999909
 30
0.0
 11
1955.5
 21
-287.99999999999909
 31
0.0
1001
ACDBBLOCKREPETAG
1070
     1
1071
       65
1005
141878
  0
LINE
  5
141879
  8
OBJECT
 10
2200.0
 20
-124.9999999999991
 30
0.0
 11
2193.0
 21
-124.9999999999991
 31
0.0
1001
ACDBBLOCKREPETAG
1070
     1
1071
      135
1005
141879
  0
LINE
  5
14187A
  8
OBJECT
 10
2193.0
 20
-124.9999999999991
 30
0.0
 11
2193.0
 21
-274.99999999999909
 31
0.0
1001
ACDBBLOCKREPETAG
1070
     1
1071
      136
1005
14187A
  0
LINE
  5
14187B
  8
OBJECT
 10
2151.5
 20
-127.9999999999991
 30
0.0
 11
2151.5
 21
-271.99999999999909
 31
0.0
1001
ACDBBLOCKREPETAG
1070
     1
1071
      137
1005
14187B
  0
LINE
  5
14187C
  8
OBJECT
 10
2140.0
 20
-134.49999999999909
 30
0.0
 11
2140.0
 21
-265.49999999999909
 31
0.0
1001
ACDBBLOCKREPETAG
1070
     1
1071
      138
1005
14187C
  0
LINE
  5
14187D
  8
OBJECT
 10
2193.0
 20
-274.99999999999909
 30
0.0
 11
2200.0
 21
-274.99999999999909
 31
0.0
1001
ACDBBLOCKREPETAG
1070
     1
1071
      139
1005
14187D
  0
LINE
  5
14187E
  8
OBJECT
 10
2200.0
 20
-274.99999999999909
 30
0.0
 11
2200.0
 21
-124.9999999999991
 31
0.0
1001
ACDBBLOCKREPETAG
1070
     1
1071
      140
1005
14187E
  0
LINE
  5
14187F
  8
HIDDEN
 10
2148.0
 20
-256.99999999999909
 30
0.0
 11
2148.0
 21
-142.99999999999909
 31
0.0
1001
ACDBBLOCKREPETAG
1070
     1
1071
      141
1005
14187F
  0
LINE
  5
141880
  8
CENTER
 10
2215.0
 20
-199.99999999999909
 30
0.0
 11
2080.0
 21
-199.99999999999909
 31
0.0
1001
ACDBBLOCKREPETAG
1070
     1
1071
      142
1005
141880
  0
LINE
  5
141881
  8
OBJECT
 10
2136.0
 20
-261.99999999999909
 30
0.0
 11
2080.0
 21
-261.99999999999909
 31
0.0
1001
ACDBBLOCKREPETAG
1070
     1
1071
      143
1005
141881
  0
LINE
  5
141882
  8
OBJECT
 10
2193.0
 20
-271.99999999999909
 30
0.0
 11
2151.5
 21
-271.99999999999909
 31
0.0
1001
ACDBBLOCKREPETAG
1070
     1
1071
      144
1005
141882
  0
LINE
  5
141883
  8
OBJECT
 10
2151.5
 20
-271.99999999999909
 30
0.0
 11
2140.0
 21
-265.49999999999909
 31
0.0
1001
ACDBBLOCKREPETAG
1070
     1
1071
      145
1005
141883
  0
LINE
  5
141884
  8
OBJECT
 10
2140.0
 20
-265.49999999999909
 30
0.0
 11
2136.0
 21
-261.99999999999909
 31
0.0
1001
ACDBBLOCKREPETAG
1070
     1
1071
      146
1005
141884
  0
LINE
  5
141885
  8
OBJECT
 10
2151.5
 20
-127.9999999999991
 30
0.0
 11
2140.0
 21
-134.49999999999909
 31
0.0
1001
ACDBBLOCKREPETAG
1070
     1
1071
      147
1005
141885
  0
LINE
  5
141886
  8
OBJECT
 10
2140.0
 20
-134.49999999999909
 30
0.0
 11
2136.0
 21
-137.99999999999909
 31
0.0
1001
ACDBBLOCKREPETAG
1070
     1
1071
      148
1005
141886
  0
ARC
  5
141887
  8
OBJECT
 10
2517.9000000000019
 20
-199.99999999999909
 30
0.0
 40
386.89999999999998
 50
170.7787013625784
 51
189.22129863742151
1001
ACDBBLOCKREPETAG
1070
     1
1071
      149
1005
141887
  0
LINE
  5
141888
  8
OBJECT
 10
2136.0
 20
-137.99999999999909
 30
0.0
 11
2080.0
 21
-137.99999999999909
 31
0.0
1001
ACDBBLOCKREPETAG
1070
     1
1071
      150
1005
141888
  0
LINE
  5
141889
  8
OBJECT
 10
2193.0
 20
-127.9999999999991
 30
0.0
 11
2151.5
 21
-127.9999999999991
 31
0.0
1001
ACDBBLOCKREPETAG
1070
     1
1071
      151
1005
141889
  0
ARC
  5
14188A
  8
OBJECT
 10
3662.3364238109898
 20
-199.99999999999909
 30
0.0
 40
1545.58047021477
 50
177.7009985541269
 51
182.29900144587299
1001
ACDBBLOCKREPETAG
1070
     1
1071
      153
1005
14188A
  0
ARC
  5
14188B
  8
OBJECT
 10
3632.3364238108588
 20
-199.99999999999909
 30
0.0
 40
1545.580470214647
 50
177.7009985541269
 51
182.29900144587299
1001
ACDBBLOCKREPETAG
1070
     1
1071
      154
1005
14188B
  0
LINE
  5
14188C
  8
OBJECT
 10
1917.0
 20
-634.0
 30
0.0
 11
1920.0
 21
-634.0
 31
0.0
1001
ACDBBLOCKREPETAG
1070
     1
1071
        1
1005
14188C
  0
ARC
  5
14188D
  8
OBJECT
 10
1917.0
 20
-637.0
 30
0.0
 40
3.0
 50
90.0
 51
180.0
1001
ACDBBLOCKREPETAG
1070
     1
1071
        2
1005
14188D
  0
LINE
  5
14188E
  8
OBJECT
 10
1920.0
 20
-758.0
 30
0.0
 11
1917.0
 21
-758.0
 31
0.0
1001
ACDBBLOCKREPETAG
1070
     1
1071
        3
1005
14188E
  0
ARC
  5
14188F
  8
OBJECT
 10
1917.0
 20
-755.0
 30
0.0
 40
3.0
 50
180.0
 51
270.0
1001
ACDBBLOCKREPETAG
1070
     1
1071
        4
1005
14188F
  0
LINE
  5
141890
  8
OBJECT
 10
1914.0
 20
-755.0
 30
0.0
 11
1914.0
 21
-637.0
 31
0.0
1001
ACDBBLOCKREPETAG
1070
     1
1071
        5
1005
141890
  0
LINE
  5
141891
  8
OBJECT
 10
2079.9999999999959
 20
-758.0
 30
0.0
 11
2089.24404640378
 21
-758.0
 31
0.0
1001
ACDBBLOCKREPETAG
1070
     1
1071
      130
1005
141891
  0
LINE
  5
141892
  8
OBJECT
 10
2086.7559535962141
 20
-634.0
 30
0.0
 11
2080.0000000000041
 21
-634.0
 31
0.0
1001
ACDBBLOCKREPETAG
1070
     1
1071
      131
1005
141892
  0
LINE
  5
141893
  8
OBJECT
 10
2086.7559535962141
 20
-634.0
 30
0.0
 11
2116.7559535962209
 21
-616.0
 31
0.0
1001
ACDBBLOCKREPETAG
1070
     1
1071
      132
1005
141893
  0
LINE
  5
141894
  8
OBJECT
 10
2116.7559535962209
 20
-616.0
 30
0.0
 11
2130.0
 21
-616.0000000000008
 31
0.0
1001
ACDBBLOCKREPETAG
1070
     1
1071
      133
1005
141894
  0
LINE
  5
141895
  8
OBJECT
 10
2130.0000000000041
 20
-740.0
 30
0.0
 11
2119.2440464037868
 21
-740.00000000000102
 31
0.0
1001
ACDBBLOCKREPETAG
1070
     1
1071
      134
1005
141895
  0
LINE
  5
141896
  8
OBJECT
 10
2119.2440464037868
 20
-740.00000000000102
 30
0.0
 11
2089.24404640378
 21
-758.0
 31
0.0
1001
ACDBBLOCKREPETAG
1070
     1
1071
      135
1005
141896
  0
LINE
  5
141897
  8
OBJECT
 10
2086.7559535962141
 20
-634.0
 30
0.0
 11
2089.24404640378
 21
-758.0
 31
0.0
1001
ACDBBLOCKREPETAG
1070
     1
1071
      136
1005
141897
  0
LINE
  5
141898
  8
OBJECT
 10
2119.2440464037868
 20
-740.00000000000102
 30
0.0
 11
2116.7559535962209
 21
-616.0
 31
0.0
1001
ACDBBLOCKREPETAG
1070
     1
1071
      137
1005
141898
  0
LINE
  5
141899
  8
OBJECT
 10
2200.0
 20
-590.0
 30
0.0
 11
2193.0
 21
-590.0
 31
0.0
1001
ACDBBLOCKREPETAG
1070
     1
1071
      138
1005
141899
  0
LINE
  5
14189A
  8
OBJECT
 10
2193.0
 20
-590.0
 30
0.0
 11
2193.0
 21
-737.0
 31
0.0
1001
ACDBBLOCKREPETAG
1070
     1
1071
      139
1005
14189A
  0
LINE
  5
14189B
  8
OBJECT
 10
2151.5
 20
-593.0
 30
0.0
 11
2151.5
 21
-737.0
 31
0.0
1001
ACDBBLOCKREPETAG
1070
     1
1071
      140
1005
14189B
  0
LINE
  5
14189C
  8
OBJECT
 10
2140.0
 20
-599.5
 30
0.0
 11
2140.0
 21
-730.49999999999989
 31
0.0
1001
ACDBBLOCKREPETAG
1070
     1
1071
      141
1005
14189C
  0
LINE
  5
14189D
  8
OBJECT
 10
2136.0
 20
-671.50000000000625
 30
0.0
 11
2136.0
 21
-737.0
 31
0.0
1001
ACDBBLOCKREPETAG
1070
     1
1071
      142
1005
14189D
  0
LINE
  5
14189E
  8
OBJECT
 10
2200.0
 20
-737.0
 30
0.0
 11
2200.0
 21
-590.0
 31
0.0
1001
ACDBBLOCKREPETAG
1070
     1
1071
      143
1005
14189E
  0
LINE
  5
14189F
  8
CENTER
 10
2215.0
 20
-665.0
 30
0.0
 11
2120.4144144144152
 21
-665.0
 31
0.0
1001
ACDBBLOCKREPETAG
1070
     1
1071
      144
1005
14189F
  0
LINE
  5
1418A0
  8
OBJECT
 10
2133.0000000000041
 20
-740.0
 30
0.0
 11
2130.0
 21
-740.0
 31
0.0
1001
ACDBBLOCKREPETAG
1070
     1
1071
      145
1005
1418A0
  0
ARC
  5
1418A1
  8
OBJECT
 10
2133.0
 20
-737.0
 30
0.0
 40
3.0
 50
270.0
 51
350.69274391268482
1001
ACDBBLOCKREPETAG
1070
     1
1071
      146
1005
1418A1
  0
ARC
  5
1418A2
  8
OBJECT
 10
2141.8815171830652
 20
-738.45555918014554
 30
0.0
 40
6.0
 50
60.524110996896773
 51
170.6927439126847
1001
ACDBBLOCKREPETAG
1070
     1
1071
      147
1005
1418A2
  0
LINE
  5
1418A3
  8
OBJECT
 10
2131.0
 20
-616.0000000000008
 30
0.0
 11
2130.0
 21
-616.0000000000008
 31
0.0
1001
ACDBBLOCKREPETAG
1070
     1
1071
      148
1005
1418A3
  0
LINE
  5
1418A4
  8
OBJECT
 10
2200.0
 20
-737.0
 30
0.0
 11
2151.5
 21
-737.0
 31
0.0
1001
ACDBBLOCKREPETAG
1070
     1
1071
      149
1005
1418A4
  0
LINE
  5
1418A5
  8
OBJECT
 10
2151.5
 20
-593.0
 30
0.0
 11
2140.0
 21
-599.5
 31
0.0
1001
ACDBBLOCKREPETAG
1070
     1
1071
      150
1005
1418A5
  0
LINE
  5
1418A6
  8
OBJECT
 10
2193.0
 20
-593.0
 30
0.0
 11
2151.5
 21
-593.0
 31
0.0
1001
ACDBBLOCKREPETAG
1070
     1
1071
      151
1005
1418A6
  0
LINE
  5
1418A7
  8
OBJECT
 10
2140.0
 20
-599.5
 30
0.0
 11
2131.0
 21
-616.0
 31
0.0
1001
ACDBBLOCKREPETAG
1070
     1
1071
      152
1005
1418A7
  0
LINE
  5
1418A8
  8
OBJECT
 10
2136.0
 20
-671.50000000000625
 30
0.0
 11
2131.0
 21
-616.0000000000008
 31
0.0
1001
ACDBBLOCKREPETAG
1070
     1
1071
      153
1005
1418A8
  0
LINE
  5
1418A9
  8
OBJECT
 10
2151.5
 20
-737.0
 30
0.0
 11
2144.833860723073
 21
-733.23218214782253
 31
0.0
1001
ACDBBLOCKREPETAG
1070
     1
1071
      154
1005
1418A9
  0
LINE
  5
1418AA
  8
HIDDEN
 10
2148.0
 20
-722.0
 30
0.0
 11
2148.0
 21
-608.0
 31
0.0
1001
ACDBBLOCKREPETAG
1070
     1
1071
      155
1005
1418AA
  0
TEXT
  5
1418AB
  8
SLIM
 10
1837.75
 20
282.50000000000011
 30
0.0
 40
35.0
  1
（枝管サイズ毎に寸法が異なります。管底の位置は全サイズで同じです）
 41
0.75
  0
TEXT
  5
1418AC
  8
SLIM
 10
1850.0
 20
532.5
 30
0.0
 40
75.0
  1
側面図の代表機種
 41
0.75
  0
TEXT
  5
1418AD
  8
SLIM
 10
1850.0
 20
369.99999999999989
 30
0.0
 40
100.0
  1
4SVT-Z83
 41
0.75
  0
LINE
  5
1418AE
  8
DIM
 10
2150.0
 20
-3626.9999999999959
 30
0.0
 11
2228.479620594459
 21
-3626.9999999999959
 31
0.0
  0
LINE
  5
1418AF
  8
DIM
 10
2150.0
 20
-3532.9999999999959
 30
0.0
 11
2228.479620594459
 21
-3532.9999999999959
 31
0.0
  0
LINE
  5
1418B0
  8
DIM
 10
2218.479620594459
 20
-3606.9999999999959
 30
0.0
 11
2218.479620594459
 21
-3552.9999999999959
 31
0.0
  0
INSERT
  5
1418B1
  8
DIM
  2
_OPEN30
 10
2218.479620594459
 20
-3626.9999999999959
 30
0.0
 41
20.0
 42
20.0
 43
20.0
 50
270.0
  0
INSERT
  5
1418B2
  8
DIM
  2
_OPEN30
 10
2218.479620594459
 20
-3532.9999999999959
 30
0.0
 41
20.0
 42
20.0
 43
20.0
 50
90.0
  0
INSERT
  5
1418B3
  8
0
  2
*U516
 10
0.0
 20
0.0
 30
0.0
  0
LINE
  5
1418B4
  8
DIM
 10
2150.0
 20
-3984.9999999999968
 30
0.0
 11
2226.8409284037339
 21
-3984.9999999999968
 31
0.0
  0
LINE
  5
1418B5
  8
DIM
 10
2165.0
 20
-3940.9999999999968
 30
0.0
 11
2226.8409284037339
 21
-3940.9999999999968
 31
0.0
  0
LINE
  5
1418B6
  8
DIM
 10
2216.840928403733
 20
-4004.9999999999968
 30
0.0
 11
2216.840928403733
 21
-4024.9999999999968
 31
0.0
  0
LINE
  5
1418B7
  8
DIM
 10
2216.840928403733
 20
-3920.9999999999968
 30
0.0
 11
2216.840928403733
 21
-3900.9999999999968
 31
0.0
  0
LINE
  5
1418B8
  8
DIM
 10
2216.840928403733
 20
-3984.9999999999968
 30
0.0
 11
2216.840928403733
 21
-3940.9999999999968
 31
0.0
  0
INSERT
  5
1418B9
  8
DIM
  2
_OPEN30
 10
2216.840928403733
 20
-3984.9999999999968
 30
0.0
 41
20.0
 42
20.0
 43
20.0
 50
90.0
  0
INSERT
  5
1418BA
  8
DIM
  2
_OPEN30
 10
2216.840928403733
 20
-3940.9999999999968
 30
0.0
 41
20.0
 42
20.0
 43
20.0
 50
270.0
  0
INSERT
  5
1418BB
  8
0
  2
*U517
 10
0.0
 20
0.0
 30
0.0
  0
LINE
  5
1418BC
  8
DIM
 10
2000.0
 20
-3474.9999999999959
 30
0.0
 11
2000.0
 21
-3442.2081219844449
 31
0.0
  0
LINE
  5
1418BD
  8
DIM
 10
2140.0
 20
-3522.9999999999959
 30
0.0
 11
2140.0
 21
-3442.2081219844449
 31
0.0
  0
LINE
  5
1418BE
  8
DIM
 10
2020.0
 20
-3452.208121984444
 30
0.0
 11
2120.0
 21
-3452.208121984444
 31
0.0
  0
INSERT
  5
1418BF
  8
DIM
  2
_OPEN30
 10
2000.0
 20
-3452.208121984444
 30
0.0
 41
20.0
 42
20.0
 43
20.0
 50
180.0
  0
INSERT
  5
1418C0
  8
DIM
  2
_OPEN30
 10
2140.0
 20
-3452.208121984444
 30
0.0
 41
20.0
 42
20.0
 43
20.0
  0
INSERT
  5
1418C1
  8
0
  2
*U518
 10
0.0
 20
0.0
 30
0.0
  0
TEXT
  5
1418C2
  8
SLIM
 10
2631.0
 20
-3357.50001604727
 30
0.0
 40
40.0
  1
C寸法
 41
0.75
  0
TEXT
  5
1418C3
  8
SLIM
 10
2631.0
 20
-3287.50001604727
 30
0.0
 40
40.0
  1
B寸法
 41
0.75
  0
TEXT
  5
1418C4
  8
SLIM
 10
2630.2857142857142
 20
-3217.50001604727
 30
0.0
 40
40.0
  1
A寸法
 41
0.75
  0
TEXT
  5
1418C5
  8
SLIM
 10
3159.2857142857151
 20
-3357.50001604727
 30
0.0
 40
40.0
  1
150
 41
0.75
  0
TEXT
  5
1418C6
  8
SLIM
 10
3029.2857142857151
 20
-3357.50001604727
 30
0.0
 40
40.0
  1
140
 41
0.75
  0
TEXT
  5
1418C7
  8
SLIM
 10
2769.2857142857151
 20
-3357.50001604727
 30
0.0
 40
40.0
  1
140
 41
0.75
  0
TEXT
  5
1418C8
  8
SLIM
 10
2899.2857142857151
 20
-3357.50001604727
 30
0.0
 40
40.0
  1
140
 41
0.75
  0
TEXT
  5
1418C9
  8
SLIM
 10
3170.7142857142858
 20
-3287.50001604727
 30
0.0
 40
40.0
  1
72
 41
0.75
  0
TEXT
  5
1418CA
  8
SLIM
 10
3041.4285714285711
 20
-3287.50001604727
 30
0.0
 40
40.0
  1
59
 41
0.75
  0
TEXT
  5
1418CB
  8
SLIM
 10
2780.0
 20
-3287.50001604727
 30
0.0
 40
40.0
  1
44
 41
0.75
  0
TEXT
  5
1418CC
  8
SLIM
 10
2910.7142857142858
 20
-3287.50001604727
 30
0.0
 40
40.0
  1
52
 41
0.75
  0
TEXT
  5
1418CD
  8
SLIM
 10
2891.0
 20
-3092.50001604727
 30
0.0
 40
40.0
  1
横枝管サイズ
 41
0.75
  0
TEXT
  5
1418CE
  8
SLIM
 10
3136.2857142857151
 20
-3147.50001604727
 30
0.0
 40
30.0
  1
100（4）
 41
0.75
  0
TEXT
  5
1418CF
  8
SLIM
 10
3014.857142857144
 20
-3147.50001604727
 30
0.0
 40
30.0
  1
75（3）
 41
0.75
  0
TEXT
  5
1418D0
  8
SLIM
 10
2884.8571428571431
 20
-3147.50001604727
 30
0.0
 40
30.0
  1
65（2）
 41
0.75
  0
TEXT
  5
1418D1
  8
SLIM
 10
2757.0
 20
-3147.50001604727
 30
0.0
 40
30.0
  1
50（1）
 41
0.75
  0
TEXT
  5
1418D2
  8
SLIM
 10
3159.2857142857151
 20
-3217.50001604727
 30
0.0
 40
40.0
  1
150
 41
0.75
  0
TEXT
  5
1418D3
  8
SLIM
 10
3028.571428571428
 20
-3217.50001604727
 30
0.0
 40
40.0
  1
124
 41
0.75
  0
TEXT
  5
1418D4
  8
SLIM
 10
2780.0
 20
-3217.50001604727
 30
0.0
 40
40.0
  1
94
 41
0.75
  0
TEXT
  5
1418D5
  8
SLIM
 10
2902.1428571428569
 20
-3217.50001604727
 30
0.0
 40
40.0
  1
110
 41
0.75
  0
TEXT
  5
1418D6
  8
SLIM
 10
1849.9999999999991
 20
-3117.5
 30
0.0
 40
75.0
  1
枝管サイズ毎の形状
 41
0.75
  0
LINE
  5
1418D7
  8
OBJECT
 10
5150.0
 20
-3837.9999999999968
 30
0.0
 11
5143.0
 21
-3837.9999999999968
 31
0.0
1001
ACDBBLOCKREPETAG
1070
     1
1071
       64
1005
1418D7
  0
LINE
  5
1418D8
  8
OBJECT
 10
5143.0
 20
-3837.9999999999968
 30
0.0
 11
5143.0
 21
-3984.9999999999968
 31
0.0
1001
ACDBBLOCKREPETAG
1070
     1
1071
       65
1005
1418D8
  0
LINE
  5
1418D9
  8
OBJECT
 10
5101.5
 20
-3840.9999999999968
 30
0.0
 11
5101.5
 21
-3984.9999999999968
 31
0.0
1001
ACDBBLOCKREPETAG
1070
     1
1071
       66
1005
1418D9
  0
LINE
  5
1418DA
  8
OBJECT
 10
5090.0
 20
-3847.4999999999959
 30
0.0
 11
5090.0
 21
-3978.4999999999968
 31
0.0
1001
ACDBBLOCKREPETAG
1070
     1
1071
       67
1005
1418DA
  0
LINE
  5
1418DB
  8
OBJECT
 10
5086.0
 20
-3919.500000000005
 30
0.0
 11
5086.0
 21
-3984.9999999999968
 31
0.0
1001
ACDBBLOCKREPETAG
1070
     1
1071
       68
1005
1418DB
  0
LINE
  5
1418DC
  8
OBJECT
 10
5150.0
 20
-3984.9999999999968
 30
0.0
 11
5150.0
 21
-3837.9999999999968
 31
0.0
1001
ACDBBLOCKREPETAG
1070
     1
1071
       69
1005
1418DC
  0
LINE
  5
1418DD
  8
CENTER
 10
5165.0
 20
-3912.9999999999968
 30
0.0
 11
5070.4144144144157
 21
-3912.9999999999968
 31
0.0
1001
ACDBBLOCKREPETAG
1070
     1
1071
       70
1005
1418DD
  0
LINE
  5
1418DE
  8
OBJECT
 10
5083.0000000000045
 20
-3987.9999999999968
 30
0.0
 11
5080.0
 21
-3987.9999999999968
 31
0.0
1001
ACDBBLOCKREPETAG
1070
     1
1071
       71
1005
1418DE
  0
ARC
  5
1418DF
  8
OBJECT
 10
5091.8815171830656
 20
-3986.4555591801432
 30
0.0
 40
6.0
 50
60.52411099686767
 51
170.6927439126847
1001
ACDBBLOCKREPETAG
1070
     1
1071
       72
1005
1418DF
  0
ARC
  5
1418E0
  8
OBJECT
 10
5083.0
 20
-3984.9999999999968
 30
0.0
 40
3.0
 50
270.0
 51
350.69274391268482
1001
ACDBBLOCKREPETAG
1070
     1
1071
       73
1005
1418E0
  0
LINE
  5
1418E1
  8
OBJECT
 10
5081.0
 20
-3863.9999999999968
 30
0.0
 11
5080.0
 21
-3863.9999999999968
 31
0.0
1001
ACDBBLOCKREPETAG
1070
     1
1071
       74
1005
1418E1
  0
LINE
  5
1418E2
  8
OBJECT
 10
5150.0
 20
-3984.9999999999968
 30
0.0
 11
5101.5
 21
-3984.9999999999968
 31
0.0
1001
ACDBBLOCKREPETAG
1070
     1
1071
       75
1005
1418E2
  0
LINE
  5
1418E3
  8
OBJECT
 10
5101.5
 20
-3840.9999999999968
 30
0.0
 11
5090.0
 21
-3847.4999999999959
 31
0.0
1001
ACDBBLOCKREPETAG
1070
     1
1071
       76
1005
1418E3
  0
LINE
  5
1418E4
  8
OBJECT
 10
5143.0
 20
-3840.9999999999968
 30
0.0
 11
5101.5
 21
-3840.9999999999968
 31
0.0
1001
ACDBBLOCKREPETAG
1070
     1
1071
       77
1005
1418E4
  0
LINE
  5
1418E5
  8
OBJECT
 10
5086.0
 20
-3919.500000000005
 30
0.0
 11
5081.0
 21
-3863.9999999999968
 31
0.0
1001
ACDBBLOCKREPETAG
1070
     1
1071
       78
1005
1418E5
  0
LINE
  5
1418E6
  8
OBJECT
 10
5090.0
 20
-3847.4999999999959
 30
0.0
 11
5081.0
 21
-3863.9999999999968
 31
0.0
1001
ACDBBLOCKREPETAG
1070
     1
1071
       79
1005
1418E6
  0
LINE
  5
1418E7
  8
OBJECT
 10
5101.5
 20
-3984.9999999999968
 30
0.0
 11
5094.8338607230708
 21
-3981.232182147819
 31
0.0
1001
ACDBBLOCKREPETAG
1070
     1
1071
       80
1005
1418E7
  0
LINE
  5
1418E8
  8
HIDDEN
 10
5098.0
 20
-3969.9999999999968
 30
0.0
 11
5098.0
 21
-3855.9999999999968
 31
0.0
1001
ACDBBLOCKREPETAG
1070
     1
1071
       81
1005
1418E8
  0
LINE
  5
1418E9
  8
OBJECT
 10
5150.0
 20
-3504.9999999999959
 30
0.0
 11
5143.0
 21
-3504.9999999999959
 31
0.0
1001
ACDBBLOCKREPETAG
1070
     1
1071
       67
1005
1418E9
  0
LINE
  5
1418EA
  8
OBJECT
 10
5143.0
 20
-3504.9999999999959
 30
0.0
 11
5143.0
 21
-3654.9999999999959
 31
0.0
1001
ACDBBLOCKREPETAG
1070
     1
1071
       68
1005
1418EA
  0
LINE
  5
1418EB
  8
OBJECT
 10
5101.5
 20
-3507.9999999999959
 30
0.0
 11
5101.5
 21
-3651.9999999999959
 31
0.0
1001
ACDBBLOCKREPETAG
1070
     1
1071
       69
1005
1418EB
  0
LINE
  5
1418EC
  8
OBJECT
 10
5090.0
 20
-3514.4999999999959
 30
0.0
 11
5090.0
 21
-3645.4999999999968
 31
0.0
1001
ACDBBLOCKREPETAG
1070
     1
1071
       70
1005
1418EC
  0
LINE
  5
1418ED
  8
OBJECT
 10
5143.0
 20
-3654.9999999999959
 30
0.0
 11
5150.0
 21
-3654.9999999999959
 31
0.0
1001
ACDBBLOCKREPETAG
1070
     1
1071
       71
1005
1418ED
  0
LINE
  5
1418EE
  8
OBJECT
 10
5150.0
 20
-3654.9999999999959
 30
0.0
 11
5150.0
 21
-3504.9999999999959
 31
0.0
1001
ACDBBLOCKREPETAG
1070
     1
1071
       72
1005
1418EE
  0
LINE
  5
1418EF
  8
HIDDEN
 10
5098.0
 20
-3636.9999999999959
 30
0.0
 11
5098.0
 21
-3522.9999999999959
 31
0.0
1001
ACDBBLOCKREPETAG
1070
     1
1071
       73
1005
1418EF
  0
LINE
  5
1418F0
  8
CENTER
 10
5165.0
 20
-3579.9999999999959
 30
0.0
 11
5080.0
 21
-3579.9999999999959
 31
0.0
1001
ACDBBLOCKREPETAG
1070
     1
1071
       74
1005
1418F0
  0
LINE
  5
1418F1
  8
OBJECT
 10
5086.0
 20
-3641.9999999999959
 30
0.0
 11
5080.0
 21
-3641.9999999999959
 31
0.0
1001
ACDBBLOCKREPETAG
1070
     1
1071
       75
1005
1418F1
  0
LINE
  5
1418F2
  8
OBJECT
 10
5143.0
 20
-3651.9999999999959
 30
0.0
 11
5101.5
 21
-3651.9999999999959
 31
0.0
1001
ACDBBLOCKREPETAG
1070
     1
1071
       76
1005
1418F2
  0
LINE
  5
1418F3
  8
OBJECT
 10
5101.5
 20
-3651.9999999999959
 30
0.0
 11
5090.0
 21
-3645.4999999999968
 31
0.0
1001
ACDBBLOCKREPETAG
1070
     1
1071
       77
1005
1418F3
  0
LINE
  5
1418F4
  8
OBJECT
 10
5090.0
 20
-3645.4999999999968
 30
0.0
 11
5086.0
 21
-3641.9999999999959
 31
0.0
1001
ACDBBLOCKREPETAG
1070
     1
1071
       78
1005
1418F4
  0
LINE
  5
1418F5
  8
OBJECT
 10
5101.5
 20
-3507.9999999999959
 30
0.0
 11
5090.0
 21
-3514.4999999999959
 31
0.0
1001
ACDBBLOCKREPETAG
1070
     1
1071
       79
1005
1418F5
  0
LINE
  5
1418F6
  8
OBJECT
 10
5090.0
 20
-3514.4999999999959
 30
0.0
 11
5086.0
 21
-3517.9999999999959
 31
0.0
1001
ACDBBLOCKREPETAG
1070
     1
1071
       80
1005
1418F6
  0
ARC
  5
1418F7
  8
OBJECT
 10
5467.9000000000005
 20
-3579.9999999999959
 30
0.0
 40
386.89999999999998
 50
170.77870136260421
 51
189.22129863739571
1001
ACDBBLOCKREPETAG
1070
     1
1071
       81
1005
1418F7
  0
LINE
  5
1418F8
  8
OBJECT
 10
5086.0
 20
-3517.9999999999959
 30
0.0
 11
5080.0
 21
-3517.9999999999959
 31
0.0
1001
ACDBBLOCKREPETAG
1070
     1
1071
       82
1005
1418F8
  0
LINE
  5
1418F9
  8
OBJECT
 10
5143.0
 20
-3507.9999999999959
 30
0.0
 11
5101.5
 21
-3507.9999999999959
 31
0.0
1001
ACDBBLOCKREPETAG
1070
     1
1071
       83
1005
1418F9
  0
TEXT
  5
1418FA
  8
SLIM
 10
4884.25
 20
-4102.4999999999973
 30
0.0
 40
35.0
  1
通常枝100（4）
 41
0.75
  0
LINE
  5
1418FB
  8
CENTER
 10
4477.0
 20
-3925.9999999999968
 30
0.0
 11
4323.0
 21
-3925.9999999999968
 31
0.0
1001
ACDBBLOCKREPETAG
1070
     1
1071
       17
1005
1418FB
  0
CIRCLE
  5
1418FC
  8
OBJECT
 10
4400.0
 20
-3925.9999999999968
 30
0.0
 40
41.5
1001
ACDBBLOCKREPETAG
1070
     1
1071
       19
1005
1418FC
  0
CIRCLE
  5
1418FD
  8
OBJECT
 10
4400.0
 20
-3925.9999999999968
 30
0.0
 40
54.0
1001
ACDBBLOCKREPETAG
1070
     1
1071
       20
1005
1418FD
  0
ARC
  5
1418FE
  8
OBJECT
 10
4400.0
 20
-3925.9999999999968
 30
0.0
 40
62.0
 50
287.89655112921122
 51
252.1034488707887
1001
ACDBBLOCKREPETAG
1070
     1
1071
       21
1005
1418FE
  0
LINE
  5
1418FF
  8
OBJECT
 10
4380.947441116743
 20
-3984.9999999999968
 30
0.0
 11
4419.052558883257
 21
-3984.9999999999968
 31
0.0
1001
ACDBBLOCKREPETAG
1070
     1
1071
       22
1005
1418FF
  0
LINE
  5
141900
  8
OBJECT
 10
4133.0
 20
-3863.9999999999968
 30
0.0
 11
4140.0
 21
-3863.9999999999968
 31
0.0
1001
ACDBBLOCKREPETAG
1070
     1
1071
       45
1005
141900
  0
LINE
  5
141901
  8
OBJECT
 10
4140.0
 20
-3863.9999999999968
 30
0.0
 11
4140.0
 21
-3984.9999999999968
 31
0.0
1001
ACDBBLOCKREPETAG
1070
     1
1071
       46
1005
141901
  0
LINE
  5
141902
  8
OBJECT
 10
4133.0
 20
-3984.9999999999968
 30
0.0
 11
4133.0
 21
-3863.9999999999968
 31
0.0
1001
ACDBBLOCKREPETAG
1070
     1
1071
       47
1005
141902
  0
LINE
  5
141903
  8
CENTER
 10
4155.0
 20
-3925.9999999999968
 30
0.0
 11
4071.0
 21
-3925.9999999999968
 31
0.0
1001
ACDBBLOCKREPETAG
1070
     1
1071
       48
1005
141903
  0
LINE
  5
141904
  8
OBJECT
 10
4133.0
 20
-3866.9999999999968
 30
0.0
 11
4097.0
 21
-3866.9999999999968
 31
0.0
1001
ACDBBLOCKREPETAG
1070
     1
1071
       49
1005
141904
  0
LINE
  5
141905
  8
OBJECT
 10
4097.0
 20
-3866.9999999999968
 30
0.0
 11
4097.0
 21
-3984.9999999999968
 31
0.0
1001
ACDBBLOCKREPETAG
1070
     1
1071
       50
1005
141905
  0
LINE
  5
141906
  8
OBJECT
 10
4097.0
 20
-3984.9999999999968
 30
0.0
 11
4140.0
 21
-3984.9999999999968
 31
0.0
1001
ACDBBLOCKREPETAG
1070
     1
1071
       51
1005
141906
  0
LINE
  5
141907
  8
OBJECT
 10
4093.0
 20
-3871.4999999999968
 30
0.0
 11
4086.0
 21
-3871.4999999999968
 31
0.0
1001
ACDBBLOCKREPETAG
1070
     1
1071
       52
1005
141907
  0
LINE
  5
141908
  8
OBJECT
 10
4086.0
 20
-3980.4999999999968
 30
0.0
 11
4093.0
 21
-3980.4999999999968
 31
0.0
1001
ACDBBLOCKREPETAG
1070
     1
1071
       53
1005
141908
  0
LINE
  5
141909
  8
OBJECT
 10
4093.0
 20
-3980.4999999999968
 30
0.0
 11
4093.0
 21
-3871.4999999999968
 31
0.0
1001
ACDBBLOCKREPETAG
1070
     1
1071
       54
1005
141909
  0
LINE
  5
14190A
  8
OBJECT
 10
4097.0
 20
-3866.9999999999968
 30
0.0
 11
4093.0
 21
-3871.4999999999968
 31
0.0
1001
ACDBBLOCKREPETAG
1070
     1
1071
       55
1005
14190A
  0
LINE
  5
14190B
  8
OBJECT
 10
4097.0
 20
-3984.9999999999968
 30
0.0
 11
4093.0
 21
-3980.4999999999968
 31
0.0
1001
ACDBBLOCKREPETAG
1070
     1
1071
       56
1005
14190B
  0
LINE
  5
14190C
  8
OBJECT
 10
4083.0
 20
-3863.9999999999968
 30
0.0
 11
4080.0
 21
-3863.9999999999968
 31
0.0
1001
ACDBBLOCKREPETAG
1070
     1
1071
       57
1005
14190C
  0
ARC
  5
14190D
  8
OBJECT
 10
4083.0
 20
-3866.9999999999968
 30
0.0
 40
3.0
 50
0.0
 51
90.0
1001
ACDBBLOCKREPETAG
1070
     1
1071
       58
1005
14190D
  0
LINE
  5
14190E
  8
OBJECT
 10
4080.0
 20
-3987.9999999999968
 30
0.0
 11
4083.0
 21
-3987.9999999999968
 31
0.0
1001
ACDBBLOCKREPETAG
1070
     1
1071
       59
1005
14190E
  0
ARC
  5
14190F
  8
OBJECT
 10
4083.0
 20
-3984.9999999999968
 30
0.0
 40
3.0
 50
270.0
 51
0.0
1001
ACDBBLOCKREPETAG
1070
     1
1071
       60
1005
14190F
  0
LINE
  5
141910
  8
OBJECT
 10
4086.0
 20
-3984.9999999999968
 30
0.0
 11
4086.0
 21
-3866.9999999999968
 31
0.0
1001
ACDBBLOCKREPETAG
1070
     1
1071
       61
1005
141910
  0
LINE
  5
141911
  8
HIDDEN
 10
4088.0
 20
-3881.4999999999968
 30
0.0
 11
4088.0
 21
-3970.4999999999968
 31
0.0
1001
ACDBBLOCKREPETAG
1070
     1
1071
       63
1005
141911
  0
LINE
  5
141912
  8
OBJECT
 10
4133.0
 20
-3517.9999999999959
 30
0.0
 11
4140.0
 21
-3517.9999999999959
 31
0.0
1001
ACDBBLOCKREPETAG
1070
     1
1071
       47
1005
141912
  0
LINE
  5
141913
  8
OBJECT
 10
4140.0
 20
-3517.9999999999959
 30
0.0
 11
4140.0
 21
-3641.9999999999959
 31
0.0
1001
ACDBBLOCKREPETAG
1070
     1
1071
       48
1005
141913
  0
LINE
  5
141914
  8
OBJECT
 10
4140.0
 20
-3641.9999999999959
 30
0.0
 11
4133.0
 21
-3641.9999999999959
 31
0.0
1001
ACDBBLOCKREPETAG
1070
     1
1071
       49
1005
141914
  0
LINE
  5
141915
  8
OBJECT
 10
4133.0
 20
-3641.9999999999959
 30
0.0
 11
4133.0
 21
-3517.9999999999959
 31
0.0
1001
ACDBBLOCKREPETAG
1070
     1
1071
       50
1005
141915
  0
LINE
  5
141916
  8
CENTER
 10
4155.0
 20
-3579.9999999999959
 30
0.0
 11
4080.0
 21
-3579.9999999999959
 31
0.0
1001
ACDBBLOCKREPETAG
1070
     1
1071
       51
1005
141916
  0
LINE
  5
141917
  8
OBJECT
 10
4133.0
 20
-3520.9999999999959
 30
0.0
 11
4097.0
 21
-3520.9999999999959
 31
0.0
1001
ACDBBLOCKREPETAG
1070
     1
1071
       52
1005
141917
  0
LINE
  5
141918
  8
OBJECT
 10
4097.0
 20
-3520.9999999999959
 30
0.0
 11
4097.0
 21
-3638.9999999999959
 31
0.0
1001
ACDBBLOCKREPETAG
1070
     1
1071
       53
1005
141918
  0
LINE
  5
141919
  8
OBJECT
 10
4097.0
 20
-3638.9999999999959
 30
0.0
 11
4133.0
 21
-3638.9999999999959
 31
0.0
1001
ACDBBLOCKREPETAG
1070
     1
1071
       54
1005
141919
  0
LINE
  5
14191A
  8
OBJECT
 10
4093.0
 20
-3525.4999999999959
 30
0.0
 11
4086.0
 21
-3525.4999999999959
 31
0.0
1001
ACDBBLOCKREPETAG
1070
     1
1071
       55
1005
14191A
  0
LINE
  5
14191B
  8
OBJECT
 10
4086.0
 20
-3634.4999999999959
 30
0.0
 11
4093.0
 21
-3634.4999999999959
 31
0.0
1001
ACDBBLOCKREPETAG
1070
     1
1071
       56
1005
14191B
  0
LINE
  5
14191C
  8
OBJECT
 10
4093.0
 20
-3634.4999999999959
 30
0.0
 11
4093.0
 21
-3525.4999999999959
 31
0.0
1001
ACDBBLOCKREPETAG
1070
     1
1071
       57
1005
14191C
  0
LINE
  5
14191D
  8
OBJECT
 10
4097.0
 20
-3520.9999999999959
 30
0.0
 11
4093.0
 21
-3525.4999999999959
 31
0.0
1001
ACDBBLOCKREPETAG
1070
     1
1071
       58
1005
14191D
  0
LINE
  5
14191E
  8
OBJECT
 10
4097.0
 20
-3638.9999999999959
 30
0.0
 11
4093.0
 21
-3634.4999999999959
 31
0.0
1001
ACDBBLOCKREPETAG
1070
     1
1071
       59
1005
14191E
  0
LINE
  5
14191F
  8
OBJECT
 10
4083.0
 20
-3517.9999999999959
 30
0.0
 11
4080.0
 21
-3517.9999999999959
 31
0.0
1001
ACDBBLOCKREPETAG
1070
     1
1071
       60
1005
14191F
  0
ARC
  5
141920
  8
OBJECT
 10
4083.0
 20
-3520.9999999999959
 30
0.0
 40
3.0
 50
0.0
 51
90.0
1001
ACDBBLOCKREPETAG
1070
     1
1071
       61
1005
141920
  0
LINE
  5
141921
  8
OBJECT
 10
4080.0
 20
-3641.9999999999959
 30
0.0
 11
4083.0
 21
-3641.9999999999959
 31
0.0
1001
ACDBBLOCKREPETAG
1070
     1
1071
       62
1005
141921
  0
ARC
  5
141922
  8
OBJECT
 10
4083.0
 20
-3638.9999999999959
 30
0.0
 40
3.0
 50
270.0
 51
0.0
1001
ACDBBLOCKREPETAG
1070
     1
1071
       63
1005
141922
  0
LINE
  5
141923
  8
OBJECT
 10
4086.0
 20
-3638.9999999999959
 30
0.0
 11
4086.0
 21
-3520.9999999999959
 31
0.0
1001
ACDBBLOCKREPETAG
1070
     1
1071
       64
1005
141923
  0
LINE
  5
141924
  8
HIDDEN
 10
4088.0
 20
-3535.4999999999959
 30
0.0
 11
4088.0
 21
-3624.4999999999959
 31
0.0
1001
ACDBBLOCKREPETAG
1070
     1
1071
       65
1005
141924
  0
TEXT
  5
141925
  8
SLIM
 10
3894.25
 20
-4102.4999999999973
 30
0.0
 40
35.0
  1
通常枝75（3）
 41
0.75
  0
CIRCLE
  5
141926
  8
OBJECT
 10
3400.0
 20
-3932.9999999999968
 30
0.0
 40
35.5
1001
ACDBBLOCKREPETAG
1070
     1
1071
       10
1005
141926
  0
CIRCLE
  5
141927
  8
OBJECT
 10
3400.0
 20
-3925.9999999999968
 30
0.0
 40
62.0
1001
ACDBBLOCKREPETAG
1070
     1
1071
       11
1005
141927
  0
LINE
  5
141928
  8
CENTER
 10
3330.0
 20
-3932.9999999999968
 30
0.0
 11
3470.0
 21
-3932.9999999999968
 31
0.0
1001
ACDBBLOCKREPETAG
1070
     1
1071
       12
1005
141928
  0
CIRCLE
  5
141929
  8
OBJECT
 10
3400.0
 20
-3932.9999999999968
 30
0.0
 40
47.0
1001
ACDBBLOCKREPETAG
1070
     1
1071
       14
1005
141929
  0
ARC
  5
14192A
  8
OBJECT
 10
3400.0
 20
-3932.9999999999968
 30
0.0
 40
55.0
 50
289.01126526011359
 51
250.98873473988641
1001
ACDBBLOCKREPETAG
1070
     1
1071
       15
1005
14192A
  0
LINE
  5
14192B
  8
OBJECT
 10
3382.0835271328328
 20
-3984.9999999999968
 30
0.0
 11
3417.9164728671681
 21
-3984.9999999999968
 31
0.0
1001
ACDBBLOCKREPETAG
1070
     1
1071
       16
1005
14192B
  0
LINE
  5
14192C
  8
OBJECT
 10
3133.0
 20
-3877.9999999999959
 30
0.0
 11
3140.0
 21
-3877.9999999999959
 31
0.0
1001
ACDBBLOCKREPETAG
1070
     1
1071
       26
1005
14192C
  0
LINE
  5
14192D
  8
OBJECT
 10
3140.0
 20
-3877.9999999999959
 30
0.0
 11
3140.0
 21
-3984.9999999999968
 31
0.0
1001
ACDBBLOCKREPETAG
1070
     1
1071
       27
1005
14192D
  0
LINE
  5
14192E
  8
OBJECT
 10
3133.0
 20
-3984.9999999999968
 30
0.0
 11
3133.0
 21
-3877.9999999999959
 31
0.0
1001
ACDBBLOCKREPETAG
1070
     1
1071
       28
1005
14192E
  0
LINE
  5
14192F
  8
CENTER
 10
3155.0
 20
-3932.9999999999968
 30
0.0
 11
3071.0
 21
-3932.9999999999968
 31
0.0
1001
ACDBBLOCKREPETAG
1070
     1
1071
       29
1005
14192F
  0
LINE
  5
141930
  8
OBJECT
 10
3133.0
 20
-3880.9999999999968
 30
0.0
 11
3097.0
 21
-3880.9999999999968
 31
0.0
1001
ACDBBLOCKREPETAG
1070
     1
1071
       30
1005
141930
  0
LINE
  5
141931
  8
OBJECT
 10
3097.0
 20
-3880.9999999999968
 30
0.0
 11
3097.0
 21
-3984.9999999999968
 31
0.0
1001
ACDBBLOCKREPETAG
1070
     1
1071
       31
1005
141931
  0
LINE
  5
141932
  8
OBJECT
 10
3097.0
 20
-3984.9999999999968
 30
0.0
 11
3140.0
 21
-3984.9999999999968
 31
0.0
1001
ACDBBLOCKREPETAG
1070
     1
1071
       32
1005
141932
  0
LINE
  5
141933
  8
OBJECT
 10
3093.0
 20
-3885.4999999999968
 30
0.0
 11
3086.0
 21
-3885.4999999999968
 31
0.0
1001
ACDBBLOCKREPETAG
1070
     1
1071
       33
1005
141933
  0
LINE
  5
141934
  8
OBJECT
 10
3086.0
 20
-3980.4999999999968
 30
0.0
 11
3093.0
 21
-3980.4999999999968
 31
0.0
1001
ACDBBLOCKREPETAG
1070
     1
1071
       34
1005
141934
  0
LINE
  5
141935
  8
OBJECT
 10
3093.0
 20
-3980.4999999999968
 30
0.0
 11
3093.0
 21
-3885.4999999999968
 31
0.0
1001
ACDBBLOCKREPETAG
1070
     1
1071
       35
1005
141935
  0
LINE
  5
141936
  8
OBJECT
 10
3097.0
 20
-3880.9999999999968
 30
0.0
 11
3093.0
 21
-3885.4999999999968
 31
0.0
1001
ACDBBLOCKREPETAG
1070
     1
1071
       36
1005
141936
  0
LINE
  5
141937
  8
OBJECT
 10
3097.0
 20
-3984.9999999999968
 30
0.0
 11
3093.0
 21
-3980.4999999999968
 31
0.0
1001
ACDBBLOCKREPETAG
1070
     1
1071
       37
1005
141937
  0
LINE
  5
141938
  8
OBJECT
 10
3083.0
 20
-3863.9999999999968
 30
0.0
 11
3080.0
 21
-3863.9999999999968
 31
0.0
1001
ACDBBLOCKREPETAG
1070
     1
1071
       38
1005
141938
  0
ARC
  5
141939
  8
OBJECT
 10
3083.0
 20
-3866.9999999999968
 30
0.0
 40
3.0
 50
0.0
 51
90.0
1001
ACDBBLOCKREPETAG
1070
     1
1071
       39
1005
141939
  0
LINE
  5
14193A
  8
OBJECT
 10
3080.0
 20
-3987.9999999999968
 30
0.0
 11
3083.0
 21
-3987.9999999999968
 31
0.0
1001
ACDBBLOCKREPETAG
1070
     1
1071
       40
1005
14193A
  0
ARC
  5
14193B
  8
OBJECT
 10
3083.0
 20
-3984.9999999999968
 30
0.0
 40
3.0
 50
270.0
 51
0.0
1001
ACDBBLOCKREPETAG
1070
     1
1071
       41
1005
14193B
  0
LINE
  5
14193C
  8
OBJECT
 10
3086.0
 20
-3984.9999999999968
 30
0.0
 11
3086.0
 21
-3866.9999999999968
 31
0.0
1001
ACDBBLOCKREPETAG
1070
     1
1071
       42
1005
14193C
  0
LINE
  5
14193D
  8
HIDDEN
 10
3088.0
 20
-3894.9999999999968
 30
0.0
 11
3088.0
 21
-3970.9999999999968
 31
0.0
1001
ACDBBLOCKREPETAG
1070
     1
1071
       43
1005
14193D
  0
LINE
  5
14193E
  8
OBJECT
 10
3133.0
 20
-3524.9999999999959
 30
0.0
 11
3140.0
 21
-3524.9999999999959
 31
0.0
1001
ACDBBLOCKREPETAG
1070
     1
1071
       27
1005
14193E
  0
LINE
  5
14193F
  8
OBJECT
 10
3140.0
 20
-3524.9999999999959
 30
0.0
 11
3140.0
 21
-3634.9999999999959
 31
0.0
1001
ACDBBLOCKREPETAG
1070
     1
1071
       28
1005
14193F
  0
LINE
  5
141940
  8
OBJECT
 10
3140.0
 20
-3634.9999999999959
 30
0.0
 11
3133.0
 21
-3634.9999999999959
 31
0.0
1001
ACDBBLOCKREPETAG
1070
     1
1071
       29
1005
141940
  0
LINE
  5
141941
  8
OBJECT
 10
3133.0
 20
-3634.9999999999959
 30
0.0
 11
3133.0
 21
-3524.9999999999959
 31
0.0
1001
ACDBBLOCKREPETAG
1070
     1
1071
       30
1005
141941
  0
LINE
  5
141942
  8
CENTER
 10
3155.0
 20
-3579.9999999999959
 30
0.0
 11
3080.0
 21
-3579.9999999999959
 31
0.0
1001
ACDBBLOCKREPETAG
1070
     1
1071
       31
1005
141942
  0
LINE
  5
141943
  8
OBJECT
 10
3133.0
 20
-3527.9999999999959
 30
0.0
 11
3097.0
 21
-3527.9999999999959
 31
0.0
1001
ACDBBLOCKREPETAG
1070
     1
1071
       32
1005
141943
  0
LINE
  5
141944
  8
OBJECT
 10
3097.0
 20
-3527.9999999999959
 30
0.0
 11
3097.0
 21
-3631.9999999999959
 31
0.0
1001
ACDBBLOCKREPETAG
1070
     1
1071
       33
1005
141944
  0
LINE
  5
141945
  8
OBJECT
 10
3097.0
 20
-3631.9999999999959
 30
0.0
 11
3133.0
 21
-3631.9999999999959
 31
0.0
1001
ACDBBLOCKREPETAG
1070
     1
1071
       34
1005
141945
  0
LINE
  5
141946
  8
OBJECT
 10
3093.0
 20
-3532.4999999999959
 30
0.0
 11
3086.0
 21
-3532.4999999999959
 31
0.0
1001
ACDBBLOCKREPETAG
1070
     1
1071
       35
1005
141946
  0
LINE
  5
141947
  8
OBJECT
 10
3086.0
 20
-3627.4999999999959
 30
0.0
 11
3093.0
 21
-3627.4999999999959
 31
0.0
1001
ACDBBLOCKREPETAG
1070
     1
1071
       36
1005
141947
  0
LINE
  5
141948
  8
OBJECT
 10
3093.0
 20
-3627.4999999999959
 30
0.0
 11
3093.0
 21
-3532.4999999999959
 31
0.0
1001
ACDBBLOCKREPETAG
1070
     1
1071
       37
1005
141948
  0
LINE
  5
141949
  8
OBJECT
 10
3097.0
 20
-3527.9999999999959
 30
0.0
 11
3093.0
 21
-3532.4999999999959
 31
0.0
1001
ACDBBLOCKREPETAG
1070
     1
1071
       38
1005
141949
  0
LINE
  5
14194A
  8
OBJECT
 10
3097.0
 20
-3631.9999999999959
 30
0.0
 11
3093.0
 21
-3627.4999999999959
 31
0.0
1001
ACDBBLOCKREPETAG
1070
     1
1071
       39
1005
14194A
  0
LINE
  5
14194B
  8
OBJECT
 10
3083.0
 20
-3517.9999999999959
 30
0.0
 11
3080.0
 21
-3517.9999999999959
 31
0.0
1001
ACDBBLOCKREPETAG
1070
     1
1071
       40
1005
14194B
  0
ARC
  5
14194C
  8
OBJECT
 10
3083.0
 20
-3520.9999999999959
 30
0.0
 40
3.0
 50
0.0
 51
90.0
1001
ACDBBLOCKREPETAG
1070
     1
1071
       41
1005
14194C
  0
LINE
  5
14194D
  8
OBJECT
 10
3080.0
 20
-3641.9999999999959
 30
0.0
 11
3083.0
 21
-3641.9999999999959
 31
0.0
1001
ACDBBLOCKREPETAG
1070
     1
1071
       42
1005
14194D
  0
ARC
  5
14194E
  8
OBJECT
 10
3083.0
 20
-3638.9999999999959
 30
0.0
 40
3.0
 50
270.0
 51
0.0
1001
ACDBBLOCKREPETAG
1070
     1
1071
       43
1005
14194E
  0
LINE
  5
14194F
  8
OBJECT
 10
3086.0
 20
-3638.9999999999959
 30
0.0
 11
3086.0
 21
-3520.9999999999959
 31
0.0
1001
ACDBBLOCKREPETAG
1070
     1
1071
       44
1005
14194F
  0
LINE
  5
141950
  8
HIDDEN
 10
3088.0
 20
-3541.9999999999959
 30
0.0
 11
3088.0
 21
-3617.9999999999959
 31
0.0
1001
ACDBBLOCKREPETAG
1070
     1
1071
       45
1005
141950
  0
TEXT
  5
141951
  8
SLIM
 10
2894.25
 20
-4102.4999999999973
 30
0.0
 40
35.0
  1
通常枝65（2）
 41
0.75
  0
CIRCLE
  5
141952
  8
OBJECT
 10
2400.0
 20
-3925.9999999999968
 30
0.0
 40
62.0
1001
ACDBBLOCKREPETAG
1070
     1
1071
        3
1005
141952
  0
LINE
  5
141953
  8
CENTER
 10
2338.0
 20
-3940.9999999999968
 30
0.0
 11
2462.0
 21
-3940.9999999999968
 31
0.0
1001
ACDBBLOCKREPETAG
1070
     1
1071
        4
1005
141953
  0
CIRCLE
  5
141954
  8
OBJECT
 10
2400.0
 20
-3940.9999999999968
 30
0.0
 40
28.0
1001
ACDBBLOCKREPETAG
1070
     1
1071
        6
1005
141954
  0
CIRCLE
  5
141955
  8
OBJECT
 10
2400.0
 20
-3940.9999999999968
 30
0.0
 40
39.0
1001
ACDBBLOCKREPETAG
1070
     1
1071
        7
1005
141955
  0
ARC
  5
141956
  8
OBJECT
 10
2400.0
 20
-3940.9999999999968
 30
0.0
 40
47.0
 50
290.58196921144412
 51
249.41803078855591
1001
ACDBBLOCKREPETAG
1070
     1
1071
        8
1005
141956
  0
LINE
  5
141957
  8
OBJECT
 10
2383.4772883581431
 20
-3984.9999999999968
 30
0.0
 11
2416.5227116418569
 21
-3984.9999999999968
 31
0.0
1001
ACDBBLOCKREPETAG
1070
     1
1071
        9
1005
141957
  0
LINE
  5
141958
  8
OBJECT
 10
2133.0
 20
-3893.9999999999968
 30
0.0
 11
2140.0
 21
-3893.9999999999968
 31
0.0
1001
ACDBBLOCKREPETAG
1070
     1
1071
        7
1005
141958
  0
LINE
  5
141959
  8
OBJECT
 10
2140.0
 20
-3893.9999999999968
 30
0.0
 11
2140.0
 21
-3984.9999999999968
 31
0.0
1001
ACDBBLOCKREPETAG
1070
     1
1071
        8
1005
141959
  0
LINE
  5
14195A
  8
OBJECT
 10
2133.0
 20
-3984.9999999999968
 30
0.0
 11
2133.0
 21
-3893.9999999999968
 31
0.0
1001
ACDBBLOCKREPETAG
1070
     1
1071
        9
1005
14195A
  0
LINE
  5
14195B
  8
CENTER
 10
2155.0
 20
-3940.9999999999968
 30
0.0
 11
2071.0
 21
-3940.9999999999968
 31
0.0
1001
ACDBBLOCKREPETAG
1070
     1
1071
       10
1005
14195B
  0
LINE
  5
14195C
  8
OBJECT
 10
2133.0
 20
-3896.9999999999968
 30
0.0
 11
2097.0
 21
-3896.9999999999968
 31
0.0
1001
ACDBBLOCKREPETAG
1070
     1
1071
       11
1005
14195C
  0
LINE
  5
14195D
  8
OBJECT
 10
2097.0
 20
-3896.9999999999968
 30
0.0
 11
2097.0
 21
-3984.9999999999968
 31
0.0
1001
ACDBBLOCKREPETAG
1070
     1
1071
       12
1005
14195D
  0
LINE
  5
14195E
  8
OBJECT
 10
2097.0
 20
-3984.9999999999968
 30
0.0
 11
2140.0
 21
-3984.9999999999968
 31
0.0
1001
ACDBBLOCKREPETAG
1070
     1
1071
       13
1005
14195E
  0
LINE
  5
14195F
  8
OBJECT
 10
2093.0
 20
-3901.4999999999968
 30
0.0
 11
2086.0
 21
-3901.4999999999968
 31
0.0
1001
ACDBBLOCKREPETAG
1070
     1
1071
       14
1005
14195F
  0
LINE
  5
141960
  8
OBJECT
 10
2086.0
 20
-3980.4999999999968
 30
0.0
 11
2093.0
 21
-3980.4999999999968
 31
0.0
1001
ACDBBLOCKREPETAG
1070
     1
1071
       15
1005
141960
  0
LINE
  5
141961
  8
OBJECT
 10
2093.0
 20
-3980.4999999999968
 30
0.0
 11
2093.0
 21
-3901.4999999999968
 31
0.0
1001
ACDBBLOCKREPETAG
1070
     1
1071
       16
1005
141961
  0
LINE
  5
141962
  8
OBJECT
 10
2097.0
 20
-3896.9999999999968
 30
0.0
 11
2093.0
 21
-3901.4999999999968
 31
0.0
1001
ACDBBLOCKREPETAG
1070
     1
1071
       17
1005
141962
  0
LINE
  5
141963
  8
OBJECT
 10
2097.0
 20
-3984.9999999999968
 30
0.0
 11
2093.0
 21
-3980.4999999999968
 31
0.0
1001
ACDBBLOCKREPETAG
1070
     1
1071
       18
1005
141963
  0
LINE
  5
141964
  8
OBJECT
 10
2083.0
 20
-3863.9999999999968
 30
0.0
 11
2080.0
 21
-3863.9999999999968
 31
0.0
1001
ACDBBLOCKREPETAG
1070
     1
1071
       19
1005
141964
  0
ARC
  5
141965
  8
OBJECT
 10
2083.0
 20
-3866.9999999999968
 30
0.0
 40
3.0
 50
0.0
 51
90.0
1001
ACDBBLOCKREPETAG
1070
     1
1071
       20
1005
141965
  0
LINE
  5
141966
  8
OBJECT
 10
2080.0
 20
-3987.9999999999968
 30
0.0
 11
2083.0
 21
-3987.9999999999968
 31
0.0
1001
ACDBBLOCKREPETAG
1070
     1
1071
       21
1005
141966
  0
ARC
  5
141967
  8
OBJECT
 10
2083.0
 20
-3984.9999999999968
 30
0.0
 40
3.0
 50
270.0
 51
0.0
1001
ACDBBLOCKREPETAG
1070
     1
1071
       22
1005
141967
  0
LINE
  5
141968
  8
OBJECT
 10
2086.0
 20
-3984.9999999999968
 30
0.0
 11
2086.0
 21
-3866.9999999999968
 31
0.0
1001
ACDBBLOCKREPETAG
1070
     1
1071
       23
1005
141968
  0
LINE
  5
141969
  8
HIDDEN
 10
2088.0
 20
-3910.9999999999968
 30
0.0
 11
2088.0
 21
-3970.9999999999968
 31
0.0
1001
ACDBBLOCKREPETAG
1070
     1
1071
       24
1005
141969
  0
LINE
  5
14196A
  8
OBJECT
 10
2133.0
 20
-3532.9999999999959
 30
0.0
 11
2140.0
 21
-3532.9999999999959
 31
0.0
1001
ACDBBLOCKREPETAG
1070
     1
1071
        7
1005
14196A
  0
LINE
  5
14196B
  8
OBJECT
 10
2140.0
 20
-3532.9999999999959
 30
0.0
 11
2140.0
 21
-3626.9999999999959
 31
0.0
1001
ACDBBLOCKREPETAG
1070
     1
1071
        8
1005
14196B
  0
LINE
  5
14196C
  8
OBJECT
 10
2140.0
 20
-3626.9999999999959
 30
0.0
 11
2133.0
 21
-3626.9999999999959
 31
0.0
1001
ACDBBLOCKREPETAG
1070
     1
1071
        9
1005
14196C
  0
LINE
  5
14196D
  8
OBJECT
 10
2133.0
 20
-3626.9999999999959
 30
0.0
 11
2133.0
 21
-3532.9999999999959
 31
0.0
1001
ACDBBLOCKREPETAG
1070
     1
1071
       10
1005
14196D
  0
LINE
  5
14196E
  8
CENTER
 10
2155.0
 20
-3579.9999999999959
 30
0.0
 11
2080.0
 21
-3579.9999999999959
 31
0.0
1001
ACDBBLOCKREPETAG
1070
     1
1071
       11
1005
14196E
  0
LINE
  5
14196F
  8
OBJECT
 10
2133.0
 20
-3535.9999999999959
 30
0.0
 11
2097.0
 21
-3535.9999999999959
 31
0.0
1001
ACDBBLOCKREPETAG
1070
     1
1071
       12
1005
14196F
  0
LINE
  5
141970
  8
OBJECT
 10
2097.0
 20
-3535.9999999999959
 30
0.0
 11
2097.0
 21
-3623.9999999999959
 31
0.0
1001
ACDBBLOCKREPETAG
1070
     1
1071
       13
1005
141970
  0
LINE
  5
141971
  8
OBJECT
 10
2097.0
 20
-3623.9999999999959
 30
0.0
 11
2133.0
 21
-3623.9999999999959
 31
0.0
1001
ACDBBLOCKREPETAG
1070
     1
1071
       14
1005
141971
  0
LINE
  5
141972
  8
OBJECT
 10
2093.0
 20
-3540.4999999999959
 30
0.0
 11
2086.0
 21
-3540.4999999999959
 31
0.0
1001
ACDBBLOCKREPETAG
1070
     1
1071
       15
1005
141972
  0
LINE
  5
141973
  8
OBJECT
 10
2086.0
 20
-3619.4999999999959
 30
0.0
 11
2093.0
 21
-3619.4999999999959
 31
0.0
1001
ACDBBLOCKREPETAG
1070
     1
1071
       16
1005
141973
  0
LINE
  5
141974
  8
OBJECT
 10
2093.0
 20
-3619.4999999999959
 30
0.0
 11
2093.0
 21
-3540.4999999999959
 31
0.0
1001
ACDBBLOCKREPETAG
1070
     1
1071
       17
1005
141974
  0
LINE
  5
141975
  8
OBJECT
 10
2097.0
 20
-3535.9999999999959
 30
0.0
 11
2093.0
 21
-3540.4999999999959
 31
0.0
1001
ACDBBLOCKREPETAG
1070
     1
1071
       18
1005
141975
  0
LINE
  5
141976
  8
OBJECT
 10
2097.0
 20
-3623.9999999999959
 30
0.0
 11
2093.0
 21
-3619.4999999999959
 31
0.0
1001
ACDBBLOCKREPETAG
1070
     1
1071
       19
1005
141976
  0
LINE
  5
141977
  8
OBJECT
 10
2083.0
 20
-3517.9999999999959
 30
0.0
 11
2080.0
 21
-3517.9999999999959
 31
0.0
1001
ACDBBLOCKREPETAG
1070
     1
1071
       20
1005
141977
  0
ARC
  5
141978
  8
OBJECT
 10
2083.0
 20
-3520.9999999999959
 30
0.0
 40
3.0
 50
0.0
 51
90.0
1001
ACDBBLOCKREPETAG
1070
     1
1071
       21
1005
141978
  0
LINE
  5
141979
  8
OBJECT
 10
2080.0
 20
-3641.9999999999959
 30
0.0
 11
2083.0
 21
-3641.9999999999959
 31
0.0
1001
ACDBBLOCKREPETAG
1070
     1
1071
       22
1005
141979
  0
ARC
  5
14197A
  8
OBJECT
 10
2083.0
 20
-3638.9999999999959
 30
0.0
 40
3.0
 50
270.0
 51
0.0
1001
ACDBBLOCKREPETAG
1070
     1
1071
       23
1005
14197A
  0
LINE
  5
14197B
  8
OBJECT
 10
2086.0
 20
-3638.9999999999959
 30
0.0
 11
2086.0
 21
-3520.9999999999959
 31
0.0
1001
ACDBBLOCKREPETAG
1070
     1
1071
       24
1005
14197B
  0
LINE
  5
14197C
  8
HIDDEN
 10
2088.0
 20
-3549.9999999999959
 30
0.0
 11
2088.0
 21
-3609.9999999999959
 31
0.0
1001
ACDBBLOCKREPETAG
1070
     1
1071
       25
1005
14197C
  0
TEXT
  5
14197D
  8
SLIM
 10
1896.75
 20
-4102.4999999999973
 30
0.0
 40
35.0
  1
通常枝50（1）
 41
0.75
  0
LINE
  5
14197E
  8
SLIM
 10
11914.999999999991
 20
-759.47385309434696
 30
0.0
 11
11919.47385309434
 21
-754.99999999999955
 31
0.0
1001
ACAD
1010
0.0
1020
0.0
1030
0.0
1001
ACDBBLOCKREPETAG
1070
     1
1071
        0
1005
0
  0
LINE
  5
14197F
  8
SLIM
 10
11914.999999999991
 20
-777.43436533648446
 30
0.0
 11
11937.434365336479
 21
-754.99999999999955
 31
0.0
1001
ACAD
1010
0.0
1020
0.0
1030
0.0
1001
ACDBBLOCKREPETAG
1070
     1
1071
       10
1005
14197F
  0
LINE
  5
141980
  8
SLIM
 10
11914.999999999991
 20
-795.39487757862241
 30
0.0
 11
11955.39487757861
 21
-754.99999999999955
 31
0.0
1001
ACAD
1010
0.0
1020
0.0
1030
0.0
1001
ACDBBLOCKREPETAG
1070
     1
1071
       11
1005
141980
  0
LINE
  5
141981
  8
SLIM
 10
11914.999999999991
 20
-813.35538982076014
 30
0.0
 11
11973.35538982075
 21
-754.99999999999955
 31
0.0
1001
ACAD
1010
0.0
1020
0.0
1030
0.0
1001
ACDBBLOCKREPETAG
1070
     1
1071
       12
1005
141981
  0
LINE
  5
141982
  8
SLIM
 10
11914.999999999991
 20
-831.31590206289775
 30
0.0
 11
11991.31590206289
 21
-754.99999999999955
 31
0.0
1001
ACAD
1010
0.0
1020
0.0
1030
0.0
1001
ACDBBLOCKREPETAG
1070
     1
1071
       13
1005
141982
  0
LINE
  5
141983
  8
SLIM
 10
11915.0
 20
-849.27641430503525
 30
0.0
 11
12009.27641430503
 21
-754.99999999999955
 31
0.0
1001
ACAD
1010
0.0
1020
0.0
1030
0.0
1001
ACDBBLOCKREPETAG
1070
     1
1071
       14
1005
141983
  0
LINE
  5
141984
  8
SLIM
 10
11915.0
 20
-867.23692654717308
 30
0.0
 11
12027.23692654717
 21
-754.99999999999955
 31
0.0
1001
ACAD
1010
0.0
1020
0.0
1030
0.0
1001
ACDBBLOCKREPETAG
1070
     1
1071
       15
1005
141984
  0
LINE
  5
141985
  8
SLIM
 10
11915.0
 20
-885.19743878931092
 30
0.0
 11
12045.19743878931
 21
-754.99999999999955
 31
0.0
1001
ACAD
1010
0.0
1020
0.0
1030
0.0
1001
ACDBBLOCKREPETAG
1070
     1
1071
       16
1005
141985
  0
LINE
  5
141986
  8
SLIM
 10
11915.0
 20
-903.15795103144865
 30
0.0
 11
12063.15795103144
 21
-754.99999999999955
 31
0.0
1001
ACAD
1010
0.0
1020
0.0
1030
0.0
1001
ACDBBLOCKREPETAG
1070
     1
1071
       17
1005
141986
  0
LINE
  5
141987
  8
SLIM
 10
11915.0
 20
-921.11846327358626
 30
0.0
 11
12081.11846327358
 21
-754.99999999999955
 31
0.0
1001
ACAD
1010
0.0
1020
0.0
1030
0.0
1001
ACDBBLOCKREPETAG
1070
     1
1071
       18
1005
141987
  0
LINE
  5
141988
  8
SLIM
 10
11915.0
 20
-939.07897551572387
 30
0.0
 11
12085.000000000009
 21
-769.07897551571614
 31
0.0
1001
ACAD
1010
0.0
1020
0.0
1030
0.0
1001
ACDBBLOCKREPETAG
1070
     1
1071
       19
1005
141988
  0
LINE
  5
141989
  8
SLIM
 10
11915.0
 20
-957.03948775786182
 30
0.0
 11
12085.0
 21
-787.03948775785511
 31
0.0
1001
ACAD
1010
0.0
1020
0.0
1030
0.0
1001
ACDBBLOCKREPETAG
1070
     1
1071
       20
1005
141989
  0
LINE
  5
14198A
  8
SLIM
 10
11915.28360074955
 20
-974.71639925044155
 30
0.0
 11
12085.0
 21
-804.99999999999375
 31
0.0
1001
ACAD
1010
0.0
1020
0.0
1030
0.0
1001
ACDBBLOCKREPETAG
1070
     1
1071
       21
1005
14198A
  0
LINE
  5
14198B
  8
SLIM
 10
11917.49791047804
 20
-990.46260176409658
 30
0.0
 11
12085.0
 21
-822.96051224213306
 31
0.0
1001
ACAD
1010
0.0
1020
0.0
1030
0.0
1001
ACDBBLOCKREPETAG
1070
     1
1071
       22
1005
14198B
  0
LINE
  5
14198C
  8
SLIM
 10
11919.71222020652
 20
-1006.2088042777521
 30
0.0
 11
12085.0
 21
-840.92102448427181
 31
0.0
1001
ACAD
1010
0.0
1020
0.0
1030
0.0
1001
ACDBBLOCKREPETAG
1070
     1
1071
       23
1005
14198C
  0
LINE
  5
14198D
  8
SLIM
 10
11921.926529935001
 20
-1021.955006791408
 30
0.0
 11
12085.0
 21
-858.88153672641045
 31
0.0
1001
ACAD
1010
0.0
1020
0.0
1030
0.0
1001
ACDBBLOCKREPETAG
1070
     1
1071
       24
1005
14198D
  0
LINE
  5
14198E
  8
SLIM
 10
11924.140839663491
 20
-1037.701209305063
 30
0.0
 11
12085.0
 21
-876.84204896854942
 31
0.0
1001
ACAD
1010
0.0
1020
0.0
1030
0.0
1001
ACDBBLOCKREPETAG
1070
     1
1071
       25
1005
14198E
  0
LINE
  5
14198F
  8
SLIM
 10
11926.35514939196
 20
-1053.4474118187179
 30
0.0
 11
12085.0
 21
-894.80256121068851
 31
0.0
1001
ACAD
1010
0.0
1020
0.0
1030
0.0
1001
ACDBBLOCKREPETAG
1070
     1
1071
       26
1005
14198F
  0
LINE
  5
141990
  8
SLIM
 10
11928.56945912045
 20
-1069.193614332373
 30
0.0
 11
12085.0
 21
-912.76307345282714
 31
0.0
1001
ACAD
1010
0.0
1020
0.0
1030
0.0
1001
ACDBBLOCKREPETAG
1070
     1
1071
       27
1005
141990
  0
LINE
  5
141991
  8
SLIM
 10
11930.78376884894
 20
-1084.9398168460291
 30
0.0
 11
12085.0
 21
-930.72358569496646
 31
0.0
1001
ACAD
1010
0.0
1020
0.0
1030
0.0
1001
ACDBBLOCKREPETAG
1070
     1
1071
       28
1005
141991
  0
LINE
  5
141992
  8
SLIM
 10
11932.998078577421
 20
-1100.6860193596849
 30
0.0
 11
12085.0
 21
-948.68409793710521
 31
0.0
1001
ACAD
1010
0.0
1020
0.0
1030
0.0
1001
ACDBBLOCKREPETAG
1070
     1
1071
       29
1005
141992
  0
LINE
  5
141993
  8
SLIM
 10
11932.999999999991
 20
-1118.644610179251
 30
0.0
 11
12085.0
 21
-966.64461017924395
 31
0.0
1001
ACAD
1010
0.0
1020
0.0
1030
0.0
1001
ACDBBLOCKREPETAG
1070
     1
1071
       30
1005
141993
  0
LINE
  5
141994
  8
SLIM
 10
11932.999999999991
 20
-1136.60512242139
 30
0.0
 11
12083.05183715436
 21
-986.55328526701646
 31
0.0
1001
ACAD
1010
0.0
1020
0.0
1030
0.0
1001
ACDBBLOCKREPETAG
1070
     1
1071
       31
1005
141994
  0
LINE
  5
141995
  8
SLIM
 10
11942.565634663521
 20
-1144.9999999999959
 30
0.0
 11
12080.112844242019
 21
-1007.452790421504
 31
0.0
1001
ACAD
1010
0.0
1020
0.0
1030
0.0
1001
ACDBBLOCKREPETAG
1070
     1
1071
       32
1005
141995
  0
LINE
  5
141996
  8
SLIM
 10
11960.52614690566
 20
-1144.9999999999959
 30
0.0
 11
12077.17385132967
 21
-1028.3522955759911
 31
0.0
1001
ACAD
1010
0.0
1020
0.0
1030
0.0
1001
ACDBBLOCKREPETAG
1070
     1
1071
       33
1005
141996
  0
LINE
  5
141997
  8
SLIM
 10
11978.4866591478
 20
-1144.999999999997
 30
0.0
 11
12074.23485841732
 21
-1049.251800730478
 31
0.0
1001
ACAD
1010
0.0
1020
0.0
1030
0.0
1001
ACDBBLOCKREPETAG
1070
     1
1071
       34
1005
141997
  0
LINE
  5
141998
  8
SLIM
 10
11996.44717138994
 20
-1144.999999999998
 30
0.0
 11
12071.29586550497
 21
-1070.151305884966
 31
0.0
1001
ACAD
1010
0.0
1020
0.0
1030
0.0
1001
ACDBBLOCKREPETAG
1070
     1
1071
       35
1005
141998
  0
LINE
  5
141999
  8
SLIM
 10
12014.40768363208
 20
-1144.999999999998
 30
0.0
 11
12068.35687259262
 21
-1091.050811039453
 31
0.0
1001
ACAD
1010
0.0
1020
0.0
1030
0.0
1001
ACDBBLOCKREPETAG
1070
     1
1071
       36
1005
141999
  0
LINE
  5
14199A
  8
SLIM
 10
12032.368195874211
 20
-1144.999999999998
 30
0.0
 11
12067.0
 21
-1110.3681958742011
 31
0.0
1001
ACAD
1010
0.0
1020
0.0
1030
0.0
1001
ACDBBLOCKREPETAG
1070
     1
1071
       37
1005
14199A
  0
LINE
  5
14199B
  8
SLIM
 10
12050.328708116351
 20
-1144.9999999999991
 30
0.0
 11
12067.0
 21
-1128.3287081163401
 31
0.0
1001
ACAD
1010
0.0
1020
0.0
1030
0.0
1001
ACDBBLOCKREPETAG
1070
     1
1071
       38
1005
14199B
  0
LINE
  5
14199C
  8
OBJECT
 10
11932.999999999991
 20
-1144.9999999999959
 30
0.0
 11
12067.0
 21
-1144.9999999999991
 31
0.0
1001
ACDBBLOCKREPETAG
1070
     1
1071
        1
1005
14199C
  0
LINE
  5
14199D
  8
OBJECT
 10
11914.999999999991
 20
-754.99999999999955
 30
0.0
 11
11915.0
 21
-972.69968280914077
 31
0.0
1001
ACDBBLOCKREPETAG
1070
     1
1071
        2
1005
14199D
  0
LINE
  5
14199E
  8
OBJECT
 10
12085.000000000009
 20
-754.99999999999955
 30
0.0
 11
12085.0
 21
-972.69968280917215
 31
0.0
1001
ACDBBLOCKREPETAG
1070
     1
1071
        3
1005
14199E
  0
LINE
  5
14199F
  8
OBJECT
 10
11915.0
 20
-972.69968280914077
 30
0.0
 11
11932.999999999991
 21
-1100.699682809081
 31
0.0
1001
ACDBBLOCKREPETAG
1070
     1
1071
        4
1005
14199F
  0
LINE
  5
1419A0
  8
OBJECT
 10
12067.0
 20
-1100.699682809128
 30
0.0
 11
12085.0
 21
-972.69968280917215
 31
0.0
1001
ACDBBLOCKREPETAG
1070
     1
1071
        5
1005
1419A0
  0
LINE
  5
1419A1
  8
OBJECT
 10
12085.000000000009
 20
-754.99999999999955
 30
0.0
 11
11914.999999999991
 21
-754.99999999999955
 31
0.0
1001
ACDBBLOCKREPETAG
1070
     1
1071
        6
1005
1419A1
  0
LINE
  5
1419A2
  8
OBJECT
 10
11932.999999999991
 20
-1100.699682809081
 30
0.0
 11
11932.999999999991
 21
-1144.9999999999959
 31
0.0
1001
ACDBBLOCKREPETAG
1070
     1
1071
        8
1005
1419A2
  0
LINE
  5
1419A3
  8
OBJECT
 10
12067.0
 20
-1100.699682809128
 30
0.0
 11
12067.0
 21
-1144.9999999999991
 31
0.0
1001
ACDBBLOCKREPETAG
1070
     1
1071
        9
1005
1419A3
  0
LINE
  5
1419A4
  8
SLIM
 10
9914.9999999999927
 20
-759.47385309434696
 30
0.0
 11
9919.4738530943396
 21
-754.99999999999955
 31
0.0
1001
ACAD
1010
0.0
1020
0.0
1030
0.0
1001
ACDBBLOCKREPETAG
1070
     1
1071
        0
1005
0
  0
LINE
  5
1419A5
  8
SLIM
 10
9914.9999999999927
 20
-777.43436533648446
 30
0.0
 11
9937.4343653364795
 21
-754.99999999999955
 31
0.0
1001
ACAD
1010
0.0
1020
0.0
1030
0.0
1001
ACDBBLOCKREPETAG
1070
     1
1071
       10
1005
1419A5
  0
LINE
  5
1419A6
  8
SLIM
 10
9914.9999999999945
 20
-795.39487757862241
 30
0.0
 11
9955.3948775786212
 21
-754.99999999999955
 31
0.0
1001
ACAD
1010
0.0
1020
0.0
1030
0.0
1001
ACDBBLOCKREPETAG
1070
     1
1071
       11
1005
1419A6
  0
LINE
  5
1419A7
  8
SLIM
 10
9914.9999999999945
 20
-813.35538982076014
 30
0.0
 11
9973.3553898207556
 21
-754.99999999999955
 31
0.0
1001
ACAD
1010
0.0
1020
0.0
1030
0.0
1001
ACDBBLOCKREPETAG
1070
     1
1071
       12
1005
1419A7
  0
LINE
  5
1419A8
  8
SLIM
 10
9914.9999999999945
 20
-831.31590206289775
 30
0.0
 11
9991.3159020628937
 21
-754.99999999999955
 31
0.0
1001
ACAD
1010
0.0
1020
0.0
1030
0.0
1001
ACDBBLOCKREPETAG
1070
     1
1071
       13
1005
1419A8
  0
LINE
  5
1419A9
  8
SLIM
 10
9914.9999999999964
 20
-849.27641430503525
 30
0.0
 11
10009.27641430503
 21
-754.99999999999955
 31
0.0
1001
ACAD
1010
0.0
1020
0.0
1030
0.0
1001
ACDBBLOCKREPETAG
1070
     1
1071
       14
1005
1419A9
  0
LINE
  5
1419AA
  8
SLIM
 10
9914.9999999999964
 20
-867.23692654717308
 30
0.0
 11
10027.23692654717
 21
-754.99999999999955
 31
0.0
1001
ACAD
1010
0.0
1020
0.0
1030
0.0
1001
ACDBBLOCKREPETAG
1070
     1
1071
       15
1005
1419AA
  0
LINE
  5
1419AB
  8
SLIM
 10
9914.9999999999964
 20
-885.19743878931092
 30
0.0
 11
10045.19743878931
 21
-754.99999999999955
 31
0.0
1001
ACAD
1010
0.0
1020
0.0
1030
0.0
1001
ACDBBLOCKREPETAG
1070
     1
1071
       16
1005
1419AB
  0
LINE
  5
1419AC
  8
SLIM
 10
9914.9999999999982
 20
-903.15795103144865
 30
0.0
 11
10063.15795103144
 21
-754.99999999999955
 31
0.0
1001
ACAD
1010
0.0
1020
0.0
1030
0.0
1001
ACDBBLOCKREPETAG
1070
     1
1071
       17
1005
1419AC
  0
LINE
  5
1419AD
  8
SLIM
 10
9914.9999999999982
 20
-921.11846327358626
 30
0.0
 11
10081.11846327358
 21
-754.99999999999955
 31
0.0
1001
ACAD
1010
0.0
1020
0.0
1030
0.0
1001
ACDBBLOCKREPETAG
1070
     1
1071
       18
1005
1419AD
  0
LINE
  5
1419AE
  8
SLIM
 10
9914.9999999999982
 20
-939.07897551572387
 30
0.0
 11
10085.000000000009
 21
-769.07897551571614
 31
0.0
1001
ACAD
1010
0.0
1020
0.0
1030
0.0
1001
ACDBBLOCKREPETAG
1070
     1
1071
       19
1005
1419AE
  0
LINE
  5
1419AF
  8
SLIM
 10
9915.0
 20
-957.03948775786182
 30
0.0
 11
10085.0
 21
-787.03948775785511
 31
0.0
1001
ACAD
1010
0.0
1020
0.0
1030
0.0
1001
ACDBBLOCKREPETAG
1070
     1
1071
       20
1005
1419AF
  0
LINE
  5
1419B0
  8
SLIM
 10
9915.2836007495607
 20
-974.71639925044155
 30
0.0
 11
10085.0
 21
-804.99999999999375
 31
0.0
1001
ACAD
1010
0.0
1020
0.0
1030
0.0
1001
ACDBBLOCKREPETAG
1070
     1
1071
       21
1005
1419B0
  0
LINE
  5
1419B1
  8
SLIM
 10
9917.4979104780396
 20
-990.46260176409658
 30
0.0
 11
10085.0
 21
-822.96051224213306
 31
0.0
1001
ACAD
1010
0.0
1020
0.0
1030
0.0
1001
ACDBBLOCKREPETAG
1070
     1
1071
       22
1005
1419B1
  0
LINE
  5
1419B2
  8
SLIM
 10
9919.7122202065257
 20
-1006.2088042777521
 30
0.0
 11
10085.0
 21
-840.92102448427181
 31
0.0
1001
ACAD
1010
0.0
1020
0.0
1030
0.0
1001
ACDBBLOCKREPETAG
1070
     1
1071
       23
1005
1419B2
  0
LINE
  5
1419B3
  8
SLIM
 10
9921.9265299350063
 20
-1021.955006791408
 30
0.0
 11
10085.0
 21
-858.88153672641045
 31
0.0
1001
ACAD
1010
0.0
1020
0.0
1030
0.0
1001
ACDBBLOCKREPETAG
1070
     1
1071
       24
1005
1419B3
  0
LINE
  5
1419B4
  8
SLIM
 10
9924.1408396634924
 20
-1037.701209305063
 30
0.0
 11
10085.0
 21
-876.84204896854942
 31
0.0
1001
ACAD
1010
0.0
1020
0.0
1030
0.0
1001
ACDBBLOCKREPETAG
1070
     1
1071
       25
1005
1419B4
  0
LINE
  5
1419B5
  8
SLIM
 10
9926.3551493919731
 20
-1053.4474118187179
 30
0.0
 11
10085.0
 21
-894.80256121068851
 31
0.0
1001
ACAD
1010
0.0
1020
0.0
1030
0.0
1001
ACDBBLOCKREPETAG
1070
     1
1071
       26
1005
1419B5
  0
LINE
  5
1419B6
  8
SLIM
 10
9928.5694591204574
 20
-1069.193614332373
 30
0.0
 11
10085.0
 21
-912.76307345282714
 31
0.0
1001
ACAD
1010
0.0
1020
0.0
1030
0.0
1001
ACDBBLOCKREPETAG
1070
     1
1071
       27
1005
1419B6
  0
LINE
  5
1419B7
  8
SLIM
 10
9930.7837688489417
 20
-1084.9398168460291
 30
0.0
 11
10085.0
 21
-930.72358569496646
 31
0.0
1001
ACAD
1010
0.0
1020
0.0
1030
0.0
1001
ACDBBLOCKREPETAG
1070
     1
1071
       28
1005
1419B7
  0
LINE
  5
1419B8
  8
SLIM
 10
9932.9980785774187
 20
-1100.6860193596849
 30
0.0
 11
10085.0
 21
-948.68409793710521
 31
0.0
1001
ACAD
1010
0.0
1020
0.0
1030
0.0
1001
ACDBBLOCKREPETAG
1070
     1
1071
       29
1005
1419B8
  0
LINE
  5
1419B9
  8
SLIM
 10
9932.9999999999927
 20
-1118.644610179251
 30
0.0
 11
10085.0
 21
-966.64461017924395
 31
0.0
1001
ACAD
1010
0.0
1020
0.0
1030
0.0
1001
ACDBBLOCKREPETAG
1070
     1
1071
       30
1005
1419B9
  0
LINE
  5
1419BA
  8
SLIM
 10
9932.9999999999927
 20
-1136.60512242139
 30
0.0
 11
10083.05183715436
 21
-986.55328526701646
 31
0.0
1001
ACAD
1010
0.0
1020
0.0
1030
0.0
1001
ACDBBLOCKREPETAG
1070
     1
1071
       31
1005
1419BA
  0
LINE
  5
1419BB
  8
SLIM
 10
9942.5656346635242
 20
-1144.9999999999959
 30
0.0
 11
10080.11284424201
 21
-1007.452790421504
 31
0.0
1001
ACAD
1010
0.0
1020
0.0
1030
0.0
1001
ACDBBLOCKREPETAG
1070
     1
1071
       32
1005
1419BB
  0
LINE
  5
1419BC
  8
SLIM
 10
9960.5261469056641
 20
-1144.9999999999959
 30
0.0
 11
10077.17385132967
 21
-1028.3522955759911
 31
0.0
1001
ACAD
1010
0.0
1020
0.0
1030
0.0
1001
ACDBBLOCKREPETAG
1070
     1
1071
       33
1005
1419BC
  0
LINE
  5
1419BD
  8
SLIM
 10
9978.4866591478003
 20
-1144.999999999997
 30
0.0
 11
10074.23485841732
 21
-1049.251800730478
 31
0.0
1001
ACAD
1010
0.0
1020
0.0
1030
0.0
1001
ACDBBLOCKREPETAG
1070
     1
1071
       34
1005
1419BD
  0
LINE
  5
1419BE
  8
SLIM
 10
9996.4471713899384
 20
-1144.999999999998
 30
0.0
 11
10071.29586550497
 21
-1070.151305884966
 31
0.0
1001
ACAD
1010
0.0
1020
0.0
1030
0.0
1001
ACDBBLOCKREPETAG
1070
     1
1071
       35
1005
1419BE
  0
LINE
  5
1419BF
  8
SLIM
 10
10014.40768363206
 20
-1144.999999999998
 30
0.0
 11
10068.35687259262
 21
-1091.050811039453
 31
0.0
1001
ACAD
1010
0.0
1020
0.0
1030
0.0
1001
ACDBBLOCKREPETAG
1070
     1
1071
       36
1005
1419BF
  0
LINE
  5
1419C0
  8
SLIM
 10
10032.368195874211
 20
-1144.999999999998
 30
0.0
 11
10067.000000000009
 21
-1110.3681958742011
 31
0.0
1001
ACAD
1010
0.0
1020
0.0
1030
0.0
1001
ACDBBLOCKREPETAG
1070
     1
1071
       37
1005
1419C0
  0
LINE
  5
1419C1
  8
SLIM
 10
10050.328708116351
 20
-1144.9999999999991
 30
0.0
 11
10067.000000000009
 21
-1128.3287081163401
 31
0.0
1001
ACAD
1010
0.0
1020
0.0
1030
0.0
1001
ACDBBLOCKREPETAG
1070
     1
1071
       38
1005
1419C1
  0
LINE
  5
1419C2
  8
OBJECT
 10
9932.9999999999927
 20
-1144.9999999999959
 30
0.0
 11
10067.000000000009
 21
-1144.9999999999991
 31
0.0
1001
ACDBBLOCKREPETAG
1070
     1
1071
        1
1005
1419C2
  0
LINE
  5
1419C3
  8
OBJECT
 10
9914.9999999999927
 20
-754.99999999999955
 30
0.0
 11
9915.0
 21
-972.69968280914077
 31
0.0
1001
ACDBBLOCKREPETAG
1070
     1
1071
        2
1005
1419C3
  0
LINE
  5
1419C4
  8
OBJECT
 10
10085.000000000009
 20
-754.99999999999955
 30
0.0
 11
10085.0
 21
-972.69968280917215
 31
0.0
1001
ACDBBLOCKREPETAG
1070
     1
1071
        3
1005
1419C4
  0
LINE
  5
1419C5
  8
OBJECT
 10
9915.0
 20
-972.69968280914077
 30
0.0
 11
9932.9999999999927
 21
-1100.699682809081
 31
0.0
1001
ACDBBLOCKREPETAG
1070
     1
1071
        4
1005
1419C5
  0
LINE
  5
1419C6
  8
OBJECT
 10
10067.000000000009
 20
-1100.699682809128
 30
0.0
 11
10085.0
 21
-972.69968280917215
 31
0.0
1001
ACDBBLOCKREPETAG
1070
     1
1071
        5
1005
1419C6
  0
LINE
  5
1419C7
  8
OBJECT
 10
10085.000000000009
 20
-754.99999999999955
 30
0.0
 11
9914.9999999999927
 21
-754.99999999999955
 31
0.0
1001
ACDBBLOCKREPETAG
1070
     1
1071
        6
1005
1419C7
  0
LINE
  5
1419C8
  8
OBJECT
 10
9932.9999999999927
 20
-1100.699682809081
 30
0.0
 11
9932.9999999999927
 21
-1144.9999999999959
 31
0.0
1001
ACDBBLOCKREPETAG
1070
     1
1071
        8
1005
1419C8
  0
LINE
  5
1419C9
  8
OBJECT
 10
10067.000000000009
 20
-1100.699682809128
 30
0.0
 11
10067.000000000009
 21
-1144.9999999999991
 31
0.0
1001
ACDBBLOCKREPETAG
1070
     1
1071
        9
1005
1419C9
  0
LINE
  5
1419CA
  8
SLIM
 10
7914.9999999999918
 20
-759.47385309434696
 30
0.0
 11
7919.4738530943414
 21
-754.99999999999955
 31
0.0
1001
ACAD
1010
0.0
1020
0.0
1030
0.0
1001
ACDBBLOCKREPETAG
1070
     1
1071
        0
1005
0
  0
LINE
  5
1419CB
  8
SLIM
 10
7914.9999999999918
 20
-777.43436533648446
 30
0.0
 11
7937.4343653364776
 21
-754.99999999999955
 31
0.0
1001
ACAD
1010
0.0
1020
0.0
1030
0.0
1001
ACDBBLOCKREPETAG
1070
     1
1071
       11
1005
1419CB
  0
LINE
  5
1419CC
  8
SLIM
 10
7914.9999999999918
 20
-795.39487757862241
 30
0.0
 11
7955.3948775786157
 21
-754.99999999999955
 31
0.0
1001
ACAD
1010
0.0
1020
0.0
1030
0.0
1001
ACDBBLOCKREPETAG
1070
     1
1071
       12
1005
1419CC
  0
LINE
  5
1419CD
  8
SLIM
 10
7914.9999999999964
 20
-813.35538982076014
 30
0.0
 11
7973.3553898207538
 21
-754.99999999999955
 31
0.0
1001
ACAD
1010
0.0
1020
0.0
1030
0.0
1001
ACDBBLOCKREPETAG
1070
     1
1071
       13
1005
1419CD
  0
LINE
  5
1419CE
  8
SLIM
 10
7914.9999999999982
 20
-831.31590206289775
 30
0.0
 11
7991.3159020628918
 21
-754.99999999999955
 31
0.0
1001
ACAD
1010
0.0
1020
0.0
1030
0.0
1001
ACDBBLOCKREPETAG
1070
     1
1071
       14
1005
1419CE
  0
LINE
  5
1419CF
  8
SLIM
 10
7914.9999999999982
 20
-849.27641430503559
 30
0.0
 11
8009.2764143050308
 21
-754.99999999999955
 31
0.0
1001
ACAD
1010
0.0
1020
0.0
1030
0.0
1001
ACDBBLOCKREPETAG
1070
     1
1071
       15
1005
1419CF
  0
LINE
  5
1419D0
  8
SLIM
 10
7914.9999999999982
 20
-867.23692654717308
 30
0.0
 11
8027.2369265471707
 21
-754.99999999999955
 31
0.0
1001
ACAD
1010
0.0
1020
0.0
1030
0.0
1001
ACDBBLOCKREPETAG
1070
     1
1071
       16
1005
1419D0
  0
LINE
  5
1419D1
  8
SLIM
 10
7914.9999999999982
 20
-885.19743878931092
 30
0.0
 11
8045.1974387893079
 21
-754.99999999999955
 31
0.0
1001
ACAD
1010
0.0
1020
0.0
1030
0.0
1001
ACDBBLOCKREPETAG
1070
     1
1071
       17
1005
1419D1
  0
LINE
  5
1419D2
  8
SLIM
 10
7914.9999999999982
 20
-903.15795103144865
 30
0.0
 11
8063.1579510314468
 21
-754.99999999999955
 31
0.0
1001
ACAD
1010
0.0
1020
0.0
1030
0.0
1001
ACDBBLOCKREPETAG
1070
     1
1071
       18
1005
1419D2
  0
LINE
  5
1419D3
  8
SLIM
 10
7914.9999999999982
 20
-921.11846327358626
 30
0.0
 11
8081.118463273584
 21
-754.99999999999955
 31
0.0
1001
ACAD
1010
0.0
1020
0.0
1030
0.0
1001
ACDBBLOCKREPETAG
1070
     1
1071
       19
1005
1419D3
  0
LINE
  5
1419D4
  8
SLIM
 10
7914.9999999999982
 20
-939.07897551572387
 30
0.0
 11
8085.0000000000064
 21
-769.07897551571614
 31
0.0
1001
ACAD
1010
0.0
1020
0.0
1030
0.0
1001
ACDBBLOCKREPETAG
1070
     1
1071
       20
1005
1419D4
  0
LINE
  5
1419D5
  8
SLIM
 10
7914.9999999999982
 20
-957.03948775786182
 30
0.0
 11
8085.0000000000064
 21
-787.03948775785511
 31
0.0
1001
ACAD
1010
0.0
1020
0.0
1030
0.0
1001
ACDBBLOCKREPETAG
1070
     1
1071
       21
1005
1419D5
  0
LINE
  5
1419D6
  8
SLIM
 10
7915.283600749558
 20
-974.71639925044155
 30
0.0
 11
8085.0000000000064
 21
-804.99999999999375
 31
0.0
1001
ACAD
1010
0.0
1020
0.0
1030
0.0
1001
ACDBBLOCKREPETAG
1070
     1
1071
       22
1005
1419D6
  0
LINE
  5
1419D7
  8
SLIM
 10
7917.4979104780423
 20
-990.46260176409658
 30
0.0
 11
8085.0000000000064
 21
-822.96051224213306
 31
0.0
1001
ACAD
1010
0.0
1020
0.0
1030
0.0
1001
ACDBBLOCKREPETAG
1070
     1
1071
       23
1005
1419D7
  0
LINE
  5
1419D8
  8
SLIM
 10
7919.7122202065239
 20
-1006.2088042777521
 30
0.0
 11
8085.0000000000064
 21
-840.92102448427181
 31
0.0
1001
ACAD
1010
0.0
1020
0.0
1030
0.0
1001
ACDBBLOCKREPETAG
1070
     1
1071
       24
1005
1419D8
  0
LINE
  5
1419D9
  8
SLIM
 10
7921.9265299350072
 20
-1021.955006791407
 30
0.0
 11
8085.0000000000018
 21
-858.88153672641045
 31
0.0
1001
ACAD
1010
0.0
1020
0.0
1030
0.0
1001
ACDBBLOCKREPETAG
1070
     1
1071
       25
1005
1419D9
  0
LINE
  5
1419DA
  8
SLIM
 10
7924.1408396634897
 20
-1037.701209305063
 30
0.0
 11
8085.0000000000018
 21
-876.84204896854942
 31
0.0
1001
ACAD
1010
0.0
1020
0.0
1030
0.0
1001
ACDBBLOCKREPETAG
1070
     1
1071
       26
1005
1419DA
  0
LINE
  5
1419DB
  8
SLIM
 10
7926.3551493919731
 20
-1053.4474118187179
 30
0.0
 11
8085.0000000000018
 21
-894.80256121068851
 31
0.0
1001
ACAD
1010
0.0
1020
0.0
1030
0.0
1001
ACDBBLOCKREPETAG
1070
     1
1071
       27
1005
1419DB
  0
LINE
  5
1419DC
  8
SLIM
 10
7928.5694591204538
 20
-1069.193614332373
 30
0.0
 11
8085.0000000000018
 21
-912.76307345282714
 31
0.0
1001
ACAD
1010
0.0
1020
0.0
1030
0.0
1001
ACDBBLOCKREPETAG
1070
     1
1071
       28
1005
1419DC
  0
LINE
  5
1419DD
  8
SLIM
 10
7930.783768848939
 20
-1084.939816846028
 30
0.0
 11
8085.0000000000018
 21
-930.72358569496612
 31
0.0
1001
ACAD
1010
0.0
1020
0.0
1030
0.0
1001
ACDBBLOCKREPETAG
1070
     1
1071
       29
1005
1419DD
  0
LINE
  5
1419DE
  8
SLIM
 10
7932.9980785774214
 20
-1100.686019359684
 30
0.0
 11
8085.0
 21
-948.68409793710521
 31
0.0
1001
ACAD
1010
0.0
1020
0.0
1030
0.0
1001
ACDBBLOCKREPETAG
1070
     1
1071
       30
1005
1419DE
  0
LINE
  5
1419DF
  8
SLIM
 10
7943.0
 20
-1108.644610179244
 30
0.0
 11
7946.6446101792453
 21
-1104.999999999997
 31
0.0
1001
ACAD
1010
0.0
1020
0.0
1030
0.0
1001
ACDBBLOCKREPETAG
1070
     1
1071
       31
1005
1419DF
  0
LINE
  5
1419E0
  8
SLIM
 10
7946.6446101792453
 20
-1104.999999999997
 30
0.0
 11
8085.0
 21
-966.64461017924395
 31
0.0
1001
ACAD
1010
0.0
1020
0.0
1030
0.0
1001
ACDBBLOCKREPETAG
1070
     1
1071
       32
1005
1419E0
  0
LINE
  5
1419E1
  8
SLIM
 10
7944.6051224213861
 20
-1124.999999999998
 30
0.0
 11
7964.6051224213852
 21
-1104.999999999997
 31
0.0
1001
ACAD
1010
0.0
1020
0.0
1030
0.0
1001
ACDBBLOCKREPETAG
1070
     1
1071
       33
1005
1419E1
  0
LINE
  5
1419E2
  8
SLIM
 10
7964.6051224213852
 20
-1104.999999999997
 30
0.0
 11
8083.051837154364
 21
-986.55328526701703
 31
0.0
1001
ACAD
1010
0.0
1020
0.0
1030
0.0
1001
ACDBBLOCKREPETAG
1070
     1
1071
       34
1005
1419E2
  0
LINE
  5
1419E3
  8
SLIM
 10
7962.5656346635242
 20
-1124.999999999998
 30
0.0
 11
7982.5656346635215
 21
-1104.999999999997
 31
0.0
1001
ACAD
1010
0.0
1020
0.0
1030
0.0
1001
ACDBBLOCKREPETAG
1070
     1
1071
       35
1005
1419E3
  0
LINE
  5
1419E4
  8
SLIM
 10
7982.5656346635215
 20
-1104.999999999997
 30
0.0
 11
8080.1128442420159
 21
-1007.452790421505
 31
0.0
1001
ACAD
1010
0.0
1020
0.0
1030
0.0
1001
ACDBBLOCKREPETAG
1070
     1
1071
       36
1005
1419E4
  0
LINE
  5
1419E5
  8
SLIM
 10
7980.5261469056622
 20
-1124.999999999998
 30
0.0
 11
8000.5261469056613
 21
-1104.999999999997
 31
0.0
1001
ACAD
1010
0.0
1020
0.0
1030
0.0
1001
ACDBBLOCKREPETAG
1070
     1
1071
       37
1005
1419E5
  0
LINE
  5
1419E6
  8
SLIM
 10
8000.5261469056613
 20
-1104.999999999997
 30
0.0
 11
8077.1738513296659
 21
-1028.352295575992
 31
0.0
1001
ACAD
1010
0.0
1020
0.0
1030
0.0
1001
ACDBBLOCKREPETAG
1070
     1
1071
       38
1005
1419E6
  0
LINE
  5
1419E7
  8
SLIM
 10
7998.4866591478003
 20
-1124.999999999998
 30
0.0
 11
8018.4866591478003
 21
-1104.999999999997
 31
0.0
1001
ACAD
1010
0.0
1020
0.0
1030
0.0
1001
ACDBBLOCKREPETAG
1070
     1
1071
       39
1005
1419E7
  0
LINE
  5
1419E8
  8
SLIM
 10
8018.4866591478003
 20
-1104.999999999997
 30
0.0
 11
8074.234858417316
 21
-1049.2518007304809
 31
0.0
1001
ACAD
1010
0.0
1020
0.0
1030
0.0
1001
ACDBBLOCKREPETAG
1070
     1
1071
       40
1005
1419E8
  0
LINE
  5
1419E9
  8
SLIM
 10
8016.4471713899393
 20
-1124.999999999998
 30
0.0
 11
8036.4471713899393
 21
-1104.999999999997
 31
0.0
1001
ACAD
1010
0.0
1020
0.0
1030
0.0
1001
ACDBBLOCKREPETAG
1070
     1
1071
       41
1005
1419E9
  0
LINE
  5
1419EA
  8
SLIM
 10
8036.4471713899393
 20
-1104.999999999997
 30
0.0
 11
8071.2958655049679
 21
-1070.151305884968
 31
0.0
1001
ACAD
1010
0.0
1020
0.0
1030
0.0
1001
ACDBBLOCKREPETAG
1070
     1
1071
       42
1005
1419EA
  0
LINE
  5
1419EB
  8
SLIM
 10
8034.4076836320774
 20
-1124.999999999998
 30
0.0
 11
8054.4076836320764
 21
-1104.999999999997
 31
0.0
1001
ACAD
1010
0.0
1020
0.0
1030
0.0
1001
ACDBBLOCKREPETAG
1070
     1
1071
       43
1005
1419EB
  0
LINE
  5
1419EC
  8
SLIM
 10
8054.4076836320764
 20
-1104.999999999997
 30
0.0
 11
8068.3568725926198
 21
-1091.0508110394569
 31
0.0
1001
ACAD
1010
0.0
1020
0.0
1030
0.0
1001
ACDBBLOCKREPETAG
1070
     1
1071
       44
1005
1419EC
  0
LINE
  5
1419ED
  8
SLIM
 10
8052.3681958742136
 20
-1124.999999999998
 30
0.0
 11
8057.0
 21
-1120.368195874212
 31
0.0
1001
ACAD
1010
0.0
1020
0.0
1030
0.0
1001
ACDBBLOCKREPETAG
1070
     1
1071
       45
1005
1419ED
  0
LINE
  5
1419EE
  8
OBJECT
 10
7943.0
 20
-1124.999999999998
 30
0.0
 11
8057.0
 21
-1124.999999999998
 31
0.0
1001
ACDBBLOCKREPETAG
1070
     1
1071
        1
1005
1419EE
  0
LINE
  5
1419EF
  8
OBJECT
 10
7933.6047321049664
 20
-1104.999999999997
 30
0.0
 11
8066.3952678950427
 21
-1104.999999999997
 31
0.0
1001
ACDBBLOCKREPETAG
1070
     1
1071
        2
1005
1419EF
  0
LINE
  5
1419F0
  8
OBJECT
 10
7943.0
 20
-1124.999999999998
 30
0.0
 11
7943.0
 21
-1104.999999999997
 31
0.0
1001
ACDBBLOCKREPETAG
1070
     1
1071
        3
1005
1419F0
  0
LINE
  5
1419F1
  8
OBJECT
 10
8057.0
 20
-1124.999999999998
 30
0.0
 11
8057.0
 21
-1104.999999999997
 31
0.0
1001
ACDBBLOCKREPETAG
1070
     1
1071
        4
1005
1419F1
  0
LINE
  5
1419F2
  8
OBJECT
 10
7914.9999999999918
 20
-754.99999999999955
 30
0.0
 11
7915.0
 21
-972.69968280914077
 31
0.0
1001
ACDBBLOCKREPETAG
1070
     1
1071
        5
1005
1419F2
  0
LINE
  5
1419F3
  8
OBJECT
 10
8085.0000000000064
 20
-754.99999999999955
 30
0.0
 11
8085.0
 21
-972.69968280917215
 31
0.0
1001
ACDBBLOCKREPETAG
1070
     1
1071
        6
1005
1419F3
  0
LINE
  5
1419F4
  8
OBJECT
 10
7915.0
 20
-972.69968280914077
 30
0.0
 11
7933.6047321049664
 21
-1104.999999999997
 31
0.0
1001
ACDBBLOCKREPETAG
1070
     1
1071
        7
1005
1419F4
  0
LINE
  5
1419F5
  8
OBJECT
 10
8066.3952678950427
 20
-1104.999999999997
 30
0.0
 11
8085.0
 21
-972.69968280917215
 31
0.0
1001
ACDBBLOCKREPETAG
1070
     1
1071
        8
1005
1419F5
  0
LINE
  5
1419F6
  8
OBJECT
 10
8085.0000000000064
 20
-754.99999999999955
 30
0.0
 11
7914.9999999999918
 21
-754.99999999999955
 31
0.0
1001
ACDBBLOCKREPETAG
1070
     1
1071
        9
1005
1419F6
  0
LINE
  5
1419F7
  8
OBJECT
 10
12085.999999999991
 20
-1223.9999999999991
 30
0.0
 11
12085.999999999991
 21
-1233.9999999999991
 31
0.0
1001
ACDBBLOCKREPETAG
1070
     1
1071
      121
1005
1419F7
  0
LINE
  5
1419F8
  8
OBJECT
 10
12069.999999999991
 20
-1223.9999999999991
 30
0.0
 11
12069.999999999991
 21
-1233.9999999999991
 31
0.0
1001
ACDBBLOCKREPETAG
1070
     1
1071
      122
1005
1419F8
  0
LINE
  5
1419F9
  8
OBJECT
 10
12085.999999999991
 20
-1233.9999999999991
 30
0.0
 11
12069.999999999991
 21
-1233.9999999999991
 31
0.0
1001
ACDBBLOCKREPETAG
1070
     1
1071
      123
1005
1419F9
  0
LINE
  5
1419FA
  8
OBJECT
 10
12090.0
 20
-1184.9999999999959
 30
0.0
 11
11924.0
 21
-1184.9999999999959
 31
0.0
1001
ACDBBLOCKREPETAG
1070
     1
1071
      124
1005
1419FA
  0
LINE
  5
1419FB
  8
OBJECT
 10
12090.0
 20
-1199.9999999999991
 30
0.0
 11
12090.0
 21
-1184.9999999999959
 31
0.0
1001
ACDBBLOCKREPETAG
1070
     1
1071
      125
1005
1419FB
  0
LINE
  5
1419FC
  8
OBJECT
 10
11924.0
 20
-1199.9999999999991
 30
0.0
 11
12090.0
 21
-1199.9999999999991
 31
0.0
1001
ACDBBLOCKREPETAG
1070
     1
1071
      126
1005
1419FC
  0
LINE
  5
1419FD
  8
OBJECT
 10
12067.49999999998
 20
-1199.9999999999991
 30
0.0
 11
12067.49999999998
 21
-1209.9999999999991
 31
0.0
1001
ACDBBLOCKREPETAG
1070
     1
1071
      127
1005
1419FD
  0
LINE
  5
1419FE
  8
OBJECT
 10
12072.999999999991
 20
-1209.9999999999991
 30
0.0
 11
12072.999999999991
 21
-1199.9999999999991
 31
0.0
1001
ACDBBLOCKREPETAG
1070
     1
1071
      128
1005
1419FE
  0
LINE
  5
1419FF
  8
OBJECT
 10
12082.999999999991
 20
-1209.9999999999991
 30
0.0
 11
12082.999999999991
 21
-1199.9999999999991
 31
0.0
1001
ACDBBLOCKREPETAG
1070
     1
1071
      129
1005
1419FF
  0
LINE
  5
141A00
  8
OBJECT
 10
11924.0
 20
-1209.9999999999991
 30
0.0
 11
11924.0
 21
-1223.9999999999959
 31
0.0
1001
ACDBBLOCKREPETAG
1070
     1
1071
      130
1005
141A00
  0
LINE
  5
141A01
  8
OBJECT
 10
12090.0
 20
-1209.9999999999991
 30
0.0
 11
12090.0
 21
-1223.9999999999959
 31
0.0
1001
ACDBBLOCKREPETAG
1070
     1
1071
      131
1005
141A01
  0
LINE
  5
141A02
  8
OBJECT
 10
11924.0
 20
-1223.9999999999959
 30
0.0
 11
12090.0
 21
-1223.9999999999959
 31
0.0
1001
ACDBBLOCKREPETAG
1070
     1
1071
      132
1005
141A02
  0
LINE
  5
141A03
  8
OBJECT
 10
11924.0
 20
-1209.9999999999991
 30
0.0
 11
12090.0
 21
-1209.9999999999991
 31
0.0
1001
ACDBBLOCKREPETAG
1070
     1
1071
      133
1005
141A03
  0
LINE
  5
141A04
  8
OBJECT
 10
11932.49999999998
 20
-1199.9999999999991
 30
0.0
 11
11932.49999999998
 21
-1209.9999999999991
 31
0.0
1001
ACDBBLOCKREPETAG
1070
     1
1071
      134
1005
141A04
  0
LINE
  5
141A05
  8
OBJECT
 10
11934.0
 20
-1148.9999999999959
 30
0.0
 11
12065.999999999991
 21
-1148.9999999999959
 31
0.0
1001
ACDBBLOCKREPETAG
1070
     1
1071
      135
1005
141A05
  0
LINE
  5
141A06
  8
OBJECT
 10
11924.0
 20
-1199.9999999999991
 30
0.0
 11
11924.0
 21
-1184.9999999999959
 31
0.0
1001
ACDBBLOCKREPETAG
1070
     1
1071
      136
1005
141A06
  0
LINE
  5
141A07
  8
HIDDEN
 10
11943.0
 20
-1159.9999999999991
 30
0.0
 11
12057.0
 21
-1159.9999999999991
 31
0.0
1001
ACDBBLOCKREPETAG
1070
     1
1071
      137
1005
141A07
  0
LINE
  5
141A08
  8
OBJECT
 10
12086.999999999991
 20
-1183.2
 30
0.0
 11
12086.999999999991
 21
-1184.9999999999991
 31
0.0
1001
ACDBBLOCKREPETAG
1070
     1
1071
      138
1005
141A08
  0
LINE
  5
141A09
  8
OBJECT
 10
12068.999999999991
 20
-1183.2
 30
0.0
 11
12068.999999999991
 21
-1184.9999999999991
 31
0.0
1001
ACDBBLOCKREPETAG
1070
     1
1071
      139
1005
141A09
  0
LINE
  5
141A0A
  8
OBJECT
 10
12072.249999999991
 20
-1173.4999999999991
 30
0.0
 11
12083.749999999991
 21
-1173.4999999999991
 31
0.0
1001
ACDBBLOCKREPETAG
1070
     1
1071
      140
1005
141A0A
  0
LINE
  5
141A0B
  8
OBJECT
 10
12072.249999999991
 20
-1173.4999999999991
 30
0.0
 11
12072.249999999991
 21
-1183.2
 31
0.0
1001
ACDBBLOCKREPETAG
1070
     1
1071
      141
1005
141A0B
  0
LINE
  5
141A0C
  8
OBJECT
 10
12083.749999999991
 20
-1173.4999999999991
 30
0.0
 11
12083.749999999991
 21
-1183.2
 31
0.0
1001
ACDBBLOCKREPETAG
1070
     1
1071
      142
1005
141A0C
  0
LINE
  5
141A0D
  8
OBJECT
 10
11931.99999999998
 20
-1264.9999999999991
 30
0.0
 11
12067.99999999998
 21
-1264.9999999999991
 31
0.0
1001
ACDBBLOCKREPETAG
1070
     1
1071
      143
1005
141A0D
  0
LINE
  5
141A0E
  8
OBJECT
 10
11931.99999999998
 20
-1264.9999999999991
 30
0.0
 11
11931.99999999998
 21
-1223.9999999999991
 31
0.0
1001
ACDBBLOCKREPETAG
1070
     1
1071
      144
1005
141A0E
  0
LINE
  5
141A0F
  8
OBJECT
 10
12067.99999999998
 20
-1264.9999999999991
 30
0.0
 11
12067.99999999998
 21
-1223.9999999999991
 31
0.0
1001
ACDBBLOCKREPETAG
1070
     1
1071
      145
1005
141A0F
  0
LINE
  5
141A10
  8
OBJECT
 10
12086.999999999991
 20
-1183.2
 30
0.0
 11
12068.999999999991
 21
-1183.2
 31
0.0
1001
ACDBBLOCKREPETAG
1070
     1
1071
      146
1005
141A10
  0
LINE
  5
141A11
  8
CENTER
 10
12000.0
 20
-889.99999999999955
 30
0.0
 11
12000.0
 21
-1279.9999999999991
 31
0.0
1001
ACDBBLOCKREPETAG
1070
     1
1071
      147
1005
141A11
  0
LINE
  5
141A12
  8
OBJECT
 10
11925.0
 20
-889.99999999999955
 30
0.0
 11
11925.0
 21
-971.99999999999591
 31
0.0
1001
ACDBBLOCKREPETAG
1070
     1
1071
      148
1005
141A12
  0
LINE
  5
141A13
  8
OBJECT
 10
12075.0
 20
-889.99999999999955
 30
0.0
 11
12075.0
 21
-971.99999999999204
 31
0.0
1001
ACDBBLOCKREPETAG
1070
     1
1071
      149
1005
141A13
  0
LINE
  5
141A14
  8
OBJECT
 10
11925.0
 20
-971.99999999999591
 30
0.0
 11
12075.0
 21
-971.99999999999204
 31
0.0
1001
ACDBBLOCKREPETAG
1070
     1
1071
      150
1005
141A14
  0
LINE
  5
141A15
  8
OBJECT
 10
11943.0
 20
-1148.9999999999959
 30
0.0
 11
11943.0
 21
-1099.999999999992
 31
0.0
1001
ACDBBLOCKREPETAG
1070
     1
1071
      151
1005
141A15
  0
LINE
  5
141A16
  8
OBJECT
 10
12057.0
 20
-1099.999999999992
 30
0.0
 11
11943.0
 21
-1099.999999999992
 31
0.0
1001
ACDBBLOCKREPETAG
1070
     1
1071
      152
1005
141A16
  0
LINE
  5
141A17
  8
OBJECT
 10
12057.0
 20
-1099.999999999992
 30
0.0
 11
12057.0
 21
-1148.9999999999959
 31
0.0
1001
ACDBBLOCKREPETAG
1070
     1
1071
      153
1005
141A17
  0
LINE
  5
141A18
  8
OBJECT
 10
11925.0
 20
-971.99999999999591
 30
0.0
 11
11943.0
 21
-1099.999999999992
 31
0.0
1001
ACDBBLOCKREPETAG
1070
     1
1071
      154
1005
141A18
  0
LINE
  5
141A19
  8
OBJECT
 10
12057.0
 20
-1099.999999999992
 30
0.0
 11
12075.0
 21
-971.99999999999204
 31
0.0
1001
ACDBBLOCKREPETAG
1070
     1
1071
      155
1005
141A19
  0
LINE
  5
141A1A
  8
OBJECT
 10
11934.0
 20
-1184.9999999999959
 30
0.0
 11
11934.0
 21
-1148.9999999999959
 31
0.0
1001
ACDBBLOCKREPETAG
1070
     1
1071
      156
1005
141A1A
  0
LINE
  5
141A1B
  8
OBJECT
 10
12066.0
 20
-1184.9999999999959
 30
0.0
 11
12065.999999999991
 21
-1148.9999999999959
 31
0.0
1001
ACDBBLOCKREPETAG
1070
     1
1071
      157
1005
141A1B
  0
LINE
  5
141A1C
  8
OBJECT
 10
11954.75
 20
-1174.699999999993
 30
0.0
 11
11967.25
 21
-1174.699999999993
 31
0.0
1001
ACDBBLOCKREPETAG
1070
     1
1071
      158
1005
141A1C
  0
LINE
  5
141A1D
  8
OBJECT
 10
11946.0
 20
-1184.9999999999959
 30
0.0
 11
11946.0
 21
-1182.699999999996
 31
0.0
1001
ACDBBLOCKREPETAG
1070
     1
1071
      159
1005
141A1D
  0
LINE
  5
141A1E
  8
OBJECT
 10
11976.0
 20
-1184.9999999999959
 30
0.0
 11
11976.0
 21
-1182.699999999996
 31
0.0
1001
ACDBBLOCKREPETAG
1070
     1
1071
      160
1005
141A1E
  0
LINE
  5
141A1F
  8
OBJECT
 10
11954.75
 20
-1174.699999999993
 30
0.0
 11
11954.75
 21
-1182.699999999996
 31
0.0
1001
ACDBBLOCKREPETAG
1070
     1
1071
      161
1005
141A1F
  0
LINE
  5
141A20
  8
OBJECT
 10
11967.25
 20
-1174.699999999993
 30
0.0
 11
11967.25
 21
-1182.699999999996
 31
0.0
1001
ACDBBLOCKREPETAG
1070
     1
1071
      162
1005
141A20
  0
LINE
  5
141A21
  8
OBJECT
 10
11946.0
 20
-1182.699999999996
 30
0.0
 11
11976.0
 21
-1182.699999999996
 31
0.0
1001
ACDBBLOCKREPETAG
1070
     1
1071
      163
1005
141A21
  0
LINE
  5
141A22
  8
OBJECT
 10
11953.0
 20
-1223.9999999999959
 30
0.0
 11
11953.0
 21
-1233.9999999999959
 31
0.0
1001
ACDBBLOCKREPETAG
1070
     1
1071
      164
1005
141A22
  0
LINE
  5
141A23
  8
OBJECT
 10
11969.0
 20
-1223.9999999999959
 30
0.0
 11
11969.0
 21
-1233.9999999999959
 31
0.0
1001
ACDBBLOCKREPETAG
1070
     1
1071
      165
1005
141A23
  0
LINE
  5
141A24
  8
OBJECT
 10
11953.0
 20
-1233.9999999999959
 30
0.0
 11
11969.0
 21
-1233.9999999999959
 31
0.0
1001
ACDBBLOCKREPETAG
1070
     1
1071
      166
1005
141A24
  0
LINE
  5
141A25
  8
OBJECT
 10
11966.0
 20
-1209.9999999999959
 30
0.0
 11
11966.0
 21
-1199.9999999999959
 31
0.0
1001
ACDBBLOCKREPETAG
1070
     1
1071
      167
1005
141A25
  0
LINE
  5
141A26
  8
OBJECT
 10
11956.0
 20
-1209.9999999999959
 30
0.0
 11
11956.0
 21
-1199.9999999999959
 31
0.0
1001
ACDBBLOCKREPETAG
1070
     1
1071
      168
1005
141A26
  0
LINE
  5
141A27
  8
OBJECT
 10
10090.0
 20
-1184.9999999999959
 30
0.0
 11
9924.0
 21
-1184.9999999999959
 31
0.0
1001
ACDBBLOCKREPETAG
1070
     1
1071
       12
1005
141A27
  0
LINE
  5
141A28
  8
OBJECT
 10
10066.0
 20
-1148.9999999999959
 30
0.0
 11
9934.0
 21
-1148.9999999999959
 31
0.0
1001
ACDBBLOCKREPETAG
1070
     1
1071
       13
1005
141A28
  0
LINE
  5
141A29
  8
OBJECT
 10
10090.0
 20
-1199.9999999999991
 30
0.0
 11
10090.0
 21
-1184.9999999999959
 31
0.0
1001
ACDBBLOCKREPETAG
1070
     1
1071
       14
1005
141A29
  0
LINE
  5
141A2A
  8
OBJECT
 10
9924.0
 20
-1199.9999999999991
 30
0.0
 11
10090.0
 21
-1199.9999999999991
 31
0.0
1001
ACDBBLOCKREPETAG
1070
     1
1071
       15
1005
141A2A
  0
LINE
  5
141A2B
  8
OBJECT
 10
10067.49999999998
 20
-1199.9999999999991
 30
0.0
 11
10067.49999999998
 21
-1209.9999999999991
 31
0.0
1001
ACDBBLOCKREPETAG
1070
     1
1071
       16
1005
141A2B
  0
LINE
  5
141A2C
  8
OBJECT
 10
9924.0
 20
-1209.9999999999991
 30
0.0
 11
9924.0
 21
-1223.9999999999959
 31
0.0
1001
ACDBBLOCKREPETAG
1070
     1
1071
       17
1005
141A2C
  0
LINE
  5
141A2D
  8
OBJECT
 10
10090.0
 20
-1209.9999999999991
 30
0.0
 11
10090.0
 21
-1223.9999999999959
 31
0.0
1001
ACDBBLOCKREPETAG
1070
     1
1071
       18
1005
141A2D
  0
LINE
  5
141A2E
  8
OBJECT
 10
9924.0
 20
-1223.9999999999959
 30
0.0
 11
10090.0
 21
-1223.9999999999959
 31
0.0
1001
ACDBBLOCKREPETAG
1070
     1
1071
       19
1005
141A2E
  0
LINE
  5
141A2F
  8
OBJECT
 10
9924.0
 20
-1209.9999999999991
 30
0.0
 11
10090.0
 21
-1209.9999999999991
 31
0.0
1001
ACDBBLOCKREPETAG
1070
     1
1071
       20
1005
141A2F
  0
LINE
  5
141A30
  8
OBJECT
 10
9932.4999999999836
 20
-1199.9999999999991
 30
0.0
 11
9932.4999999999836
 21
-1209.9999999999991
 31
0.0
1001
ACDBBLOCKREPETAG
1070
     1
1071
       21
1005
141A30
  0
LINE
  5
141A31
  8
OBJECT
 10
9924.0
 20
-1199.9999999999991
 30
0.0
 11
9924.0
 21
-1184.9999999999959
 31
0.0
1001
ACDBBLOCKREPETAG
1070
     1
1071
       22
1005
141A31
  0
LINE
  5
141A32
  8
HIDDEN
 10
9943.0
 20
-1159.9999999999991
 30
0.0
 11
10057.0
 21
-1159.9999999999991
 31
0.0
1001
ACDBBLOCKREPETAG
1070
     1
1071
       23
1005
141A32
  0
LINE
  5
141A33
  8
CENTER
 10
10000.0
 20
-889.99999999999955
 30
0.0
 11
10000.0
 21
-1238.9999999999959
 31
0.0
1001
ACDBBLOCKREPETAG
1070
     1
1071
       24
1005
141A33
  0
LINE
  5
141A34
  8
OBJECT
 10
9925.0
 20
-889.99999999999955
 30
0.0
 11
9925.0
 21
-971.99999999999591
 31
0.0
1001
ACDBBLOCKREPETAG
1070
     1
1071
       25
1005
141A34
  0
LINE
  5
141A35
  8
OBJECT
 10
10075.0
 20
-889.99999999999955
 30
0.0
 11
10075.0
 21
-971.99999999999204
 31
0.0
1001
ACDBBLOCKREPETAG
1070
     1
1071
       26
1005
141A35
  0
LINE
  5
141A36
  8
OBJECT
 10
9925.0
 20
-971.99999999999591
 30
0.0
 11
10075.0
 21
-971.99999999999204
 31
0.0
1001
ACDBBLOCKREPETAG
1070
     1
1071
       27
1005
141A36
  0
LINE
  5
141A37
  8
OBJECT
 10
10057.0
 20
-1148.9999999999959
 30
0.0
 11
10057.0
 21
-1099.999999999992
 31
0.0
1001
ACDBBLOCKREPETAG
1070
     1
1071
       28
1005
141A37
  0
LINE
  5
141A38
  8
OBJECT
 10
9943.0
 20
-1148.9999999999959
 30
0.0
 11
9943.0
 21
-1099.999999999992
 31
0.0
1001
ACDBBLOCKREPETAG
1070
     1
1071
       29
1005
141A38
  0
LINE
  5
141A39
  8
OBJECT
 10
10057.0
 20
-1099.999999999992
 30
0.0
 11
9943.0
 21
-1099.999999999992
 31
0.0
1001
ACDBBLOCKREPETAG
1070
     1
1071
       30
1005
141A39
  0
LINE
  5
141A3A
  8
OBJECT
 10
9925.0
 20
-971.99999999999591
 30
0.0
 11
9943.0
 21
-1099.999999999992
 31
0.0
1001
ACDBBLOCKREPETAG
1070
     1
1071
       31
1005
141A3A
  0
LINE
  5
141A3B
  8
OBJECT
 10
10057.0
 20
-1099.999999999992
 30
0.0
 11
10075.0
 21
-971.99999999999204
 31
0.0
1001
ACDBBLOCKREPETAG
1070
     1
1071
       32
1005
141A3B
  0
LINE
  5
141A3C
  8
OBJECT
 10
9934.0
 20
-1148.9999999999959
 30
0.0
 11
9934.0
 21
-1184.9999999999959
 31
0.0
1001
ACDBBLOCKREPETAG
1070
     1
1071
       33
1005
141A3C
  0
LINE
  5
141A3D
  8
OBJECT
 10
10066.0
 20
-1148.9999999999959
 30
0.0
 11
10066.0
 21
-1184.9999999999959
 31
0.0
1001
ACDBBLOCKREPETAG
1070
     1
1071
       34
1005
141A3D
  0
LINE
  5
141A3E
  8
OBJECT
 10
10082.999999999991
 20
-1209.9999999999959
 30
0.0
 11
10082.999999999991
 21
-1199.9999999999959
 31
0.0
1001
ACDBBLOCKREPETAG
1070
     1
1071
       35
1005
141A3E
  0
LINE
  5
141A3F
  8
OBJECT
 10
10072.999999999991
 20
-1209.9999999999959
 30
0.0
 11
10072.999999999991
 21
-1199.9999999999959
 31
0.0
1001
ACDBBLOCKREPETAG
1070
     1
1071
       36
1005
141A3F
  0
LINE
  5
141A40
  8
OBJECT
 10
10068.99999999998
 20
-1179.9999999999959
 30
0.0
 11
10068.99999999998
 21
-1184.9999999999959
 31
0.0
1001
ACDBBLOCKREPETAG
1070
     1
1071
       37
1005
141A40
  0
LINE
  5
141A41
  8
OBJECT
 10
10087.0
 20
-1179.9999999999959
 30
0.0
 11
10087.0
 21
-1184.9999999999959
 31
0.0
1001
ACDBBLOCKREPETAG
1070
     1
1071
       38
1005
141A41
  0
LINE
  5
141A42
  8
OBJECT
 10
10087.0
 20
-1179.9999999999959
 30
0.0
 11
10068.99999999998
 21
-1179.9999999999959
 31
0.0
1001
ACDBBLOCKREPETAG
1070
     1
1071
       39
1005
141A42
  0
LINE
  5
141A43
  8
OBJECT
 10
10073.0
 20
-1231.9999999999959
 30
0.0
 11
10073.0
 21
-1234.9999999999959
 31
0.0
1001
ACDBBLOCKREPETAG
1070
     1
1071
       40
1005
141A43
  0
LINE
  5
141A44
  8
OBJECT
 10
10073.0
 20
-1234.9999999999959
 30
0.0
 11
10083.0
 21
-1234.9999999999959
 31
0.0
1001
ACDBBLOCKREPETAG
1070
     1
1071
       41
1005
141A44
  0
LINE
  5
141A45
  8
OBJECT
 10
10068.18504542377
 20
-1231.9999999999959
 30
0.0
 11
10087.814954576221
 21
-1231.9999999999959
 31
0.0
1001
ACDBBLOCKREPETAG
1070
     1
1071
       42
1005
141A45
  0
LINE
  5
141A46
  8
OBJECT
 10
10083.0
 20
-1234.9999999999959
 30
0.0
 11
10083.0
 21
-1231.9999999999959
 31
0.0
1001
ACDBBLOCKREPETAG
1070
     1
1071
       43
1005
141A46
  0
LINE
  5
141A47
  8
OBJECT
 10
10068.18503599129
 20
-1223.9999868402549
 30
0.0
 11
10068.18503599129
 21
-1231.9999868402549
 31
0.0
1001
ACDBBLOCKREPETAG
1070
     1
1071
       44
1005
141A47
  0
LINE
  5
141A48
  8
OBJECT
 10
10073.0925013592
 20
-1223.9999868402549
 30
0.0
 11
10073.0925013592
 21
-1231.9999868402549
 31
0.0
1001
ACDBBLOCKREPETAG
1070
     1
1071
       45
1005
141A48
  0
LINE
  5
141A49
  8
OBJECT
 10
10082.90743209502
 20
-1223.9999868402549
 30
0.0
 11
10082.90743209502
 21
-1231.9999868402549
 31
0.0
1001
ACDBBLOCKREPETAG
1070
     1
1071
       46
1005
141A49
  0
LINE
  5
141A4A
  8
OBJECT
 10
10087.81499155279
 20
-1223.9999868402549
 30
0.0
 11
10087.81499155279
 21
-1231.9999868402549
 31
0.0
1001
ACDBBLOCKREPETAG
1070
     1
1071
       47
1005
141A4A
  0
LINE
  5
141A4B
  8
OBJECT
 10
9968.5
 20
-1179.9999999999959
 30
0.0
 11
9951.9999999999909
 21
-1179.9999999999959
 31
0.0
1001
ACDBBLOCKREPETAG
1070
     1
1071
       48
1005
141A4B
  0
LINE
  5
141A4C
  8
OBJECT
 10
9976.0
 20
-1184.9999999999959
 30
0.0
 11
9976.0
 21
-1182.9999999999959
 31
0.0
1001
ACDBBLOCKREPETAG
1070
     1
1071
       49
1005
141A4C
  0
LINE
  5
141A4D
  8
OBJECT
 10
9966.0
 20
-1209.9999999999959
 30
0.0
 11
9966.0
 21
-1199.9999999999959
 31
0.0
1001
ACDBBLOCKREPETAG
1070
     1
1071
       50
1005
141A4D
  0
LINE
  5
141A4E
  8
OBJECT
 10
9956.0
 20
-1209.9999999999959
 30
0.0
 11
9956.0
 21
-1199.9999999999959
 31
0.0
1001
ACDBBLOCKREPETAG
1070
     1
1071
       51
1005
141A4E
  0
LINE
  5
141A4F
  8
OBJECT
 10
9951.9999999999909
 20
-1179.9999999999959
 30
0.0
 11
9951.9999999999909
 21
-1184.9999999999959
 31
0.0
1001
ACDBBLOCKREPETAG
1070
     1
1071
       52
1005
141A4F
  0
LINE
  5
141A50
  8
OBJECT
 10
9956.0
 20
-1231.9999999999959
 30
0.0
 11
9956.0
 21
-1234.9999999999959
 31
0.0
1001
ACDBBLOCKREPETAG
1070
     1
1071
       53
1005
141A50
  0
LINE
  5
141A51
  8
OBJECT
 10
9956.0
 20
-1234.9999999999959
 30
0.0
 11
9966.0
 21
-1234.9999999999959
 31
0.0
1001
ACDBBLOCKREPETAG
1070
     1
1071
       54
1005
141A51
  0
LINE
  5
141A52
  8
OBJECT
 10
9951.185045423772
 20
-1231.9999999999959
 30
0.0
 11
9970.814954576219
 21
-1231.9999999999959
 31
0.0
1001
ACDBBLOCKREPETAG
1070
     1
1071
       55
1005
141A52
  0
LINE
  5
141A53
  8
OBJECT
 10
9966.0
 20
-1234.9999999999959
 30
0.0
 11
9966.0
 21
-1231.9999999999959
 31
0.0
1001
ACDBBLOCKREPETAG
1070
     1
1071
       56
1005
141A53
  0
LINE
  5
141A54
  8
OBJECT
 10
9976.0
 20
-1182.9999999999959
 30
0.0
 11
9968.5
 21
-1179.9999999999959
 31
0.0
1001
ACDBBLOCKREPETAG
1070
     1
1071
       57
1005
141A54
  0
LINE
  5
141A55
  8
OBJECT
 10
9951.1850359912914
 20
-1223.9999868402549
 30
0.0
 11
9951.1850359912914
 21
-1231.9999868402549
 31
0.0
1001
ACDBBLOCKREPETAG
1070
     1
1071
       58
1005
141A55
  0
LINE
  5
141A56
  8
OBJECT
 10
9956.0925013591986
 20
-1223.9999868402549
 30
0.0
 11
9956.0925013591986
 21
-1231.9999868402549
 31
0.0
1001
ACDBBLOCKREPETAG
1070
     1
1071
       59
1005
141A56
  0
LINE
  5
141A57
  8
OBJECT
 10
9965.907432095024
 20
-1223.9999868402549
 30
0.0
 11
9965.907432095024
 21
-1231.9999868402549
 31
0.0
1001
ACDBBLOCKREPETAG
1070
     1
1071
       60
1005
141A57
  0
LINE
  5
141A58
  8
OBJECT
 10
9970.8149915528011
 20
-1223.9999868402549
 30
0.0
 11
9970.8149915528011
 21
-1231.9999868402549
 31
0.0
1001
ACDBBLOCKREPETAG
1070
     1
1071
       61
1005
141A58
  0
LINE
  5
141A59
  8
OBJECT
 10
7943.0
 20
-1199.9999999999959
 30
0.0
 11
8057.0
 21
-1199.9999999999959
 31
0.0
1001
ACDBBLOCKREPETAG
1070
     1
1071
        0
1005
141A59
  0
LINE
  5
141A5A
  8
OBJECT
 10
7943.0
 20
-1199.9999999999959
 30
0.0
 11
7943.0
 21
-1099.9999999999959
 31
0.0
1001
ACDBBLOCKREPETAG
1070
     1
1071
        1
1005
141A5A
  0
LINE
  5
141A5B
  8
OBJECT
 10
8057.0
 20
-1199.9999999999959
 30
0.0
 11
8057.0
 21
-1099.9999999999959
 31
0.0
1001
ACDBBLOCKREPETAG
1070
     1
1071
        2
1005
141A5B
  0
LINE
  5
141A5C
  8
OBJECT
 10
7943.0
 20
-1099.9999999999959
 30
0.0
 11
8057.0
 21
-1099.9999999999959
 31
0.0
1001
ACDBBLOCKREPETAG
1070
     1
1071
        3
1005
141A5C
  0
LINE
  5
141A5D
  8
HIDDEN
 10
7950.0
 20
-1099.9999999999959
 30
0.0
 11
7950.0
 21
-1199.9999999999959
 31
0.0
1001
ACDBBLOCKREPETAG
1070
     1
1071
        4
1005
141A5D
  0
LINE
  5
141A5E
  8
HIDDEN
 10
8050.0
 20
-1099.9999999999959
 30
0.0
 11
8050.0
 21
-1199.9999999999959
 31
0.0
1001
ACDBBLOCKREPETAG
1070
     1
1071
        5
1005
141A5E
  0
LINE
  5
141A5F
  8
CENTER
 10
8000.0
 20
-889.99999999999955
 30
0.0
 11
8000.0
 21
-1214.9999999999959
 31
0.0
1001
ACDBBLOCKREPETAG
1070
     1
1071
        6
1005
141A5F
  0
LINE
  5
141A60
  8
OBJECT
 10
7925.0
 20
-889.99999999999955
 30
0.0
 11
7925.0
 21
-971.99999999999591
 31
0.0
1001
ACDBBLOCKREPETAG
1070
     1
1071
        7
1005
141A60
  0
LINE
  5
141A61
  8
OBJECT
 10
8075.0
 20
-889.99999999999955
 30
0.0
 11
8075.0
 21
-971.99999999999591
 31
0.0
1001
ACDBBLOCKREPETAG
1070
     1
1071
        8
1005
141A61
  0
LINE
  5
141A62
  8
OBJECT
 10
7925.0
 20
-971.99999999999591
 30
0.0
 11
8075.0
 21
-971.99999999999591
 31
0.0
1001
ACDBBLOCKREPETAG
1070
     1
1071
        9
1005
141A62
  0
LINE
  5
141A63
  8
OBJECT
 10
7925.0
 20
-971.99999999999591
 30
0.0
 11
7943.0
 21
-1099.9999999999959
 31
0.0
1001
ACDBBLOCKREPETAG
1070
     1
1071
       10
1005
141A63
  0
LINE
  5
141A64
  8
OBJECT
 10
8057.0
 20
-1099.9999999999959
 30
0.0
 11
8075.0
 21
-971.99999999999591
 31
0.0
1001
ACDBBLOCKREPETAG
1070
     1
1071
       11
1005
141A64
  0
LINE
  5
141A65
  8
OBJECT
 10
6085.9999999999927
 20
-1223.9999999999991
 30
0.0
 11
6085.9999999999927
 21
-1233.9999999999991
 31
0.0
1001
ACDBBLOCKREPETAG
1070
     1
1071
      121
1005
141A65
  0
LINE
  5
141A66
  8
OBJECT
 10
6069.9999999999927
 20
-1223.9999999999991
 30
0.0
 11
6069.9999999999927
 21
-1233.9999999999991
 31
0.0
1001
ACDBBLOCKREPETAG
1070
     1
1071
      122
1005
141A66
  0
LINE
  5
141A67
  8
OBJECT
 10
6085.9999999999927
 20
-1233.9999999999991
 30
0.0
 11
6069.9999999999927
 21
-1233.9999999999991
 31
0.0
1001
ACDBBLOCKREPETAG
1070
     1
1071
      123
1005
141A67
  0
LINE
  5
141A68
  8
OBJECT
 10
6090.0
 20
-1184.9999999999959
 30
0.0
 11
5924.0
 21
-1184.9999999999959
 31
0.0
1001
ACDBBLOCKREPETAG
1070
     1
1071
      124
1005
141A68
  0
LINE
  5
141A69
  8
OBJECT
 10
6090.0
 20
-1199.9999999999991
 30
0.0
 11
6090.0
 21
-1184.9999999999959
 31
0.0
1001
ACDBBLOCKREPETAG
1070
     1
1071
      125
1005
141A69
  0
LINE
  5
141A6A
  8
OBJECT
 10
5924.0
 20
-1199.9999999999991
 30
0.0
 11
6090.0
 21
-1199.9999999999991
 31
0.0
1001
ACDBBLOCKREPETAG
1070
     1
1071
      126
1005
141A6A
  0
LINE
  5
141A6B
  8
OBJECT
 10
6067.4999999999864
 20
-1199.9999999999991
 30
0.0
 11
6067.4999999999864
 21
-1209.9999999999991
 31
0.0
1001
ACDBBLOCKREPETAG
1070
     1
1071
      127
1005
141A6B
  0
LINE
  5
141A6C
  8
OBJECT
 10
6072.9999999999927
 20
-1209.9999999999991
 30
0.0
 11
6072.9999999999927
 21
-1199.9999999999991
 31
0.0
1001
ACDBBLOCKREPETAG
1070
     1
1071
      128
1005
141A6C
  0
LINE
  5
141A6D
  8
OBJECT
 10
6082.9999999999927
 20
-1209.9999999999991
 30
0.0
 11
6082.9999999999927
 21
-1199.9999999999991
 31
0.0
1001
ACDBBLOCKREPETAG
1070
     1
1071
      129
1005
141A6D
  0
LINE
  5
141A6E
  8
OBJECT
 10
5924.0
 20
-1209.9999999999991
 30
0.0
 11
5924.0
 21
-1223.9999999999959
 31
0.0
1001
ACDBBLOCKREPETAG
1070
     1
1071
      130
1005
141A6E
  0
LINE
  5
141A6F
  8
OBJECT
 10
6090.0
 20
-1209.9999999999991
 30
0.0
 11
6090.0
 21
-1223.9999999999959
 31
0.0
1001
ACDBBLOCKREPETAG
1070
     1
1071
      131
1005
141A6F
  0
LINE
  5
141A70
  8
OBJECT
 10
5924.0
 20
-1223.9999999999959
 30
0.0
 11
6090.0
 21
-1223.9999999999959
 31
0.0
1001
ACDBBLOCKREPETAG
1070
     1
1071
      132
1005
141A70
  0
LINE
  5
141A71
  8
OBJECT
 10
5924.0
 20
-1209.9999999999991
 30
0.0
 11
6090.0
 21
-1209.9999999999991
 31
0.0
1001
ACDBBLOCKREPETAG
1070
     1
1071
      133
1005
141A71
  0
LINE
  5
141A72
  8
OBJECT
 10
5932.4999999999864
 20
-1199.9999999999991
 30
0.0
 11
5932.4999999999864
 21
-1209.9999999999991
 31
0.0
1001
ACDBBLOCKREPETAG
1070
     1
1071
      134
1005
141A72
  0
LINE
  5
141A73
  8
OBJECT
 10
5934.0
 20
-1148.9999999999959
 30
0.0
 11
6065.9999999999909
 21
-1148.9999999999959
 31
0.0
1001
ACDBBLOCKREPETAG
1070
     1
1071
      135
1005
141A73
  0
LINE
  5
141A74
  8
OBJECT
 10
5924.0
 20
-1199.9999999999991
 30
0.0
 11
5924.0
 21
-1184.9999999999959
 31
0.0
1001
ACDBBLOCKREPETAG
1070
     1
1071
      136
1005
141A74
  0
LINE
  5
141A75
  8
HIDDEN
 10
5943.0
 20
-1159.9999999999991
 30
0.0
 11
6057.0
 21
-1159.9999999999991
 31
0.0
1001
ACDBBLOCKREPETAG
1070
     1
1071
      137
1005
141A75
  0
LINE
  5
141A76
  8
OBJECT
 10
6086.9999999999918
 20
-1183.2
 30
0.0
 11
6086.9999999999918
 21
-1184.9999999999991
 31
0.0
1001
ACDBBLOCKREPETAG
1070
     1
1071
      138
1005
141A76
  0
LINE
  5
141A77
  8
OBJECT
 10
6068.9999999999909
 20
-1183.2
 30
0.0
 11
6068.9999999999909
 21
-1184.9999999999991
 31
0.0
1001
ACDBBLOCKREPETAG
1070
     1
1071
      139
1005
141A77
  0
LINE
  5
141A78
  8
OBJECT
 10
6072.2499999999927
 20
-1173.4999999999991
 30
0.0
 11
6083.7499999999927
 21
-1173.4999999999991
 31
0.0
1001
ACDBBLOCKREPETAG
1070
     1
1071
      140
1005
141A78
  0
LINE
  5
141A79
  8
OBJECT
 10
6072.2499999999927
 20
-1173.4999999999991
 30
0.0
 11
6072.2499999999927
 21
-1183.2
 31
0.0
1001
ACDBBLOCKREPETAG
1070
     1
1071
      141
1005
141A79
  0
LINE
  5
141A7A
  8
OBJECT
 10
6083.7499999999927
 20
-1173.4999999999991
 30
0.0
 11
6083.7499999999927
 21
-1183.2
 31
0.0
1001
ACDBBLOCKREPETAG
1070
     1
1071
      142
1005
141A7A
  0
LINE
  5
141A7B
  8
OBJECT
 10
5931.9999999999873
 20
-1264.9999999999991
 30
0.0
 11
6067.9999999999873
 21
-1264.9999999999991
 31
0.0
1001
ACDBBLOCKREPETAG
1070
     1
1071
      143
1005
141A7B
  0
LINE
  5
141A7C
  8
OBJECT
 10
5931.9999999999873
 20
-1264.9999999999991
 30
0.0
 11
5931.9999999999873
 21
-1223.9999999999991
 31
0.0
1001
ACDBBLOCKREPETAG
1070
     1
1071
      144
1005
141A7C
  0
LINE
  5
141A7D
  8
OBJECT
 10
6067.9999999999873
 20
-1264.9999999999991
 30
0.0
 11
6067.9999999999873
 21
-1223.9999999999991
 31
0.0
1001
ACDBBLOCKREPETAG
1070
     1
1071
      145
1005
141A7D
  0
LINE
  5
141A7E
  8
OBJECT
 10
6086.9999999999918
 20
-1183.2
 30
0.0
 11
6068.9999999999909
 21
-1183.2
 31
0.0
1001
ACDBBLOCKREPETAG
1070
     1
1071
      146
1005
141A7E
  0
LINE
  5
141A7F
  8
CENTER
 10
6000.0
 20
-889.99999999999955
 30
0.0
 11
6000.0
 21
-1279.9999999999991
 31
0.0
1001
ACDBBLOCKREPETAG
1070
     1
1071
      147
1005
141A7F
  0
LINE
  5
141A80
  8
OBJECT
 10
5925.0
 20
-889.99999999999955
 30
0.0
 11
5925.0
 21
-971.99999999999591
 31
0.0
1001
ACDBBLOCKREPETAG
1070
     1
1071
      148
1005
141A80
  0
LINE
  5
141A81
  8
OBJECT
 10
6075.0
 20
-889.99999999999955
 30
0.0
 11
6075.0
 21
-971.99999999999204
 31
0.0
1001
ACDBBLOCKREPETAG
1070
     1
1071
      149
1005
141A81
  0
LINE
  5
141A82
  8
OBJECT
 10
5925.0
 20
-971.99999999999591
 30
0.0
 11
6075.0
 21
-971.99999999999204
 31
0.0
1001
ACDBBLOCKREPETAG
1070
     1
1071
      150
1005
141A82
  0
LINE
  5
141A83
  8
OBJECT
 10
5943.0
 20
-1148.9999999999959
 30
0.0
 11
5943.0
 21
-1099.999999999992
 31
0.0
1001
ACDBBLOCKREPETAG
1070
     1
1071
      151
1005
141A83
  0
LINE
  5
141A84
  8
OBJECT
 10
6057.0
 20
-1099.999999999992
 30
0.0
 11
5943.0
 21
-1099.999999999992
 31
0.0
1001
ACDBBLOCKREPETAG
1070
     1
1071
      152
1005
141A84
  0
LINE
  5
141A85
  8
OBJECT
 10
6057.0
 20
-1099.999999999992
 30
0.0
 11
6057.0
 21
-1148.9999999999959
 31
0.0
1001
ACDBBLOCKREPETAG
1070
     1
1071
      153
1005
141A85
  0
LINE
  5
141A86
  8
OBJECT
 10
5925.0
 20
-971.99999999999591
 30
0.0
 11
5943.0
 21
-1099.999999999992
 31
0.0
1001
ACDBBLOCKREPETAG
1070
     1
1071
      154
1005
141A86
  0
LINE
  5
141A87
  8
OBJECT
 10
6057.0
 20
-1099.999999999992
 30
0.0
 11
6075.0
 21
-971.99999999999204
 31
0.0
1001
ACDBBLOCKREPETAG
1070
     1
1071
      155
1005
141A87
  0
LINE
  5
141A88
  8
OBJECT
 10
5934.0
 20
-1184.9999999999959
 30
0.0
 11
5934.0
 21
-1148.9999999999959
 31
0.0
1001
ACDBBLOCKREPETAG
1070
     1
1071
      156
1005
141A88
  0
LINE
  5
141A89
  8
OBJECT
 10
6066.0
 20
-1184.9999999999959
 30
0.0
 11
6065.9999999999909
 21
-1148.9999999999959
 31
0.0
1001
ACDBBLOCKREPETAG
1070
     1
1071
      157
1005
141A89
  0
LINE
  5
141A8A
  8
OBJECT
 10
5954.75
 20
-1174.699999999993
 30
0.0
 11
5967.2499999999991
 21
-1174.699999999993
 31
0.0
1001
ACDBBLOCKREPETAG
1070
     1
1071
      158
1005
141A8A
  0
LINE
  5
141A8B
  8
OBJECT
 10
5946.0
 20
-1184.9999999999959
 30
0.0
 11
5946.0
 21
-1182.699999999996
 31
0.0
1001
ACDBBLOCKREPETAG
1070
     1
1071
      159
1005
141A8B
  0
LINE
  5
141A8C
  8
OBJECT
 10
5976.0
 20
-1184.9999999999959
 30
0.0
 11
5976.0
 21
-1182.699999999996
 31
0.0
1001
ACDBBLOCKREPETAG
1070
     1
1071
      160
1005
141A8C
  0
LINE
  5
141A8D
  8
OBJECT
 10
5954.75
 20
-1174.699999999993
 30
0.0
 11
5954.75
 21
-1182.699999999996
 31
0.0
1001
ACDBBLOCKREPETAG
1070
     1
1071
      161
1005
141A8D
  0
LINE
  5
141A8E
  8
OBJECT
 10
5967.2499999999991
 20
-1174.699999999993
 30
0.0
 11
5967.2499999999991
 21
-1182.699999999996
 31
0.0
1001
ACDBBLOCKREPETAG
1070
     1
1071
      162
1005
141A8E
  0
LINE
  5
141A8F
  8
OBJECT
 10
5946.0
 20
-1182.699999999996
 30
0.0
 11
5976.0
 21
-1182.699999999996
 31
0.0
1001
ACDBBLOCKREPETAG
1070
     1
1071
      163
1005
141A8F
  0
LINE
  5
141A90
  8
OBJECT
 10
5953.0
 20
-1223.9999999999959
 30
0.0
 11
5953.0
 21
-1233.9999999999959
 31
0.0
1001
ACDBBLOCKREPETAG
1070
     1
1071
      164
1005
141A90
  0
LINE
  5
141A91
  8
OBJECT
 10
5969.0
 20
-1223.9999999999959
 30
0.0
 11
5969.0
 21
-1233.9999999999959
 31
0.0
1001
ACDBBLOCKREPETAG
1070
     1
1071
      165
1005
141A91
  0
LINE
  5
141A92
  8
OBJECT
 10
5953.0
 20
-1233.9999999999959
 30
0.0
 11
5969.0
 21
-1233.9999999999959
 31
0.0
1001
ACDBBLOCKREPETAG
1070
     1
1071
      166
1005
141A92
  0
LINE
  5
141A93
  8
OBJECT
 10
5966.0
 20
-1209.9999999999959
 30
0.0
 11
5966.0
 21
-1199.9999999999959
 31
0.0
1001
ACDBBLOCKREPETAG
1070
     1
1071
      167
1005
141A93
  0
LINE
  5
141A94
  8
OBJECT
 10
5956.0
 20
-1209.9999999999959
 30
0.0
 11
5956.0
 21
-1199.9999999999959
 31
0.0
1001
ACDBBLOCKREPETAG
1070
     1
1071
      168
1005
141A94
  0
LINE
  5
141A95
  8
OBJECT
 10
4090.0
 20
-1184.9999999999959
 30
0.0
 11
3924.0
 21
-1184.9999999999959
 31
0.0
1001
ACDBBLOCKREPETAG
1070
     1
1071
       12
1005
141A95
  0
LINE
  5
141A96
  8
OBJECT
 10
4066.0
 20
-1148.9999999999959
 30
0.0
 11
3934.0
 21
-1148.9999999999959
 31
0.0
1001
ACDBBLOCKREPETAG
1070
     1
1071
       13
1005
141A96
  0
LINE
  5
141A97
  8
OBJECT
 10
4090.0
 20
-1199.9999999999991
 30
0.0
 11
4090.0
 21
-1184.9999999999959
 31
0.0
1001
ACDBBLOCKREPETAG
1070
     1
1071
       14
1005
141A97
  0
LINE
  5
141A98
  8
OBJECT
 10
3924.0
 20
-1199.9999999999991
 30
0.0
 11
4090.0
 21
-1199.9999999999991
 31
0.0
1001
ACDBBLOCKREPETAG
1070
     1
1071
       15
1005
141A98
  0
LINE
  5
141A99
  8
OBJECT
 10
4067.4999999999841
 20
-1199.9999999999991
 30
0.0
 11
4067.4999999999841
 21
-1209.9999999999991
 31
0.0
1001
ACDBBLOCKREPETAG
1070
     1
1071
       16
1005
141A99
  0
LINE
  5
141A9A
  8
OBJECT
 10
3924.0
 20
-1209.9999999999991
 30
0.0
 11
3924.0
 21
-1223.9999999999959
 31
0.0
1001
ACDBBLOCKREPETAG
1070
     1
1071
       17
1005
141A9A
  0
LINE
  5
141A9B
  8
OBJECT
 10
4090.0
 20
-1209.9999999999991
 30
0.0
 11
4090.0
 21
-1223.9999999999959
 31
0.0
1001
ACDBBLOCKREPETAG
1070
     1
1071
       18
1005
141A9B
  0
LINE
  5
141A9C
  8
OBJECT
 10
3924.0
 20
-1223.9999999999959
 30
0.0
 11
4090.0
 21
-1223.9999999999959
 31
0.0
1001
ACDBBLOCKREPETAG
1070
     1
1071
       19
1005
141A9C
  0
LINE
  5
141A9D
  8
OBJECT
 10
3924.0
 20
-1209.9999999999991
 30
0.0
 11
4090.0
 21
-1209.9999999999991
 31
0.0
1001
ACDBBLOCKREPETAG
1070
     1
1071
       20
1005
141A9D
  0
LINE
  5
141A9E
  8
OBJECT
 10
3932.499999999985
 20
-1199.9999999999991
 30
0.0
 11
3932.499999999985
 21
-1209.9999999999991
 31
0.0
1001
ACDBBLOCKREPETAG
1070
     1
1071
       21
1005
141A9E
  0
LINE
  5
141A9F
  8
OBJECT
 10
3924.0
 20
-1199.9999999999991
 30
0.0
 11
3924.0
 21
-1184.9999999999959
 31
0.0
1001
ACDBBLOCKREPETAG
1070
     1
1071
       22
1005
141A9F
  0
LINE
  5
141AA0
  8
HIDDEN
 10
3943.0
 20
-1159.9999999999991
 30
0.0
 11
4057.0
 21
-1159.9999999999991
 31
0.0
1001
ACDBBLOCKREPETAG
1070
     1
1071
       23
1005
141AA0
  0
LINE
  5
141AA1
  8
CENTER
 10
4000.0
 20
-889.99999999999955
 30
0.0
 11
4000.0
 21
-1238.9999999999959
 31
0.0
1001
ACDBBLOCKREPETAG
1070
     1
1071
       24
1005
141AA1
  0
LINE
  5
141AA2
  8
OBJECT
 10
3925.0
 20
-889.99999999999955
 30
0.0
 11
3925.0
 21
-971.99999999999591
 31
0.0
1001
ACDBBLOCKREPETAG
1070
     1
1071
       25
1005
141AA2
  0
LINE
  5
141AA3
  8
OBJECT
 10
4075.0
 20
-889.99999999999955
 30
0.0
 11
4075.0
 21
-971.99999999999204
 31
0.0
1001
ACDBBLOCKREPETAG
1070
     1
1071
       26
1005
141AA3
  0
LINE
  5
141AA4
  8
OBJECT
 10
3925.0
 20
-971.99999999999591
 30
0.0
 11
4075.0
 21
-971.99999999999204
 31
0.0
1001
ACDBBLOCKREPETAG
1070
     1
1071
       27
1005
141AA4
  0
LINE
  5
141AA5
  8
OBJECT
 10
4057.0
 20
-1148.9999999999959
 30
0.0
 11
4057.0
 21
-1099.999999999992
 31
0.0
1001
ACDBBLOCKREPETAG
1070
     1
1071
       28
1005
141AA5
  0
LINE
  5
141AA6
  8
OBJECT
 10
3943.0
 20
-1148.9999999999959
 30
0.0
 11
3943.0
 21
-1099.999999999992
 31
0.0
1001
ACDBBLOCKREPETAG
1070
     1
1071
       29
1005
141AA6
  0
LINE
  5
141AA7
  8
OBJECT
 10
4057.0
 20
-1099.999999999992
 30
0.0
 11
3943.0
 21
-1099.999999999992
 31
0.0
1001
ACDBBLOCKREPETAG
1070
     1
1071
       30
1005
141AA7
  0
LINE
  5
141AA8
  8
OBJECT
 10
3925.0
 20
-971.99999999999591
 30
0.0
 11
3943.0
 21
-1099.999999999992
 31
0.0
1001
ACDBBLOCKREPETAG
1070
     1
1071
       31
1005
141AA8
  0
LINE
  5
141AA9
  8
OBJECT
 10
4057.0
 20
-1099.999999999992
 30
0.0
 11
4075.0
 21
-971.99999999999204
 31
0.0
1001
ACDBBLOCKREPETAG
1070
     1
1071
       32
1005
141AA9
  0
LINE
  5
141AAA
  8
OBJECT
 10
3934.0
 20
-1148.9999999999959
 30
0.0
 11
3934.0
 21
-1184.9999999999959
 31
0.0
1001
ACDBBLOCKREPETAG
1070
     1
1071
       33
1005
141AAA
  0
LINE
  5
141AAB
  8
OBJECT
 10
4066.0
 20
-1148.9999999999959
 30
0.0
 11
4066.0
 21
-1184.9999999999959
 31
0.0
1001
ACDBBLOCKREPETAG
1070
     1
1071
       34
1005
141AAB
  0
LINE
  5
141AAC
  8
OBJECT
 10
4082.9999999999932
 20
-1209.9999999999959
 30
0.0
 11
4082.9999999999932
 21
-1199.9999999999959
 31
0.0
1001
ACDBBLOCKREPETAG
1070
     1
1071
       35
1005
141AAC
  0
LINE
  5
141AAD
  8
OBJECT
 10
4072.9999999999918
 20
-1209.9999999999959
 30
0.0
 11
4072.9999999999918
 21
-1199.9999999999959
 31
0.0
1001
ACDBBLOCKREPETAG
1070
     1
1071
       36
1005
141AAD
  0
LINE
  5
141AAE
  8
OBJECT
 10
4068.9999999999841
 20
-1179.9999999999959
 30
0.0
 11
4068.9999999999841
 21
-1184.9999999999959
 31
0.0
1001
ACDBBLOCKREPETAG
1070
     1
1071
       37
1005
141AAE
  0
LINE
  5
141AAF
  8
OBJECT
 10
4087.0
 20
-1179.9999999999959
 30
0.0
 11
4087.0
 21
-1184.9999999999959
 31
0.0
1001
ACDBBLOCKREPETAG
1070
     1
1071
       38
1005
141AAF
  0
LINE
  5
141AB0
  8
OBJECT
 10
4087.0
 20
-1179.9999999999959
 30
0.0
 11
4068.9999999999841
 21
-1179.9999999999959
 31
0.0
1001
ACDBBLOCKREPETAG
1070
     1
1071
       39
1005
141AB0
  0
LINE
  5
141AB1
  8
OBJECT
 10
4073.0
 20
-1231.9999999999959
 30
0.0
 11
4073.0
 21
-1234.9999999999959
 31
0.0
1001
ACDBBLOCKREPETAG
1070
     1
1071
       40
1005
141AB1
  0
LINE
  5
141AB2
  8
OBJECT
 10
4073.0
 20
-1234.9999999999959
 30
0.0
 11
4083.0
 21
-1234.9999999999959
 31
0.0
1001
ACDBBLOCKREPETAG
1070
     1
1071
       41
1005
141AB2
  0
LINE
  5
141AB3
  8
OBJECT
 10
4068.185045423772
 20
-1231.9999999999959
 30
0.0
 11
4087.8149545762199
 21
-1231.9999999999959
 31
0.0
1001
ACDBBLOCKREPETAG
1070
     1
1071
       42
1005
141AB3
  0
LINE
  5
141AB4
  8
OBJECT
 10
4083.0
 20
-1234.9999999999959
 30
0.0
 11
4083.0
 21
-1231.9999999999959
 31
0.0
1001
ACDBBLOCKREPETAG
1070
     1
1071
       43
1005
141AB4
  0
LINE
  5
141AB5
  8
OBJECT
 10
4068.1850359912942
 20
-1223.9999868402549
 30
0.0
 11
4068.1850359912942
 21
-1231.9999868402549
 31
0.0
1001
ACDBBLOCKREPETAG
1070
     1
1071
       44
1005
141AB5
  0
LINE
  5
141AB6
  8
OBJECT
 10
4073.0925013591982
 20
-1223.9999868402549
 30
0.0
 11
4073.0925013591982
 21
-1231.9999868402549
 31
0.0
1001
ACDBBLOCKREPETAG
1070
     1
1071
       45
1005
141AB6
  0
LINE
  5
141AB7
  8
OBJECT
 10
4082.907432095024
 20
-1223.9999868402549
 30
0.0
 11
4082.907432095024
 21
-1231.9999868402549
 31
0.0
1001
ACDBBLOCKREPETAG
1070
     1
1071
       46
1005
141AB7
  0
LINE
  5
141AB8
  8
OBJECT
 10
4087.814991552797
 20
-1223.9999868402549
 30
0.0
 11
4087.814991552797
 21
-1231.9999868402549
 31
0.0
1001
ACDBBLOCKREPETAG
1070
     1
1071
       47
1005
141AB8
  0
LINE
  5
141AB9
  8
OBJECT
 10
3968.5
 20
-1179.9999999999959
 30
0.0
 11
3951.9999999999932
 21
-1179.9999999999959
 31
0.0
1001
ACDBBLOCKREPETAG
1070
     1
1071
       48
1005
141AB9
  0
LINE
  5
141ABA
  8
OBJECT
 10
3976.0
 20
-1184.9999999999959
 30
0.0
 11
3976.0
 21
-1182.9999999999959
 31
0.0
1001
ACDBBLOCKREPETAG
1070
     1
1071
       49
1005
141ABA
  0
LINE
  5
141ABB
  8
OBJECT
 10
3966.0
 20
-1209.9999999999959
 30
0.0
 11
3966.0
 21
-1199.9999999999959
 31
0.0
1001
ACDBBLOCKREPETAG
1070
     1
1071
       50
1005
141ABB
  0
LINE
  5
141ABC
  8
OBJECT
 10
3956.0
 20
-1209.9999999999959
 30
0.0
 11
3956.0
 21
-1199.9999999999959
 31
0.0
1001
ACDBBLOCKREPETAG
1070
     1
1071
       51
1005
141ABC
  0
LINE
  5
141ABD
  8
OBJECT
 10
3951.9999999999932
 20
-1179.9999999999959
 30
0.0
 11
3951.9999999999932
 21
-1184.9999999999959
 31
0.0
1001
ACDBBLOCKREPETAG
1070
     1
1071
       52
1005
141ABD
  0
LINE
  5
141ABE
  8
OBJECT
 10
3956.0
 20
-1231.9999999999959
 30
0.0
 11
3956.0
 21
-1234.9999999999959
 31
0.0
1001
ACDBBLOCKREPETAG
1070
     1
1071
       53
1005
141ABE
  0
LINE
  5
141ABF
  8
OBJECT
 10
3956.0
 20
-1234.9999999999959
 30
0.0
 11
3966.0
 21
-1234.9999999999959
 31
0.0
1001
ACDBBLOCKREPETAG
1070
     1
1071
       54
1005
141ABF
  0
LINE
  5
141AC0
  8
OBJECT
 10
3951.185045423772
 20
-1231.9999999999959
 30
0.0
 11
3970.8149545762212
 21
-1231.9999999999959
 31
0.0
1001
ACDBBLOCKREPETAG
1070
     1
1071
       55
1005
141AC0
  0
LINE
  5
141AC1
  8
OBJECT
 10
3966.0
 20
-1234.9999999999959
 30
0.0
 11
3966.0
 21
-1231.9999999999959
 31
0.0
1001
ACDBBLOCKREPETAG
1070
     1
1071
       56
1005
141AC1
  0
LINE
  5
141AC2
  8
OBJECT
 10
3976.0
 20
-1182.9999999999959
 30
0.0
 11
3968.5
 21
-1179.9999999999959
 31
0.0
1001
ACDBBLOCKREPETAG
1070
     1
1071
       57
1005
141AC2
  0
LINE
  5
141AC3
  8
OBJECT
 10
3951.1850359912951
 20
-1223.9999868402549
 30
0.0
 11
3951.1850359912951
 21
-1231.9999868402549
 31
0.0
1001
ACDBBLOCKREPETAG
1070
     1
1071
       58
1005
141AC3
  0
LINE
  5
141AC4
  8
OBJECT
 10
3956.0925013591991
 20
-1223.9999868402549
 30
0.0
 11
3956.0925013591991
 21
-1231.9999868402549
 31
0.0
1001
ACDBBLOCKREPETAG
1070
     1
1071
       59
1005
141AC4
  0
LINE
  5
141AC5
  8
OBJECT
 10
3965.907432095024
 20
-1223.9999868402549
 30
0.0
 11
3965.907432095024
 21
-1231.9999868402549
 31
0.0
1001
ACDBBLOCKREPETAG
1070
     1
1071
       60
1005
141AC5
  0
LINE
  5
141AC6
  8
OBJECT
 10
3970.8149915527979
 20
-1223.9999868402549
 30
0.0
 11
3970.8149915527979
 21
-1231.9999868402549
 31
0.0
1001
ACDBBLOCKREPETAG
1070
     1
1071
       61
1005
141AC6
  0
LINE
  5
141AC7
  8
OBJECT
 10
1943.0
 20
-1199.9999999999959
 30
0.0
 11
2057.0
 21
-1199.9999999999959
 31
0.0
1001
ACDBBLOCKREPETAG
1070
     1
1071
        0
1005
141AC7
  0
LINE
  5
141AC8
  8
OBJECT
 10
1943.0
 20
-1199.9999999999959
 30
0.0
 11
1943.0
 21
-1099.9999999999959
 31
0.0
1001
ACDBBLOCKREPETAG
1070
     1
1071
        1
1005
141AC8
  0
LINE
  5
141AC9
  8
OBJECT
 10
2057.0
 20
-1199.9999999999959
 30
0.0
 11
2057.0
 21
-1099.9999999999959
 31
0.0
1001
ACDBBLOCKREPETAG
1070
     1
1071
        2
1005
141AC9
  0
LINE
  5
141ACA
  8
OBJECT
 10
1943.0
 20
-1099.9999999999959
 30
0.0
 11
2057.0
 21
-1099.9999999999959
 31
0.0
1001
ACDBBLOCKREPETAG
1070
     1
1071
        3
1005
141ACA
  0
LINE
  5
141ACB
  8
HIDDEN
 10
1950.0
 20
-1099.9999999999959
 30
0.0
 11
1950.0
 21
-1199.9999999999959
 31
0.0
1001
ACDBBLOCKREPETAG
1070
     1
1071
        4
1005
141ACB
  0
LINE
  5
141ACC
  8
HIDDEN
 10
2050.0
 20
-1099.9999999999959
 30
0.0
 11
2050.0
 21
-1199.9999999999959
 31
0.0
1001
ACDBBLOCKREPETAG
1070
     1
1071
        5
1005
141ACC
  0
LINE
  5
141ACD
  8
CENTER
 10
2000.0
 20
-889.99999999999955
 30
0.0
 11
2000.0
 21
-1214.9999999999959
 31
0.0
1001
ACDBBLOCKREPETAG
1070
     1
1071
        6
1005
141ACD
  0
LINE
  5
141ACE
  8
OBJECT
 10
1925.0
 20
-889.99999999999955
 30
0.0
 11
1925.0
 21
-971.99999999999591
 31
0.0
1001
ACDBBLOCKREPETAG
1070
     1
1071
        7
1005
141ACE
  0
LINE
  5
141ACF
  8
OBJECT
 10
2075.0
 20
-889.99999999999955
 30
0.0
 11
2075.0
 21
-971.99999999999591
 31
0.0
1001
ACDBBLOCKREPETAG
1070
     1
1071
        8
1005
141ACF
  0
LINE
  5
141AD0
  8
OBJECT
 10
1925.0
 20
-971.99999999999591
 30
0.0
 11
2075.0
 21
-971.99999999999591
 31
0.0
1001
ACDBBLOCKREPETAG
1070
     1
1071
        9
1005
141AD0
  0
LINE
  5
141AD1
  8
OBJECT
 10
1925.0
 20
-971.99999999999591
 30
0.0
 11
1943.0
 21
-1099.9999999999959
 31
0.0
1001
ACDBBLOCKREPETAG
1070
     1
1071
       10
1005
141AD1
  0
LINE
  5
141AD2
  8
OBJECT
 10
2057.0
 20
-1099.9999999999959
 30
0.0
 11
2075.0
 21
-971.99999999999591
 31
0.0
1001
ACDBBLOCKREPETAG
1070
     1
1071
       11
1005
141AD2
  0
TEXT
  5
141AD3
  8
SLIM
 10
0.0
 20
670.0
 30
0.0
 40
100.0
  1
4SVT-Z8X-S
 41
0.75
  0
TEXT
  5
141AD4
  8
SLIM
 10
0.0
 20
520.0
 30
0.0
 40
100.0
  1
4SVT-Z8X-W
 41
0.75
  0
LINE
  5
141AD5
  8
CENTER
 10
11909.0
 20
-1473.9999999999959
 30
0.0
 11
12105.0
 21
-1473.9999999999959
 31
0.0
1001
ACDBBLOCKREPETAG
1070
     1
1071
       10
1005
141AD5
  0
LINE
  5
141AD6
  8
CENTER
 10
12000.0
 20
-1382.725335570779
 30
0.0
 11
12000.0
 21
-1565.274664429212
 31
0.0
1001
ACDBBLOCKREPETAG
1070
     1
1071
       11
1005
141AD6
  0
CIRCLE
  5
141AD7
  8
OBJECT
 10
12000.0
 20
-1473.9999999999959
 30
0.0
 40
50.0
1001
ACDBBLOCKREPETAG
1070
     1
1071
       12
1005
141AD7
  0
CIRCLE
  5
141AD8
  8
OBJECT
 10
12000.0
 20
-1473.9999999999959
 30
0.0
 40
60.0
1001
ACDBBLOCKREPETAG
1070
     1
1071
       13
1005
141AD8
  0
CIRCLE
  5
141AD9
  8
OBJECT
 10
12000.0
 20
-1473.9999999999959
 30
0.0
 40
68.0
1001
ACDBBLOCKREPETAG
1070
     1
1071
       14
1005
141AD9
  0
ARC
  5
141ADA
  8
OBJECT
 10
12077.5
 20
-1473.9999999999959
 30
0.0
 40
12.0
 50
272.10542627221611
 51
87.894573727783893
1001
ACDBBLOCKREPETAG
1070
     1
1071
       15
1005
141ADA
  0
ARC
  5
141ADB
  8
OBJECT
 10
12078.49193548386
 20
-1447.0182271895239
 30
0.0
 40
15.0
 50
198.97051877965251
 51
267.89457372778372
1001
ACDBBLOCKREPETAG
1070
     1
1071
       16
1005
141ADB
  0
ARC
  5
141ADC
  8
OBJECT
 10
12078.49193548386
 20
-1500.981772810464
 30
0.0
 40
15.0
 50
92.105426272216135
 51
161.02948122034729
1001
ACDBBLOCKREPETAG
1070
     1
1071
       17
1005
141ADC
  0
CIRCLE
  5
141ADD
  8
SLIM
 10
12078.0
 20
-1473.9999999999959
 30
0.0
 40
8.0
1001
ACDBBLOCKREPETAG
1070
     1
1071
       18
1005
141ADD
  0
POLYLINE
  5
141ADE
  8
SLIM
 66
     1
 10
0.0
 20
0.0
 30
0.0
 70
     1
1001
ACDBBLOCKREPETAG
1070
     1
1071
       19
1005
141ADE
  0
VERTEX
  5
14401B
  8
SLIM
 10
12075.69059892322
 20
-1469.9999999999959
 30
0.0
  0
VERTEX
  5
14401C
  8
SLIM
 10
12073.38119784648
 20
-1473.9999999999959
 30
0.0
  0
VERTEX
  5
14401D
  8
SLIM
 10
12075.69059892322
 20
-1477.9999999999959
 30
0.0
  0
VERTEX
  5
14401E
  8
SLIM
 10
12080.309401076751
 20
-1477.9999999999959
 30
0.0
  0
VERTEX
  5
14401F
  8
SLIM
 10
12082.618802153511
 20
-1473.9999999999959
 30
0.0
  0
VERTEX
  5
144020
  8
SLIM
 10
12080.309401076751
 20
-1469.9999999999959
 30
0.0
  0
SEQEND
  5
144021
  8
SLIM
  0
ARC
  5
141ADF
  8
OBJECT
 10
11961.25
 20
-1406.8830312067
 30
0.0
 40
12.0
 50
32.105426272130188
 51
207.89457372768319
1001
ACDBBLOCKREPETAG
1070
     1
1071
       20
1005
141ADF
  0
ARC
  5
141AE0
  8
OBJECT
 10
11937.38713156505
 20
-1419.5148762839881
 30
0.0
 40
15.0
 50
318.97051877944762
 51
27.89457372768311
1001
ACDBBLOCKREPETAG
1070
     1
1071
       21
1005
141AE0
  0
ARC
  5
141AE1
  8
OBJECT
 10
11984.120932951069
 20
-1392.533103473517
 30
0.0
 40
15.0
 50
212.10542627213019
 51
281.02948122044069
1001
ACDBBLOCKREPETAG
1070
     1
1071
       22
1005
141AE1
  0
CIRCLE
  5
141AE2
  8
SLIM
 10
11961.0
 20
-1406.450018504808
 30
0.0
 40
7.9999999999999982
1001
ACDBBLOCKREPETAG
1070
     1
1071
       23
1005
141AE2
  0
POLYLINE
  5
141AE3
  8
SLIM
 66
     1
 10
0.0
 20
0.0
 30
0.0
 70
     1
1001
ACDBBLOCKREPETAG
1070
     1
1071
       24
1005
141AE3
  0
VERTEX
  5
144022
  8
SLIM
 10
11958.69059892324
 20
-1410.4500185048089
 30
0.0
  0
VERTEX
  5
144023
  8
SLIM
 10
11963.309401076751
 20
-1410.4500185048089
 30
0.0
  0
VERTEX
  5
144024
  8
SLIM
 10
11965.618802153511
 20
-1406.450018504808
 30
0.0
  0
VERTEX
  5
144025
  8
SLIM
 10
11963.309401076751
 20
-1402.4500185048089
 30
0.0
  0
VERTEX
  5
144026
  8
SLIM
 10
11958.69059892324
 20
-1402.4500185048089
 30
0.0
  0
VERTEX
  5
144027
  8
SLIM
 10
11956.38119784648
 20
-1406.450018504808
 30
0.0
  0
SEQEND
  5
144028
  8
SLIM
  0
ARC
  5
141AE4
  8
OBJECT
 10
11961.25
 20
-1541.1169687932879
 30
0.0
 40
12.0
 50
152.10542627231681
 51
327.89457372786978
1001
ACDBBLOCKREPETAG
1070
     1
1071
       25
1005
141AE4
  0
ARC
  5
141AE5
  8
OBJECT
 10
11984.120932951069
 20
-1555.4668965264709
 30
0.0
 40
15.0
 50
78.970518779559228
 51
147.89457372786981
1001
ACDBBLOCKREPETAG
1070
     1
1071
       26
1005
141AE5
  0
ARC
  5
141AE6
  8
OBJECT
 10
11937.38713156505
 20
-1528.485123716003
 30
0.0
 40
15.0
 50
332.10542627231678
 51
41.029481220552412
1001
ACDBBLOCKREPETAG
1070
     1
1071
       27
1005
141AE6
  0
CIRCLE
  5
141AE7
  8
SLIM
 10
11961.0
 20
-1541.549981495182
 30
0.0
 40
8.0
1001
ACDBBLOCKREPETAG
1070
     1
1071
       28
1005
141AE7
  0
POLYLINE
  5
141AE8
  8
SLIM
 66
     1
 10
0.0
 20
0.0
 30
0.0
 70
     1
1001
ACDBBLOCKREPETAG
1070
     1
1071
       29
1005
141AE8
  0
VERTEX
  5
144029
  8
SLIM
 10
11965.618802153511
 20
-1541.5499814951791
 30
0.0
  0
VERTEX
  5
14402A
  8
SLIM
 10
11963.309401076751
 20
-1537.5499814951829
 30
0.0
  0
VERTEX
  5
14402B
  8
SLIM
 10
11958.69059892324
 20
-1537.5499814951791
 30
0.0
  0
VERTEX
  5
14402C
  8
SLIM
 10
11956.38119784648
 20
-1541.549981495182
 30
0.0
  0
VERTEX
  5
14402D
  8
SLIM
 10
11958.69059892322
 20
-1545.5499814951791
 30
0.0
  0
VERTEX
  5
14402E
  8
SLIM
 10
11963.309401076751
 20
-1545.5499814951829
 30
0.0
  0
SEQEND
  5
14402F
  8
SLIM
  0
ARC
  5
141AE9
  8
OBJECT
 10
12000.0
 20
-1473.9999999999959
 30
0.0
 40
76.0
 50
34.863837954171863
 51
85.136162045732945
1001
ACDBBLOCKREPETAG
1070
     1
1071
       42
1005
141AE9
  0
ARC
  5
141AEA
  8
OBJECT
 10
12000.0
 20
-1473.9999999999959
 30
0.0
 40
76.0
 50
154.86383795430939
 51
205.1361620456905
1001
ACDBBLOCKREPETAG
1070
     1
1071
       43
1005
141AEA
  0
ARC
  5
141AEB
  8
OBJECT
 10
12000.0
 20
-1473.9999999999959
 30
0.0
 40
76.0
 50
274.86383795426718
 51
325.13616204582797
1001
ACDBBLOCKREPETAG
1070
     1
1071
       44
1005
141AEB
  0
ARC
  5
141AEC
  8
OBJECT
 10
12078.0
 20
-1473.9999999999959
 30
0.0
 40
12.0
 50
325.13616204582797
 51
34.863837954171863
1001
ACDBBLOCKREPETAG
1070
     1
1071
       45
1005
141AEC
  0
LINE
  5
141AED
  8
OBJECT
 10
12087.84615384616
 20
-1467.140462520133
 30
0.0
 11
12062.358974359049
 21
-1430.5562626275339
 31
0.0
1001
ACDBBLOCKREPETAG
1070
     1
1071
       46
1005
141AED
  0
LINE
  5
141AEE
  8
OBJECT
 10
12087.846153846171
 20
-1480.859537479856
 30
0.0
 11
12062.358974359049
 21
-1517.4437373724591
 31
0.0
1001
ACDBBLOCKREPETAG
1070
     1
1071
       47
1005
141AEE
  0
ARC
  5
141AEF
  8
OBJECT
 10
11961.0
 20
-1406.45001850481
 30
0.0
 40
12.0
 50
85.136162045942811
 51
154.86383795410001
1001
ACDBBLOCKREPETAG
1070
     1
1071
       48
1005
141AEF
  0
LINE
  5
141AF0
  8
OBJECT
 10
11950.13638936114
 20
-1401.3527678843909
 30
0.0
 11
11931.19713262058
 21
-1441.7174127373471
 31
0.0
1001
ACDBBLOCKREPETAG
1070
     1
1071
       49
1005
141AF0
  0
LINE
  5
141AF1
  8
OBJECT
 10
11962.017456792681
 20
-1394.493230404526
 30
0.0
 11
12006.443893020371
 21
-1398.2736753648851
 31
0.0
1001
ACDBBLOCKREPETAG
1070
     1
1071
       50
1005
141AF1
  0
ARC
  5
141AF2
  8
OBJECT
 10
11961.0
 20
-1541.5499814951811
 30
0.0
 40
12.0
 50
205.13616204589991
 51
274.8638379540572
1001
ACDBBLOCKREPETAG
1070
     1
1071
       51
1005
141AF2
  0
LINE
  5
141AF3
  8
OBJECT
 10
11962.01745679269
 20
-1553.5067695954631
 30
0.0
 11
12006.44389302036
 21
-1549.726324635106
 31
0.0
1001
ACDBBLOCKREPETAG
1070
     1
1071
       52
1005
141AF3
  0
LINE
  5
141AF4
  8
OBJECT
 10
11950.13638936114
 20
-1546.647232115605
 30
0.0
 11
11931.19713262058
 21
-1506.2825872626429
 31
0.0
1001
ACDBBLOCKREPETAG
1070
     1
1071
       53
1005
141AF4
  0
LINE
  5
141AF5
  8
CENTER
 10
9909.0
 20
-1473.9999999999959
 30
0.0
 11
10105.0
 21
-1473.9999999999959
 31
0.0
1001
ACDBBLOCKREPETAG
1070
     1
1071
        0
1005
141AF5
  0
LINE
  5
141AF6
  8
CENTER
 10
10000.0
 20
-1382.725335570779
 30
0.0
 11
10000.0
 21
-1565.274664429212
 31
0.0
1001
ACDBBLOCKREPETAG
1070
     1
1071
        1
1005
141AF6
  0
CIRCLE
  5
141AF7
  8
OBJECT
 10
10000.0
 20
-1473.9999999999959
 30
0.0
 40
50.0
1001
ACDBBLOCKREPETAG
1070
     1
1071
        2
1005
141AF7
  0
CIRCLE
  5
141AF8
  8
OBJECT
 10
10000.0
 20
-1473.9999999999959
 30
0.0
 40
62.0
1001
ACDBBLOCKREPETAG
1070
     1
1071
        3
1005
141AF8
  0
CIRCLE
  5
141AF9
  8
SLIM
 10
10078.0
 20
-1473.9999999999959
 30
0.0
 40
5.0
1001
ACDBBLOCKREPETAG
1070
     1
1071
        4
1005
141AF9
  0
POLYLINE
  5
141AFA
  8
SLIM
 66
     1
 10
0.0
 20
0.0
 30
0.0
 70
     1
1001
ACDBBLOCKREPETAG
1070
     1
1071
        5
1005
141AFA
  0
VERTEX
  5
144030
  8
SLIM
 10
10073.092522711881
 20
-1465.4999999999959
 30
0.0
  0
VERTEX
  5
144031
  8
SLIM
 10
10068.18504542377
 20
-1473.9999999999959
 30
0.0
  0
VERTEX
  5
144032
  8
SLIM
 10
10073.092522711881
 20
-1482.4999999999959
 30
0.0
  0
VERTEX
  5
144033
  8
SLIM
 10
10082.907477288099
 20
-1482.4999999999959
 30
0.0
  0
VERTEX
  5
144034
  8
SLIM
 10
10087.814954576221
 20
-1473.9999999999959
 30
0.0
  0
VERTEX
  5
144035
  8
SLIM
 10
10082.907477288099
 20
-1465.4999999999959
 30
0.0
  0
SEQEND
  5
144036
  8
SLIM
  0
CIRCLE
  5
141AFB
  8
SLIM
 10
9961.0
 20
-1406.450018504808
 30
0.0
 40
4.9999999999999991
1001
ACDBBLOCKREPETAG
1070
     1
1071
        6
1005
141AFB
  0
POLYLINE
  5
141AFC
  8
SLIM
 66
     1
 10
0.0
 20
0.0
 30
0.0
 70
     1
1001
ACDBBLOCKREPETAG
1070
     1
1071
        7
1005
141AFC
  0
VERTEX
  5
144037
  8
SLIM
 10
9956.092522711886
 20
-1414.950018504808
 30
0.0
  0
VERTEX
  5
144038
  8
SLIM
 10
9965.907477288114
 20
-1414.950018504808
 30
0.0
  0
VERTEX
  5
144039
  8
SLIM
 10
9970.814954576219
 20
-1406.450018504808
 30
0.0
  0
VERTEX
  5
14403A
  8
SLIM
 10
9965.907477288114
 20
-1397.9500185048089
 30
0.0
  0
VERTEX
  5
14403B
  8
SLIM
 10
9956.092522711886
 20
-1397.9500185048089
 30
0.0
  0
VERTEX
  5
14403C
  8
SLIM
 10
9951.185045423772
 20
-1406.450018504808
 30
0.0
  0
SEQEND
  5
14403D
  8
SLIM
  0
CIRCLE
  5
141AFD
  8
SLIM
 10
9961.0
 20
-1541.549981495182
 30
0.0
 40
5.0
1001
ACDBBLOCKREPETAG
1070
     1
1071
        8
1005
141AFD
  0
POLYLINE
  5
141AFE
  8
SLIM
 66
     1
 10
0.0
 20
0.0
 30
0.0
 70
     1
1001
ACDBBLOCKREPETAG
1070
     1
1071
        9
1005
141AFE
  0
VERTEX
  5
14403E
  8
SLIM
 10
9970.814954576219
 20
-1541.549981495182
 30
0.0
  0
VERTEX
  5
14403F
  8
SLIM
 10
9965.9074772881049
 20
-1533.0499814951791
 30
0.0
  0
VERTEX
  5
144040
  8
SLIM
 10
9956.092522711886
 20
-1533.0499814951829
 30
0.0
  0
VERTEX
  5
144041
  8
SLIM
 10
9951.185045423772
 20
-1541.5499814951791
 30
0.0
  0
VERTEX
  5
144042
  8
SLIM
 10
9956.092522711886
 20
-1550.049981495182
 30
0.0
  0
VERTEX
  5
144043
  8
SLIM
 10
9965.907477288114
 20
-1550.0499814951791
 30
0.0
  0
SEQEND
  5
144044
  8
SLIM
  0
ARC
  5
141AFF
  8
OBJECT
 10
10000.0
 20
-1473.9999999999959
 30
0.0
 40
76.0
 50
34.863837954171863
 51
85.136162045732945
1001
ACDBBLOCKREPETAG
1070
     1
1071
       30
1005
141AFF
  0
ARC
  5
141B00
  8
OBJECT
 10
10000.0
 20
-1473.9999999999959
 30
0.0
 40
76.0
 50
154.86383795430939
 51
205.1361620456905
1001
ACDBBLOCKREPETAG
1070
     1
1071
       31
1005
141B00
  0
ARC
  5
141B01
  8
OBJECT
 10
10000.0
 20
-1473.9999999999959
 30
0.0
 40
76.0
 50
274.86383795426718
 51
325.13616204582797
1001
ACDBBLOCKREPETAG
1070
     1
1071
       32
1005
141B01
  0
ARC
  5
141B02
  8
OBJECT
 10
10078.0
 20
-1473.9999999999959
 30
0.0
 40
12.0
 50
325.13616204582797
 51
34.863837954171863
1001
ACDBBLOCKREPETAG
1070
     1
1071
       33
1005
141B02
  0
LINE
  5
141B03
  8
OBJECT
 10
10087.84615384616
 20
-1467.140462520133
 30
0.0
 11
10062.35897435904
 21
-1430.5562626275339
 31
0.0
1001
ACDBBLOCKREPETAG
1070
     1
1071
       34
1005
141B03
  0
LINE
  5
141B04
  8
OBJECT
 10
10087.846153846171
 20
-1480.859537479856
 30
0.0
 11
10062.35897435904
 21
-1517.4437373724591
 31
0.0
1001
ACDBBLOCKREPETAG
1070
     1
1071
       35
1005
141B04
  0
ARC
  5
141B05
  8
OBJECT
 10
9961.0
 20
-1406.45001850481
 30
0.0
 40
12.0
 50
85.136162045942811
 51
154.86383795410001
1001
ACDBBLOCKREPETAG
1070
     1
1071
       36
1005
141B05
  0
LINE
  5
141B06
  8
OBJECT
 10
9950.1363893611433
 20
-1401.3527678843909
 30
0.0
 11
9931.1971326205894
 21
-1441.7174127373471
 31
0.0
1001
ACDBBLOCKREPETAG
1070
     1
1071
       37
1005
141B06
  0
LINE
  5
141B07
  8
OBJECT
 10
9962.0174567926842
 20
-1394.493230404526
 30
0.0
 11
10006.443893020371
 21
-1398.2736753648851
 31
0.0
1001
ACDBBLOCKREPETAG
1070
     1
1071
       38
1005
141B07
  0
ARC
  5
141B08
  8
OBJECT
 10
9961.0
 20
-1541.5499814951811
 30
0.0
 40
12.0
 50
205.13616204589991
 51
274.8638379540572
1001
ACDBBLOCKREPETAG
1070
     1
1071
       39
1005
141B08
  0
LINE
  5
141B09
  8
OBJECT
 10
9962.0174567926897
 20
-1553.5067695954631
 30
0.0
 11
10006.44389302036
 21
-1549.726324635106
 31
0.0
1001
ACDBBLOCKREPETAG
1070
     1
1071
       40
1005
141B09
  0
LINE
  5
141B0A
  8
OBJECT
 10
9950.1363893611433
 20
-1546.647232115605
 30
0.0
 11
9931.1971326205821
 21
-1506.2825872626429
 31
0.0
1001
ACDBBLOCKREPETAG
1070
     1
1071
       41
1005
141B0A
  0
LINE
  5
141B0B
  8
CENTER
 10
5909.0
 20
-1514.9999999999991
 30
0.0
 11
6105.0
 21
-1514.9999999999991
 31
0.0
1001
ACDBBLOCKREPETAG
1070
     1
1071
       10
1005
141B0B
  0
LINE
  5
141B0C
  8
CENTER
 10
6000.0
 20
-1423.725335570783
 30
0.0
 11
6000.0
 21
-1606.274664429214
 31
0.0
1001
ACDBBLOCKREPETAG
1070
     1
1071
       11
1005
141B0C
  0
CIRCLE
  5
141B0D
  8
OBJECT
 10
6000.0
 20
-1514.9999999999991
 30
0.0
 40
50.0
1001
ACDBBLOCKREPETAG
1070
     1
1071
       12
1005
141B0D
  0
CIRCLE
  5
141B0E
  8
OBJECT
 10
6000.0
 20
-1514.9999999999991
 30
0.0
 40
60.0
1001
ACDBBLOCKREPETAG
1070
     1
1071
       13
1005
141B0E
  0
CIRCLE
  5
141B0F
  8
OBJECT
 10
6000.0
 20
-1514.9999999999991
 30
0.0
 40
68.0
1001
ACDBBLOCKREPETAG
1070
     1
1071
       14
1005
141B0F
  0
ARC
  5
141B10
  8
OBJECT
 10
6077.5
 20
-1514.9999999999991
 30
0.0
 40
12.0
 50
272.10542627221611
 51
87.894573727783893
1001
ACDBBLOCKREPETAG
1070
     1
1071
       15
1005
141B10
  0
ARC
  5
141B11
  8
OBJECT
 10
6078.4919354838639
 20
-1488.0182271895269
 30
0.0
 40
15.0
 50
198.9705187796356
 51
267.89457372778372
1001
ACDBBLOCKREPETAG
1070
     1
1071
       16
1005
141B11
  0
ARC
  5
141B12
  8
OBJECT
 10
6078.4919354838639
 20
-1541.981772810467
 30
0.0
 40
15.0
 50
92.105426272216135
 51
161.02948122036429
1001
ACDBBLOCKREPETAG
1070
     1
1071
       17
1005
141B12
  0
CIRCLE
  5
141B13
  8
SLIM
 10
6078.0
 20
-1514.9999999999991
 30
0.0
 40
8.0
1001
ACDBBLOCKREPETAG
1070
     1
1071
       18
1005
141B13
  0
POLYLINE
  5
141B14
  8
SLIM
 66
     1
 10
0.0
 20
0.0
 30
0.0
 70
     1
1001
ACDBBLOCKREPETAG
1070
     1
1071
       19
1005
141B14
  0
VERTEX
  5
144045
  8
SLIM
 10
6075.6905989232328
 20
-1510.9999999999991
 30
0.0
  0
VERTEX
  5
144046
  8
SLIM
 10
6073.3811978464801
 20
-1514.9999999999991
 30
0.0
  0
VERTEX
  5
144047
  8
SLIM
 10
6075.6905989232328
 20
-1518.9999999999991
 30
0.0
  0
VERTEX
  5
144048
  8
SLIM
 10
6080.3094010767527
 20
-1518.9999999999991
 30
0.0
  0
VERTEX
  5
144049
  8
SLIM
 10
6082.6188021535136
 20
-1514.9999999999991
 30
0.0
  0
VERTEX
  5
14404A
  8
SLIM
 10
6080.3094010767527
 20
-1510.9999999999991
 30
0.0
  0
SEQEND
  5
14404B
  8
SLIM
  0
ARC
  5
141B15
  8
OBJECT
 10
5961.25
 20
-1447.883031206703
 30
0.0
 40
12.0
 50
32.105426272157878
 51
207.89457372770741
1001
ACDBBLOCKREPETAG
1070
     1
1071
       20
1005
141B15
  0
ARC
  5
141B16
  8
OBJECT
 10
5937.387131565054
 20
-1460.514876283992
 30
0.0
 40
15.0
 50
318.97051877944762
 51
27.894573727707481
1001
ACDBBLOCKREPETAG
1070
     1
1071
       21
1005
141B16
  0
ARC
  5
141B17
  8
OBJECT
 10
5984.1209329510702
 20
-1433.53310347352
 30
0.0
 40
15.0
 50
212.1054262721579
 51
281.02948122044069
1001
ACDBBLOCKREPETAG
1070
     1
1071
       22
1005
141B17
  0
CIRCLE
  5
141B18
  8
SLIM
 10
5961.0
 20
-1447.4500185048109
 30
0.0
 40
7.9999999999999982
1001
ACDBBLOCKREPETAG
1070
     1
1071
       23
1005
141B18
  0
POLYLINE
  5
141B19
  8
SLIM
 66
     1
 10
0.0
 20
0.0
 30
0.0
 70
     1
1001
ACDBBLOCKREPETAG
1070
     1
1071
       24
1005
141B19
  0
VERTEX
  5
14404C
  8
SLIM
 10
5958.69059892324
 20
-1451.4500185048121
 30
0.0
  0
VERTEX
  5
14404D
  8
SLIM
 10
5963.3094010767518
 20
-1451.4500185048121
 30
0.0
  0
VERTEX
  5
14404E
  8
SLIM
 10
5965.6188021535136
 20
-1447.4500185048109
 30
0.0
  0
VERTEX
  5
14404F
  8
SLIM
 10
5963.3094010767518
 20
-1443.4500185048121
 30
0.0
  0
VERTEX
  5
144050
  8
SLIM
 10
5958.69059892324
 20
-1443.4500185048121
 30
0.0
  0
VERTEX
  5
144051
  8
SLIM
 10
5956.3811978464792
 20
-1447.4500185048109
 30
0.0
  0
SEQEND
  5
144052
  8
SLIM
  0
ARC
  5
141B1A
  8
OBJECT
 10
5961.25
 20
-1582.1169687932911
 30
0.0
 40
12.0
 50
152.1054262722925
 51
327.89457372784221
1001
ACDBBLOCKREPETAG
1070
     1
1071
       25
1005
141B1A
  0
ARC
  5
141B1B
  8
OBJECT
 10
5984.1209329510702
 20
-1596.4668965264741
 30
0.0
 40
15.0
 50
78.970518779559228
 51
147.8945737278421
1001
ACDBBLOCKREPETAG
1070
     1
1071
       26
1005
141B1B
  0
ARC
  5
141B1C
  8
OBJECT
 10
5937.387131565054
 20
-1569.485123716006
 30
0.0
 40
15.0
 50
332.1054262722925
 51
41.029481220552412
1001
ACDBBLOCKREPETAG
1070
     1
1071
       27
1005
141B1C
  0
CIRCLE
  5
141B1D
  8
SLIM
 10
5961.0
 20
-1582.5499814951861
 30
0.0
 40
8.0
1001
ACDBBLOCKREPETAG
1070
     1
1071
       28
1005
141B1D
  0
POLYLINE
  5
141B1E
  8
SLIM
 66
     1
 10
0.0
 20
0.0
 30
0.0
 70
     1
1001
ACDBBLOCKREPETAG
1070
     1
1071
       29
1005
141B1E
  0
VERTEX
  5
144053
  8
SLIM
 10
5965.6188021535136
 20
-1582.5499814951829
 30
0.0
  0
VERTEX
  5
144054
  8
SLIM
 10
5963.3094010767518
 20
-1578.5499814951861
 30
0.0
  0
VERTEX
  5
144055
  8
SLIM
 10
5958.69059892324
 20
-1578.5499814951811
 30
0.0
  0
VERTEX
  5
144056
  8
SLIM
 10
5956.3811978464792
 20
-1582.5499814951861
 30
0.0
  0
VERTEX
  5
144057
  8
SLIM
 10
5958.6905989232328
 20
-1586.5499814951811
 30
0.0
  0
VERTEX
  5
144058
  8
SLIM
 10
5963.3094010767518
 20
-1586.5499814951861
 30
0.0
  0
SEQEND
  5
144059
  8
SLIM
  0
ARC
  5
141B1F
  8
OBJECT
 10
6000.0
 20
-1514.9999999999991
 30
0.0
 40
76.0
 50
34.863837954142063
 51
85.136162045732945
1001
ACDBBLOCKREPETAG
1070
     1
1071
       42
1005
141B1F
  0
ARC
  5
141B20
  8
OBJECT
 10
6000.0
 20
-1514.9999999999991
 30
0.0
 40
76.0
 50
154.86383795430939
 51
205.1361620456905
1001
ACDBBLOCKREPETAG
1070
     1
1071
       43
1005
141B20
  0
ARC
  5
141B21
  8
OBJECT
 10
6000.0
 20
-1514.9999999999991
 30
0.0
 40
76.0
 50
274.86383795426718
 51
325.13616204585799
1001
ACDBBLOCKREPETAG
1070
     1
1071
       44
1005
141B21
  0
ARC
  5
141B22
  8
OBJECT
 10
6078.0
 20
-1514.9999999999991
 30
0.0
 40
12.0
 50
325.13616204585799
 51
34.863837954142063
1001
ACDBBLOCKREPETAG
1070
     1
1071
       45
1005
141B22
  0
LINE
  5
141B23
  8
OBJECT
 10
6087.846153846167
 20
-1508.1404625201369
 30
0.0
 11
6062.3589743590501
 21
-1471.556262627538
 31
0.0
1001
ACDBBLOCKREPETAG
1070
     1
1071
       46
1005
141B23
  0
LINE
  5
141B24
  8
OBJECT
 10
6087.8461538461697
 20
-1521.859537479859
 30
0.0
 11
6062.3589743590501
 21
-1558.443737372462
 31
0.0
1001
ACDBBLOCKREPETAG
1070
     1
1071
       47
1005
141B24
  0
ARC
  5
141B25
  8
OBJECT
 10
5961.0
 20
-1447.4500185048139
 30
0.0
 40
12.0
 50
85.136162045942811
 51
154.86383795410001
1001
ACDBBLOCKREPETAG
1070
     1
1071
       48
1005
141B25
  0
LINE
  5
141B26
  8
OBJECT
 10
5950.1363893611451
 20
-1442.3527678843941
 30
0.0
 11
5931.1971326205849
 21
-1482.7174127373501
 31
0.0
1001
ACDBBLOCKREPETAG
1070
     1
1071
       49
1005
141B26
  0
LINE
  5
141B27
  8
OBJECT
 10
5962.0174567926842
 20
-1435.4932304045301
 30
0.0
 11
6006.4438930203669
 21
-1439.273675364889
 31
0.0
1001
ACDBBLOCKREPETAG
1070
     1
1071
       50
1005
141B27
  0
ARC
  5
141B28
  8
OBJECT
 10
5961.0
 20
-1582.5499814951841
 30
0.0
 40
12.0
 50
205.13616204589991
 51
274.8638379540572
1001
ACDBBLOCKREPETAG
1070
     1
1071
       51
1005
141B28
  0
LINE
  5
141B29
  8
OBJECT
 10
5962.0174567926879
 20
-1594.5067695954669
 30
0.0
 11
6006.4438930203651
 21
-1590.726324635109
 31
0.0
1001
ACDBBLOCKREPETAG
1070
     1
1071
       52
1005
141B29
  0
LINE
  5
141B2A
  8
OBJECT
 10
5950.1363893611451
 20
-1587.6472321156079
 30
0.0
 11
5931.1971326205821
 21
-1547.2825872626461
 31
0.0
1001
ACDBBLOCKREPETAG
1070
     1
1071
       53
1005
141B2A
  0
LINE
  5
141B2B
  8
CENTER
 10
3909.0
 20
-1473.9999999999959
 30
0.0
 11
4105.0
 21
-1473.9999999999959
 31
0.0
1001
ACDBBLOCKREPETAG
1070
     1
1071
        0
1005
141B2B
  0
LINE
  5
141B2C
  8
CENTER
 10
4000.0
 20
-1382.725335570779
 30
0.0
 11
4000.0
 21
-1565.274664429212
 31
0.0
1001
ACDBBLOCKREPETAG
1070
     1
1071
        1
1005
141B2C
  0
CIRCLE
  5
141B2D
  8
OBJECT
 10
4000.0
 20
-1473.9999999999959
 30
0.0
 40
50.0
1001
ACDBBLOCKREPETAG
1070
     1
1071
        2
1005
141B2D
  0
CIRCLE
  5
141B2E
  8
OBJECT
 10
4000.0
 20
-1473.9999999999959
 30
0.0
 40
62.0
1001
ACDBBLOCKREPETAG
1070
     1
1071
        3
1005
141B2E
  0
CIRCLE
  5
141B2F
  8
SLIM
 10
4078.0
 20
-1473.9999999999959
 30
0.0
 40
5.0
1001
ACDBBLOCKREPETAG
1070
     1
1071
        4
1005
141B2F
  0
POLYLINE
  5
141B30
  8
SLIM
 66
     1
 10
0.0
 20
0.0
 30
0.0
 70
     1
1001
ACDBBLOCKREPETAG
1070
     1
1071
        5
1005
141B30
  0
VERTEX
  5
14405A
  8
SLIM
 10
4073.092522711886
 20
-1465.4999999999959
 30
0.0
  0
VERTEX
  5
14405B
  8
SLIM
 10
4068.185045423772
 20
-1473.9999999999959
 30
0.0
  0
VERTEX
  5
14405C
  8
SLIM
 10
4073.092522711886
 20
-1482.4999999999959
 30
0.0
  0
VERTEX
  5
14405D
  8
SLIM
 10
4082.9074772881072
 20
-1482.4999999999959
 30
0.0
  0
VERTEX
  5
14405E
  8
SLIM
 10
4087.8149545762199
 20
-1473.9999999999959
 30
0.0
  0
VERTEX
  5
14405F
  8
SLIM
 10
4082.9074772881072
 20
-1465.4999999999959
 30
0.0
  0
SEQEND
  5
144060
  8
SLIM
  0
CIRCLE
  5
141B31
  8
SLIM
 10
3961.0
 20
-1406.450018504808
 30
0.0
 40
4.9999999999999991
1001
ACDBBLOCKREPETAG
1070
     1
1071
        6
1005
141B31
  0
POLYLINE
  5
141B32
  8
SLIM
 66
     1
 10
0.0
 20
0.0
 30
0.0
 70
     1
1001
ACDBBLOCKREPETAG
1070
     1
1071
        7
1005
141B32
  0
VERTEX
  5
144061
  8
SLIM
 10
3956.092522711886
 20
-1414.950018504808
 30
0.0
  0
VERTEX
  5
144062
  8
SLIM
 10
3965.907477288114
 20
-1414.950018504808
 30
0.0
  0
VERTEX
  5
144063
  8
SLIM
 10
3970.8149545762212
 20
-1406.450018504808
 30
0.0
  0
VERTEX
  5
144064
  8
SLIM
 10
3965.907477288114
 20
-1397.9500185048089
 30
0.0
  0
VERTEX
  5
144065
  8
SLIM
 10
3956.092522711886
 20
-1397.9500185048089
 30
0.0
  0
VERTEX
  5
144066
  8
SLIM
 10
3951.185045423772
 20
-1406.450018504808
 30
0.0
  0
SEQEND
  5
144067
  8
SLIM
  0
CIRCLE
  5
141B33
  8
SLIM
 10
3961.0
 20
-1541.549981495182
 30
0.0
 40
5.0
1001
ACDBBLOCKREPETAG
1070
     1
1071
        8
1005
141B33
  0
POLYLINE
  5
141B34
  8
SLIM
 66
     1
 10
0.0
 20
0.0
 30
0.0
 70
     1
1001
ACDBBLOCKREPETAG
1070
     1
1071
        9
1005
141B34
  0
VERTEX
  5
144068
  8
SLIM
 10
3970.8149545762212
 20
-1541.549981495182
 30
0.0
  0
VERTEX
  5
144069
  8
SLIM
 10
3965.9074772881072
 20
-1533.0499814951791
 30
0.0
  0
VERTEX
  5
14406A
  8
SLIM
 10
3956.092522711886
 20
-1533.0499814951829
 30
0.0
  0
VERTEX
  5
14406B
  8
SLIM
 10
3951.185045423772
 20
-1541.5499814951791
 30
0.0
  0
VERTEX
  5
14406C
  8
SLIM
 10
3956.092522711886
 20
-1550.049981495182
 30
0.0
  0
VERTEX
  5
14406D
  8
SLIM
 10
3965.907477288114
 20
-1550.0499814951791
 30
0.0
  0
SEQEND
  5
14406E
  8
SLIM
  0
ARC
  5
141B35
  8
OBJECT
 10
4000.0
 20
-1473.9999999999959
 30
0.0
 40
76.0
 50
34.863837954142063
 51
85.136162045732945
1001
ACDBBLOCKREPETAG
1070
     1
1071
       30
1005
141B35
  0
ARC
  5
141B36
  8
OBJECT
 10
4000.0
 20
-1473.9999999999959
 30
0.0
 40
76.0
 50
154.86383795430939
 51
205.1361620456905
1001
ACDBBLOCKREPETAG
1070
     1
1071
       31
1005
141B36
  0
ARC
  5
141B37
  8
OBJECT
 10
4000.0
 20
-1473.9999999999959
 30
0.0
 40
76.0
 50
274.86383795426718
 51
325.13616204585799
1001
ACDBBLOCKREPETAG
1070
     1
1071
       32
1005
141B37
  0
ARC
  5
141B38
  8
OBJECT
 10
4078.0
 20
-1473.9999999999959
 30
0.0
 40
12.0
 50
325.13616204585799
 51
34.863837954142063
1001
ACDBBLOCKREPETAG
1070
     1
1071
       33
1005
141B38
  0
LINE
  5
141B39
  8
OBJECT
 10
4087.846153846167
 20
-1467.140462520133
 30
0.0
 11
4062.3589743590492
 21
-1430.5562626275339
 31
0.0
1001
ACDBBLOCKREPETAG
1070
     1
1071
       34
1005
141B39
  0
LINE
  5
141B3A
  8
OBJECT
 10
4087.8461538461711
 20
-1480.859537479856
 30
0.0
 11
4062.3589743590492
 21
-1517.4437373724591
 31
0.0
1001
ACDBBLOCKREPETAG
1070
     1
1071
       35
1005
141B3A
  0
ARC
  5
141B3B
  8
OBJECT
 10
3961.0
 20
-1406.45001850481
 30
0.0
 40
12.0
 50
85.136162045942811
 51
154.86383795411109
1001
ACDBBLOCKREPETAG
1070
     1
1071
       36
1005
141B3B
  0
LINE
  5
141B3C
  8
OBJECT
 10
3950.136389361146
 20
-1401.3527678843909
 30
0.0
 11
3931.1971326205862
 21
-1441.7174127373471
 31
0.0
1001
ACDBBLOCKREPETAG
1070
     1
1071
       37
1005
141B3C
  0
LINE
  5
141B3D
  8
OBJECT
 10
3962.0174567926852
 20
-1394.493230404526
 30
0.0
 11
4006.4438930203678
 21
-1398.2736753648851
 31
0.0
1001
ACDBBLOCKREPETAG
1070
     1
1071
       38
1005
141B3D
  0
ARC
  5
141B3E
  8
OBJECT
 10
3961.0
 20
-1541.5499814951811
 30
0.0
 40
12.0
 50
205.13616204588891
 51
274.8638379540572
1001
ACDBBLOCKREPETAG
1070
     1
1071
       39
1005
141B3E
  0
LINE
  5
141B3F
  8
OBJECT
 10
3962.0174567926879
 20
-1553.5067695954631
 30
0.0
 11
4006.4438930203651
 21
-1549.726324635106
 31
0.0
1001
ACDBBLOCKREPETAG
1070
     1
1071
       40
1005
141B3F
  0
LINE
  5
141B40
  8
OBJECT
 10
3950.136389361146
 20
-1546.647232115605
 30
0.0
 11
3931.1971326205821
 21
-1506.2825872626429
 31
0.0
1001
ACDBBLOCKREPETAG
1070
     1
1071
       41
1005
141B40
  0
TEXT
  5
141B41
  8
SLIM
 10
3853.75
 20
-1741.4999999999959
 30
0.0
 40
35.0
  1
両受けスタイル（W）
 41
0.75
  0
TEXT
  5
141B42
  8
SLIM
 10
5811.8000000000002
 20
-1838.9999999999991
 30
0.0
 40
28.0
  1
※ 対応スラブ厚　150mm以上
 41
0.75
  0
TEXT
  5
141B43
  8
SLIM
 10
5611.5
 20
-1932.333333333333
 30
0.0
 40
28.0
  1
国土交通大臣認定・（財）日本消防設備安全センター性能評定取得品
 41
0.75
  0
TEXT
  5
141B44
  8
SLIM
 10
5631.1000000000004
 20
-1978.9999999999991
 30
0.0
 40
28.0
  1
注）ご採用にあたり、認定書及び評定書の内容をご確認ください。
 41
0.75
  0
TEXT
  5
141B45
  8
SLIM
 10
11824.6
 20
-1797.9999999999959
 30
0.0
 40
28.0
  1
※ 対応スラブ厚　150～380
 41
0.75
  0
TEXT
  5
141B46
  8
SLIM
 10
11611.5
 20
-1891.3333333333289
 30
0.0
 40
28.0
  1
国土交通大臣認定・（財）日本消防設備安全センター性能評定取得品
 41
0.75
  0
TEXT
  5
141B47
  8
SLIM
 10
11631.1
 20
-1937.9999999999959
 30
0.0
 40
28.0
  1
注）ご採用にあたり、認定書及び評定書の内容をご確認ください。
 41
0.75
  0
TEXT
  5
141B48
  8
SLIM
 10
9824.6000000000004
 20
-1797.9999999999959
 30
0.0
 40
28.0
  1
※ 対応スラブ厚　180～380
 41
0.75
  0
TEXT
  5
141B49
  8
SLIM
 10
9611.5000000000018
 20
-1891.3333333333289
 30
0.0
 40
28.0
  1
国土交通大臣認定・（財）日本消防設備安全センター性能評定取得品
 41
0.75
  0
TEXT
  5
141B4A
  8
SLIM
 10
9631.1000000000004
 20
-1937.9999999999959
 30
0.0
 40
28.0
  1
注）ご採用にあたり、認定書及び評定書の内容をご確認ください。
 41
0.75
  0
TEXT
  5
141B4B
  8
SLIM
 10
7771.3999999999987
 20
-1530.666666666664
 30
0.0
 40
28.0
  1
※ 対応スラブ厚　180｛150｝～340
 41
0.75
  0
TEXT
  5
141B4C
  8
SLIM
 10
7733.2999999999975
 20
-1577.333333333331
 30
0.0
 40
28.0
  1
｛｝内はカンペイ立て管との組み合わせの場合
 41
0.75
  0
TEXT
  5
141B4D
  8
SLIM
 10
7611.4999999999982
 20
-1670.666666666664
 30
0.0
 40
28.0
  1
国土交通大臣認定・（財）日本消防設備安全センター性能評定取得品
 41
0.75
  0
TEXT
  5
141B4E
  8
SLIM
 10
7631.1000000000004
 20
-1717.333333333331
 30
0.0
 40
28.0
  1
注）ご採用にあたり、認定書及び評定書の内容をご確認ください。
 41
0.75
  0
TEXT
  5
141B4F
  8
SLIM
 10
9739.1250000000018
 20
-1741.4999999999959
 30
0.0
 40
35.0
  1
両受けスタイル（W）＋シンドカット
 41
0.75
  0
TEXT
  5
141B50
  8
SLIM
 10
11743.5
 20
-1741.4999999999959
 30
0.0
 40
35.0
  1
カンペイ君（WKP）＋シンドカット
 41
0.75
  0
TEXT
  5
141B51
  8
SLIM
 10
7741.625
 20
-1467.499999999998
 30
0.0
 40
35.0
  1
片受けスタイル（S）＋シンドカット
 41
0.75
  0
TEXT
  5
141B52
  8
SLIM
 10
5858.1250000000009
 20
-1782.4999999999991
 30
0.0
 40
35.0
  1
カンペイ君（WKP）
 41
0.75
  0
TEXT
  5
141B53
  8
SLIM
 10
1856.25
 20
-1467.499999999998
 30
0.0
 40
35.0
  1
片受けスタイル（S）
 41
0.75
  0
TEXT
  5
141B54
  8
SLIM
 10
0.0
 20
370.0
 30
0.0
 40
100.0
  1
4SVT-Z8X-WKP
 41
0.75
  0
VIEWPORT
  5
F6BA7
 67
     1
  8
0
 10
163.0024027789494
 20
101.8328354358673
 30
0.0
 40
369.34663245053321
 41
222.19657968139651
 68
     1
 69
     1
1001
ACAD
1000
MVIEW
1002
{
1070
    16
1010
0.0
1020
0.0
1030
0.0
1010
0.0
1020
0.0
1030
1.0
1040
0.0
1040
222.19657968139651
1040
163.0024027789494
1040
101.8328354358673
1040
50.0
1040
0.0
1040
0.0
1070
     0
1070
     0
1070
     1
1070
     1
1070
     0
1070
     0
1070
     0
1070
     0
1040
0.0
1040
0.0
1040
0.0
1040
10.0
1040
10.0
1040
10.0
1040
10.0
1070
     0
1002
{
1002
}
1002
}
  0
VIEWPORT
  5
F6BA9
 67
     1
  8
OBJECT
 10
145.3303314447403
 20
101.8328338861465
 30
0.0
 40
232.5285303115844
 41
162.93253421783439
 68
     2
 69
     2
1001
ACAD
1000
MVIEW
1002
{
1070
    16
1010
0.0
1020
0.0
1030
0.0
1010
0.0
1020
0.0
1030
1.0
1040
0.0
1040
25942.55904403147
1040
2377.604457077377
1040
-7591.5176687056619
1040
50.0
1040
0.0
1040
0.0
1070
     0
1070
   600
1070
     1
1070
     1
1070
     0
1070
     0
1070
     0
1070
     0
1040
0.0
1040
0.0
1040
0.0
1040
1.0
1040
1.0
1040
0.0
1040
0.0
1070
     0
1002
{
1002
}
1002
}
  0
ENDSEC
  0
EOF
