  0
SECTION
  2
HEADER
  9
$ACADVER
  1
AC1009
  9
$INSBASE
 10
0.0
 20
0.0
 30
0.0
  9
$EXTMIN
 10
-0.0000000000000089
 20
-2003.0
 30
0.0
  9
$EXTMAX
 10
8387.1000000000004
 20
620.0
 30
0.0
  9
$LIMMIN
 10
0.0
 20
0.0
  9
$LIMMAX
 10
210.0
 20
297.0
  9
$ORTHOMODE
 70
     0
  9
$REGENMODE
 70
     1
  9
$FILLMODE
 70
     1
  9
$QTEXTMODE
 70
     0
  9
$MIRRTEXT
 70
     0
  9
$DRAGMODE
 70
     2
  9
$LTSCALE
 40
1.0
  9
$OSMODE
 70
   109
  9
$ATTMODE
 70
     1
  9
$TEXTSIZE
 40
4.0
  9
$TRACEWID
 40
0.05
  9
$TEXTSTYLE
  7
STANDARD
  9
$CLAYER
  8
0
  9
$CELTYPE
  6
BYLAYER
  9
$CECOLOR
 62
   256
  9
$DIMSCALE
 40
10.0
  9
$DIMASZ
 40
2.0
  9
$DIMEXO
 40
1.0
  9
$DIMDLI
 40
10.0
  9
$DIMRND
 40
0.0
  9
$DIMDLE
 40
0.0
  9
$DIMEXE
 40
1.0
  9
$DIMTP
 40
0.0
  9
$DIMTM
 40
0.0
  9
$DIMTXT
 40
3.2000000000000002
  9
$DIMCEN
 40
0.0
  9
$DIMTSZ
 40
0.0
  9
$DIMTOL
 70
     0
  9
$DIMLIM
 70
     0
  9
$DIMTIH
 70
     0
  9
$DIMTOH
 70
     0
  9
$DIMSE1
 70
     0
  9
$DIMSE2
 70
     0
  9
$DIMTAD
 70
     1
  9
$DIMZIN
 70
     8
  9
$DIMBLK
  1
OPEN30
  9
$DIMASO
 70
     1
  9
$DIMSHO
 70
     1
  9
$DIMPOST
  1

  9
$DIMAPOST
  1

  9
$DIMALT
 70
     0
  9
$DIMALTD
 70
     2
  9
$DIMALTF
 40
25.399999999999999
  9
$DIMLFAC
 40
1.0
  9
$DIMTOFL
 70
     1
  9
$DIMTVP
 40
0.0
  9
$DIMTIX
 70
     0
  9
$DIMSOXD
 70
     0
  9
$DIMSAH
 70
     0
  9
$DIMBLK1
  1

  9
$DIMBLK2
  1

  9
$DIMSTYLE
  2
S10
  9
$DIMCLRD
 70
   256
  9
$DIMCLRE
 70
   256
  9
$DIMCLRT
 70
   256
  9
$DIMTFAC
 40
1.0
  9
$DIMGAP
 40
0.9
  9
$LUNITS
 70
     2
  9
$LUPREC
 70
     2
  9
$SKETCHINC
 40
0.1
  9
$FILLETRAD
 40
0.0
  9
$AUNITS
 70
     0
  9
$AUPREC
 70
     2
  9
$MENU
  1
ACAD
  9
$ELEVATION
 40
0.0
  9
$PELEVATION
 40
0.0
  9
$THICKNESS
 40
0.0
  9
$LIMCHECK
 70
     0
  9
$BLIPMODE
 70
     0
  9
$CHAMFERA
 40
2.0
  9
$CHAMFERB
 40
2.0
  9
$SKPOLY
 70
     0
  9
$TDCREATE
 40
2453095.4929404748
  9
$TDUPDATE
 40
2456744.7466466441
  9
$TDINDWG
 40
18.466787060200001
  9
$TDUSRTIMER
 40
18.4667864583
  9
$USRTIMER
 70
     1
  9
$ANGBASE
 50
0.0
  9
$ANGDIR
 70
     0
  9
$PDMODE
 70
    35
  9
$PDSIZE
 40
2.0
  9
$PLINEWID
 40
0.0
  9
$COORDS
 70
     1
  9
$SPLFRAME
 70
     0
  9
$SPLINETYPE
 70
     6
  9
$SPLINESEGS
 70
     8
  9
$ATTDIA
 70
     0
  9
$ATTREQ
 70
     1
  9
$HANDLING
 70
     1
  9
$HANDSEED
  5
135904
  9
$SURFTAB1
 70
     6
  9
$SURFTAB2
 70
     6
  9
$SURFTYPE
 70
     6
  9
$SURFU
 70
     6
  9
$SURFV
 70
     6
  9
$UCSNAME
  2

  9
$UCSORG
 10
0.0
 20
0.0
 30
0.0
  9
$UCSXDIR
 10
1.0
 20
0.0
 30
0.0
  9
$UCSYDIR
 10
0.0
 20
1.0
 30
0.0
  9
$PUCSNAME
  2

  9
$PUCSORG
 10
0.0
 20
0.0
 30
0.0
  9
$PUCSXDIR
 10
1.0
 20
0.0
 30
0.0
  9
$PUCSYDIR
 10
0.0
 20
1.0
 30
0.0
  9
$USERI1
 70
     0
  9
$USERI2
 70
     0
  9
$USERI3
 70
     0
  9
$USERI4
 70
     0
  9
$USERI5
 70
     0
  9
$USERR1
 40
0.0
  9
$USERR2
 40
0.0
  9
$USERR3
 40
0.0
  9
$USERR4
 40
0.0
  9
$USERR5
 40
0.0
  9
$WORLDVIEW
 70
     1
  9
$SHADEDGE
 70
     3
  9
$SHADEDIF
 70
    70
  9
$TILEMODE
 70
     1
  9
$MAXACTVP
 70
    64
  9
$PLIMCHECK
 70
     0
  9
$PEXTMIN
 10
29.066066288948051
 20
20.366566777229309
 30
0.0
  9
$PEXTMAX
 10
261.5945966005325
 20
183.29910099506381
 30
0.0
  9
$PLIMMIN
 10
-3.17498779296875
 20
-3.1749999523162842
  9
$PLIMMAX
 10
293.83566284179687
 20
206.8406708240509
  9
$UNITMODE
 70
     0
  9
$VISRETAIN
 70
     1
  9
$PLINEGEN
 70
     0
  9
$PSLTSCALE
 70
     1
  0
ENDSEC
  0
SECTION
  2
TABLES
  0
TABLE
  2
VPORT
 70
     1
  0
VPORT
  2
*ACTIVE
 70
     0
 10
0.0
 20
0.0
 11
1.0
 21
1.0
 12
3498.0099220822831
 22
-139.0181597787805
 13
0.0
 23
0.0
 14
1.0
 24
1.0
 15
0.0
 25
0.0
 16
0.0
 26
0.0
 36
1.0
 17
0.0
 27
0.0
 37
0.0
 40
10826.851235649359
 41
1.6778074866310151
 42
50.0
 43
0.0
 44
0.0
 50
0.0
 51
0.0
 71
     0
 72
   600
 73
     1
 74
     1
 75
     0
 76
     0
 77
     0
 78
     0
  0
ENDTAB
  0
TABLE
  2
LTYPE
 70
     4
  0
LTYPE
  2
CONTINUOUS
 70
     0
  3
Solid line
 72
    65
 73
     0
 40
0.0
  0
LTYPE
  2
PHANTOM2
 70
     0
  3
___ _ _ ___ _ _ ___ _ _ ___ _ _
 72
    65
 73
     6
 40
1.25
 49
0.625
 49
-0.125
 49
0.125
 49
-0.125
 49
0.125
 49
-0.125
  0
LTYPE
  2
ACAD_ISO08W100
 70
     0
  3
ISO long-dash short-dash ____ __ ____ __ ____ _
 72
    65
 73
     4
 40
36.0
 49
24.0
 49
-3.0
 49
6.0
 49
-3.0
  0
LTYPE
  2
ACAD_ISO02W100
 70
     0
  3
ISO dash __ __ __ __ __ __ __ __ __ __ __ __ __
 72
    65
 73
     2
 40
15.0
 49
12.0
 49
-3.0
  0
ENDTAB
  0
TABLE
  2
LAYER
 70
     7
  0
LAYER
  2
0
 70
     0
 62
     7
  6
CONTINUOUS
  0
LAYER
  2
DEFPOINTS
 70
     0
 62
     7
  6
CONTINUOUS
  0
LAYER
  2
OBJECT
 70
     0
 62
     4
  6
CONTINUOUS
  0
LAYER
  2
HIDDEN
 70
     0
 62
     2
  6
ACAD_ISO02W100
  0
LAYER
  2
CENTER
 70
     0
 62
     2
  6
ACAD_ISO08W100
  0
LAYER
  2
DOTS
 70
     0
 62
     1
  6
CONTINUOUS
  0
LAYER
  2
SLIM
 70
     0
 62
     2
  6
CONTINUOUS
  0
ENDTAB
  0
TABLE
  2
STYLE
 70
     2
  0
STYLE
  2
STANDARD
 70
     0
 40
0.0
 41
0.75
 50
0.0
 71
     0
 42
4.0
  3
simplex.shx
  4
bigfont.shx
  0
ENDTAB
  0
TABLE
  2
VIEW
 70
     0
  0
ENDTAB
  0
TABLE
  2
UCS
 70
     0
  0
ENDTAB
  0
TABLE
  2
APPID
 70
    18
  0
APPID
  2
ACAD
 70
     0
  0
APPID
  2
ACADANNOTATIVE
 70
     0
  0
APPID
  2
ACAD_PSEXT
 70
     0
  0
APPID
  2
ACAD_EXEMPT_FROM_CAD_STANDARDS
 70
     0
  0
APPID
  2
ACAECLAYERSTANDARD
 70
     0
  0
APPID
  2
ACAUTHENVIRON
 70
     0
  0
APPID
  2
ACDBDYNAMICBLOCKTRUENAME
 70
     0
  0
APPID
  2
ACDBDYNAMICBLOCKGUID
 70
     0
  0
APPID
  2
ACDBBLOCKREPETAG
 70
     0
  0
APPID
  2
ACDBBLOCKREPBTAG
 70
     0
  0
APPID
  2
ACAD_NAV_VCDISPLAY
 70
     0
  0
APPID
  2
ACAD_DSTYLE_DIMRADIAL_EXTENSION
 70
     0
  0
APPID
  2
ACAD_DSTYLE_DIMJAG
 70
     0
  0
APPID
  2
ACAD_DSTYLE_DIMTALN
 70
     0
  0
APPID
  2
ACADANNOPO
 70
     0
  0
APPID
  2
GRADIENTCOLOR1ACI
 70
     0
  0
APPID
  2
GRADIENTCOLOR2ACI
 70
     0
  0
APPID
  2
ACAD_MLEADERVER
 70
     0
  0
ENDTAB
  0
TABLE
  2
DIMSTYLE
 70
     3
  0
DIMSTYLE
  2
STANDARD
 70
     0
  3

  4

  5

  6

  7

 40
1.0
 41
0.18
 42
0.0625
 43
0.38
 44
0.18
 45
0.0
 46
0.0
 47
0.0
 48
0.0
140
0.18
141
0.09
142
0.0
143
25.399999999999999
144
1.0
145
0.0
146
1.0
147
0.09
 71
     0
 72
     0
 73
     1
 74
     1
 75
     0
 76
     0
 77
     0
 78
     0
170
     0
171
     2
172
     0
173
     0
174
     0
175
     0
176
     0
177
     0
178
     0
  0
DIMSTYLE
  2
S10
 70
     0
  3

  4

  5

  6

  7

 40
10.0
 41
2.0
 42
1.0
 43
10.0
 44
1.0
 45
0.0
 46
0.0
 47
0.0
 48
0.0
140
3.2000000000000002
141
0.0
142
0.0
143
25.399999999999999
144
1.0
145
0.0
146
1.0
147
0.9
 71
     0
 72
     0
 73
     0
 74
     0
 75
     0
 76
     0
 77
     1
 78
     8
170
     0
171
     2
172
     1
173
     0
174
     0
175
     0
176
   256
177
   256
178
   256
  0
ENDTAB
  0
ENDSEC
  0
SECTION
  2
BLOCKS
  0
BLOCK
  8
0
  2
$MODEL_SPACE
 70
     0
 10
0.0
 20
0.0
 30
0.0
  3
$MODEL_SPACE
  1

  0
ENDBLK
  5
13561D
  8
0
  0
BLOCK
 67
     1
  8
0
  2
$PAPER_SPACE
 70
     0
 10
0.0
 20
0.0
 30
0.0
  3
$PAPER_SPACE
  1

  0
ENDBLK
  5
135619
 67
     1
  8
0
  0
BLOCK
  8
0
  2
_OPEN30
 70
     0
 10
0.0
 20
0.0
 30
0.0
  3
_OPEN30
  1

  0
LINE
  5
202
  8
0
  6
BYBLOCK
 62
     0
 10
-1.0
 20
0.26794919
 30
0.0
 11
0.0
 21
0.0
 31
0.0
  0
LINE
  5
203
  8
0
  6
BYBLOCK
 62
     0
 10
0.0
 20
0.0
 30
0.0
 11
-1.0
 21
-0.26794919
 31
0.0
  0
LINE
  5
204
  8
0
  6
BYBLOCK
 62
     0
 10
0.0
 20
0.0
 30
0.0
 11
-1.0
 21
0.0
 31
0.0
  0
ENDBLK
  5
206
  8
0
  0
ENDSEC
  0
SECTION
  2
ENTITIES
  0
LINE
  5
134B10
  8
OBJECT
 10
7866.0
 20
-582.99999999999761
 30
0.0
 11
7866.0
 21
-580.99999999999761
 31
0.0
1001
ACDBBLOCKREPETAG
1070
     1
1071
      157
1005
134B10
  0
ARC
  5
134B11
  8
OBJECT
 10
7824.8134425017461
 20
-600.99999999999761
 30
0.0
 40
59.0
 50
270.0
 51
310.7972311667607
1001
ACDBBLOCKREPETAG
1070
     1
1071
      158
1005
134B11
  0
LINE
  5
134B12
  8
OBJECT
 10
7756.0
 20
-589.49999999999761
 30
0.0
 11
7891.0
 21
-589.49999999999761
 31
0.0
1001
ACDBBLOCKREPETAG
1070
     1
1071
      159
1005
134B12
  0
LINE
  5
134B13
  8
OBJECT
 10
7891.0
 20
-602.49999999999761
 30
0.0
 11
7756.0
 21
-602.49999999999761
 31
0.0
1001
ACDBBLOCKREPETAG
1070
     1
1071
      160
1005
134B13
  0
LINE
  5
134B14
  8
OBJECT
 10
7891.0
 20
-589.49999999999761
 30
0.0
 11
7891.0
 21
-602.49999999999761
 31
0.0
1001
ACDBBLOCKREPETAG
1070
     1
1071
      161
1005
134B14
  0
LINE
  5
134B15
  8
OBJECT
 10
7884.0
 20
-611.49999999999761
 30
0.0
 11
7884.0
 21
-602.49999999999761
 31
0.0
1001
ACDBBLOCKREPETAG
1070
     1
1071
      162
1005
134B15
  0
LINE
  5
134B16
  8
OBJECT
 10
7866.0
 20
-614.99999999999761
 30
0.0
 11
7866.0
 21
-602.49999999999761
 31
0.0
1001
ACDBBLOCKREPETAG
1070
     1
1071
      163
1005
134B16
  0
LINE
  5
134B17
  8
OBJECT
 10
7776.0
 20
-611.49999999999761
 30
0.0
 11
7776.0
 21
-602.49999999999761
 31
0.0
1001
ACDBBLOCKREPETAG
1070
     1
1071
      164
1005
134B17
  0
LINE
  5
134B18
  8
OBJECT
 10
7756.0
 20
-589.49999999999761
 30
0.0
 11
7756.0
 21
-602.49999999999761
 31
0.0
1001
ACDBBLOCKREPETAG
1070
     1
1071
      165
1005
134B18
  0
LINE
  5
134B19
  8
OBJECT
 10
7858.0
 20
-614.99999999999761
 30
0.0
 11
7858.0
 21
-602.49999999999761
 31
0.0
1001
ACDBBLOCKREPETAG
1070
     1
1071
      166
1005
134B19
  0
LINE
  5
134B1A
  8
OBJECT
 10
7866.0
 20
-611.49999999999761
 30
0.0
 11
7885.0
 21
-611.49999999999761
 31
0.0
1001
ACDBBLOCKREPETAG
1070
     1
1071
      167
1005
134B1A
  0
LINE
  5
134B1B
  8
OBJECT
 10
7885.0
 20
-614.99999999999761
 30
0.0
 11
7885.0
 21
-611.49999999999761
 31
0.0
1001
ACDBBLOCKREPETAG
1070
     1
1071
      168
1005
134B1B
  0
LINE
  5
134B1C
  8
OBJECT
 10
7858.0
 20
-611.49999999999761
 30
0.0
 11
7775.0
 21
-611.49999999999761
 31
0.0
1001
ACDBBLOCKREPETAG
1070
     1
1071
      169
1005
134B1C
  0
LINE
  5
134B1D
  8
OBJECT
 10
7775.0
 20
-611.49999999999761
 30
0.0
 11
7775.0
 21
-614.99999999999761
 31
0.0
1001
ACDBBLOCKREPETAG
1070
     1
1071
      170
1005
134B1D
  0
LINE
  5
134B1E
  8
OBJECT
 10
7869.5055534994663
 20
-589.49999999999761
 30
0.0
 11
7869.5055534994663
 21
-582.99999999999761
 31
0.0
1001
ACDBBLOCKREPETAG
1070
     1
1071
      171
1005
134B1E
  0
LINE
  5
134B1F
  8
OBJECT
 10
7871.0
 20
-627.99999999999761
 30
0.0
 11
7871.0
 21
-632.99999999999761
 31
0.0
1001
ACDBBLOCKREPETAG
1070
     1
1071
      172
1005
134B1F
  0
LINE
  5
134B20
  8
OBJECT
 10
7871.0
 20
-632.99999999999761
 30
0.0
 11
7853.0
 21
-632.99999999999761
 31
0.0
1001
ACDBBLOCKREPETAG
1070
     1
1071
      173
1005
134B20
  0
LINE
  5
134B21
  8
OBJECT
 10
7853.0
 20
-627.99999999999761
 30
0.0
 11
7853.0
 21
-632.99999999999761
 31
0.0
1001
ACDBBLOCKREPETAG
1070
     1
1071
      174
1005
134B21
  0
LINE
  5
134B22
  8
OBJECT
 10
7890.9999999999973
 20
-614.99999999999761
 30
0.0
 11
7756.0
 21
-614.99999999999761
 31
0.0
1001
ACDBBLOCKREPETAG
1070
     1
1071
      175
1005
134B22
  0
LINE
  5
134B23
  8
OBJECT
 10
7756.0
 20
-614.99999999999761
 30
0.0
 11
7756.0
 21
-627.99999999999761
 31
0.0
1001
ACDBBLOCKREPETAG
1070
     1
1071
      176
1005
134B23
  0
LINE
  5
134B24
  8
OBJECT
 10
7863.3630997552364
 20
-645.66457125774514
 30
0.0
 11
7883.8297019999973
 21
-627.99999999999761
 31
0.0
1001
ACDBBLOCKREPETAG
1070
     1
1071
      177
1005
134B24
  0
LINE
  5
134B25
  8
OBJECT
 10
7778.9999999999982
 20
-635.65708264965485
 30
0.0
 11
7778.9999999999982
 21
-659.99999999999761
 31
0.0
1001
ACDBBLOCKREPETAG
1070
     1
1071
      178
1005
134B25
  0
LINE
  5
134B26
  8
OBJECT
 10
7824.8134425017461
 20
-659.99999999999761
 30
0.0
 11
7778.9999999999982
 21
-659.99999999999761
 31
0.0
1001
ACDBBLOCKREPETAG
1070
     1
1071
      179
1005
134B26
  0
ARC
  5
134B27
  8
OBJECT
 10
7869.5000000000027
 20
-661.49999999999761
 30
0.0
 40
84.0
 50
178.97680669632871
 51
262.94651512902959
1001
ACDBBLOCKREPETAG
1070
     1
1071
      180
1005
134B27
  0
LINE
  5
134B28
  8
OBJECT
 10
7894.0
 20
-749.17200317020843
 30
0.0
 11
7859.1851511871173
 21
-744.86428428270153
 31
0.0
1001
ACDBBLOCKREPETAG
1070
     1
1071
      181
1005
134B28
  0
LINE
  5
134B29
  8
OBJECT
 10
7893.9999999999973
 20
-749.99999999999852
 30
0.0
 11
7893.9999999999973
 21
-628.99999999999761
 31
0.0
1001
ACDBBLOCKREPETAG
1070
     1
1071
      182
1005
134B29
  0
ARC
  5
134B2A
  8
OBJECT
 10
7896.9999999999973
 20
-749.99999999999852
 30
0.0
 40
3.0
 50
180.0
 51
270.0
1001
ACDBBLOCKREPETAG
1070
     1
1071
      183
1005
134B2A
  0
LINE
  5
134B2B
  8
OBJECT
 10
7883.8297019999973
 20
-627.99999999999761
 30
0.0
 11
7756.0
 21
-627.99999999999761
 31
0.0
1001
ACDBBLOCKREPETAG
1070
     1
1071
      184
1005
134B2B
  0
LINE
  5
134B2C
  8
OBJECT
 10
7874.9460861482739
 20
-635.65708264965485
 30
0.0
 11
7778.9999999999982
 21
-635.65708264965485
 31
0.0
1001
ACDBBLOCKREPETAG
1070
     1
1071
      185
1005
134B2C
  0
LINE
  5
134B2D
  8
OBJECT
 10
7775.0
 20
-630.89006764214673
 30
0.0
 11
7778.9999999999982
 21
-635.65708264965485
 31
0.0
1001
ACDBBLOCKREPETAG
1070
     1
1071
      186
1005
134B2D
  0
LINE
  5
134B2E
  8
OBJECT
 10
7890.9999999999973
 20
-614.99999999999761
 30
0.0
 11
7890.99999999999
 21
-628.99999999999761
 31
0.0
1001
ACDBBLOCKREPETAG
1070
     1
1071
      187
1005
134B2E
  0
LINE
  5
134B2F
  8
HIDDEN
 10
7874.5000000000027
 20
-654.9999999999975
 30
0.0
 11
7785.5
 21
-654.9999999999975
 31
0.0
1001
ACDBBLOCKREPETAG
1070
     1
1071
      188
1005
134B2F
  0
LINE
  5
134B30
  8
OBJECT
 10
7866.0
 20
-580.99999999999761
 30
0.0
 11
7858.0
 21
-580.99999999999761
 31
0.0
1001
ACDBBLOCKREPETAG
1070
     1
1071
      189
1005
134B30
  0
LINE
  5
134B31
  8
OBJECT
 10
7858.0
 20
-582.99999999999761
 30
0.0
 11
7858.0
 21
-580.99999999999761
 31
0.0
1001
ACDBBLOCKREPETAG
1070
     1
1071
      190
1005
134B31
  0
LINE
  5
134B32
  8
OBJECT
 10
7869.5055534994663
 20
-582.99999999999761
 30
0.0
 11
7854.4944465005347
 21
-582.99999999999761
 31
0.0
1001
ACDBBLOCKREPETAG
1070
     1
1071
      191
1005
134B32
  0
LINE
  5
134B33
  8
CENTER
 10
7830.0
 20
-674.77158855533025
 30
0.0
 11
7830.0
 21
-574.49999999999761
 31
0.0
1001
ACDBBLOCKREPETAG
1070
     1
1071
      193
1005
134B33
  0
LINE
  5
134B34
  8
OBJECT
 10
7900.0
 20
-752.99999999999773
 30
0.0
 11
7896.9999999999973
 21
-752.99999999999852
 31
0.0
1001
ACDBBLOCKREPETAG
1070
     1
1071
      194
1005
134B34
  0
LINE
  5
134B35
  8
OBJECT
 10
7900.0
 20
-628.99999999999761
 30
0.0
 11
7890.99999999999
 21
-628.99999999999761
 31
0.0
1001
ACDBBLOCKREPETAG
1070
     1
1071
      195
1005
134B35
  0
LINE
  5
134B36
  8
OBJECT
 10
7865.7528030216072
 20
-589.49998110540889
 30
0.0
 11
7865.7528030216072
 21
-582.99998110540901
 31
0.0
1001
ACDBBLOCKREPETAG
1070
     1
1071
      196
1005
134B36
  0
LINE
  5
134B37
  8
OBJECT
 10
7854.4944465005347
 20
-589.49999999999761
 30
0.0
 11
7854.4944465005347
 21
-582.99999999999761
 31
0.0
1001
ACDBBLOCKREPETAG
1070
     1
1071
      197
1005
134B37
  0
LINE
  5
134B38
  8
OBJECT
 10
7858.2471969783937
 20
-589.49998110540889
 30
0.0
 11
7858.2471969783937
 21
-582.99998110540901
 31
0.0
1001
ACDBBLOCKREPETAG
1070
     1
1071
      198
1005
134B38
  0
LINE
  5
134B39
  8
OBJECT
 10
7770.0
 20
-582.99999999999761
 30
0.0
 11
7770.0
 21
-580.99999999999761
 31
0.0
1001
ACDBBLOCKREPETAG
1070
     1
1071
      199
1005
134B39
  0
LINE
  5
134B3A
  8
OBJECT
 10
7770.0
 20
-614.99999999999761
 30
0.0
 11
7770.0
 21
-602.49999999999761
 31
0.0
1001
ACDBBLOCKREPETAG
1070
     1
1071
      200
1005
134B3A
  0
LINE
  5
134B3B
  8
OBJECT
 10
7762.0
 20
-614.99999999999761
 30
0.0
 11
7762.0
 21
-602.49999999999761
 31
0.0
1001
ACDBBLOCKREPETAG
1070
     1
1071
      201
1005
134B3B
  0
LINE
  5
134B3C
  8
OBJECT
 10
7773.5055534994653
 20
-589.49999999999761
 30
0.0
 11
7773.5055534994653
 21
-582.99999999999761
 31
0.0
1001
ACDBBLOCKREPETAG
1070
     1
1071
      202
1005
134B3C
  0
LINE
  5
134B3D
  8
OBJECT
 10
7775.0
 20
-627.99999999999761
 30
0.0
 11
7775.0
 21
-632.99999999999761
 31
0.0
1001
ACDBBLOCKREPETAG
1070
     1
1071
      203
1005
134B3D
  0
LINE
  5
134B3E
  8
OBJECT
 10
7775.0
 20
-632.99999999999761
 30
0.0
 11
7757.0
 21
-632.99999999999761
 31
0.0
1001
ACDBBLOCKREPETAG
1070
     1
1071
      204
1005
134B3E
  0
LINE
  5
134B3F
  8
OBJECT
 10
7757.0
 20
-627.99999999999761
 30
0.0
 11
7757.0
 21
-632.99999999999761
 31
0.0
1001
ACDBBLOCKREPETAG
1070
     1
1071
      205
1005
134B3F
  0
LINE
  5
134B40
  8
OBJECT
 10
7770.0
 20
-580.99999999999761
 30
0.0
 11
7762.0
 21
-580.99999999999761
 31
0.0
1001
ACDBBLOCKREPETAG
1070
     1
1071
      206
1005
134B40
  0
LINE
  5
134B41
  8
OBJECT
 10
7762.0
 20
-582.99999999999761
 30
0.0
 11
7762.0
 21
-580.99999999999761
 31
0.0
1001
ACDBBLOCKREPETAG
1070
     1
1071
      207
1005
134B41
  0
LINE
  5
134B42
  8
OBJECT
 10
7773.5055534994653
 20
-582.99999999999761
 30
0.0
 11
7758.4944465005337
 21
-582.99999999999761
 31
0.0
1001
ACDBBLOCKREPETAG
1070
     1
1071
      208
1005
134B42
  0
LINE
  5
134B43
  8
OBJECT
 10
7769.7528030216054
 20
-589.49998110540889
 30
0.0
 11
7769.7528030216054
 21
-582.99998110540901
 31
0.0
1001
ACDBBLOCKREPETAG
1070
     1
1071
      209
1005
134B43
  0
LINE
  5
134B44
  8
OBJECT
 10
7758.4944465005337
 20
-589.49999999999761
 30
0.0
 11
7758.4944465005337
 21
-582.99999999999761
 31
0.0
1001
ACDBBLOCKREPETAG
1070
     1
1071
      210
1005
134B44
  0
LINE
  5
134B45
  8
OBJECT
 10
7762.2471969783937
 20
-589.49998110540889
 30
0.0
 11
7762.2471969783937
 21
-582.99998110540901
 31
0.0
1001
ACDBBLOCKREPETAG
1070
     1
1071
      211
1005
134B45
  0
CIRCLE
  5
134B46
  8
OBJECT
 10
8000.0
 20
-690.99999999999761
 30
0.0
 40
62.0
1001
ACDBBLOCKREPETAG
1070
     1
1071
        0
1005
134B46
  0
LINE
  5
134B47
  8
OBJECT
 10
8095.0
 20
-569.99999999999955
 30
0.0
 11
7905.0
 21
-569.99999999999955
 31
0.0
1001
ACDBBLOCKREPETAG
1070
     1
1071
        0
1005
134B47
  0
LINE
  5
134B48
  8
OBJECT
 10
8095.0
 20
-549.99999999999955
 30
0.0
 11
7905.0
 21
-549.99999999999955
 31
0.0
1001
ACDBBLOCKREPETAG
1070
     1
1071
        1
1005
134B48
  0
LINE
  5
134B49
  8
OBJECT
 10
7902.5
 20
-914.99999999999955
 30
0.0
 11
8097.5000000000009
 21
-914.99999999999955
 31
0.0
1001
ACDBBLOCKREPETAG
1070
     1
1071
        2
1005
134B49
  0
LINE
  5
134B4A
  8
OBJECT
 10
7908.237046000002
 20
-549.99999999999955
 30
0.0
 11
7908.2370465822614
 21
-569.99999999999955
 31
0.0
1001
ACDBBLOCKREPETAG
1070
     1
1071
        3
1005
134B4A
  0
LINE
  5
134B4B
  8
OBJECT
 10
7905.0
 20
-549.99999999999955
 30
0.0
 11
7905.0
 21
-569.99999999999955
 31
0.0
1001
ACDBBLOCKREPETAG
1070
     1
1071
        4
1005
134B4B
  0
LINE
  5
134B4C
  8
OBJECT
 10
7916.0249089999988
 20
-549.99999999999955
 30
0.0
 11
7916.0249089999988
 21
-569.99999999999955
 31
0.0
1001
ACDBBLOCKREPETAG
1070
     1
1071
        5
1005
134B4C
  0
LINE
  5
134B4D
  8
OBJECT
 10
7967.6243270000023
 20
-549.99999999999955
 30
0.0
 11
7967.6243270000023
 21
-569.99999999999955
 31
0.0
1001
ACDBBLOCKREPETAG
1070
     1
1071
        6
1005
134B4D
  0
LINE
  5
134B4E
  8
OBJECT
 10
7975.4121899999973
 20
-549.99999999999955
 30
0.0
 11
7975.4121899999973
 21
-569.99999999999955
 31
0.0
1001
ACDBBLOCKREPETAG
1070
     1
1071
        7
1005
134B4E
  0
LINE
  5
134B4F
  8
OBJECT
 10
8024.5878090000006
 20
-549.99999999999955
 30
0.0
 11
8024.5878090000006
 21
-569.99999999999955
 31
0.0
1001
ACDBBLOCKREPETAG
1070
     1
1071
        8
1005
134B4F
  0
LINE
  5
134B50
  8
OBJECT
 10
8032.3756720000038
 20
-549.99999999999955
 30
0.0
 11
8032.3756720000038
 21
-569.99999999999955
 31
0.0
1001
ACDBBLOCKREPETAG
1070
     1
1071
        9
1005
134B50
  0
LINE
  5
134B51
  8
OBJECT
 10
8083.9750910000021
 20
-549.99999999999955
 30
0.0
 11
8083.9750910000021
 21
-569.99999999999955
 31
0.0
1001
ACDBBLOCKREPETAG
1070
     1
1071
       10
1005
134B51
  0
LINE
  5
134B52
  8
OBJECT
 10
8091.762953999998
 20
-549.99999999999955
 30
0.0
 11
8091.7629534177404
 21
-569.99999999999955
 31
0.0
1001
ACDBBLOCKREPETAG
1070
     1
1071
       11
1005
134B52
  0
LINE
  5
134B53
  8
OBJECT
 10
8095.0
 20
-549.99999999999955
 30
0.0
 11
8095.0
 21
-569.99999999999955
 31
0.0
1001
ACDBBLOCKREPETAG
1070
     1
1071
       12
1005
134B53
  0
LINE
  5
134B54
  8
OBJECT
 10
8100.0
 20
-628.99999999999955
 30
0.0
 11
7900.0
 21
-628.99999999999955
 31
0.0
1001
ACDBBLOCKREPETAG
1070
     1
1071
       13
1005
134B54
  0
LINE
  5
134B55
  8
OBJECT
 10
8100.0
 20
-752.99999999999773
 30
0.0
 11
8092.4999999999973
 21
-752.99999999999773
 31
0.0
1001
ACDBBLOCKREPETAG
1070
     1
1071
       14
1005
134B55
  0
LINE
  5
134B56
  8
OBJECT
 10
7902.5
 20
-914.99999999999955
 30
0.0
 11
7902.5
 21
-902.99999999999784
 31
0.0
1001
ACDBBLOCKREPETAG
1070
     1
1071
       15
1005
134B56
  0
LINE
  5
134B57
  8
OBJECT
 10
8097.5000000000009
 20
-914.99999999999955
 30
0.0
 11
8097.5000000000009
 21
-902.99999999999784
 31
0.0
1001
ACDBBLOCKREPETAG
1070
     1
1071
       16
1005
134B57
  0
LINE
  5
134B58
  8
OBJECT
 10
7902.5
 20
-902.99999999999784
 30
0.0
 11
8097.5000000000009
 21
-902.99999999999784
 31
0.0
1001
ACDBBLOCKREPETAG
1070
     1
1071
       17
1005
134B58
  0
LINE
  5
134B59
  8
HIDDEN
 10
7930.0
 20
-624.99999999999955
 30
0.0
 11
8070.0
 21
-624.99999999999955
 31
0.0
1001
ACDBBLOCKREPETAG
1070
     1
1071
       18
1005
134B59
  0
LINE
  5
134B5A
  8
CENTER
 10
8000.0
 20
-534.99999999999955
 30
0.0
 11
8000.0
 21
-914.99999999999955
 31
0.0
1001
ACDBBLOCKREPETAG
1070
     1
1071
       19
1005
134B5A
  0
LINE
  5
134B5B
  8
OBJECT
 10
8092.4999999999973
 20
-752.99999999999773
 30
0.0
 11
8092.4999999999973
 21
-902.99999999999784
 31
0.0
1001
ACDBBLOCKREPETAG
1070
     1
1071
       20
1005
134B5B
  0
LINE
  5
134B5C
  8
OBJECT
 10
7914.5
 20
-569.99999999999955
 30
0.0
 11
7914.5
 21
-628.99999999999955
 31
0.0
1001
ACDBBLOCKREPETAG
1070
     1
1071
       21
1005
134B5C
  0
LINE
  5
134B5D
  8
OBJECT
 10
8085.5000000000027
 20
-569.99999999999955
 30
0.0
 11
8085.5000000000027
 21
-628.99999999999955
 31
0.0
1001
ACDBBLOCKREPETAG
1070
     1
1071
       22
1005
134B5D
  0
POINT
  5
134B5E
  8
DOTS
 10
8000.0
 20
-749.99999999999955
 30
0.0
1001
ACDBBLOCKREPETAG
1070
     1
1071
       24
1005
134B5E
  0
LINE
  5
134B5F
  8
OBJECT
 10
7900.0
 20
-752.99999999999773
 30
0.0
 11
7907.5
 21
-752.99999999999773
 31
0.0
1001
ACDBBLOCKREPETAG
1070
     1
1071
       25
1005
134B5F
  0
LINE
  5
134B60
  8
OBJECT
 10
7907.5
 20
-752.99999999999773
 30
0.0
 11
7907.5
 21
-902.99999999999784
 31
0.0
1001
ACDBBLOCKREPETAG
1070
     1
1071
       26
1005
134B60
  0
ARC
  5
134B61
  8
OBJECT
 10
8214.4155190291513
 20
-715.62073879202455
 30
0.0
 40
149.554492306393
 50
144.60628028468801
 51
164.2211863995189
1001
ACDBBLOCKREPETAG
1070
     1
1071
       28
1005
134B61
  0
ARC
  5
134B62
  8
OBJECT
 10
8139.1422781245292
 20
-690.99999999999761
 30
0.0
 40
70.496447952551449
 50
166.8426918235858
 51
193.15730817641409
1001
ACDBBLOCKREPETAG
1070
     1
1071
       29
1005
134B62
  0
ARC
  5
134B63
  8
OBJECT
 10
8214.4155190291513
 20
-666.3792612079701
 30
0.0
 40
149.55449230639621
 50
195.7788136004809
 51
215.3937197153119
1001
ACDBBLOCKREPETAG
1070
     1
1071
       30
1005
134B63
  0
ARC
  5
134B64
  8
OBJECT
 10
7785.5844809708497
 20
-715.62073879202455
 30
0.0
 40
149.554492306393
 50
15.778813600524931
 51
35.393719715228642
1001
ACDBBLOCKREPETAG
1070
     1
1071
       31
1005
134B64
  0
ARC
  5
134B65
  8
OBJECT
 10
7860.8577218754726
 20
-690.99999999999761
 30
0.0
 40
70.496447952551449
 50
346.84269182358582
 51
13.15730817641421
1001
ACDBBLOCKREPETAG
1070
     1
1071
       32
1005
134B65
  0
ARC
  5
134B66
  8
OBJECT
 10
7785.5844809708497
 20
-666.3792612079701
 30
0.0
 40
149.55449230639621
 50
324.60628028477117
 51
344.22118639947507
1001
ACDBBLOCKREPETAG
1070
     1
1071
       33
1005
134B66
  0
LINE
  5
134B67
  8
CENTER
 10
7899.9999999999973
 20
-199.99999999999909
 30
0.0
 11
7740.9999999999964
 21
-199.99999999999909
 31
0.0
1001
ACDBBLOCKREPETAG
1070
     1
1071
      155
1005
134B67
  0
LINE
  5
134B68
  8
OBJECT
 10
7899.9999999999973
 20
-261.99999999999909
 30
0.0
 11
7896.9999999999973
 21
-261.99999999999909
 31
0.0
1001
ACDBBLOCKREPETAG
1070
     1
1071
      156
1005
134B68
  0
ARC
  5
134B69
  8
OBJECT
 10
7896.9999999999973
 20
-258.99999999999909
 30
0.0
 40
3.0
 50
180.0
 51
270.0
1001
ACDBBLOCKREPETAG
1070
     1
1071
      157
1005
134B69
  0
LINE
  5
134B6A
  8
OBJECT
 10
7899.9999999999973
 20
-138.0000000000027
 30
0.0
 11
7896.9999999999973
 21
-138.0000000000027
 31
0.0
1001
ACDBBLOCKREPETAG
1070
     1
1071
      158
1005
134B6A
  0
LINE
  5
134B6B
  8
OBJECT
 10
7893.9999999999973
 20
-140.99999999999909
 30
0.0
 11
7871.3452724064609
 21
-140.9999999999954
 31
0.0
1001
ACDBBLOCKREPETAG
1070
     1
1071
      159
1005
134B6B
  0
LINE
  5
134B6C
  8
OBJECT
 10
7893.9999999999973
 20
-259.00000000000267
 30
0.0
 11
7871.3452724064609
 21
-258.99999999999909
 31
0.0
1001
ACDBBLOCKREPETAG
1070
     1
1071
      160
1005
134B6C
  0
LINE
  5
134B6D
  8
CENTER
 10
7829.9999999999973
 20
-123.5195984073716
 30
0.0
 11
7829.9999999999973
 21
-276.48040159262649
 31
0.0
1001
ACDBBLOCKREPETAG
1070
     1
1071
      161
1005
134B6D
  0
LINE
  5
134B6E
  8
OBJECT
 10
7893.9999999999973
 20
-141.0000000000027
 30
0.0
 11
7893.9999999999973
 21
-258.99999999999909
 31
0.0
1001
ACDBBLOCKREPETAG
1070
     1
1071
      162
1005
134B6E
  0
ARC
  5
134B6F
  8
OBJECT
 10
7896.9999999999973
 20
-141.0000000000027
 30
0.0
 40
3.0
 50
90.0
 51
180.0
1001
ACDBBLOCKREPETAG
1070
     1
1071
      163
1005
134B6F
  0
ARC
  5
134B70
  8
OBJECT
 10
7829.9999999999973
 20
-199.99999999999909
 30
0.0
 40
61.0
 50
97.16728546129427
 51
142.83271453872419
1001
ACDBBLOCKREPETAG
1070
     1
1071
      165
1005
134B70
  0
ARC
  5
134B71
  8
OBJECT
 10
7829.9999999999973
 20
-199.99999999999909
 30
0.0
 40
61.0
 50
337.1672854612342
 51
22.83271453876576
1001
ACDBBLOCKREPETAG
1070
     1
1071
      166
1005
134B71
  0
ARC
  5
134B72
  8
OBJECT
 10
7829.9999999999973
 20
-199.99999999999909
 30
0.0
 40
61.0
 50
217.16728546127581
 51
262.83271453870572
1001
ACDBBLOCKREPETAG
1070
     1
1071
      167
1005
134B72
  0
CIRCLE
  5
134B73
  8
SLIM
 10
7765.9999999999973
 20
-199.99999999999909
 30
0.0
 40
4.0
1001
ACDBBLOCKREPETAG
1070
     1
1071
      168
1005
134B73
  0
ARC
  5
134B74
  8
OBJECT
 10
7765.9999999999973
 20
-199.99999999999909
 30
0.0
 40
10.0
 50
142.83271453872419
 51
217.16728546127581
1001
ACDBBLOCKREPETAG
1070
     1
1071
      169
1005
134B74
  0
LINE
  5
134B75
  8
OBJECT
 10
7781.390625
 20
-163.14720279124501
 30
0.0
 11
7758.0312499999982
 21
-193.9585578346296
 31
0.0
1001
ACDBBLOCKREPETAG
1070
     1
1071
      170
1005
134B75
  0
LINE
  5
134B76
  8
OBJECT
 10
7781.390625
 20
-236.8527972087532
 30
0.0
 11
7758.0312499999982
 21
-206.04144216536861
 31
0.0
1001
ACDBBLOCKREPETAG
1070
     1
1071
      171
1005
134B76
  0
CIRCLE
  5
134B77
  8
SLIM
 10
7861.9999999999982
 20
-144.5743741577962
 30
0.0
 40
3.9999999999999991
1001
ACDBBLOCKREPETAG
1070
     1
1071
      172
1005
134B77
  0
ARC
  5
134B78
  8
OBJECT
 10
7861.9999999999982
 20
-144.5743741577962
 30
0.0
 40
9.9999999999999982
 50
22.83271453876576
 51
97.16728546129427
1001
ACDBBLOCKREPETAG
1070
     1
1071
      173
1005
134B78
  0
LINE
  5
134B79
  8
OBJECT
 10
7886.2201460832912
 20
-176.32944499229319
 30
0.0
 11
7871.2164173907004
 21
-140.6939553040711
 31
0.0
1001
ACDBBLOCKREPETAG
1070
     1
1071
      174
1005
134B79
  0
LINE
  5
134B7A
  8
OBJECT
 10
7822.3892289166979
 20
-139.47664778353919
 30
0.0
 11
7860.7523326092933
 21
-134.65251313870161
 31
0.0
1001
ACDBBLOCKREPETAG
1070
     1
1071
      175
1005
134B7A
  0
CIRCLE
  5
134B7B
  8
SLIM
 10
7861.9999999999982
 20
-255.4256258422019
 30
0.0
 40
4.0
1001
ACDBBLOCKREPETAG
1070
     1
1071
      176
1005
134B7B
  0
ARC
  5
134B7C
  8
OBJECT
 10
7861.9999999999982
 20
-255.4256258422019
 30
0.0
 40
10.0
 50
262.83271453870572
 51
337.1672854612342
1001
ACDBBLOCKREPETAG
1070
     1
1071
      177
1005
134B7C
  0
LINE
  5
134B7D
  8
OBJECT
 10
7822.3892289166979
 20
-260.52335221645899
 30
0.0
 11
7860.7523326092933
 21
-265.3474868612966
 31
0.0
1001
ACDBBLOCKREPETAG
1070
     1
1071
      178
1005
134B7D
  0
LINE
  5
134B7E
  8
OBJECT
 10
7886.2201460832912
 20
-223.67055500770491
 30
0.0
 11
7871.2164173907004
 21
-259.30604469592708
 31
0.0
1001
ACDBBLOCKREPETAG
1070
     1
1071
      179
1005
134B7E
  0
CIRCLE
  5
134B7F
  8
OBJECT
 10
7829.9999999999973
 20
-199.99999999999909
 30
0.0
 40
46.0
1001
ACDBBLOCKREPETAG
1070
     1
1071
      180
1005
134B7F
  0
POLYLINE
  5
134B80
  8
SLIM
 66
     1
 10
0.0
 20
0.0
 30
0.0
 70
     1
1001
ACDBBLOCKREPETAG
1070
     1
1071
      181
1005
134B80
  0
VERTEX
  5
1357F6
  8
SLIM
 10
7769.7527767497304
 20
-193.49999999999909
 30
0.0
  0
VERTEX
  5
1357F7
  8
SLIM
 10
7773.5055534994581
 20
-199.99999999999909
 30
0.0
  0
VERTEX
  5
1357F8
  8
SLIM
 10
7769.7527767497304
 20
-206.49999999999909
 30
0.0
  0
VERTEX
  5
1357F9
  8
SLIM
 10
7762.2472232502632
 20
-206.49999999999909
 30
0.0
  0
VERTEX
  5
1357FA
  8
SLIM
 10
7758.4944465005337
 20
-199.99999999999909
 30
0.0
  0
VERTEX
  5
1357FB
  8
SLIM
 10
7762.2472232502632
 20
-193.49999999999909
 30
0.0
  0
SEQEND
  5
1357FC
  8
SLIM
  0
POLYLINE
  5
134B81
  8
SLIM
 66
     1
 10
0.0
 20
0.0
 30
0.0
 70
     1
1001
ACDBBLOCKREPETAG
1070
     1
1071
      182
1005
134B81
  0
VERTEX
  5
1357FD
  8
SLIM
 10
7865.7527767497286
 20
-151.0743741577962
 30
0.0
  0
VERTEX
  5
1357FE
  8
SLIM
 10
7858.2472232502632
 20
-151.0743741577962
 30
0.0
  0
VERTEX
  5
1357FF
  8
SLIM
 10
7854.494446500531
 20
-144.5743741577962
 30
0.0
  0
VERTEX
  5
135800
  8
SLIM
 10
7858.247223250266
 20
-138.07437415779259
 30
0.0
  0
VERTEX
  5
135801
  8
SLIM
 10
7865.7527767497286
 20
-138.0743741577962
 30
0.0
  0
VERTEX
  5
135802
  8
SLIM
 10
7869.505553499459
 20
-144.57437415779259
 30
0.0
  0
SEQEND
  5
135803
  8
SLIM
  0
POLYLINE
  5
134B82
  8
SLIM
 66
     1
 10
0.0
 20
0.0
 30
0.0
 70
     1
1001
ACDBBLOCKREPETAG
1070
     1
1071
      183
1005
134B82
  0
VERTEX
  5
135804
  8
SLIM
 10
7854.494446500531
 20
-255.4256258422019
 30
0.0
  0
VERTEX
  5
135805
  8
SLIM
 10
7858.247223250266
 20
-248.9256258422019
 30
0.0
  0
VERTEX
  5
135806
  8
SLIM
 10
7865.7527767497286
 20
-248.9256258422019
 30
0.0
  0
VERTEX
  5
135807
  8
SLIM
 10
7869.505553499459
 20
-255.42562584220559
 30
0.0
  0
VERTEX
  5
135808
  8
SLIM
 10
7865.7527767497286
 20
-261.9256258422019
 30
0.0
  0
VERTEX
  5
135809
  8
SLIM
 10
7858.247223250266
 20
-261.92562584220559
 30
0.0
  0
SEQEND
  5
13580A
  8
SLIM
  0
LINE
  5
134B83
  8
CENTER
 10
8000.0000000000027
 20
-320.99999999999898
 30
0.0
 11
8000.0000000000027
 21
-299.99999999999898
 31
0.0
1001
ACDBBLOCKREPETAG
1070
     1
1071
        0
1005
134B83
  0
LINE
  5
134B84
  8
OBJECT
 10
8062.0000000000018
 20
-303.0
 30
0.0
 11
8062.0000000000018
 21
-299.99999999999898
 31
0.0
1001
ACDBBLOCKREPETAG
1070
     1
1071
        1
1005
134B84
  0
ARC
  5
134B85
  8
OBJECT
 10
8059.0000000000018
 20
-303.0
 30
0.0
 40
3.0
 50
270.0
 51
0.0
1001
ACDBBLOCKREPETAG
1070
     1
1071
        2
1005
134B85
  0
LINE
  5
134B86
  8
OBJECT
 10
7938.0000000000018
 20
-299.99999999999898
 30
0.0
 11
7938.0000000000018
 21
-302.99999999999818
 31
0.0
1001
ACDBBLOCKREPETAG
1070
     1
1071
        3
1005
134B86
  0
ARC
  5
134B87
  8
OBJECT
 10
7941.0000000000018
 20
-302.99999999999818
 30
0.0
 40
3.0
 50
180.0
 51
270.0
1001
ACDBBLOCKREPETAG
1070
     1
1071
        4
1005
134B87
  0
LINE
  5
134B88
  8
OBJECT
 10
7941.0000000000018
 20
-305.99999999999818
 30
0.0
 11
8059.0000000000018
 21
-306.0
 31
0.0
1001
ACDBBLOCKREPETAG
1070
     1
1071
        5
1005
134B88
  0
LINE
  5
134B89
  8
SLIM
 10
7918.5743713244692
 20
-137.74153073842379
 30
0.0
 11
7937.7415307384244
 21
-118.5743713244679
 31
0.0
1001
GRADIENTCOLOR1ACI
1070
     5
1001
GRADIENTCOLOR2ACI
1070
     2
1001
ACAD
1010
0.0
1020
0.0
1030
0.0
1001
ACDBBLOCKREPETAG
1070
     1
1071
      301
1005
134B89
  0
LINE
  5
134B8A
  8
SLIM
 10
7927.2961581839618
 20
-137.99999999999909
 30
0.0
 11
7959.4220169794107
 21
-105.8741412045496
 31
0.0
1001
GRADIENTCOLOR1ACI
1070
     5
1001
GRADIENTCOLOR2ACI
1070
     2
1001
ACAD
1010
0.0
1020
0.0
1030
0.0
1001
ACDBBLOCKREPETAG
1070
     1
1071
      302
1005
134B8A
  0
LINE
  5
134B8B
  8
SLIM
 10
7955.2080715681668
 20
-119.0683427368643
 30
0.0
 11
7973.21479235677
 21
-101.06162194825821
 31
0.0
1001
GRADIENTCOLOR1ACI
1070
     5
1001
GRADIENTCOLOR2ACI
1070
     2
1001
ACAD
1010
0.0
1020
0.0
1030
0.0
1001
ACDBBLOCKREPETAG
1070
     1
1071
      303
1005
134B8B
  0
LINE
  5
134B8C
  8
SLIM
 10
7971.1389053532557
 20
-112.11776507284389
 30
0.0
 11
7984.5919680901698
 21
-98.664702335928993
 31
0.0
1001
GRADIENTCOLOR1ACI
1070
     5
1001
GRADIENTCOLOR2ACI
1070
     2
1001
ACAD
1010
0.0
1020
0.0
1030
0.0
1001
ACDBBLOCKREPETAG
1070
     1
1071
      304
1005
134B8C
  0
LINE
  5
134B8D
  8
SLIM
 10
7986.2342955596032
 20
-106.0026309875652
 30
0.0
 11
7994.59428198766
 21
-97.642644559507801
 31
0.0
1001
GRADIENTCOLOR1ACI
1070
     5
1001
GRADIENTCOLOR2ACI
1070
     2
1001
ACAD
1010
0.0
1020
0.0
1030
0.0
1001
ACDBBLOCKREPETAG
1070
     1
1071
      278
1005
134B8D
  0
LINE
  5
134B8E
  8
SLIM
 10
7996.1386775409328
 20
-105.0785051273038
 30
0.0
 11
8000.0
 21
-101.21718266823839
 31
0.0
1001
GRADIENTCOLOR1ACI
1070
     5
1001
GRADIENTCOLOR2ACI
1070
     2
1001
ACAD
1010
0.0
1020
0.0
1030
0.0
1001
ACDBBLOCKREPETAG
1070
     1
1071
      305
1005
134B8E
  0
LINE
  5
134B8F
  8
SLIM
 10
8000.0
 20
-101.21718266823839
 30
0.0
 11
8003.652099419467
 21
-97.565083248774314
 31
0.0
1001
GRADIENTCOLOR1ACI
1070
     5
1001
GRADIENTCOLOR2ACI
1070
     2
1001
ACAD
1010
0.0
1020
0.0
1030
0.0
1001
ACDBBLOCKREPETAG
1070
     1
1071
      306
1005
134B8F
  0
LINE
  5
134B90
  8
SLIM
 10
8005.0624562444928
 20
-105.13498254481389
 30
0.0
 11
8011.9933588609547
 21
-98.204079928355625
 31
0.0
1001
GRADIENTCOLOR1ACI
1070
     5
1001
GRADIENTCOLOR2ACI
1070
     2
1001
ACAD
1010
0.0
1020
0.0
1030
0.0
1001
ACDBBLOCKREPETAG
1070
     1
1071
      307
1005
134B90
  0
LINE
  5
134B91
  8
SLIM
 10
8013.2492495222623
 20
-105.9284453881143
 30
0.0
 11
8019.7558130592479
 21
-99.421881851129058
 31
0.0
1001
GRADIENTCOLOR1ACI
1070
     5
1001
GRADIENTCOLOR2ACI
1070
     2
1001
ACAD
1010
0.0
1020
0.0
1030
0.0
1001
ACDBBLOCKREPETAG
1070
     1
1071
      282
1005
134B91
  0
LINE
  5
134B92
  8
SLIM
 10
8020.8432248281188
 20
-107.31472620332499
 30
0.0
 11
8027.0297896486627
 21
-101.1281613827821
 31
0.0
1001
GRADIENTCOLOR1ACI
1070
     5
1001
GRADIENTCOLOR2ACI
1070
     2
1001
ACAD
1010
0.0
1020
0.0
1030
0.0
1001
ACDBBLOCKREPETAG
1070
     1
1071
      283
1005
134B92
  0
LINE
  5
134B93
  8
SLIM
 10
8026.7444850762586
 20
-110.3937220762563
 30
0.0
 11
8033.877784086586
 21
-103.2604230659298
 31
0.0
1001
GRADIENTCOLOR1ACI
1070
     5
1001
GRADIENTCOLOR2ACI
1070
     2
1001
ACAD
1010
0.0
1020
0.0
1030
0.0
1001
ACDBBLOCKREPETAG
1070
     1
1071
      284
1005
134B93
  0
LINE
  5
134B94
  8
SLIM
 10
8032.6605739035549
 20
-113.4578893700272
 30
0.0
 11
8040.3445940865868
 21
-105.7738691869987
 31
0.0
1001
GRADIENTCOLOR1ACI
1070
     5
1001
GRADIENTCOLOR2ACI
1070
     2
1001
ACAD
1010
0.0
1020
0.0
1030
0.0
1001
ACDBBLOCKREPETAG
1070
     1
1071
      285
1005
134B94
  0
LINE
  5
134B95
  8
SLIM
 10
8038.983012933968
 20
-116.115706460684
 30
0.0
 11
8046.4630285156381
 21
-108.63569087901411
 31
0.0
1001
GRADIENTCOLOR1ACI
1070
     5
1001
GRADIENTCOLOR2ACI
1070
     2
1001
ACAD
1010
0.0
1020
0.0
1030
0.0
1001
ACDBBLOCKREPETAG
1070
     1
1071
      286
1005
134B95
  0
LINE
  5
134B96
  8
SLIM
 10
8044.9326113883499
 20
-119.1463641273716
 30
0.0
 11
8052.2573273714534
 21
-111.8216481442697
 31
0.0
1001
GRADIENTCOLOR1ACI
1070
     5
1001
GRADIENTCOLOR2ACI
1070
     2
1001
ACAD
1010
0.0
1020
0.0
1030
0.0
1001
ACDBBLOCKREPETAG
1070
     1
1071
      287
1005
134B96
  0
LINE
  5
134B97
  8
SLIM
 10
8050.5348792738341
 20
-122.5243523629576
 30
0.0
 11
8057.7453005374227
 21
-115.3139310993673
 31
0.0
1001
GRADIENTCOLOR1ACI
1070
     5
1001
GRADIENTCOLOR2ACI
1070
     2
1001
ACAD
1010
0.0
1020
0.0
1030
0.0
1001
ACDBBLOCKREPETAG
1070
     1
1071
      288
1005
134B97
  0
LINE
  5
134B98
  8
SLIM
 10
7919.0997883728269
 20
-262.93969938503398
 30
0.0
 11
7920.039487757861
 21
-261.99999999999909
 31
0.0
1001
GRADIENTCOLOR1ACI
1070
     5
1001
GRADIENTCOLOR2ACI
1070
     2
1001
ACAD
1010
0.0
1020
0.0
1030
0.0
1001
ACDBBLOCKREPETAG
1070
     1
1071
      289
1005
134B98
  0
LINE
  5
134B99
  8
SLIM
 10
8055.807705723706
 20
-126.2317820341551
 30
0.0
 11
8062.9396993850351
 21
-119.0997883728258
 31
0.0
1001
GRADIENTCOLOR1ACI
1070
     5
1001
GRADIENTCOLOR2ACI
1070
     2
1001
ACAD
1010
0.0
1020
0.0
1030
0.0
1001
ACDBBLOCKREPETAG
1070
     1
1071
      290
1005
134B99
  0
LINE
  5
134B9A
  8
SLIM
 10
7923.1706450290276
 20
-267.84909884990361
 30
0.0
 11
7929.019743878931
 21
-261.99999999999909
 31
0.0
1001
GRADIENTCOLOR1ACI
1070
     5
1001
GRADIENTCOLOR2ACI
1070
     2
1001
ACAD
1010
0.0
1020
0.0
1030
0.0
1001
ACDBBLOCKREPETAG
1070
     1
1071
      291
1005
134B9A
  0
LINE
  5
134B9B
  8
SLIM
 10
8060.7629465796699
 20
-130.25679729926071
 30
0.0
 11
8067.8490988499034
 21
-123.17064502902539
 31
0.0
1001
GRADIENTCOLOR1ACI
1070
     5
1001
GRADIENTCOLOR2ACI
1070
     2
1001
ACAD
1010
0.0
1020
0.0
1030
0.0
1001
ACDBBLOCKREPETAG
1070
     1
1071
      292
1005
134B9B
  0
LINE
  5
134B9C
  8
SLIM
 10
7927.5215549283794
 20
-272.47844507162011
 30
0.0
 11
7934.5926227402433
 21
-265.40737725975481
 31
0.0
1001
GRADIENTCOLOR1ACI
1070
     5
1001
GRADIENTCOLOR2ACI
1070
     2
1001
ACAD
1010
0.0
1020
0.0
1030
0.0
1001
ACDBBLOCKREPETAG
1070
     1
1071
      293
1005
134B9C
  0
LINE
  5
134B9D
  8
SLIM
 10
8065.4073772597576
 20
-134.5926227402434
 30
0.0
 11
8072.4784450716224
 21
-127.52155492837799
 31
0.0
1001
GRADIENTCOLOR1ACI
1070
     5
1001
GRADIENTCOLOR2ACI
1070
     2
1001
ACAD
1010
0.0
1020
0.0
1030
0.0
1001
ACDBBLOCKREPETAG
1070
     1
1071
      294
1005
134B9D
  0
LINE
  5
134B9E
  8
SLIM
 10
7932.1509011500939
 20
-276.82935497097282
 30
0.0
 11
7937.9999999999936
 21
-270.980256121075
 31
0.0
1001
GRADIENTCOLOR1ACI
1070
     5
1001
GRADIENTCOLOR2ACI
1070
     2
1001
ACAD
1010
0.0
1020
0.0
1030
0.0
1001
ACDBBLOCKREPETAG
1070
     1
1071
      295
1005
134B9E
  0
LINE
  5
134B9F
  8
SLIM
 10
8070.980256121069
 20
-137.99999999999901
 30
0.0
 11
8076.8293549709733
 21
-132.15090115009451
 31
0.0
1001
GRADIENTCOLOR1ACI
1070
     5
1001
GRADIENTCOLOR2ACI
1070
     2
1001
ACAD
1010
0.0
1020
0.0
1030
0.0
1001
ACDBBLOCKREPETAG
1070
     1
1071
      296
1005
134B9F
  0
LINE
  5
134BA0
  8
SLIM
 10
7937.0603006149649
 20
-280.90021162717238
 30
0.0
 11
7937.9999999999955
 21
-279.9605122421421
 31
0.0
1001
GRADIENTCOLOR1ACI
1070
     5
1001
GRADIENTCOLOR2ACI
1070
     2
1001
ACAD
1010
0.0
1020
0.0
1030
0.0
1001
ACDBBLOCKREPETAG
1070
     1
1071
      297
1005
134BA0
  0
LINE
  5
134BA1
  8
SLIM
 10
8079.9605122421362
 20
-137.99999999999901
 30
0.0
 11
8080.9002116271704
 21
-137.06030061496409
 31
0.0
1001
GRADIENTCOLOR1ACI
1070
     5
1001
GRADIENTCOLOR2ACI
1070
     2
1001
ACAD
1010
0.0
1020
0.0
1030
0.0
1001
ACDBBLOCKREPETAG
1070
     1
1071
      298
1005
134BA1
  0
LINE
  5
134BA2
  8
SLIM
 10
8062.0000000000018
 20
-272.70384181603538
 30
0.0
 11
8072.7038418160373
 21
-261.99999999999909
 31
0.0
1001
GRADIENTCOLOR1ACI
1070
     5
1001
GRADIENTCOLOR2ACI
1070
     2
1001
ACAD
1010
0.0
1020
0.0
1030
0.0
1001
ACDBBLOCKREPETAG
1070
     1
1071
      299
1005
134BA2
  0
LINE
  5
134BA3
  8
SLIM
 10
8062.2584692615746
 20
-281.4256286755305
 30
0.0
 11
8081.4256286755299
 21
-262.25846926157431
 31
0.0
1001
GRADIENTCOLOR1ACI
1070
     5
1001
GRADIENTCOLOR2ACI
1070
     2
1001
ACAD
1010
0.0
1020
0.0
1030
0.0
1001
ACDBBLOCKREPETAG
1070
     1
1071
      300
1005
134BA3
  0
LINE
  5
134BA4
  8
OBJECT
 10
8068.6458301719767
 20
-137.99999999999909
 30
0.0
 11
8100.0
 21
-137.99999999999909
 31
0.0
1001
ACDBBLOCKREPETAG
1070
     1
1071
      242
1005
134BA4
  0
LINE
  5
134BA5
  8
OBJECT
 10
8068.6458301719767
 20
-261.99999999999909
 30
0.0
 11
8100.0000000000064
 21
-261.99999999999909
 31
0.0
1001
ACDBBLOCKREPETAG
1070
     1
1071
      243
1005
134BA5
  0
LINE
  5
134BA6
  8
OBJECT
 10
8062.0
 20
-268.64583017197862
 30
0.0
 11
8062.00000000001
 21
-299.99999999999898
 31
0.0
1001
ACDBBLOCKREPETAG
1070
     1
1071
      244
1005
134BA6
  0
LINE
  5
134BA7
  8
OBJECT
 10
7937.9999999999891
 20
-268.64583017197492
 30
0.0
 11
7938.0
 21
-299.99999999999898
 31
0.0
1001
ACDBBLOCKREPETAG
1070
     1
1071
      245
1005
134BA7
  0
LINE
  5
134BA8
  8
OBJECT
 10
7931.354169828026
 20
-261.99999999999909
 30
0.0
 11
7899.9999999999909
 21
-261.99999999999909
 31
0.0
1001
ACDBBLOCKREPETAG
1070
     1
1071
      246
1005
134BA8
  0
LINE
  5
134BA9
  8
OBJECT
 10
7931.354169828026
 20
-137.99999999999909
 30
0.0
 11
7899.9999999999909
 21
-137.99999999999909
 31
0.0
1001
ACDBBLOCKREPETAG
1070
     1
1071
      247
1005
134BA9
  0
LINE
  5
134BAA
  8
CENTER
 10
7900.0
 20
-199.99999999999909
 30
0.0
 11
8100.0
 21
-199.99999999999909
 31
0.0
1001
ACDBBLOCKREPETAG
1070
     1
1071
      251
1005
134BAA
  0
LINE
  5
134BAB
  8
CENTER
 10
8000.0
 20
-82.499999999999091
 30
0.0
 11
8000.0
 21
-299.99999999999898
 31
0.0
1001
ACDBBLOCKREPETAG
1070
     1
1071
      252
1005
134BAB
  0
ARC
  5
134BAC
  8
OBJECT
 10
8000.0
 20
-199.99999999999909
 30
0.0
 40
102.5
 50
37.220066868561332
 51
142.77993313143861
1001
ACDBBLOCKREPETAG
1070
     1
1071
      256
1005
134BAC
  0
ARC
  5
134BAD
  8
OBJECT
 10
8000.0
 20
-199.99999999999909
 30
0.0
 40
102.5
 50
217.2200668685613
 51
232.7799331314061
1001
ACDBBLOCKREPETAG
1070
     1
1071
      257
1005
134BAD
  0
ARC
  5
134BAE
  8
OBJECT
 10
8000.0
 20
-199.99999999999909
 30
0.0
 40
102.5
 50
307.2200668685939
 51
322.77993313143872
1001
ACDBBLOCKREPETAG
1070
     1
1071
      258
1005
134BAE
  0
ARC
  5
134BAF
  8
OBJECT
 10
7973.8931207053256
 20
-173.82438331578209
 30
0.0
 40
90.0
 50
274.21795726566182
 51
281.60300086768922
1001
ACDBBLOCKREPETAG
1070
     1
1071
      261
1005
134BAF
  0
LINE
  5
134BB0
  8
OBJECT
 10
7991.994750999992
 20
-261.98520799999727
 30
0.0
 11
7996.6424319999942
 21
-248.3387539999994
 31
0.0
1001
ACDBBLOCKREPETAG
1070
     1
1071
      262
1005
134BB0
  0
LINE
  5
134BB1
  8
OBJECT
 10
7955.2887960976786
 20
-207.0733020425842
 30
0.0
 11
7935.6054186421097
 21
-216.60084009147889
 31
0.0
1001
ACDBBLOCKREPETAG
1070
     1
1071
      263
1005
134BB1
  0
LINE
  5
134BB2
  8
OBJECT
 10
7937.3350639238643
 20
-222.25658973369261
 30
0.0
 11
7961.7560738851162
 21
-210.43584915155679
 31
0.0
1001
ACDBBLOCKREPETAG
1070
     1
1071
      264
1005
134BB2
  0
LINE
  5
134BB3
  8
OBJECT
 10
7996.6424319999942
 20
-248.3387539999994
 30
0.0
 11
7970.3289245926408
 21
-210.9660806555467
 31
0.0
1001
ACDBBLOCKREPETAG
1070
     1
1071
      265
1005
134BB3
  0
ARC
  5
134BB4
  8
OBJECT
 10
7960.5170048000518
 20
-217.87449798398211
 30
0.0
 40
12.0
 50
35.148769561161963
 51
115.8288295732624
1001
ACDBBLOCKREPETAG
1070
     1
1071
      266
1005
134BB4
  0
ARC
  5
134BB5
  8
OBJECT
 10
7965.2415463179786
 20
-217.63664646295089
 30
0.0
 40
8.0
 50
35.148769561161963
 51
115.8288292916689
1001
ACDBBLOCKREPETAG
1070
     1
1071
      267
1005
134BB5
  0
ARC
  5
134BB6
  8
OBJECT
 10
8000.0
 20
-199.99999999999909
 30
0.0
 40
90.0
 50
201.08359599996521
 51
248.91640400002939
1001
ACDBBLOCKREPETAG
1070
     1
1071
      273
1005
134BB6
  0
ARC
  5
134BB7
  8
OBJECT
 10
8000.0
 20
-199.99999999999909
 30
0.0
 40
90.0
 50
111.0835959999705
 51
158.91640347115251
1001
ACDBBLOCKREPETAG
1070
     1
1071
      274
1005
134BB7
  0
LINE
  5
134BB8
  8
OBJECT
 10
7916.0249094448664
 20
-167.62432755513231
 30
0.0
 11
7908.2370465822614
 21
-175.41219041773809
 31
0.0
1001
ACDBBLOCKREPETAG
1070
     1
1071
      275
1005
134BB8
  0
LINE
  5
134BB9
  8
OBJECT
 10
7916.0249089999988
 20
-232.37567199999921
 30
0.0
 11
7908.2370469998141
 21
-224.58781114059909
 31
0.0
1001
ACDBBLOCKREPETAG
1070
     1
1071
      276
1005
134BB9
  0
ARC
  5
134BBA
  8
OBJECT
 10
8000.0
 20
-199.99999999999909
 30
0.0
 40
95.0
 50
164.99999981411651
 51
195.00000115873701
1001
ACDBBLOCKREPETAG
1070
     1
1071
      277
1005
134BBA
  0
ARC
  5
134BBB
  8
OBJECT
 10
8000.0
 20
-199.99999999999909
 30
0.0
 40
92.5
 50
287.80189678391901
 51
342.1981035993042
1001
ACDBBLOCKREPETAG
1070
     1
1071
      209
1005
134BBB
  0
ARC
  5
134BBC
  8
OBJECT
 10
8000.0
 20
-199.99999999999909
 30
0.0
 40
90.0
 50
291.08359599997061
 51
338.91640400003479
1001
ACDBBLOCKREPETAG
1070
     1
1071
      211
1005
134BBC
  0
CIRCLE
  5
134BBD
  8
OBJECT
 10
8000.0
 20
-199.99999999999909
 30
0.0
 40
80.0
1001
ACDBBLOCKREPETAG
1070
     1
1071
      212
1005
134BBD
  0
ARC
  5
134BBE
  8
OBJECT
 10
8000.0
 20
-199.99999999999909
 30
0.0
 40
90.0
 50
21.08359652884743
 51
68.916404000029431
1001
ACDBBLOCKREPETAG
1070
     1
1071
      213
1005
134BBE
  0
CIRCLE
  5
134BBF
  8
OBJECT
 10
8000.0
 20
-199.99999999999909
 30
0.0
 40
66.5
1001
ACDBBLOCKREPETAG
1070
     1
1071
      215
1005
134BBF
  0
LINE
  5
134BC0
  8
OBJECT
 10
8083.9750905551327
 20
-167.62432755513231
 30
0.0
 11
8091.7629534177404
 21
-175.4121904177382
 31
0.0
1001
ACDBBLOCKREPETAG
1070
     1
1071
      216
1005
134BC0
  0
LINE
  5
134BC1
  8
OBJECT
 10
8083.9750910000021
 20
-232.37567199999921
 30
0.0
 11
8091.7629530001877
 21
-224.58781114059909
 31
0.0
1001
ACDBBLOCKREPETAG
1070
     1
1071
      217
1005
134BC1
  0
ARC
  5
134BC2
  8
OBJECT
 10
8000.0
 20
-199.99999999999909
 30
0.0
 40
95.0
 50
344.99999884126299
 51
15.00000018588349
1001
ACDBBLOCKREPETAG
1070
     1
1071
      218
1005
134BC2
  0
LINE
  5
134BC3
  8
OBJECT
 10
8032.375672999995
 20
-283.9750909999994
 30
0.0
 11
8024.587810948281
 21
-291.76295305171419
 31
0.0
1001
ACDBBLOCKREPETAG
1070
     1
1071
      219
1005
134BC3
  0
LINE
  5
134BC4
  8
OBJECT
 10
7967.6243279999981
 20
-283.9750909999994
 30
0.0
 11
7975.4121904177382
 21
-291.76295341774039
 31
0.0
1001
ACDBBLOCKREPETAG
1070
     1
1071
      220
1005
134BC4
  0
ARC
  5
134BC5
  8
OBJECT
 10
8000.0
 20
-199.99999999999909
 30
0.0
 40
95.0
 50
254.99999981420709
 51
285.00000103861061
1001
ACDBBLOCKREPETAG
1070
     1
1071
      221
1005
134BC5
  0
LINE
  5
134BC6
  8
OBJECT
 10
8032.375672999995
 20
-116.0249099999992
 30
0.0
 11
8024.5878095822618
 21
-108.2370465822578
 31
0.0
1001
ACDBBLOCKREPETAG
1070
     1
1071
      222
1005
134BC6
  0
ARC
  5
134BC7
  8
OBJECT
 10
8000.0
 20
-199.99999999999909
 30
0.0
 40
95.0
 50
74.999999814207143
 51
104.99999933254421
1001
ACDBBLOCKREPETAG
1070
     1
1071
      223
1005
134BC7
  0
LINE
  5
134BC8
  8
OBJECT
 10
7967.6243279999981
 20
-116.0249099999992
 30
0.0
 11
7975.4121917837692
 21
-108.2370462162316
 31
0.0
1001
ACDBBLOCKREPETAG
1070
     1
1071
      224
1005
134BC8
  0
LINE
  5
134BC9
  8
OBJECT
 10
8055.1784370000023
 20
-162.884098999998
 30
0.0
 11
8032.5345701092747
 21
-178.11554723457169
 31
0.0
1001
ACDBBLOCKREPETAG
1070
     1
1071
      225
1005
134BC9
  0
LINE
  5
134BCA
  8
OBJECT
 10
7944.804121000001
 20
-162.88106899999821
 30
0.0
 11
8032.5345701092747
 21
-178.11554723457169
 31
0.0
1001
ACDBBLOCKREPETAG
1070
     1
1071
      226
1005
134BCA
  0
ARC
  5
134BCB
  8
OBJECT
 10
8000.0
 20
-199.99999999999909
 30
0.0
 40
92.5
 50
197.8018954425261
 51
252.19810417408729
1001
ACDBBLOCKREPETAG
1070
     1
1071
      230
1005
134BCB
  0
ARC
  5
134BCC
  8
OBJECT
 10
8000.0
 20
-199.99999999999909
 30
0.0
 40
92.5
 50
107.80189486746769
 51
162.19810513270031
1001
ACDBBLOCKREPETAG
1070
     1
1071
      231
1005
134BCC
  0
ARC
  5
134BCD
  8
OBJECT
 10
8000.0
 20
-199.99999999999909
 30
0.0
 40
92.5
 50
17.801895825711568
 51
72.19810417408732
1001
ACDBBLOCKREPETAG
1070
     1
1071
      232
1005
134BCD
  0
ARC
  5
134BCE
  8
OBJECT
 10
8000.0
 20
-199.99999999999909
 30
0.0
 40
62.5
 50
144.42390307805491
 51
193.7174643726803
1001
ACDBBLOCKREPETAG
1070
     1
1071
      234
1005
134BCE
  0
ARC
  5
134BCF
  8
OBJECT
 10
8000.0
 20
-199.99999999999909
 30
0.0
 40
62.5
 50
262.64111297834887
 51
33.92683896333525
1001
ACDBBLOCKREPETAG
1070
     1
1071
      235
1005
134BCF
  0
POINT
  5
134BD0
  8
DOTS
 10
8000.0
 20
-199.99999999999909
 30
0.0
1001
ACDBBLOCKREPETAG
1070
     1
1071
      280
1005
134BD0
  0
LINE
  5
134BD1
  8
OBJECT
 10
8134.0
 20
-582.99999999999761
 30
0.0
 11
8134.0
 21
-580.99999999999761
 31
0.0
1001
ACDBBLOCKREPETAG
1070
     1
1071
      157
1005
134BD1
  0
ARC
  5
134BD2
  8
OBJECT
 10
8175.1865574982548
 20
-600.99999999999761
 30
0.0
 40
59.0
 50
229.20276883323919
 51
270.0
1001
ACDBBLOCKREPETAG
1070
     1
1071
      158
1005
134BD2
  0
LINE
  5
134BD3
  8
OBJECT
 10
8244.0
 20
-589.49999999999761
 30
0.0
 11
8109.0
 21
-589.49999999999761
 31
0.0
1001
ACDBBLOCKREPETAG
1070
     1
1071
      159
1005
134BD3
  0
LINE
  5
134BD4
  8
OBJECT
 10
8109.0
 20
-602.49999999999761
 30
0.0
 11
8244.0
 21
-602.49999999999761
 31
0.0
1001
ACDBBLOCKREPETAG
1070
     1
1071
      160
1005
134BD4
  0
LINE
  5
134BD5
  8
OBJECT
 10
8109.0
 20
-589.49999999999761
 30
0.0
 11
8109.0
 21
-602.49999999999761
 31
0.0
1001
ACDBBLOCKREPETAG
1070
     1
1071
      161
1005
134BD5
  0
LINE
  5
134BD6
  8
OBJECT
 10
8116.0
 20
-611.49999999999761
 30
0.0
 11
8116.0
 21
-602.49999999999761
 31
0.0
1001
ACDBBLOCKREPETAG
1070
     1
1071
      162
1005
134BD6
  0
LINE
  5
134BD7
  8
OBJECT
 10
8134.0
 20
-614.99999999999761
 30
0.0
 11
8134.0
 21
-602.49999999999761
 31
0.0
1001
ACDBBLOCKREPETAG
1070
     1
1071
      163
1005
134BD7
  0
LINE
  5
134BD8
  8
OBJECT
 10
8224.0
 20
-611.49999999999761
 30
0.0
 11
8224.0
 21
-602.49999999999761
 31
0.0
1001
ACDBBLOCKREPETAG
1070
     1
1071
      164
1005
134BD8
  0
LINE
  5
134BD9
  8
OBJECT
 10
8244.0
 20
-589.49999999999761
 30
0.0
 11
8244.0
 21
-602.49999999999761
 31
0.0
1001
ACDBBLOCKREPETAG
1070
     1
1071
      165
1005
134BD9
  0
LINE
  5
134BDA
  8
OBJECT
 10
8142.0
 20
-614.99999999999761
 30
0.0
 11
8142.0
 21
-602.49999999999761
 31
0.0
1001
ACDBBLOCKREPETAG
1070
     1
1071
      166
1005
134BDA
  0
LINE
  5
134BDB
  8
OBJECT
 10
8134.0
 20
-611.49999999999761
 30
0.0
 11
8115.0
 21
-611.49999999999761
 31
0.0
1001
ACDBBLOCKREPETAG
1070
     1
1071
      167
1005
134BDB
  0
LINE
  5
134BDC
  8
OBJECT
 10
8115.0
 20
-614.99999999999761
 30
0.0
 11
8115.0
 21
-611.49999999999761
 31
0.0
1001
ACDBBLOCKREPETAG
1070
     1
1071
      168
1005
134BDC
  0
LINE
  5
134BDD
  8
OBJECT
 10
8142.0
 20
-611.49999999999761
 30
0.0
 11
8225.0
 21
-611.49999999999761
 31
0.0
1001
ACDBBLOCKREPETAG
1070
     1
1071
      169
1005
134BDD
  0
LINE
  5
134BDE
  8
OBJECT
 10
8225.0
 20
-611.49999999999761
 30
0.0
 11
8225.0
 21
-614.99999999999761
 31
0.0
1001
ACDBBLOCKREPETAG
1070
     1
1071
      170
1005
134BDE
  0
LINE
  5
134BDF
  8
OBJECT
 10
8130.4944465005328
 20
-589.49999999999761
 30
0.0
 11
8130.4944465005328
 21
-582.99999999999761
 31
0.0
1001
ACDBBLOCKREPETAG
1070
     1
1071
      171
1005
134BDF
  0
LINE
  5
134BE0
  8
OBJECT
 10
8129.0
 20
-627.99999999999761
 30
0.0
 11
8129.0
 21
-632.99999999999761
 31
0.0
1001
ACDBBLOCKREPETAG
1070
     1
1071
      172
1005
134BE0
  0
LINE
  5
134BE1
  8
OBJECT
 10
8129.0
 20
-632.99999999999761
 30
0.0
 11
8147.0
 21
-632.99999999999761
 31
0.0
1001
ACDBBLOCKREPETAG
1070
     1
1071
      173
1005
134BE1
  0
LINE
  5
134BE2
  8
OBJECT
 10
8147.0
 20
-627.99999999999761
 30
0.0
 11
8147.0
 21
-632.99999999999761
 31
0.0
1001
ACDBBLOCKREPETAG
1070
     1
1071
      174
1005
134BE2
  0
LINE
  5
134BE3
  8
OBJECT
 10
8109.0000000000027
 20
-614.99999999999761
 30
0.0
 11
8244.0
 21
-614.99999999999761
 31
0.0
1001
ACDBBLOCKREPETAG
1070
     1
1071
      175
1005
134BE3
  0
LINE
  5
134BE4
  8
OBJECT
 10
8244.0
 20
-614.99999999999761
 30
0.0
 11
8244.0
 21
-627.99999999999761
 31
0.0
1001
ACDBBLOCKREPETAG
1070
     1
1071
      176
1005
134BE4
  0
LINE
  5
134BE5
  8
OBJECT
 10
8136.6369002447645
 20
-645.66457125774514
 30
0.0
 11
8116.1702980000027
 21
-627.99999999999761
 31
0.0
1001
ACDBBLOCKREPETAG
1070
     1
1071
      177
1005
134BE5
  0
LINE
  5
134BE6
  8
OBJECT
 10
8221.0000000000018
 20
-635.65708264965485
 30
0.0
 11
8221.0000000000018
 21
-659.99999999999761
 31
0.0
1001
ACDBBLOCKREPETAG
1070
     1
1071
      178
1005
134BE6
  0
LINE
  5
134BE7
  8
OBJECT
 10
8175.1865574982548
 20
-659.99999999999761
 30
0.0
 11
8221.0000000000018
 21
-659.99999999999761
 31
0.0
1001
ACDBBLOCKREPETAG
1070
     1
1071
      179
1005
134BE7
  0
ARC
  5
134BE8
  8
OBJECT
 10
8130.5000000000027
 20
-661.49999999999761
 30
0.0
 40
84.0
 50
277.05348487097029
 51
1.023193303671255
1001
ACDBBLOCKREPETAG
1070
     1
1071
      180
1005
134BE8
  0
LINE
  5
134BE9
  8
OBJECT
 10
8106.0
 20
-749.17200317020843
 30
0.0
 11
8140.8148488128809
 21
-744.86428428270153
 31
0.0
1001
ACDBBLOCKREPETAG
1070
     1
1071
      181
1005
134BE9
  0
LINE
  5
134BEA
  8
OBJECT
 10
8106.0000000000027
 20
-749.99999999999852
 30
0.0
 11
8106.0000000000027
 21
-628.99999999999761
 31
0.0
1001
ACDBBLOCKREPETAG
1070
     1
1071
      182
1005
134BEA
  0
ARC
  5
134BEB
  8
OBJECT
 10
8103.0000000000027
 20
-749.99999999999852
 30
0.0
 40
3.0
 50
270.0
 51
0.0
1001
ACDBBLOCKREPETAG
1070
     1
1071
      183
1005
134BEB
  0
LINE
  5
134BEC
  8
OBJECT
 10
8116.1702980000027
 20
-627.99999999999761
 30
0.0
 11
8244.0
 21
-627.99999999999761
 31
0.0
1001
ACDBBLOCKREPETAG
1070
     1
1071
      184
1005
134BEC
  0
LINE
  5
134BED
  8
OBJECT
 10
8125.0539138517261
 20
-635.65708264965485
 30
0.0
 11
8221.0000000000018
 21
-635.65708264965485
 31
0.0
1001
ACDBBLOCKREPETAG
1070
     1
1071
      185
1005
134BED
  0
LINE
  5
134BEE
  8
OBJECT
 10
8225.0
 20
-630.89006764214673
 30
0.0
 11
8221.0000000000018
 21
-635.65708264965485
 31
0.0
1001
ACDBBLOCKREPETAG
1070
     1
1071
      186
1005
134BEE
  0
LINE
  5
134BEF
  8
OBJECT
 10
8109.0000000000027
 20
-614.99999999999761
 30
0.0
 11
8109.0000000000073
 21
-628.99999999999761
 31
0.0
1001
ACDBBLOCKREPETAG
1070
     1
1071
      187
1005
134BEF
  0
LINE
  5
134BF0
  8
HIDDEN
 10
8125.5
 20
-654.9999999999975
 30
0.0
 11
8214.4999999999982
 21
-654.9999999999975
 31
0.0
1001
ACDBBLOCKREPETAG
1070
     1
1071
      188
1005
134BF0
  0
LINE
  5
134BF1
  8
OBJECT
 10
8134.0
 20
-580.99999999999761
 30
0.0
 11
8142.0
 21
-580.99999999999761
 31
0.0
1001
ACDBBLOCKREPETAG
1070
     1
1071
      189
1005
134BF1
  0
LINE
  5
134BF2
  8
OBJECT
 10
8142.0
 20
-582.99999999999761
 30
0.0
 11
8142.0
 21
-580.99999999999761
 31
0.0
1001
ACDBBLOCKREPETAG
1070
     1
1071
      190
1005
134BF2
  0
LINE
  5
134BF3
  8
OBJECT
 10
8130.4944465005328
 20
-582.99999999999761
 30
0.0
 11
8145.5055534994644
 21
-582.99999999999761
 31
0.0
1001
ACDBBLOCKREPETAG
1070
     1
1071
      191
1005
134BF3
  0
LINE
  5
134BF4
  8
CENTER
 10
8170.0
 20
-674.77158855533025
 30
0.0
 11
8170.0
 21
-574.49999999999761
 31
0.0
1001
ACDBBLOCKREPETAG
1070
     1
1071
      193
1005
134BF4
  0
LINE
  5
134BF5
  8
OBJECT
 10
8100.0
 20
-752.99999999999773
 30
0.0
 11
8103.0000000000027
 21
-752.99999999999852
 31
0.0
1001
ACDBBLOCKREPETAG
1070
     1
1071
      194
1005
134BF5
  0
LINE
  5
134BF6
  8
OBJECT
 10
8100.0
 20
-628.99999999999761
 30
0.0
 11
8109.0000000000073
 21
-628.99999999999761
 31
0.0
1001
ACDBBLOCKREPETAG
1070
     1
1071
      195
1005
134BF6
  0
LINE
  5
134BF7
  8
OBJECT
 10
8134.2471969783937
 20
-589.49998110540889
 30
0.0
 11
8134.2471969783937
 21
-582.99998110540901
 31
0.0
1001
ACDBBLOCKREPETAG
1070
     1
1071
      196
1005
134BF7
  0
LINE
  5
134BF8
  8
OBJECT
 10
8145.5055534994644
 20
-589.49999999999761
 30
0.0
 11
8145.5055534994644
 21
-582.99999999999761
 31
0.0
1001
ACDBBLOCKREPETAG
1070
     1
1071
      197
1005
134BF8
  0
LINE
  5
134BF9
  8
OBJECT
 10
8141.7528030216063
 20
-589.49998110540889
 30
0.0
 11
8141.7528030216063
 21
-582.99998110540901
 31
0.0
1001
ACDBBLOCKREPETAG
1070
     1
1071
      198
1005
134BF9
  0
LINE
  5
134BFA
  8
OBJECT
 10
8230.0
 20
-582.99999999999761
 30
0.0
 11
8230.0
 21
-580.99999999999761
 31
0.0
1001
ACDBBLOCKREPETAG
1070
     1
1071
      199
1005
134BFA
  0
LINE
  5
134BFB
  8
OBJECT
 10
8230.0
 20
-614.99999999999761
 30
0.0
 11
8230.0
 21
-602.49999999999761
 31
0.0
1001
ACDBBLOCKREPETAG
1070
     1
1071
      200
1005
134BFB
  0
LINE
  5
134BFC
  8
OBJECT
 10
8238.0
 20
-614.99999999999761
 30
0.0
 11
8238.0
 21
-602.49999999999761
 31
0.0
1001
ACDBBLOCKREPETAG
1070
     1
1071
      201
1005
134BFC
  0
LINE
  5
134BFD
  8
OBJECT
 10
8226.4944465005337
 20
-589.49999999999761
 30
0.0
 11
8226.4944465005337
 21
-582.99999999999761
 31
0.0
1001
ACDBBLOCKREPETAG
1070
     1
1071
      202
1005
134BFD
  0
LINE
  5
134BFE
  8
OBJECT
 10
8225.0
 20
-627.99999999999761
 30
0.0
 11
8225.0
 21
-632.99999999999761
 31
0.0
1001
ACDBBLOCKREPETAG
1070
     1
1071
      203
1005
134BFE
  0
LINE
  5
134BFF
  8
OBJECT
 10
8225.0
 20
-632.99999999999761
 30
0.0
 11
8243.0
 21
-632.99999999999761
 31
0.0
1001
ACDBBLOCKREPETAG
1070
     1
1071
      204
1005
134BFF
  0
LINE
  5
134C00
  8
OBJECT
 10
8243.0
 20
-627.99999999999761
 30
0.0
 11
8243.0
 21
-632.99999999999761
 31
0.0
1001
ACDBBLOCKREPETAG
1070
     1
1071
      205
1005
134C00
  0
LINE
  5
134C01
  8
OBJECT
 10
8230.0
 20
-580.99999999999761
 30
0.0
 11
8238.0
 21
-580.99999999999761
 31
0.0
1001
ACDBBLOCKREPETAG
1070
     1
1071
      206
1005
134C01
  0
LINE
  5
134C02
  8
OBJECT
 10
8238.0
 20
-582.99999999999761
 30
0.0
 11
8238.0
 21
-580.99999999999761
 31
0.0
1001
ACDBBLOCKREPETAG
1070
     1
1071
      207
1005
134C02
  0
LINE
  5
134C03
  8
OBJECT
 10
8226.4944465005337
 20
-582.99999999999761
 30
0.0
 11
8241.5055534994644
 21
-582.99999999999761
 31
0.0
1001
ACDBBLOCKREPETAG
1070
     1
1071
      208
1005
134C03
  0
LINE
  5
134C04
  8
OBJECT
 10
8230.2471969783928
 20
-589.49998110540889
 30
0.0
 11
8230.2471969783928
 21
-582.99998110540901
 31
0.0
1001
ACDBBLOCKREPETAG
1070
     1
1071
      209
1005
134C04
  0
LINE
  5
134C05
  8
OBJECT
 10
8241.5055534994644
 20
-589.49999999999761
 30
0.0
 11
8241.5055534994644
 21
-582.99999999999761
 31
0.0
1001
ACDBBLOCKREPETAG
1070
     1
1071
      210
1005
134C05
  0
LINE
  5
134C06
  8
OBJECT
 10
8237.7528030216054
 20
-589.49998110540889
 30
0.0
 11
8237.7528030216054
 21
-582.99998110540901
 31
0.0
1001
ACDBBLOCKREPETAG
1070
     1
1071
      211
1005
134C06
  0
LINE
  5
134C07
  8
CENTER
 10
8100.0
 20
-199.99999999999909
 30
0.0
 11
8259.0
 21
-199.99999999999909
 31
0.0
1001
ACDBBLOCKREPETAG
1070
     1
1071
      155
1005
134C07
  0
LINE
  5
134C08
  8
OBJECT
 10
8100.0
 20
-261.99999999999909
 30
0.0
 11
8103.0
 21
-261.99999999999909
 31
0.0
1001
ACDBBLOCKREPETAG
1070
     1
1071
      156
1005
134C08
  0
ARC
  5
134C09
  8
OBJECT
 10
8103.0
 20
-258.99999999999909
 30
0.0
 40
3.0
 50
270.0
 51
0.0
1001
ACDBBLOCKREPETAG
1070
     1
1071
      157
1005
134C09
  0
LINE
  5
134C0A
  8
OBJECT
 10
8100.0
 20
-138.0000000000027
 30
0.0
 11
8103.0
 21
-138.0000000000027
 31
0.0
1001
ACDBBLOCKREPETAG
1070
     1
1071
      158
1005
134C0A
  0
LINE
  5
134C0B
  8
OBJECT
 10
8106.0
 20
-140.99999999999909
 30
0.0
 11
8128.6547275935327
 21
-140.9999999999954
 31
0.0
1001
ACDBBLOCKREPETAG
1070
     1
1071
      159
1005
134C0B
  0
LINE
  5
134C0C
  8
OBJECT
 10
8106.0
 20
-259.00000000000267
 30
0.0
 11
8128.6547275935327
 21
-258.99999999999909
 31
0.0
1001
ACDBBLOCKREPETAG
1070
     1
1071
      160
1005
134C0C
  0
LINE
  5
134C0D
  8
CENTER
 10
8170.0
 20
-123.5195984073716
 30
0.0
 11
8170.0
 21
-276.48040159262649
 31
0.0
1001
ACDBBLOCKREPETAG
1070
     1
1071
      161
1005
134C0D
  0
LINE
  5
134C0E
  8
OBJECT
 10
8106.0
 20
-141.0000000000027
 30
0.0
 11
8106.0
 21
-258.99999999999909
 31
0.0
1001
ACDBBLOCKREPETAG
1070
     1
1071
      162
1005
134C0E
  0
ARC
  5
134C0F
  8
OBJECT
 10
8103.0
 20
-141.0000000000027
 30
0.0
 40
3.0
 50
0.0
 51
90.0
1001
ACDBBLOCKREPETAG
1070
     1
1071
      163
1005
134C0F
  0
ARC
  5
134C10
  8
OBJECT
 10
8170.0
 20
-199.99999999999909
 30
0.0
 40
61.0
 50
37.167285461274467
 51
82.832714538705744
1001
ACDBBLOCKREPETAG
1070
     1
1071
      165
1005
134C10
  0
ARC
  5
134C11
  8
OBJECT
 10
8170.0
 20
-199.99999999999909
 30
0.0
 40
61.0
 50
157.16728546127851
 51
202.83271453872149
1001
ACDBBLOCKREPETAG
1070
     1
1071
      166
1005
134C11
  0
ARC
  5
134C12
  8
OBJECT
 10
8170.0
 20
-199.99999999999909
 30
0.0
 40
61.0
 50
277.16728546129423
 51
322.83271453872419
1001
ACDBBLOCKREPETAG
1070
     1
1071
      167
1005
134C12
  0
CIRCLE
  5
134C13
  8
SLIM
 10
8234.0
 20
-199.99999999999909
 30
0.0
 40
4.0
1001
ACDBBLOCKREPETAG
1070
     1
1071
      168
1005
134C13
  0
ARC
  5
134C14
  8
OBJECT
 10
8234.0
 20
-199.99999999999909
 30
0.0
 40
10.0
 50
322.83271453872419
 51
37.167285461274467
1001
ACDBBLOCKREPETAG
1070
     1
1071
      169
1005
134C14
  0
LINE
  5
134C15
  8
OBJECT
 10
8218.6093749999964
 20
-163.14720279124501
 30
0.0
 11
8241.9687499999982
 21
-193.9585578346296
 31
0.0
1001
ACDBBLOCKREPETAG
1070
     1
1071
      170
1005
134C15
  0
LINE
  5
134C16
  8
OBJECT
 10
8218.6093749999964
 20
-236.8527972087532
 30
0.0
 11
8241.9687499999982
 21
-206.04144216536861
 31
0.0
1001
ACDBBLOCKREPETAG
1070
     1
1071
      171
1005
134C16
  0
CIRCLE
  5
134C17
  8
SLIM
 10
8138.0
 20
-144.5743741577962
 30
0.0
 40
3.9999999999999991
1001
ACDBBLOCKREPETAG
1070
     1
1071
      172
1005
134C17
  0
ARC
  5
134C18
  8
OBJECT
 10
8138.0
 20
-144.5743741577962
 30
0.0
 40
9.9999999999999982
 50
82.832714538705744
 51
157.16728546127851
1001
ACDBBLOCKREPETAG
1070
     1
1071
      173
1005
134C18
  0
LINE
  5
134C19
  8
OBJECT
 10
8113.779853916707
 20
-176.32944499229319
 30
0.0
 11
8128.783582609296
 21
-140.6939553040711
 31
0.0
1001
ACDBBLOCKREPETAG
1070
     1
1071
      174
1005
134C19
  0
LINE
  5
134C1A
  8
OBJECT
 10
8177.6107710832994
 20
-139.47664778353919
 30
0.0
 11
8139.2476673907031
 21
-134.65251313870161
 31
0.0
1001
ACDBBLOCKREPETAG
1070
     1
1071
      175
1005
134C1A
  0
CIRCLE
  5
134C1B
  8
SLIM
 10
8138.0
 20
-255.4256258422019
 30
0.0
 40
4.0
1001
ACDBBLOCKREPETAG
1070
     1
1071
      176
1005
134C1B
  0
ARC
  5
134C1C
  8
OBJECT
 10
8138.0
 20
-255.4256258422019
 30
0.0
 40
10.0
 50
202.83271453872149
 51
277.16728546129423
1001
ACDBBLOCKREPETAG
1070
     1
1071
      177
1005
134C1C
  0
LINE
  5
134C1D
  8
OBJECT
 10
8177.6107710832994
 20
-260.52335221645899
 30
0.0
 11
8139.2476673907031
 21
-265.3474868612966
 31
0.0
1001
ACDBBLOCKREPETAG
1070
     1
1071
      178
1005
134C1D
  0
LINE
  5
134C1E
  8
OBJECT
 10
8113.779853916707
 20
-223.67055500770491
 30
0.0
 11
8128.783582609296
 21
-259.30604469592708
 31
0.0
1001
ACDBBLOCKREPETAG
1070
     1
1071
      179
1005
134C1E
  0
CIRCLE
  5
134C1F
  8
OBJECT
 10
8170.0
 20
-199.99999999999909
 30
0.0
 40
46.0
1001
ACDBBLOCKREPETAG
1070
     1
1071
      180
1005
134C1F
  0
POLYLINE
  5
134C20
  8
SLIM
 66
     1
 10
0.0
 20
0.0
 30
0.0
 70
     1
1001
ACDBBLOCKREPETAG
1070
     1
1071
      181
1005
134C20
  0
VERTEX
  5
13580B
  8
SLIM
 10
8230.247223250266
 20
-193.49999999999909
 30
0.0
  0
VERTEX
  5
13580C
  8
SLIM
 10
8226.4944465005337
 20
-199.99999999999909
 30
0.0
  0
VERTEX
  5
13580D
  8
SLIM
 10
8230.247223250266
 20
-206.49999999999909
 30
0.0
  0
VERTEX
  5
13580E
  8
SLIM
 10
8237.7527767497359
 20
-206.49999999999909
 30
0.0
  0
VERTEX
  5
13580F
  8
SLIM
 10
8241.5055534994644
 20
-199.99999999999909
 30
0.0
  0
VERTEX
  5
135810
  8
SLIM
 10
8237.7527767497359
 20
-193.49999999999909
 30
0.0
  0
SEQEND
  5
135811
  8
SLIM
  0
POLYLINE
  5
134C21
  8
SLIM
 66
     1
 10
0.0
 20
0.0
 30
0.0
 70
     1
1001
ACDBBLOCKREPETAG
1070
     1
1071
      182
1005
134C21
  0
VERTEX
  5
135812
  8
SLIM
 10
8134.2472232502678
 20
-151.0743741577962
 30
0.0
  0
VERTEX
  5
135813
  8
SLIM
 10
8141.7527767497377
 20
-151.0743741577962
 30
0.0
  0
VERTEX
  5
135814
  8
SLIM
 10
8145.5055534994644
 20
-144.5743741577962
 30
0.0
  0
VERTEX
  5
135815
  8
SLIM
 10
8141.7527767497313
 20
-138.07437415779259
 30
0.0
  0
VERTEX
  5
135816
  8
SLIM
 10
8134.2472232502678
 20
-138.0743741577962
 30
0.0
  0
VERTEX
  5
135817
  8
SLIM
 10
8130.4944465005328
 20
-144.57437415779259
 30
0.0
  0
SEQEND
  5
135818
  8
SLIM
  0
POLYLINE
  5
134C22
  8
SLIM
 66
     1
 10
0.0
 20
0.0
 30
0.0
 70
     1
1001
ACDBBLOCKREPETAG
1070
     1
1071
      183
1005
134C22
  0
VERTEX
  5
135819
  8
SLIM
 10
8145.5055534994644
 20
-255.4256258422019
 30
0.0
  0
VERTEX
  5
13581A
  8
SLIM
 10
8141.7527767497313
 20
-248.9256258422019
 30
0.0
  0
VERTEX
  5
13581B
  8
SLIM
 10
8134.2472232502678
 20
-248.9256258422019
 30
0.0
  0
VERTEX
  5
13581C
  8
SLIM
 10
8130.4944465005328
 20
-255.42562584220559
 30
0.0
  0
VERTEX
  5
13581D
  8
SLIM
 10
8134.247223250266
 20
-261.9256258422019
 30
0.0
  0
VERTEX
  5
13581E
  8
SLIM
 10
8141.7527767497313
 20
-261.92562584220559
 30
0.0
  0
SEQEND
  5
13581F
  8
SLIM
  0
LINE
  5
134C23
  8
SLIM
 10
7897.5000000000928
 20
-766.05282860997045
 30
0.0
 11
7913.5528286100662
 21
-749.99999999999773
 31
0.0
1001
ACAD
1010
0.0
1020
0.0
1030
0.0
  0
LINE
  5
134C24
  8
SLIM
 10
7897.5000000000928
 20
-784.01334085210874
 30
0.0
 11
7931.5133408522042
 21
-749.99999999999773
 31
0.0
1001
ACAD
1010
0.0
1020
0.0
1030
0.0
  0
LINE
  5
134C25
  8
SLIM
 10
7897.5000000000928
 20
-801.97385309424703
 30
0.0
 11
7949.4738530943423
 21
-749.99999999999773
 31
0.0
1001
ACAD
1010
0.0
1020
0.0
1030
0.0
  0
LINE
  5
134C26
  8
SLIM
 10
7897.5000000000928
 20
-819.93436533638555
 30
0.0
 11
7967.4343653364804
 21
-749.99999999999773
 31
0.0
1001
ACAD
1010
0.0
1020
0.0
1030
0.0
  0
LINE
  5
134C27
  8
SLIM
 10
7897.5000000000928
 20
-837.89487757852385
 30
0.0
 11
7985.3948775786184
 21
-749.99999999999773
 31
0.0
1001
ACAD
1010
0.0
1020
0.0
1030
0.0
  0
LINE
  5
134C28
  8
SLIM
 10
7897.5000000000928
 20
-855.85538982066203
 30
0.0
 11
8003.3553898207574
 21
-749.99999999999773
 31
0.0
1001
ACAD
1010
0.0
1020
0.0
1030
0.0
  0
LINE
  5
134C29
  8
SLIM
 10
7897.5000000000928
 20
-873.81590206280032
 30
0.0
 11
8021.3159020628946
 21
-749.99999999999773
 31
0.0
1001
ACAD
1010
0.0
1020
0.0
1030
0.0
  0
LINE
  5
134C2A
  8
SLIM
 10
7897.5000000000928
 20
-891.7764143049385
 30
0.0
 11
8039.2764143050317
 21
-749.99999999999773
 31
0.0
1001
ACAD
1010
0.0
1020
0.0
1030
0.0
  0
LINE
  5
134C2B
  8
SLIM
 10
7897.5000000000928
 20
-909.73692654707668
 30
0.0
 11
8057.2369265471707
 21
-749.99999999999773
 31
0.0
1001
ACAD
1010
0.0
1020
0.0
1030
0.0
  0
LINE
  5
134C2C
  8
SLIM
 10
7897.5000000000928
 20
-927.69743878921508
 30
0.0
 11
8075.1974387893106
 21
-749.99999999999773
 31
0.0
1001
ACAD
1010
0.0
1020
0.0
1030
0.0
  0
LINE
  5
134C2D
  8
SLIM
 10
7897.5000000000928
 20
-945.6579510313536
 30
0.0
 11
8093.1579510314468
 21
-749.99999999999773
 31
0.0
1001
ACAD
1010
0.0
1020
0.0
1030
0.0
  0
LINE
  5
134C2E
  8
SLIM
 10
7897.5000000000928
 20
-963.61846327349156
 30
0.0
 11
8102.4999999999063
 21
-758.61846327367755
 31
0.0
1001
ACAD
1010
0.0
1020
0.0
1030
0.0
  0
LINE
  5
134C2F
  8
SLIM
 10
7897.5000000000928
 20
-981.57897551563019
 30
0.0
 11
8102.4999999999063
 21
-776.57897551581561
 31
0.0
1001
ACAD
1010
0.0
1020
0.0
1030
0.0
  0
LINE
  5
134C30
  8
SLIM
 10
7898.5898389662798
 20
-998.44964879158101
 30
0.0
 11
8102.4999999999063
 21
-794.53948775795391
 31
0.0
1001
ACAD
1010
0.0
1020
0.0
1030
0.0
  0
LINE
  5
134C31
  8
SLIM
 10
7900.8041486947632
 20
-1014.1958513052371
 30
0.0
 11
8102.4999999999063
 21
-812.50000000009231
 31
0.0
1001
ACAD
1010
0.0
1020
0.0
1030
0.0
  0
LINE
  5
134C32
  8
SLIM
 10
7903.0184584232438
 20
-1029.942053818892
 30
0.0
 11
8102.4999999999063
 21
-830.46051224223049
 31
0.0
1001
ACAD
1010
0.0
1020
0.0
1030
0.0
  0
LINE
  5
134C33
  8
SLIM
 10
7905.2327681517281
 20
-1045.688256332548
 30
0.0
 11
8102.4999999999063
 21
-848.4210244843689
 31
0.0
1001
ACAD
1010
0.0
1020
0.0
1030
0.0
  0
LINE
  5
134C34
  8
SLIM
 10
7907.4470778802124
 20
-1061.4344588462029
 30
0.0
 11
8102.4999999999063
 21
-866.38153672650731
 31
0.0
1001
ACAD
1010
0.0
1020
0.0
1030
0.0
  0
LINE
  5
134C35
  8
SLIM
 10
7909.6613876086958
 20
-1077.180661359858
 30
0.0
 11
8102.4999999999063
 21
-884.3420489686456
 31
0.0
1001
ACAD
1010
0.0
1020
0.0
1030
0.0
  0
LINE
  5
134C36
  8
SLIM
 10
7911.8756973371737
 20
-1092.9268638735141
 30
0.0
 11
8102.4999999999063
 21
-902.30256121078355
 31
0.0
1001
ACAD
1010
0.0
1020
0.0
1030
0.0
  0
LINE
  5
134C37
  8
SLIM
 10
7914.0900070656589
 20
-1108.6730663871699
 30
0.0
 11
8102.4999999999063
 21
-920.26307345292196
 31
0.0
1001
ACAD
1010
0.0
1020
0.0
1030
0.0
  0
LINE
  5
134C38
  8
SLIM
 10
7916.3043167941414
 20
-1124.419268900825
 30
0.0
 11
8102.4999999999063
 21
-938.22358569506036
 31
0.0
1001
ACAD
1010
0.0
1020
0.0
1030
0.0
  0
LINE
  5
134C39
  8
SLIM
 10
7918.5186265226248
 20
-1140.1654714144811
 30
0.0
 11
8102.4999999999063
 21
-956.18409793719877
 31
0.0
1001
ACAD
1010
0.0
1020
0.0
1030
0.0
  0
LINE
  5
134C3A
  8
SLIM
 10
7920.0
 20
-1156.644610179244
 30
0.0
 11
8102.4999999999063
 21
-974.14461017933684
 31
0.0
1001
ACAD
1010
0.0
1020
0.0
1030
0.0
  0
LINE
  5
134C3B
  8
SLIM
 10
7929.6051224213852
 20
-1164.999999999998
 30
0.0
 11
8102.2700189725447
 21
-992.33510344883939
 31
0.0
1001
ACAD
1010
0.0
1020
0.0
1030
0.0
  0
LINE
  5
134C3C
  8
SLIM
 10
7930.0
 20
-1182.565634663521
 30
0.0
 11
7947.5656346635233
 21
-1164.999999999998
 31
0.0
1001
ACAD
1010
0.0
1020
0.0
1030
0.0
  0
LINE
  5
134C3D
  8
SLIM
 10
7947.5656346635233
 20
-1164.999999999998
 30
0.0
 11
8099.3310260601947
 21
-1013.234608603328
 31
0.0
1001
ACAD
1010
0.0
1020
0.0
1030
0.0
  0
LINE
  5
134C3E
  8
SLIM
 10
7940.5261469056613
 20
-1189.999999999997
 30
0.0
 11
7965.5261469056613
 21
-1164.999999999998
 31
0.0
1001
ACAD
1010
0.0
1020
0.0
1030
0.0
  0
LINE
  5
134C3F
  8
SLIM
 10
7965.5261469056613
 20
-1164.999999999998
 30
0.0
 11
8096.392033147843
 21
-1034.1341137578161
 31
0.0
1001
ACAD
1010
0.0
1020
0.0
1030
0.0
  0
LINE
  5
134C40
  8
SLIM
 10
7958.4866591477976
 20
-1189.999999999997
 30
0.0
 11
7983.4866591477967
 21
-1164.999999999998
 31
0.0
1001
ACAD
1010
0.0
1020
0.0
1030
0.0
  0
LINE
  5
134C41
  8
SLIM
 10
7983.4866591477967
 20
-1164.999999999998
 30
0.0
 11
8093.4530402354931
 21
-1055.0336189123041
 31
0.0
1001
ACAD
1010
0.0
1020
0.0
1030
0.0
  0
LINE
  5
134C42
  8
SLIM
 10
7976.4471713899384
 20
-1189.999999999997
 30
0.0
 11
8001.4471713899393
 21
-1164.999999999998
 31
0.0
1001
ACAD
1010
0.0
1020
0.0
1030
0.0
  0
LINE
  5
134C43
  8
SLIM
 10
8001.4471713899393
 20
-1164.999999999998
 30
0.0
 11
8090.5140473231431
 21
-1075.9331240667921
 31
0.0
1001
ACAD
1010
0.0
1020
0.0
1030
0.0
  0
LINE
  5
134C44
  8
SLIM
 10
7994.4076836320764
 20
-1189.999999999997
 30
0.0
 11
8019.4076836320764
 21
-1164.999999999998
 31
0.0
1001
ACAD
1010
0.0
1020
0.0
1030
0.0
  0
LINE
  5
134C45
  8
SLIM
 10
8019.4076836320764
 20
-1164.999999999998
 30
0.0
 11
8087.5750544107932
 21
-1096.8326292212801
 31
0.0
1001
ACAD
1010
0.0
1020
0.0
1030
0.0
  0
LINE
  5
134C46
  8
SLIM
 10
8012.3681958742154
 20
-1189.999999999997
 30
0.0
 11
8037.3681958742127
 21
-1164.999999999998
 31
0.0
1001
ACAD
1010
0.0
1020
0.0
1030
0.0
  0
LINE
  5
134C47
  8
SLIM
 10
8037.3681958742127
 20
-1164.999999999998
 30
0.0
 11
8084.6360614984433
 21
-1117.732134375769
 31
0.0
1001
ACAD
1010
0.0
1020
0.0
1030
0.0
  0
LINE
  5
134C48
  8
SLIM
 10
8030.3287081163526
 20
-1189.999999999997
 30
0.0
 11
8055.3287081163544
 21
-1164.999999999998
 31
0.0
1001
ACAD
1010
0.0
1020
0.0
1030
0.0
  0
LINE
  5
134C49
  8
SLIM
 10
8055.3287081163544
 20
-1164.999999999998
 30
0.0
 11
8081.6970685860933
 21
-1138.631639530257
 31
0.0
1001
ACAD
1010
0.0
1020
0.0
1030
0.0
  0
LINE
  5
134C4A
  8
SLIM
 10
8048.2892203584888
 20
-1189.999999999997
 30
0.0
 11
8070.0
 21
-1168.289220358489
 31
0.0
1001
ACAD
1010
0.0
1020
0.0
1030
0.0
  0
LINE
  5
134C4B
  8
SLIM
 10
8073.2892203584888
 20
-1164.999999999998
 30
0.0
 11
8080.0
 21
-1158.289220358489
 31
0.0
1001
ACAD
1010
0.0
1020
0.0
1030
0.0
  0
LINE
  5
134C4C
  8
SLIM
 10
8066.2497326006278
 20
-1189.999999999997
 30
0.0
 11
8070.0
 21
-1186.2497326006271
 31
0.0
1001
ACAD
1010
0.0
1020
0.0
1030
0.0
  0
LINE
  5
134C4D
  8
OBJECT
 10
7897.5000000000928
 20
-749.99999999999773
 30
0.0
 11
8102.4999999999063
 21
-749.99999999999773
 31
0.0
  0
LINE
  5
134C4E
  8
OBJECT
 10
8102.4999999999063
 20
-749.99999999999773
 30
0.0
 11
8102.4999999999063
 21
-990.69968280980572
 31
0.0
  0
LINE
  5
134C4F
  8
OBJECT
 10
8102.4999999999063
 20
-990.69968280980572
 30
0.0
 11
8080.0
 21
-1150.699682809146
 31
0.0
  0
LINE
  5
134C50
  8
OBJECT
 10
8080.0
 20
-1150.699682809146
 30
0.0
 11
8080.0
 21
-1164.999999999998
 31
0.0
  0
LINE
  5
134C51
  8
OBJECT
 10
8080.0
 20
-1164.999999999998
 30
0.0
 11
7920.0
 21
-1164.999999999998
 31
0.0
  0
LINE
  5
134C52
  8
OBJECT
 10
7920.0
 20
-1164.999999999998
 30
0.0
 11
7920.0
 21
-1150.699682809146
 31
0.0
  0
LINE
  5
134C53
  8
OBJECT
 10
7920.0
 20
-1150.699682809146
 30
0.0
 11
7897.5000000000928
 21
-990.69968280980572
 31
0.0
  0
LINE
  5
134C54
  8
OBJECT
 10
7897.5000000000928
 20
-990.69968280980572
 30
0.0
 11
7897.5000000000928
 21
-749.99999999999773
 31
0.0
  0
LINE
  5
134C55
  8
OBJECT
 10
7930.0
 20
-1164.999999999998
 30
0.0
 11
7930.0
 21
-1189.999999999997
 31
0.0
  0
LINE
  5
134C56
  8
OBJECT
 10
7930.0
 20
-1189.999999999997
 30
0.0
 11
8070.0
 21
-1189.999999999997
 31
0.0
  0
LINE
  5
134C57
  8
OBJECT
 10
8070.0
 20
-1189.999999999997
 30
0.0
 11
8070.0
 21
-1164.999999999998
 31
0.0
  0
LINE
  5
134C58
  8
OBJECT
 10
5866.0
 20
-582.99999999999761
 30
0.0
 11
5866.0
 21
-580.99999999999761
 31
0.0
1001
ACDBBLOCKREPETAG
1070
     1
1071
      157
1005
134C58
  0
ARC
  5
134C59
  8
OBJECT
 10
5824.8134425017461
 20
-600.99999999999761
 30
0.0
 40
59.0
 50
270.0
 51
310.7972311667607
1001
ACDBBLOCKREPETAG
1070
     1
1071
      158
1005
134C59
  0
LINE
  5
134C5A
  8
OBJECT
 10
5756.0
 20
-589.49999999999761
 30
0.0
 11
5891.0
 21
-589.49999999999761
 31
0.0
1001
ACDBBLOCKREPETAG
1070
     1
1071
      159
1005
134C5A
  0
LINE
  5
134C5B
  8
OBJECT
 10
5891.0
 20
-602.49999999999761
 30
0.0
 11
5756.0
 21
-602.49999999999761
 31
0.0
1001
ACDBBLOCKREPETAG
1070
     1
1071
      160
1005
134C5B
  0
LINE
  5
134C5C
  8
OBJECT
 10
5891.0
 20
-589.49999999999761
 30
0.0
 11
5891.0
 21
-602.49999999999761
 31
0.0
1001
ACDBBLOCKREPETAG
1070
     1
1071
      161
1005
134C5C
  0
LINE
  5
134C5D
  8
OBJECT
 10
5884.0
 20
-611.49999999999761
 30
0.0
 11
5884.0
 21
-602.49999999999761
 31
0.0
1001
ACDBBLOCKREPETAG
1070
     1
1071
      162
1005
134C5D
  0
LINE
  5
134C5E
  8
OBJECT
 10
5866.0
 20
-614.99999999999761
 30
0.0
 11
5866.0
 21
-602.49999999999761
 31
0.0
1001
ACDBBLOCKREPETAG
1070
     1
1071
      163
1005
134C5E
  0
LINE
  5
134C5F
  8
OBJECT
 10
5776.0
 20
-611.49999999999761
 30
0.0
 11
5776.0
 21
-602.49999999999761
 31
0.0
1001
ACDBBLOCKREPETAG
1070
     1
1071
      164
1005
134C5F
  0
LINE
  5
134C60
  8
OBJECT
 10
5756.0
 20
-589.49999999999761
 30
0.0
 11
5756.0
 21
-602.49999999999761
 31
0.0
1001
ACDBBLOCKREPETAG
1070
     1
1071
      165
1005
134C60
  0
LINE
  5
134C61
  8
OBJECT
 10
5858.0
 20
-614.99999999999761
 30
0.0
 11
5858.0
 21
-602.49999999999761
 31
0.0
1001
ACDBBLOCKREPETAG
1070
     1
1071
      166
1005
134C61
  0
LINE
  5
134C62
  8
OBJECT
 10
5866.0
 20
-611.49999999999761
 30
0.0
 11
5885.0
 21
-611.49999999999761
 31
0.0
1001
ACDBBLOCKREPETAG
1070
     1
1071
      167
1005
134C62
  0
LINE
  5
134C63
  8
OBJECT
 10
5885.0
 20
-614.99999999999761
 30
0.0
 11
5885.0
 21
-611.49999999999761
 31
0.0
1001
ACDBBLOCKREPETAG
1070
     1
1071
      168
1005
134C63
  0
LINE
  5
134C64
  8
OBJECT
 10
5858.0
 20
-611.49999999999761
 30
0.0
 11
5775.0
 21
-611.49999999999761
 31
0.0
1001
ACDBBLOCKREPETAG
1070
     1
1071
      169
1005
134C64
  0
LINE
  5
134C65
  8
OBJECT
 10
5775.0
 20
-611.49999999999761
 30
0.0
 11
5775.0
 21
-614.99999999999761
 31
0.0
1001
ACDBBLOCKREPETAG
1070
     1
1071
      170
1005
134C65
  0
LINE
  5
134C66
  8
OBJECT
 10
5869.5055534994653
 20
-589.49999999999761
 30
0.0
 11
5869.5055534994653
 21
-582.99999999999761
 31
0.0
1001
ACDBBLOCKREPETAG
1070
     1
1071
      171
1005
134C66
  0
LINE
  5
134C67
  8
OBJECT
 10
5871.0
 20
-627.99999999999761
 30
0.0
 11
5871.0
 21
-632.99999999999761
 31
0.0
1001
ACDBBLOCKREPETAG
1070
     1
1071
      172
1005
134C67
  0
LINE
  5
134C68
  8
OBJECT
 10
5871.0
 20
-632.99999999999761
 30
0.0
 11
5853.0
 21
-632.99999999999761
 31
0.0
1001
ACDBBLOCKREPETAG
1070
     1
1071
      173
1005
134C68
  0
LINE
  5
134C69
  8
OBJECT
 10
5853.0
 20
-627.99999999999761
 30
0.0
 11
5853.0
 21
-632.99999999999761
 31
0.0
1001
ACDBBLOCKREPETAG
1070
     1
1071
      174
1005
134C69
  0
LINE
  5
134C6A
  8
OBJECT
 10
5890.9999999999982
 20
-614.99999999999761
 30
0.0
 11
5756.0
 21
-614.99999999999761
 31
0.0
1001
ACDBBLOCKREPETAG
1070
     1
1071
      175
1005
134C6A
  0
LINE
  5
134C6B
  8
OBJECT
 10
5756.0
 20
-614.99999999999761
 30
0.0
 11
5756.0
 21
-627.99999999999761
 31
0.0
1001
ACDBBLOCKREPETAG
1070
     1
1071
      176
1005
134C6B
  0
LINE
  5
134C6C
  8
OBJECT
 10
5863.3630997552364
 20
-645.66457125774514
 30
0.0
 11
5883.8297019999991
 21
-627.99999999999761
 31
0.0
1001
ACDBBLOCKREPETAG
1070
     1
1071
      177
1005
134C6C
  0
LINE
  5
134C6D
  8
OBJECT
 10
5778.9999999999973
 20
-635.65708264965485
 30
0.0
 11
5778.9999999999973
 21
-659.99999999999761
 31
0.0
1001
ACDBBLOCKREPETAG
1070
     1
1071
      178
1005
134C6D
  0
LINE
  5
134C6E
  8
OBJECT
 10
5824.8134425017461
 20
-659.99999999999761
 30
0.0
 11
5778.9999999999973
 21
-659.99999999999761
 31
0.0
1001
ACDBBLOCKREPETAG
1070
     1
1071
      179
1005
134C6E
  0
ARC
  5
134C6F
  8
OBJECT
 10
5869.5
 20
-661.49999999999761
 30
0.0
 40
84.0
 50
178.97680669632871
 51
262.94651512902959
1001
ACDBBLOCKREPETAG
1070
     1
1071
      180
1005
134C6F
  0
LINE
  5
134C70
  8
OBJECT
 10
5894.0
 20
-749.17200317020843
 30
0.0
 11
5859.1851511871182
 21
-744.86428428270153
 31
0.0
1001
ACDBBLOCKREPETAG
1070
     1
1071
      181
1005
134C70
  0
LINE
  5
134C71
  8
OBJECT
 10
5893.9999999999982
 20
-749.99999999999852
 30
0.0
 11
5893.9999999999982
 21
-628.99999999999761
 31
0.0
1001
ACDBBLOCKREPETAG
1070
     1
1071
      182
1005
134C71
  0
ARC
  5
134C72
  8
OBJECT
 10
5896.9999999999973
 20
-749.99999999999852
 30
0.0
 40
3.0
 50
180.0
 51
270.0
1001
ACDBBLOCKREPETAG
1070
     1
1071
      183
1005
134C72
  0
LINE
  5
134C73
  8
OBJECT
 10
5883.8297019999991
 20
-627.99999999999761
 30
0.0
 11
5756.0
 21
-627.99999999999761
 31
0.0
1001
ACDBBLOCKREPETAG
1070
     1
1071
      184
1005
134C73
  0
LINE
  5
134C74
  8
OBJECT
 10
5874.9460861482767
 20
-635.65708264965485
 30
0.0
 11
5778.9999999999973
 21
-635.65708264965485
 31
0.0
1001
ACDBBLOCKREPETAG
1070
     1
1071
      185
1005
134C74
  0
LINE
  5
134C75
  8
OBJECT
 10
5775.0
 20
-630.89006764214673
 30
0.0
 11
5778.9999999999973
 21
-635.65708264965485
 31
0.0
1001
ACDBBLOCKREPETAG
1070
     1
1071
      186
1005
134C75
  0
LINE
  5
134C76
  8
OBJECT
 10
5890.9999999999982
 20
-614.99999999999761
 30
0.0
 11
5890.9999999999918
 21
-628.99999999999761
 31
0.0
1001
ACDBBLOCKREPETAG
1070
     1
1071
      187
1005
134C76
  0
LINE
  5
134C77
  8
HIDDEN
 10
5874.5000000000009
 20
-654.9999999999975
 30
0.0
 11
5785.5
 21
-654.9999999999975
 31
0.0
1001
ACDBBLOCKREPETAG
1070
     1
1071
      188
1005
134C77
  0
LINE
  5
134C78
  8
OBJECT
 10
5866.0
 20
-580.99999999999761
 30
0.0
 11
5858.0
 21
-580.99999999999761
 31
0.0
1001
ACDBBLOCKREPETAG
1070
     1
1071
      189
1005
134C78
  0
LINE
  5
134C79
  8
OBJECT
 10
5858.0
 20
-582.99999999999761
 30
0.0
 11
5858.0
 21
-580.99999999999761
 31
0.0
1001
ACDBBLOCKREPETAG
1070
     1
1071
      190
1005
134C79
  0
LINE
  5
134C7A
  8
OBJECT
 10
5869.5055534994653
 20
-582.99999999999761
 30
0.0
 11
5854.4944465005347
 21
-582.99999999999761
 31
0.0
1001
ACDBBLOCKREPETAG
1070
     1
1071
      191
1005
134C7A
  0
LINE
  5
134C7B
  8
CENTER
 10
5830.0
 20
-674.77158855533025
 30
0.0
 11
5830.0
 21
-574.49999999999761
 31
0.0
1001
ACDBBLOCKREPETAG
1070
     1
1071
      193
1005
134C7B
  0
LINE
  5
134C7C
  8
OBJECT
 10
5900.0
 20
-752.99999999999773
 30
0.0
 11
5896.9999999999973
 21
-752.99999999999852
 31
0.0
1001
ACDBBLOCKREPETAG
1070
     1
1071
      194
1005
134C7C
  0
LINE
  5
134C7D
  8
OBJECT
 10
5900.0
 20
-628.99999999999761
 30
0.0
 11
5890.9999999999918
 21
-628.99999999999761
 31
0.0
1001
ACDBBLOCKREPETAG
1070
     1
1071
      195
1005
134C7D
  0
LINE
  5
134C7E
  8
OBJECT
 10
5865.7528030216072
 20
-589.49998110540889
 30
0.0
 11
5865.7528030216072
 21
-582.99998110540901
 31
0.0
1001
ACDBBLOCKREPETAG
1070
     1
1071
      196
1005
134C7E
  0
LINE
  5
134C7F
  8
OBJECT
 10
5854.4944465005347
 20
-589.49999999999761
 30
0.0
 11
5854.4944465005347
 21
-582.99999999999761
 31
0.0
1001
ACDBBLOCKREPETAG
1070
     1
1071
      197
1005
134C7F
  0
LINE
  5
134C80
  8
OBJECT
 10
5858.2471969783937
 20
-589.49998110540889
 30
0.0
 11
5858.2471969783937
 21
-582.99998110540901
 31
0.0
1001
ACDBBLOCKREPETAG
1070
     1
1071
      198
1005
134C80
  0
LINE
  5
134C81
  8
OBJECT
 10
5770.0
 20
-582.99999999999761
 30
0.0
 11
5770.0
 21
-580.99999999999761
 31
0.0
1001
ACDBBLOCKREPETAG
1070
     1
1071
      199
1005
134C81
  0
LINE
  5
134C82
  8
OBJECT
 10
5770.0
 20
-614.99999999999761
 30
0.0
 11
5770.0
 21
-602.49999999999761
 31
0.0
1001
ACDBBLOCKREPETAG
1070
     1
1071
      200
1005
134C82
  0
LINE
  5
134C83
  8
OBJECT
 10
5762.0
 20
-614.99999999999761
 30
0.0
 11
5762.0
 21
-602.49999999999761
 31
0.0
1001
ACDBBLOCKREPETAG
1070
     1
1071
      201
1005
134C83
  0
LINE
  5
134C84
  8
OBJECT
 10
5773.5055534994653
 20
-589.49999999999761
 30
0.0
 11
5773.5055534994653
 21
-582.99999999999761
 31
0.0
1001
ACDBBLOCKREPETAG
1070
     1
1071
      202
1005
134C84
  0
LINE
  5
134C85
  8
OBJECT
 10
5775.0
 20
-627.99999999999761
 30
0.0
 11
5775.0
 21
-632.99999999999761
 31
0.0
1001
ACDBBLOCKREPETAG
1070
     1
1071
      203
1005
134C85
  0
LINE
  5
134C86
  8
OBJECT
 10
5775.0
 20
-632.99999999999761
 30
0.0
 11
5757.0
 21
-632.99999999999761
 31
0.0
1001
ACDBBLOCKREPETAG
1070
     1
1071
      204
1005
134C86
  0
LINE
  5
134C87
  8
OBJECT
 10
5757.0
 20
-627.99999999999761
 30
0.0
 11
5757.0
 21
-632.99999999999761
 31
0.0
1001
ACDBBLOCKREPETAG
1070
     1
1071
      205
1005
134C87
  0
LINE
  5
134C88
  8
OBJECT
 10
5770.0
 20
-580.99999999999761
 30
0.0
 11
5762.0
 21
-580.99999999999761
 31
0.0
1001
ACDBBLOCKREPETAG
1070
     1
1071
      206
1005
134C88
  0
LINE
  5
134C89
  8
OBJECT
 10
5762.0
 20
-582.99999999999761
 30
0.0
 11
5762.0
 21
-580.99999999999761
 31
0.0
1001
ACDBBLOCKREPETAG
1070
     1
1071
      207
1005
134C89
  0
LINE
  5
134C8A
  8
OBJECT
 10
5773.5055534994653
 20
-582.99999999999761
 30
0.0
 11
5758.4944465005337
 21
-582.99999999999761
 31
0.0
1001
ACDBBLOCKREPETAG
1070
     1
1071
      208
1005
134C8A
  0
LINE
  5
134C8B
  8
OBJECT
 10
5769.7528030216063
 20
-589.49998110540889
 30
0.0
 11
5769.7528030216063
 21
-582.99998110540901
 31
0.0
1001
ACDBBLOCKREPETAG
1070
     1
1071
      209
1005
134C8B
  0
LINE
  5
134C8C
  8
OBJECT
 10
5758.4944465005337
 20
-589.49999999999761
 30
0.0
 11
5758.4944465005337
 21
-582.99999999999761
 31
0.0
1001
ACDBBLOCKREPETAG
1070
     1
1071
      210
1005
134C8C
  0
LINE
  5
134C8D
  8
OBJECT
 10
5762.2471969783928
 20
-589.49998110540889
 30
0.0
 11
5762.2471969783928
 21
-582.99998110540901
 31
0.0
1001
ACDBBLOCKREPETAG
1070
     1
1071
      211
1005
134C8D
  0
CIRCLE
  5
134C8E
  8
OBJECT
 10
6000.0
 20
-690.99999999999761
 30
0.0
 40
62.0
1001
ACDBBLOCKREPETAG
1070
     1
1071
        0
1005
134C8E
  0
LINE
  5
134C8F
  8
OBJECT
 10
6095.0
 20
-569.99999999999955
 30
0.0
 11
5905.0
 21
-569.99999999999955
 31
0.0
1001
ACDBBLOCKREPETAG
1070
     1
1071
        0
1005
134C8F
  0
LINE
  5
134C90
  8
OBJECT
 10
6095.0
 20
-549.99999999999955
 30
0.0
 11
5905.0
 21
-549.99999999999955
 31
0.0
1001
ACDBBLOCKREPETAG
1070
     1
1071
        1
1005
134C90
  0
LINE
  5
134C91
  8
OBJECT
 10
5902.4999999999991
 20
-914.99999999999955
 30
0.0
 11
6097.5
 21
-914.99999999999955
 31
0.0
1001
ACDBBLOCKREPETAG
1070
     1
1071
        2
1005
134C91
  0
LINE
  5
134C92
  8
OBJECT
 10
5908.237046000002
 20
-549.99999999999955
 30
0.0
 11
5908.2370465822614
 21
-569.99999999999955
 31
0.0
1001
ACDBBLOCKREPETAG
1070
     1
1071
        3
1005
134C92
  0
LINE
  5
134C93
  8
OBJECT
 10
5905.0
 20
-549.99999999999955
 30
0.0
 11
5905.0
 21
-569.99999999999955
 31
0.0
1001
ACDBBLOCKREPETAG
1070
     1
1071
        4
1005
134C93
  0
LINE
  5
134C94
  8
OBJECT
 10
5916.0249089999998
 20
-549.99999999999955
 30
0.0
 11
5916.0249089999998
 21
-569.99999999999955
 31
0.0
1001
ACDBBLOCKREPETAG
1070
     1
1071
        5
1005
134C94
  0
LINE
  5
134C95
  8
OBJECT
 10
5967.6243270000023
 20
-549.99999999999955
 30
0.0
 11
5967.6243270000023
 21
-569.99999999999955
 31
0.0
1001
ACDBBLOCKREPETAG
1070
     1
1071
        6
1005
134C95
  0
LINE
  5
134C96
  8
OBJECT
 10
5975.41219
 20
-549.99999999999955
 30
0.0
 11
5975.41219
 21
-569.99999999999955
 31
0.0
1001
ACDBBLOCKREPETAG
1070
     1
1071
        7
1005
134C96
  0
LINE
  5
134C97
  8
OBJECT
 10
6024.5878089999987
 20
-549.99999999999955
 30
0.0
 11
6024.5878089999987
 21
-569.99999999999955
 31
0.0
1001
ACDBBLOCKREPETAG
1070
     1
1071
        8
1005
134C97
  0
LINE
  5
134C98
  8
OBJECT
 10
6032.3756720000029
 20
-549.99999999999955
 30
0.0
 11
6032.3756720000029
 21
-569.99999999999955
 31
0.0
1001
ACDBBLOCKREPETAG
1070
     1
1071
        9
1005
134C98
  0
LINE
  5
134C99
  8
OBJECT
 10
6083.9750910000012
 20
-549.99999999999955
 30
0.0
 11
6083.9750910000012
 21
-569.99999999999955
 31
0.0
1001
ACDBBLOCKREPETAG
1070
     1
1071
       10
1005
134C99
  0
LINE
  5
134C9A
  8
OBJECT
 10
6091.762953999998
 20
-549.99999999999955
 30
0.0
 11
6091.7629534177431
 21
-569.99999999999955
 31
0.0
1001
ACDBBLOCKREPETAG
1070
     1
1071
       11
1005
134C9A
  0
LINE
  5
134C9B
  8
OBJECT
 10
6095.0
 20
-549.99999999999955
 30
0.0
 11
6095.0
 21
-569.99999999999955
 31
0.0
1001
ACDBBLOCKREPETAG
1070
     1
1071
       12
1005
134C9B
  0
LINE
  5
134C9C
  8
OBJECT
 10
6100.0
 20
-628.99999999999955
 30
0.0
 11
5900.0
 21
-628.99999999999955
 31
0.0
1001
ACDBBLOCKREPETAG
1070
     1
1071
       13
1005
134C9C
  0
LINE
  5
134C9D
  8
OBJECT
 10
6100.0
 20
-752.99999999999773
 30
0.0
 11
6092.5000000000009
 21
-752.99999999999773
 31
0.0
1001
ACDBBLOCKREPETAG
1070
     1
1071
       14
1005
134C9D
  0
LINE
  5
134C9E
  8
OBJECT
 10
5902.4999999999991
 20
-914.99999999999955
 30
0.0
 11
5902.4999999999991
 21
-902.99999999999784
 31
0.0
1001
ACDBBLOCKREPETAG
1070
     1
1071
       15
1005
134C9E
  0
LINE
  5
134C9F
  8
OBJECT
 10
6097.5
 20
-914.99999999999955
 30
0.0
 11
6097.5
 21
-902.99999999999784
 31
0.0
1001
ACDBBLOCKREPETAG
1070
     1
1071
       16
1005
134C9F
  0
LINE
  5
134CA0
  8
OBJECT
 10
5902.4999999999991
 20
-902.99999999999784
 30
0.0
 11
6097.5
 21
-902.99999999999784
 31
0.0
1001
ACDBBLOCKREPETAG
1070
     1
1071
       17
1005
134CA0
  0
LINE
  5
134CA1
  8
HIDDEN
 10
5930.0
 20
-624.99999999999955
 30
0.0
 11
6070.0
 21
-624.99999999999955
 31
0.0
1001
ACDBBLOCKREPETAG
1070
     1
1071
       18
1005
134CA1
  0
LINE
  5
134CA2
  8
CENTER
 10
6000.0
 20
-534.99999999999955
 30
0.0
 11
6000.0
 21
-914.99999999999955
 31
0.0
1001
ACDBBLOCKREPETAG
1070
     1
1071
       19
1005
134CA2
  0
LINE
  5
134CA3
  8
OBJECT
 10
6092.5000000000009
 20
-752.99999999999773
 30
0.0
 11
6092.5000000000009
 21
-902.99999999999784
 31
0.0
1001
ACDBBLOCKREPETAG
1070
     1
1071
       20
1005
134CA3
  0
LINE
  5
134CA4
  8
OBJECT
 10
5914.5
 20
-569.99999999999955
 30
0.0
 11
5914.5
 21
-628.99999999999955
 31
0.0
1001
ACDBBLOCKREPETAG
1070
     1
1071
       21
1005
134CA4
  0
LINE
  5
134CA5
  8
OBJECT
 10
6085.5
 20
-569.99999999999955
 30
0.0
 11
6085.5
 21
-628.99999999999955
 31
0.0
1001
ACDBBLOCKREPETAG
1070
     1
1071
       22
1005
134CA5
  0
POINT
  5
134CA6
  8
DOTS
 10
6000.0
 20
-749.99999999999955
 30
0.0
1001
ACDBBLOCKREPETAG
1070
     1
1071
       24
1005
134CA6
  0
LINE
  5
134CA7
  8
OBJECT
 10
5900.0
 20
-752.99999999999773
 30
0.0
 11
5907.5
 21
-752.99999999999773
 31
0.0
1001
ACDBBLOCKREPETAG
1070
     1
1071
       25
1005
134CA7
  0
LINE
  5
134CA8
  8
OBJECT
 10
5907.5
 20
-752.99999999999773
 30
0.0
 11
5907.5
 21
-902.99999999999784
 31
0.0
1001
ACDBBLOCKREPETAG
1070
     1
1071
       26
1005
134CA8
  0
ARC
  5
134CA9
  8
OBJECT
 10
6214.4155190291494
 20
-715.62073879202455
 30
0.0
 40
149.554492306393
 50
144.60628028468801
 51
164.2211863995189
1001
ACDBBLOCKREPETAG
1070
     1
1071
       28
1005
134CA9
  0
ARC
  5
134CAA
  8
OBJECT
 10
6139.1422781245274
 20
-690.99999999999761
 30
0.0
 40
70.496447952551449
 50
166.8426918235858
 51
193.15730817641409
1001
ACDBBLOCKREPETAG
1070
     1
1071
       29
1005
134CAA
  0
ARC
  5
134CAB
  8
OBJECT
 10
6214.4155190291494
 20
-666.3792612079701
 30
0.0
 40
149.55449230639621
 50
195.7788136004809
 51
215.3937197153119
1001
ACDBBLOCKREPETAG
1070
     1
1071
       30
1005
134CAB
  0
ARC
  5
134CAC
  8
OBJECT
 10
5785.5844809708497
 20
-715.62073879202455
 30
0.0
 40
149.554492306393
 50
15.778813600524931
 51
35.393719715228642
1001
ACDBBLOCKREPETAG
1070
     1
1071
       31
1005
134CAC
  0
ARC
  5
134CAD
  8
OBJECT
 10
5860.8577218754717
 20
-690.99999999999761
 30
0.0
 40
70.496447952551449
 50
346.84269182358582
 51
13.15730817641421
1001
ACDBBLOCKREPETAG
1070
     1
1071
       32
1005
134CAD
  0
ARC
  5
134CAE
  8
OBJECT
 10
5785.5844809708497
 20
-666.3792612079701
 30
0.0
 40
149.55449230639621
 50
324.60628028477117
 51
344.22118639947507
1001
ACDBBLOCKREPETAG
1070
     1
1071
       33
1005
134CAE
  0
LINE
  5
134CAF
  8
CENTER
 10
5899.9999999999973
 20
-199.99999999999909
 30
0.0
 11
5740.9999999999973
 21
-199.99999999999909
 31
0.0
1001
ACDBBLOCKREPETAG
1070
     1
1071
      155
1005
134CAF
  0
LINE
  5
134CB0
  8
OBJECT
 10
5899.9999999999973
 20
-261.99999999999909
 30
0.0
 11
5896.9999999999973
 21
-261.99999999999909
 31
0.0
1001
ACDBBLOCKREPETAG
1070
     1
1071
      156
1005
134CB0
  0
ARC
  5
134CB1
  8
OBJECT
 10
5896.9999999999973
 20
-258.99999999999909
 30
0.0
 40
3.0
 50
180.0
 51
270.0
1001
ACDBBLOCKREPETAG
1070
     1
1071
      157
1005
134CB1
  0
LINE
  5
134CB2
  8
OBJECT
 10
5899.9999999999973
 20
-138.0000000000027
 30
0.0
 11
5896.9999999999973
 21
-138.0000000000027
 31
0.0
1001
ACDBBLOCKREPETAG
1070
     1
1071
      158
1005
134CB2
  0
LINE
  5
134CB3
  8
OBJECT
 10
5893.9999999999982
 20
-140.99999999999909
 30
0.0
 11
5871.3452724064628
 21
-140.9999999999954
 31
0.0
1001
ACDBBLOCKREPETAG
1070
     1
1071
      159
1005
134CB3
  0
LINE
  5
134CB4
  8
OBJECT
 10
5893.9999999999982
 20
-259.00000000000267
 30
0.0
 11
5871.3452724064628
 21
-258.99999999999909
 31
0.0
1001
ACDBBLOCKREPETAG
1070
     1
1071
      160
1005
134CB4
  0
LINE
  5
134CB5
  8
CENTER
 10
5829.9999999999982
 20
-123.5195984073716
 30
0.0
 11
5829.9999999999982
 21
-276.48040159262649
 31
0.0
1001
ACDBBLOCKREPETAG
1070
     1
1071
      161
1005
134CB5
  0
LINE
  5
134CB6
  8
OBJECT
 10
5893.9999999999982
 20
-141.0000000000027
 30
0.0
 11
5893.9999999999982
 21
-258.99999999999909
 31
0.0
1001
ACDBBLOCKREPETAG
1070
     1
1071
      162
1005
134CB6
  0
ARC
  5
134CB7
  8
OBJECT
 10
5896.9999999999973
 20
-141.0000000000027
 30
0.0
 40
3.0
 50
90.0
 51
180.0
1001
ACDBBLOCKREPETAG
1070
     1
1071
      163
1005
134CB7
  0
ARC
  5
134CB8
  8
OBJECT
 10
5829.9999999999982
 20
-199.99999999999909
 30
0.0
 40
61.0
 50
97.16728546129427
 51
142.83271453872419
1001
ACDBBLOCKREPETAG
1070
     1
1071
      165
1005
134CB8
  0
ARC
  5
134CB9
  8
OBJECT
 10
5829.9999999999982
 20
-199.99999999999909
 30
0.0
 40
61.0
 50
337.1672854612342
 51
22.83271453876576
1001
ACDBBLOCKREPETAG
1070
     1
1071
      166
1005
134CB9
  0
ARC
  5
134CBA
  8
OBJECT
 10
5829.9999999999982
 20
-199.99999999999909
 30
0.0
 40
61.0
 50
217.16728546127581
 51
262.83271453870572
1001
ACDBBLOCKREPETAG
1070
     1
1071
      167
1005
134CBA
  0
CIRCLE
  5
134CBB
  8
SLIM
 10
5765.9999999999982
 20
-199.99999999999909
 30
0.0
 40
4.0
1001
ACDBBLOCKREPETAG
1070
     1
1071
      168
1005
134CBB
  0
ARC
  5
134CBC
  8
OBJECT
 10
5765.9999999999982
 20
-199.99999999999909
 30
0.0
 40
10.0
 50
142.83271453872419
 51
217.16728546127581
1001
ACDBBLOCKREPETAG
1070
     1
1071
      169
1005
134CBC
  0
LINE
  5
134CBD
  8
OBJECT
 10
5781.390625
 20
-163.14720279124501
 30
0.0
 11
5758.0312499999982
 21
-193.9585578346296
 31
0.0
1001
ACDBBLOCKREPETAG
1070
     1
1071
      170
1005
134CBD
  0
LINE
  5
134CBE
  8
OBJECT
 10
5781.390625
 20
-236.8527972087532
 30
0.0
 11
5758.0312499999982
 21
-206.04144216536861
 31
0.0
1001
ACDBBLOCKREPETAG
1070
     1
1071
      171
1005
134CBE
  0
CIRCLE
  5
134CBF
  8
SLIM
 10
5861.9999999999982
 20
-144.5743741577962
 30
0.0
 40
3.9999999999999991
1001
ACDBBLOCKREPETAG
1070
     1
1071
      172
1005
134CBF
  0
ARC
  5
134CC0
  8
OBJECT
 10
5861.9999999999982
 20
-144.5743741577962
 30
0.0
 40
9.9999999999999982
 50
22.83271453876576
 51
97.16728546129427
1001
ACDBBLOCKREPETAG
1070
     1
1071
      173
1005
134CC0
  0
LINE
  5
134CC1
  8
OBJECT
 10
5886.2201460832912
 20
-176.32944499229319
 30
0.0
 11
5871.2164173907013
 21
-140.6939553040711
 31
0.0
1001
ACDBBLOCKREPETAG
1070
     1
1071
      174
1005
134CC1
  0
LINE
  5
134CC2
  8
OBJECT
 10
5822.3892289166979
 20
-139.47664778353919
 30
0.0
 11
5860.7523326092933
 21
-134.65251313870161
 31
0.0
1001
ACDBBLOCKREPETAG
1070
     1
1071
      175
1005
134CC2
  0
CIRCLE
  5
134CC3
  8
SLIM
 10
5861.9999999999982
 20
-255.4256258422019
 30
0.0
 40
4.0
1001
ACDBBLOCKREPETAG
1070
     1
1071
      176
1005
134CC3
  0
ARC
  5
134CC4
  8
OBJECT
 10
5861.9999999999982
 20
-255.4256258422019
 30
0.0
 40
10.0
 50
262.83271453870572
 51
337.1672854612342
1001
ACDBBLOCKREPETAG
1070
     1
1071
      177
1005
134CC4
  0
LINE
  5
134CC5
  8
OBJECT
 10
5822.3892289166979
 20
-260.52335221645899
 30
0.0
 11
5860.7523326092933
 21
-265.3474868612966
 31
0.0
1001
ACDBBLOCKREPETAG
1070
     1
1071
      178
1005
134CC5
  0
LINE
  5
134CC6
  8
OBJECT
 10
5886.2201460832912
 20
-223.67055500770491
 30
0.0
 11
5871.2164173907013
 21
-259.30604469592708
 31
0.0
1001
ACDBBLOCKREPETAG
1070
     1
1071
      179
1005
134CC6
  0
CIRCLE
  5
134CC7
  8
OBJECT
 10
5829.9999999999982
 20
-199.99999999999909
 30
0.0
 40
46.0
1001
ACDBBLOCKREPETAG
1070
     1
1071
      180
1005
134CC7
  0
POLYLINE
  5
134CC8
  8
SLIM
 66
     1
 10
0.0
 20
0.0
 30
0.0
 70
     1
1001
ACDBBLOCKREPETAG
1070
     1
1071
      181
1005
134CC8
  0
VERTEX
  5
135820
  8
SLIM
 10
5769.7527767497304
 20
-193.49999999999909
 30
0.0
  0
VERTEX
  5
135821
  8
SLIM
 10
5773.5055534994608
 20
-199.99999999999909
 30
0.0
  0
VERTEX
  5
135822
  8
SLIM
 10
5769.7527767497304
 20
-206.49999999999909
 30
0.0
  0
VERTEX
  5
135823
  8
SLIM
 10
5762.2472232502632
 20
-206.49999999999909
 30
0.0
  0
VERTEX
  5
135824
  8
SLIM
 10
5758.4944465005319
 20
-199.99999999999909
 30
0.0
  0
VERTEX
  5
135825
  8
SLIM
 10
5762.2472232502632
 20
-193.49999999999909
 30
0.0
  0
SEQEND
  5
135826
  8
SLIM
  0
POLYLINE
  5
134CC9
  8
SLIM
 66
     1
 10
0.0
 20
0.0
 30
0.0
 70
     1
1001
ACDBBLOCKREPETAG
1070
     1
1071
      182
1005
134CC9
  0
VERTEX
  5
135827
  8
SLIM
 10
5865.7527767497268
 20
-151.0743741577962
 30
0.0
  0
VERTEX
  5
135828
  8
SLIM
 10
5858.2472232502632
 20
-151.0743741577962
 30
0.0
  0
VERTEX
  5
135829
  8
SLIM
 10
5854.4944465005319
 20
-144.5743741577962
 30
0.0
  0
VERTEX
  5
13582A
  8
SLIM
 10
5858.247223250266
 20
-138.07437415779259
 30
0.0
  0
VERTEX
  5
13582B
  8
SLIM
 10
5865.7527767497268
 20
-138.0743741577962
 30
0.0
  0
VERTEX
  5
13582C
  8
SLIM
 10
5869.5055534994608
 20
-144.57437415779259
 30
0.0
  0
SEQEND
  5
13582D
  8
SLIM
  0
POLYLINE
  5
134CCA
  8
SLIM
 66
     1
 10
0.0
 20
0.0
 30
0.0
 70
     1
1001
ACDBBLOCKREPETAG
1070
     1
1071
      183
1005
134CCA
  0
VERTEX
  5
13582E
  8
SLIM
 10
5854.4944465005319
 20
-255.4256258422019
 30
0.0
  0
VERTEX
  5
13582F
  8
SLIM
 10
5858.247223250266
 20
-248.9256258422019
 30
0.0
  0
VERTEX
  5
135830
  8
SLIM
 10
5865.7527767497268
 20
-248.9256258422019
 30
0.0
  0
VERTEX
  5
135831
  8
SLIM
 10
5869.5055534994608
 20
-255.42562584220559
 30
0.0
  0
VERTEX
  5
135832
  8
SLIM
 10
5865.7527767497304
 20
-261.9256258422019
 30
0.0
  0
VERTEX
  5
135833
  8
SLIM
 10
5858.247223250266
 20
-261.92562584220559
 30
0.0
  0
SEQEND
  5
135834
  8
SLIM
  0
LINE
  5
134CCB
  8
CENTER
 10
6000.0000000000027
 20
-320.99999999999898
 30
0.0
 11
6000.0000000000027
 21
-299.99999999999898
 31
0.0
1001
ACDBBLOCKREPETAG
1070
     1
1071
        0
1005
134CCB
  0
LINE
  5
134CCC
  8
OBJECT
 10
6062.0000000000036
 20
-303.0
 30
0.0
 11
6062.0000000000036
 21
-299.99999999999898
 31
0.0
1001
ACDBBLOCKREPETAG
1070
     1
1071
        1
1005
134CCC
  0
ARC
  5
134CCD
  8
OBJECT
 10
6059.0000000000036
 20
-303.0
 30
0.0
 40
3.0
 50
270.0
 51
0.0
1001
ACDBBLOCKREPETAG
1070
     1
1071
        2
1005
134CCD
  0
LINE
  5
134CCE
  8
OBJECT
 10
5938.0000000000036
 20
-299.99999999999898
 30
0.0
 11
5938.0000000000036
 21
-302.99999999999818
 31
0.0
1001
ACDBBLOCKREPETAG
1070
     1
1071
        3
1005
134CCE
  0
ARC
  5
134CCF
  8
OBJECT
 10
5941.0000000000036
 20
-302.99999999999818
 30
0.0
 40
3.0
 50
180.0
 51
270.0
1001
ACDBBLOCKREPETAG
1070
     1
1071
        4
1005
134CCF
  0
LINE
  5
134CD0
  8
OBJECT
 10
5941.0000000000036
 20
-305.99999999999818
 30
0.0
 11
6059.0000000000036
 21
-306.0
 31
0.0
1001
ACDBBLOCKREPETAG
1070
     1
1071
        5
1005
134CD0
  0
LINE
  5
134CD1
  8
SLIM
 10
5918.5743713244692
 20
-137.74153073842379
 30
0.0
 11
5937.7415307384244
 21
-118.5743713244679
 31
0.0
1001
GRADIENTCOLOR1ACI
1070
     5
1001
GRADIENTCOLOR2ACI
1070
     2
1001
ACAD
1010
0.0
1020
0.0
1030
0.0
1001
ACDBBLOCKREPETAG
1070
     1
1071
      301
1005
134CD1
  0
LINE
  5
134CD2
  8
SLIM
 10
5927.2961581839627
 20
-137.99999999999909
 30
0.0
 11
5959.4220169794125
 21
-105.8741412045496
 31
0.0
1001
GRADIENTCOLOR1ACI
1070
     5
1001
GRADIENTCOLOR2ACI
1070
     2
1001
ACAD
1010
0.0
1020
0.0
1030
0.0
1001
ACDBBLOCKREPETAG
1070
     1
1071
      302
1005
134CD2
  0
LINE
  5
134CD3
  8
SLIM
 10
5955.2080715681668
 20
-119.0683427368643
 30
0.0
 11
5973.2147923567727
 21
-101.06162194825821
 31
0.0
1001
GRADIENTCOLOR1ACI
1070
     5
1001
GRADIENTCOLOR2ACI
1070
     2
1001
ACAD
1010
0.0
1020
0.0
1030
0.0
1001
ACDBBLOCKREPETAG
1070
     1
1071
      303
1005
134CD3
  0
LINE
  5
134CD4
  8
SLIM
 10
5971.1389053532557
 20
-112.11776507284389
 30
0.0
 11
5984.5919680901698
 21
-98.664702335928993
 31
0.0
1001
GRADIENTCOLOR1ACI
1070
     5
1001
GRADIENTCOLOR2ACI
1070
     2
1001
ACAD
1010
0.0
1020
0.0
1030
0.0
1001
ACDBBLOCKREPETAG
1070
     1
1071
      304
1005
134CD4
  0
LINE
  5
134CD5
  8
SLIM
 10
5986.2342955596041
 20
-106.0026309875652
 30
0.0
 11
5994.5942819876618
 21
-97.642644559507801
 31
0.0
1001
GRADIENTCOLOR1ACI
1070
     5
1001
GRADIENTCOLOR2ACI
1070
     2
1001
ACAD
1010
0.0
1020
0.0
1030
0.0
1001
ACDBBLOCKREPETAG
1070
     1
1071
      278
1005
134CD5
  0
LINE
  5
134CD6
  8
SLIM
 10
5996.1386775409328
 20
-105.0785051273038
 30
0.0
 11
6000.0
 21
-101.21718266823839
 31
0.0
1001
GRADIENTCOLOR1ACI
1070
     5
1001
GRADIENTCOLOR2ACI
1070
     2
1001
ACAD
1010
0.0
1020
0.0
1030
0.0
1001
ACDBBLOCKREPETAG
1070
     1
1071
      305
1005
134CD6
  0
LINE
  5
134CD7
  8
SLIM
 10
6000.0
 20
-101.21718266823839
 30
0.0
 11
6003.6520994194652
 21
-97.565083248774314
 31
0.0
1001
GRADIENTCOLOR1ACI
1070
     5
1001
GRADIENTCOLOR2ACI
1070
     2
1001
ACAD
1010
0.0
1020
0.0
1030
0.0
1001
ACDBBLOCKREPETAG
1070
     1
1071
      306
1005
134CD7
  0
LINE
  5
134CD8
  8
SLIM
 10
6005.0624562444937
 20
-105.13498254481389
 30
0.0
 11
6011.993358860951
 21
-98.204079928355625
 31
0.0
1001
GRADIENTCOLOR1ACI
1070
     5
1001
GRADIENTCOLOR2ACI
1070
     2
1001
ACAD
1010
0.0
1020
0.0
1030
0.0
1001
ACDBBLOCKREPETAG
1070
     1
1071
      307
1005
134CD8
  0
LINE
  5
134CD9
  8
SLIM
 10
6013.2492495222623
 20
-105.9284453881143
 30
0.0
 11
6019.7558130592479
 21
-99.421881851129058
 31
0.0
1001
GRADIENTCOLOR1ACI
1070
     5
1001
GRADIENTCOLOR2ACI
1070
     2
1001
ACAD
1010
0.0
1020
0.0
1030
0.0
1001
ACDBBLOCKREPETAG
1070
     1
1071
      282
1005
134CD9
  0
LINE
  5
134CDA
  8
SLIM
 10
6020.8432248281188
 20
-107.31472620332499
 30
0.0
 11
6027.0297896486654
 21
-101.1281613827821
 31
0.0
1001
GRADIENTCOLOR1ACI
1070
     5
1001
GRADIENTCOLOR2ACI
1070
     2
1001
ACAD
1010
0.0
1020
0.0
1030
0.0
1001
ACDBBLOCKREPETAG
1070
     1
1071
      283
1005
134CDA
  0
LINE
  5
134CDB
  8
SLIM
 10
6026.7444850762586
 20
-110.3937220762563
 30
0.0
 11
6033.8777840865841
 21
-103.2604230659298
 31
0.0
1001
GRADIENTCOLOR1ACI
1070
     5
1001
GRADIENTCOLOR2ACI
1070
     2
1001
ACAD
1010
0.0
1020
0.0
1030
0.0
1001
ACDBBLOCKREPETAG
1070
     1
1071
      284
1005
134CDB
  0
LINE
  5
134CDC
  8
SLIM
 10
6032.6605739035567
 20
-113.4578893700272
 30
0.0
 11
6040.3445940865859
 21
-105.7738691869987
 31
0.0
1001
GRADIENTCOLOR1ACI
1070
     5
1001
GRADIENTCOLOR2ACI
1070
     2
1001
ACAD
1010
0.0
1020
0.0
1030
0.0
1001
ACDBBLOCKREPETAG
1070
     1
1071
      285
1005
134CDC
  0
LINE
  5
134CDD
  8
SLIM
 10
6038.9830129339689
 20
-116.115706460684
 30
0.0
 11
6046.4630285156381
 21
-108.63569087901411
 31
0.0
1001
GRADIENTCOLOR1ACI
1070
     5
1001
GRADIENTCOLOR2ACI
1070
     2
1001
ACAD
1010
0.0
1020
0.0
1030
0.0
1001
ACDBBLOCKREPETAG
1070
     1
1071
      286
1005
134CDD
  0
LINE
  5
134CDE
  8
SLIM
 10
6044.9326113883499
 20
-119.1463641273716
 30
0.0
 11
6052.2573273714534
 21
-111.8216481442697
 31
0.0
1001
GRADIENTCOLOR1ACI
1070
     5
1001
GRADIENTCOLOR2ACI
1070
     2
1001
ACAD
1010
0.0
1020
0.0
1030
0.0
1001
ACDBBLOCKREPETAG
1070
     1
1071
      287
1005
134CDE
  0
LINE
  5
134CDF
  8
SLIM
 10
6050.5348792738341
 20
-122.5243523629576
 30
0.0
 11
6057.7453005374236
 21
-115.3139310993673
 31
0.0
1001
GRADIENTCOLOR1ACI
1070
     5
1001
GRADIENTCOLOR2ACI
1070
     2
1001
ACAD
1010
0.0
1020
0.0
1030
0.0
1001
ACDBBLOCKREPETAG
1070
     1
1071
      288
1005
134CDF
  0
LINE
  5
134CE0
  8
SLIM
 10
5919.0997883728251
 20
-262.93969938503398
 30
0.0
 11
5920.039487757861
 21
-261.99999999999909
 31
0.0
1001
GRADIENTCOLOR1ACI
1070
     5
1001
GRADIENTCOLOR2ACI
1070
     2
1001
ACAD
1010
0.0
1020
0.0
1030
0.0
1001
ACDBBLOCKREPETAG
1070
     1
1071
      289
1005
134CE0
  0
LINE
  5
134CE1
  8
SLIM
 10
6055.807705723706
 20
-126.2317820341551
 30
0.0
 11
6062.9396993850351
 21
-119.0997883728258
 31
0.0
1001
GRADIENTCOLOR1ACI
1070
     5
1001
GRADIENTCOLOR2ACI
1070
     2
1001
ACAD
1010
0.0
1020
0.0
1030
0.0
1001
ACDBBLOCKREPETAG
1070
     1
1071
      290
1005
134CE1
  0
LINE
  5
134CE2
  8
SLIM
 10
5923.1706450290258
 20
-267.84909884990361
 30
0.0
 11
5929.0197438789319
 21
-261.99999999999909
 31
0.0
1001
GRADIENTCOLOR1ACI
1070
     5
1001
GRADIENTCOLOR2ACI
1070
     2
1001
ACAD
1010
0.0
1020
0.0
1030
0.0
1001
ACDBBLOCKREPETAG
1070
     1
1071
      291
1005
134CE2
  0
LINE
  5
134CE3
  8
SLIM
 10
6060.762946579669
 20
-130.25679729926071
 30
0.0
 11
6067.8490988499043
 21
-123.17064502902539
 31
0.0
1001
GRADIENTCOLOR1ACI
1070
     5
1001
GRADIENTCOLOR2ACI
1070
     2
1001
ACAD
1010
0.0
1020
0.0
1030
0.0
1001
ACDBBLOCKREPETAG
1070
     1
1071
      292
1005
134CE3
  0
LINE
  5
134CE4
  8
SLIM
 10
5927.5215549283794
 20
-272.47844507162011
 30
0.0
 11
5934.5926227402442
 21
-265.40737725975481
 31
0.0
1001
GRADIENTCOLOR1ACI
1070
     5
1001
GRADIENTCOLOR2ACI
1070
     2
1001
ACAD
1010
0.0
1020
0.0
1030
0.0
1001
ACDBBLOCKREPETAG
1070
     1
1071
      293
1005
134CE4
  0
LINE
  5
134CE5
  8
SLIM
 10
6065.4073772597558
 20
-134.5926227402434
 30
0.0
 11
6072.4784450716206
 21
-127.52155492837799
 31
0.0
1001
GRADIENTCOLOR1ACI
1070
     5
1001
GRADIENTCOLOR2ACI
1070
     2
1001
ACAD
1010
0.0
1020
0.0
1030
0.0
1001
ACDBBLOCKREPETAG
1070
     1
1071
      294
1005
134CE5
  0
LINE
  5
134CE6
  8
SLIM
 10
5932.1509011500948
 20
-276.82935497097282
 30
0.0
 11
5937.9999999999936
 21
-270.980256121075
 31
0.0
1001
GRADIENTCOLOR1ACI
1070
     5
1001
GRADIENTCOLOR2ACI
1070
     2
1001
ACAD
1010
0.0
1020
0.0
1030
0.0
1001
ACDBBLOCKREPETAG
1070
     1
1071
      295
1005
134CE6
  0
LINE
  5
134CE7
  8
SLIM
 10
6070.980256121069
 20
-137.99999999999901
 30
0.0
 11
6076.8293549709733
 21
-132.15090115009451
 31
0.0
1001
GRADIENTCOLOR1ACI
1070
     5
1001
GRADIENTCOLOR2ACI
1070
     2
1001
ACAD
1010
0.0
1020
0.0
1030
0.0
1001
ACDBBLOCKREPETAG
1070
     1
1071
      296
1005
134CE7
  0
LINE
  5
134CE8
  8
SLIM
 10
5937.0603006149649
 20
-280.90021162717238
 30
0.0
 11
5937.9999999999973
 21
-279.9605122421421
 31
0.0
1001
GRADIENTCOLOR1ACI
1070
     5
1001
GRADIENTCOLOR2ACI
1070
     2
1001
ACAD
1010
0.0
1020
0.0
1030
0.0
1001
ACDBBLOCKREPETAG
1070
     1
1071
      297
1005
134CE8
  0
LINE
  5
134CE9
  8
SLIM
 10
6079.9605122421381
 20
-137.99999999999901
 30
0.0
 11
6080.900211627174
 21
-137.06030061496409
 31
0.0
1001
GRADIENTCOLOR1ACI
1070
     5
1001
GRADIENTCOLOR2ACI
1070
     2
1001
ACAD
1010
0.0
1020
0.0
1030
0.0
1001
ACDBBLOCKREPETAG
1070
     1
1071
      298
1005
134CE9
  0
LINE
  5
134CEA
  8
SLIM
 10
6062.0000000000009
 20
-272.70384181603538
 30
0.0
 11
6072.7038418160373
 21
-261.99999999999909
 31
0.0
1001
GRADIENTCOLOR1ACI
1070
     5
1001
GRADIENTCOLOR2ACI
1070
     2
1001
ACAD
1010
0.0
1020
0.0
1030
0.0
1001
ACDBBLOCKREPETAG
1070
     1
1071
      299
1005
134CEA
  0
LINE
  5
134CEB
  8
SLIM
 10
6062.2584692615746
 20
-281.4256286755305
 30
0.0
 11
6081.4256286755299
 21
-262.25846926157431
 31
0.0
1001
GRADIENTCOLOR1ACI
1070
     5
1001
GRADIENTCOLOR2ACI
1070
     2
1001
ACAD
1010
0.0
1020
0.0
1030
0.0
1001
ACDBBLOCKREPETAG
1070
     1
1071
      300
1005
134CEB
  0
LINE
  5
134CEC
  8
OBJECT
 10
6068.6458301719767
 20
-137.99999999999909
 30
0.0
 11
6100.0
 21
-137.99999999999909
 31
0.0
1001
ACDBBLOCKREPETAG
1070
     1
1071
      242
1005
134CEC
  0
LINE
  5
134CED
  8
OBJECT
 10
6068.6458301719767
 20
-261.99999999999909
 30
0.0
 11
6100.0000000000073
 21
-261.99999999999909
 31
0.0
1001
ACDBBLOCKREPETAG
1070
     1
1071
      243
1005
134CED
  0
LINE
  5
134CEE
  8
OBJECT
 10
6062.0
 20
-268.64583017197862
 30
0.0
 11
6062.0000000000082
 21
-299.99999999999898
 31
0.0
1001
ACDBBLOCKREPETAG
1070
     1
1071
      244
1005
134CEE
  0
LINE
  5
134CEF
  8
OBJECT
 10
5937.9999999999927
 20
-268.64583017197492
 30
0.0
 11
5938.0
 21
-299.99999999999898
 31
0.0
1001
ACDBBLOCKREPETAG
1070
     1
1071
      245
1005
134CEF
  0
LINE
  5
134CF0
  8
OBJECT
 10
5931.3541698280233
 20
-261.99999999999909
 30
0.0
 11
5899.9999999999927
 21
-261.99999999999909
 31
0.0
1001
ACDBBLOCKREPETAG
1070
     1
1071
      246
1005
134CF0
  0
LINE
  5
134CF1
  8
OBJECT
 10
5931.3541698280233
 20
-137.99999999999909
 30
0.0
 11
5899.9999999999927
 21
-137.99999999999909
 31
0.0
1001
ACDBBLOCKREPETAG
1070
     1
1071
      247
1005
134CF1
  0
LINE
  5
134CF2
  8
CENTER
 10
5900.0
 20
-199.99999999999909
 30
0.0
 11
6100.0
 21
-199.99999999999909
 31
0.0
1001
ACDBBLOCKREPETAG
1070
     1
1071
      251
1005
134CF2
  0
LINE
  5
134CF3
  8
CENTER
 10
6000.0
 20
-82.499999999999091
 30
0.0
 11
6000.0
 21
-299.99999999999898
 31
0.0
1001
ACDBBLOCKREPETAG
1070
     1
1071
      252
1005
134CF3
  0
ARC
  5
134CF4
  8
OBJECT
 10
6000.0
 20
-199.99999999999909
 30
0.0
 40
102.5
 50
37.220066868561332
 51
142.77993313143861
1001
ACDBBLOCKREPETAG
1070
     1
1071
      256
1005
134CF4
  0
ARC
  5
134CF5
  8
OBJECT
 10
6000.0
 20
-199.99999999999909
 30
0.0
 40
102.5
 50
217.2200668685613
 51
232.7799331314061
1001
ACDBBLOCKREPETAG
1070
     1
1071
      257
1005
134CF5
  0
ARC
  5
134CF6
  8
OBJECT
 10
6000.0
 20
-199.99999999999909
 30
0.0
 40
102.5
 50
307.2200668685939
 51
322.77993313143872
1001
ACDBBLOCKREPETAG
1070
     1
1071
      258
1005
134CF6
  0
ARC
  5
134CF7
  8
OBJECT
 10
5973.8931207053247
 20
-173.82438331578209
 30
0.0
 40
90.0
 50
274.21795726566182
 51
281.60300086768922
1001
ACDBBLOCKREPETAG
1070
     1
1071
      261
1005
134CF7
  0
LINE
  5
134CF8
  8
OBJECT
 10
5991.994750999992
 20
-261.98520799999727
 30
0.0
 11
5996.6424319999924
 21
-248.3387539999994
 31
0.0
1001
ACDBBLOCKREPETAG
1070
     1
1071
      262
1005
134CF8
  0
LINE
  5
134CF9
  8
OBJECT
 10
5955.2887960976786
 20
-207.0733020425842
 30
0.0
 11
5935.6054186421097
 21
-216.60084009147889
 31
0.0
1001
ACDBBLOCKREPETAG
1070
     1
1071
      263
1005
134CF9
  0
LINE
  5
134CFA
  8
OBJECT
 10
5937.3350639238643
 20
-222.25658973369261
 30
0.0
 11
5961.7560738851171
 21
-210.43584915155679
 31
0.0
1001
ACDBBLOCKREPETAG
1070
     1
1071
      264
1005
134CFA
  0
LINE
  5
134CFB
  8
OBJECT
 10
5996.6424319999924
 20
-248.3387539999994
 30
0.0
 11
5970.3289245926417
 21
-210.9660806555467
 31
0.0
1001
ACDBBLOCKREPETAG
1070
     1
1071
      265
1005
134CFB
  0
ARC
  5
134CFC
  8
OBJECT
 10
5960.51700480005
 20
-217.87449798398211
 30
0.0
 40
12.0
 50
35.148769561161963
 51
115.8288295732624
1001
ACDBBLOCKREPETAG
1070
     1
1071
      266
1005
134CFC
  0
ARC
  5
134CFD
  8
OBJECT
 10
5965.2415463179786
 20
-217.63664646295089
 30
0.0
 40
8.0
 50
35.148769561161963
 51
115.8288292916689
1001
ACDBBLOCKREPETAG
1070
     1
1071
      267
1005
134CFD
  0
ARC
  5
134CFE
  8
OBJECT
 10
6000.0
 20
-199.99999999999909
 30
0.0
 40
90.0
 50
201.08359599996521
 51
248.91640400002939
1001
ACDBBLOCKREPETAG
1070
     1
1071
      273
1005
134CFE
  0
ARC
  5
134CFF
  8
OBJECT
 10
6000.0
 20
-199.99999999999909
 30
0.0
 40
90.0
 50
111.0835959999705
 51
158.91640347115251
1001
ACDBBLOCKREPETAG
1070
     1
1071
      274
1005
134CFF
  0
LINE
  5
134D00
  8
OBJECT
 10
5916.0249094448682
 20
-167.62432755513231
 30
0.0
 11
5908.2370465822614
 21
-175.41219041773809
 31
0.0
1001
ACDBBLOCKREPETAG
1070
     1
1071
      275
1005
134D00
  0
LINE
  5
134D01
  8
OBJECT
 10
5916.0249089999998
 20
-232.37567199999921
 30
0.0
 11
5908.2370469998132
 21
-224.58781114059909
 31
0.0
1001
ACDBBLOCKREPETAG
1070
     1
1071
      276
1005
134D01
  0
ARC
  5
134D02
  8
OBJECT
 10
6000.0
 20
-199.99999999999909
 30
0.0
 40
95.0
 50
164.99999981411651
 51
195.00000115873701
1001
ACDBBLOCKREPETAG
1070
     1
1071
      277
1005
134D02
  0
ARC
  5
134D03
  8
OBJECT
 10
6000.0
 20
-199.99999999999909
 30
0.0
 40
92.5
 50
287.80189678391901
 51
342.1981035993042
1001
ACDBBLOCKREPETAG
1070
     1
1071
      209
1005
134D03
  0
ARC
  5
134D04
  8
OBJECT
 10
6000.0
 20
-199.99999999999909
 30
0.0
 40
90.0
 50
291.08359599997061
 51
338.91640400003479
1001
ACDBBLOCKREPETAG
1070
     1
1071
      211
1005
134D04
  0
CIRCLE
  5
134D05
  8
OBJECT
 10
6000.0
 20
-199.99999999999909
 30
0.0
 40
80.0
1001
ACDBBLOCKREPETAG
1070
     1
1071
      212
1005
134D05
  0
ARC
  5
134D06
  8
OBJECT
 10
6000.0
 20
-199.99999999999909
 30
0.0
 40
90.0
 50
21.08359652884743
 51
68.916404000029431
1001
ACDBBLOCKREPETAG
1070
     1
1071
      213
1005
134D06
  0
CIRCLE
  5
134D07
  8
OBJECT
 10
6000.0
 20
-199.99999999999909
 30
0.0
 40
66.5
1001
ACDBBLOCKREPETAG
1070
     1
1071
      215
1005
134D07
  0
LINE
  5
134D08
  8
OBJECT
 10
6083.9750905551346
 20
-167.62432755513231
 30
0.0
 11
6091.7629534177377
 21
-175.4121904177382
 31
0.0
1001
ACDBBLOCKREPETAG
1070
     1
1071
      216
1005
134D08
  0
LINE
  5
134D09
  8
OBJECT
 10
6083.9750910000012
 20
-232.37567199999921
 30
0.0
 11
6091.7629530001859
 21
-224.58781114059909
 31
0.0
1001
ACDBBLOCKREPETAG
1070
     1
1071
      217
1005
134D09
  0
ARC
  5
134D0A
  8
OBJECT
 10
6000.0
 20
-199.99999999999909
 30
0.0
 40
95.0
 50
344.99999884126299
 51
15.00000018588349
1001
ACDBBLOCKREPETAG
1070
     1
1071
      218
1005
134D0A
  0
LINE
  5
134D0B
  8
OBJECT
 10
6032.375672999995
 20
-283.9750909999994
 30
0.0
 11
6024.5878109482801
 21
-291.76295305171419
 31
0.0
1001
ACDBBLOCKREPETAG
1070
     1
1071
      219
1005
134D0B
  0
LINE
  5
134D0C
  8
OBJECT
 10
5967.6243279999971
 20
-283.9750909999994
 30
0.0
 11
5975.4121904177373
 21
-291.76295341774039
 31
0.0
1001
ACDBBLOCKREPETAG
1070
     1
1071
      220
1005
134D0C
  0
ARC
  5
134D0D
  8
OBJECT
 10
6000.0
 20
-199.99999999999909
 30
0.0
 40
95.0
 50
254.99999981420709
 51
285.00000103861061
1001
ACDBBLOCKREPETAG
1070
     1
1071
      221
1005
134D0D
  0
LINE
  5
134D0E
  8
OBJECT
 10
6032.375672999995
 20
-116.0249099999992
 30
0.0
 11
6024.5878095822618
 21
-108.2370465822578
 31
0.0
1001
ACDBBLOCKREPETAG
1070
     1
1071
      222
1005
134D0E
  0
ARC
  5
134D0F
  8
OBJECT
 10
6000.0
 20
-199.99999999999909
 30
0.0
 40
95.0
 50
74.999999814207143
 51
104.99999933254421
1001
ACDBBLOCKREPETAG
1070
     1
1071
      223
1005
134D0F
  0
LINE
  5
134D10
  8
OBJECT
 10
5967.6243279999971
 20
-116.0249099999992
 30
0.0
 11
5975.4121917837692
 21
-108.2370462162316
 31
0.0
1001
ACDBBLOCKREPETAG
1070
     1
1071
      224
1005
134D10
  0
LINE
  5
134D11
  8
OBJECT
 10
6055.1784370000023
 20
-162.884098999998
 30
0.0
 11
6032.5345701092729
 21
-178.11554723457169
 31
0.0
1001
ACDBBLOCKREPETAG
1070
     1
1071
      225
1005
134D11
  0
LINE
  5
134D12
  8
OBJECT
 10
5944.804121000001
 20
-162.88106899999821
 30
0.0
 11
6032.5345701092729
 21
-178.11554723457169
 31
0.0
1001
ACDBBLOCKREPETAG
1070
     1
1071
      226
1005
134D12
  0
ARC
  5
134D13
  8
OBJECT
 10
6000.0
 20
-199.99999999999909
 30
0.0
 40
92.5
 50
197.8018954425261
 51
252.19810417408729
1001
ACDBBLOCKREPETAG
1070
     1
1071
      230
1005
134D13
  0
ARC
  5
134D14
  8
OBJECT
 10
6000.0
 20
-199.99999999999909
 30
0.0
 40
92.5
 50
107.80189486746769
 51
162.19810513270031
1001
ACDBBLOCKREPETAG
1070
     1
1071
      231
1005
134D14
  0
ARC
  5
134D15
  8
OBJECT
 10
6000.0
 20
-199.99999999999909
 30
0.0
 40
92.5
 50
17.801895825711568
 51
72.19810417408732
1001
ACDBBLOCKREPETAG
1070
     1
1071
      232
1005
134D15
  0
ARC
  5
134D16
  8
OBJECT
 10
6000.0
 20
-199.99999999999909
 30
0.0
 40
62.5
 50
144.42390307805491
 51
193.7174643726803
1001
ACDBBLOCKREPETAG
1070
     1
1071
      234
1005
134D16
  0
ARC
  5
134D17
  8
OBJECT
 10
6000.0
 20
-199.99999999999909
 30
0.0
 40
62.5
 50
262.64111297834887
 51
33.92683896333525
1001
ACDBBLOCKREPETAG
1070
     1
1071
      235
1005
134D17
  0
POINT
  5
134D18
  8
DOTS
 10
6000.0
 20
-199.99999999999909
 30
0.0
1001
ACDBBLOCKREPETAG
1070
     1
1071
      280
1005
134D18
  0
LINE
  5
134D19
  8
OBJECT
 10
6134.0
 20
-582.99999999999761
 30
0.0
 11
6134.0
 21
-580.99999999999761
 31
0.0
1001
ACDBBLOCKREPETAG
1070
     1
1071
      157
1005
134D19
  0
ARC
  5
134D1A
  8
OBJECT
 10
6175.1865574982548
 20
-600.99999999999761
 30
0.0
 40
59.0
 50
229.20276883323919
 51
270.0
1001
ACDBBLOCKREPETAG
1070
     1
1071
      158
1005
134D1A
  0
LINE
  5
134D1B
  8
OBJECT
 10
6244.0
 20
-589.49999999999761
 30
0.0
 11
6109.0
 21
-589.49999999999761
 31
0.0
1001
ACDBBLOCKREPETAG
1070
     1
1071
      159
1005
134D1B
  0
LINE
  5
134D1C
  8
OBJECT
 10
6109.0
 20
-602.49999999999761
 30
0.0
 11
6244.0
 21
-602.49999999999761
 31
0.0
1001
ACDBBLOCKREPETAG
1070
     1
1071
      160
1005
134D1C
  0
LINE
  5
134D1D
  8
OBJECT
 10
6109.0
 20
-589.49999999999761
 30
0.0
 11
6109.0
 21
-602.49999999999761
 31
0.0
1001
ACDBBLOCKREPETAG
1070
     1
1071
      161
1005
134D1D
  0
LINE
  5
134D1E
  8
OBJECT
 10
6116.0
 20
-611.49999999999761
 30
0.0
 11
6116.0
 21
-602.49999999999761
 31
0.0
1001
ACDBBLOCKREPETAG
1070
     1
1071
      162
1005
134D1E
  0
LINE
  5
134D1F
  8
OBJECT
 10
6134.0
 20
-614.99999999999761
 30
0.0
 11
6134.0
 21
-602.49999999999761
 31
0.0
1001
ACDBBLOCKREPETAG
1070
     1
1071
      163
1005
134D1F
  0
LINE
  5
134D20
  8
OBJECT
 10
6224.0
 20
-611.49999999999761
 30
0.0
 11
6224.0
 21
-602.49999999999761
 31
0.0
1001
ACDBBLOCKREPETAG
1070
     1
1071
      164
1005
134D20
  0
LINE
  5
134D21
  8
OBJECT
 10
6244.0
 20
-589.49999999999761
 30
0.0
 11
6244.0
 21
-602.49999999999761
 31
0.0
1001
ACDBBLOCKREPETAG
1070
     1
1071
      165
1005
134D21
  0
LINE
  5
134D22
  8
OBJECT
 10
6142.0
 20
-614.99999999999761
 30
0.0
 11
6142.0
 21
-602.49999999999761
 31
0.0
1001
ACDBBLOCKREPETAG
1070
     1
1071
      166
1005
134D22
  0
LINE
  5
134D23
  8
OBJECT
 10
6134.0
 20
-611.49999999999761
 30
0.0
 11
6115.0
 21
-611.49999999999761
 31
0.0
1001
ACDBBLOCKREPETAG
1070
     1
1071
      167
1005
134D23
  0
LINE
  5
134D24
  8
OBJECT
 10
6115.0
 20
-614.99999999999761
 30
0.0
 11
6115.0
 21
-611.49999999999761
 31
0.0
1001
ACDBBLOCKREPETAG
1070
     1
1071
      168
1005
134D24
  0
LINE
  5
134D25
  8
OBJECT
 10
6142.0
 20
-611.49999999999761
 30
0.0
 11
6225.0
 21
-611.49999999999761
 31
0.0
1001
ACDBBLOCKREPETAG
1070
     1
1071
      169
1005
134D25
  0
LINE
  5
134D26
  8
OBJECT
 10
6225.0
 20
-611.49999999999761
 30
0.0
 11
6225.0
 21
-614.99999999999761
 31
0.0
1001
ACDBBLOCKREPETAG
1070
     1
1071
      170
1005
134D26
  0
LINE
  5
134D27
  8
OBJECT
 10
6130.4944465005337
 20
-589.49999999999761
 30
0.0
 11
6130.4944465005337
 21
-582.99999999999761
 31
0.0
1001
ACDBBLOCKREPETAG
1070
     1
1071
      171
1005
134D27
  0
LINE
  5
134D28
  8
OBJECT
 10
6129.0
 20
-627.99999999999761
 30
0.0
 11
6129.0
 21
-632.99999999999761
 31
0.0
1001
ACDBBLOCKREPETAG
1070
     1
1071
      172
1005
134D28
  0
LINE
  5
134D29
  8
OBJECT
 10
6129.0
 20
-632.99999999999761
 30
0.0
 11
6147.0
 21
-632.99999999999761
 31
0.0
1001
ACDBBLOCKREPETAG
1070
     1
1071
      173
1005
134D29
  0
LINE
  5
134D2A
  8
OBJECT
 10
6147.0
 20
-627.99999999999761
 30
0.0
 11
6147.0
 21
-632.99999999999761
 31
0.0
1001
ACDBBLOCKREPETAG
1070
     1
1071
      174
1005
134D2A
  0
LINE
  5
134D2B
  8
OBJECT
 10
6109.0000000000036
 20
-614.99999999999761
 30
0.0
 11
6244.0
 21
-614.99999999999761
 31
0.0
1001
ACDBBLOCKREPETAG
1070
     1
1071
      175
1005
134D2B
  0
LINE
  5
134D2C
  8
OBJECT
 10
6244.0
 20
-614.99999999999761
 30
0.0
 11
6244.0
 21
-627.99999999999761
 31
0.0
1001
ACDBBLOCKREPETAG
1070
     1
1071
      176
1005
134D2C
  0
LINE
  5
134D2D
  8
OBJECT
 10
6136.6369002447645
 20
-645.66457125774514
 30
0.0
 11
6116.1702980000009
 21
-627.99999999999761
 31
0.0
1001
ACDBBLOCKREPETAG
1070
     1
1071
      177
1005
134D2D
  0
LINE
  5
134D2E
  8
OBJECT
 10
6221.0000000000027
 20
-635.65708264965485
 30
0.0
 11
6221.0000000000027
 21
-659.99999999999761
 31
0.0
1001
ACDBBLOCKREPETAG
1070
     1
1071
      178
1005
134D2E
  0
LINE
  5
134D2F
  8
OBJECT
 10
6175.1865574982548
 20
-659.99999999999761
 30
0.0
 11
6221.0000000000027
 21
-659.99999999999761
 31
0.0
1001
ACDBBLOCKREPETAG
1070
     1
1071
      179
1005
134D2F
  0
ARC
  5
134D30
  8
OBJECT
 10
6130.5
 20
-661.49999999999761
 30
0.0
 40
84.0
 50
277.05348487097029
 51
1.023193303671255
1001
ACDBBLOCKREPETAG
1070
     1
1071
      180
1005
134D30
  0
LINE
  5
134D31
  8
OBJECT
 10
6106.0
 20
-749.17200317020843
 30
0.0
 11
6140.8148488128809
 21
-744.86428428270153
 31
0.0
1001
ACDBBLOCKREPETAG
1070
     1
1071
      181
1005
134D31
  0
LINE
  5
134D32
  8
OBJECT
 10
6106.0000000000036
 20
-749.99999999999852
 30
0.0
 11
6106.0000000000036
 21
-628.99999999999761
 31
0.0
1001
ACDBBLOCKREPETAG
1070
     1
1071
      182
1005
134D32
  0
ARC
  5
134D33
  8
OBJECT
 10
6103.0000000000036
 20
-749.99999999999852
 30
0.0
 40
3.0
 50
270.0
 51
0.0
1001
ACDBBLOCKREPETAG
1070
     1
1071
      183
1005
134D33
  0
LINE
  5
134D34
  8
OBJECT
 10
6116.1702980000009
 20
-627.99999999999761
 30
0.0
 11
6244.0
 21
-627.99999999999761
 31
0.0
1001
ACDBBLOCKREPETAG
1070
     1
1071
      184
1005
134D34
  0
LINE
  5
134D35
  8
OBJECT
 10
6125.0539138517224
 20
-635.65708264965485
 30
0.0
 11
6221.0000000000027
 21
-635.65708264965485
 31
0.0
1001
ACDBBLOCKREPETAG
1070
     1
1071
      185
1005
134D35
  0
LINE
  5
134D36
  8
OBJECT
 10
6225.0
 20
-630.89006764214673
 30
0.0
 11
6221.0000000000027
 21
-635.65708264965485
 31
0.0
1001
ACDBBLOCKREPETAG
1070
     1
1071
      186
1005
134D36
  0
LINE
  5
134D37
  8
OBJECT
 10
6109.0000000000036
 20
-614.99999999999761
 30
0.0
 11
6109.0000000000073
 21
-628.99999999999761
 31
0.0
1001
ACDBBLOCKREPETAG
1070
     1
1071
      187
1005
134D37
  0
LINE
  5
134D38
  8
HIDDEN
 10
6125.5
 20
-654.9999999999975
 30
0.0
 11
6214.5000000000009
 21
-654.9999999999975
 31
0.0
1001
ACDBBLOCKREPETAG
1070
     1
1071
      188
1005
134D38
  0
LINE
  5
134D39
  8
OBJECT
 10
6134.0
 20
-580.99999999999761
 30
0.0
 11
6142.0
 21
-580.99999999999761
 31
0.0
1001
ACDBBLOCKREPETAG
1070
     1
1071
      189
1005
134D39
  0
LINE
  5
134D3A
  8
OBJECT
 10
6142.0
 20
-582.99999999999761
 30
0.0
 11
6142.0
 21
-580.99999999999761
 31
0.0
1001
ACDBBLOCKREPETAG
1070
     1
1071
      190
1005
134D3A
  0
LINE
  5
134D3B
  8
OBJECT
 10
6130.4944465005337
 20
-582.99999999999761
 30
0.0
 11
6145.5055534994644
 21
-582.99999999999761
 31
0.0
1001
ACDBBLOCKREPETAG
1070
     1
1071
      191
1005
134D3B
  0
LINE
  5
134D3C
  8
CENTER
 10
6170.0
 20
-674.77158855533025
 30
0.0
 11
6170.0
 21
-574.49999999999761
 31
0.0
1001
ACDBBLOCKREPETAG
1070
     1
1071
      193
1005
134D3C
  0
LINE
  5
134D3D
  8
OBJECT
 10
6100.0
 20
-752.99999999999773
 30
0.0
 11
6103.0000000000036
 21
-752.99999999999852
 31
0.0
1001
ACDBBLOCKREPETAG
1070
     1
1071
      194
1005
134D3D
  0
LINE
  5
134D3E
  8
OBJECT
 10
6100.0
 20
-628.99999999999761
 30
0.0
 11
6109.0000000000073
 21
-628.99999999999761
 31
0.0
1001
ACDBBLOCKREPETAG
1070
     1
1071
      195
1005
134D3E
  0
LINE
  5
134D3F
  8
OBJECT
 10
6134.2471969783928
 20
-589.49998110540889
 30
0.0
 11
6134.2471969783928
 21
-582.99998110540901
 31
0.0
1001
ACDBBLOCKREPETAG
1070
     1
1071
      196
1005
134D3F
  0
LINE
  5
134D40
  8
OBJECT
 10
6145.5055534994644
 20
-589.49999999999761
 30
0.0
 11
6145.5055534994644
 21
-582.99999999999761
 31
0.0
1001
ACDBBLOCKREPETAG
1070
     1
1071
      197
1005
134D40
  0
LINE
  5
134D41
  8
OBJECT
 10
6141.7528030216054
 20
-589.49998110540889
 30
0.0
 11
6141.7528030216054
 21
-582.99998110540901
 31
0.0
1001
ACDBBLOCKREPETAG
1070
     1
1071
      198
1005
134D41
  0
LINE
  5
134D42
  8
OBJECT
 10
6230.0
 20
-582.99999999999761
 30
0.0
 11
6230.0
 21
-580.99999999999761
 31
0.0
1001
ACDBBLOCKREPETAG
1070
     1
1071
      199
1005
134D42
  0
LINE
  5
134D43
  8
OBJECT
 10
6230.0
 20
-614.99999999999761
 30
0.0
 11
6230.0
 21
-602.49999999999761
 31
0.0
1001
ACDBBLOCKREPETAG
1070
     1
1071
      200
1005
134D43
  0
LINE
  5
134D44
  8
OBJECT
 10
6238.0
 20
-614.99999999999761
 30
0.0
 11
6238.0
 21
-602.49999999999761
 31
0.0
1001
ACDBBLOCKREPETAG
1070
     1
1071
      201
1005
134D44
  0
LINE
  5
134D45
  8
OBJECT
 10
6226.4944465005337
 20
-589.49999999999761
 30
0.0
 11
6226.4944465005337
 21
-582.99999999999761
 31
0.0
1001
ACDBBLOCKREPETAG
1070
     1
1071
      202
1005
134D45
  0
LINE
  5
134D46
  8
OBJECT
 10
6225.0
 20
-627.99999999999761
 30
0.0
 11
6225.0
 21
-632.99999999999761
 31
0.0
1001
ACDBBLOCKREPETAG
1070
     1
1071
      203
1005
134D46
  0
LINE
  5
134D47
  8
OBJECT
 10
6225.0
 20
-632.99999999999761
 30
0.0
 11
6243.0
 21
-632.99999999999761
 31
0.0
1001
ACDBBLOCKREPETAG
1070
     1
1071
      204
1005
134D47
  0
LINE
  5
134D48
  8
OBJECT
 10
6243.0
 20
-627.99999999999761
 30
0.0
 11
6243.0
 21
-632.99999999999761
 31
0.0
1001
ACDBBLOCKREPETAG
1070
     1
1071
      205
1005
134D48
  0
LINE
  5
134D49
  8
OBJECT
 10
6230.0
 20
-580.99999999999761
 30
0.0
 11
6238.0
 21
-580.99999999999761
 31
0.0
1001
ACDBBLOCKREPETAG
1070
     1
1071
      206
1005
134D49
  0
LINE
  5
134D4A
  8
OBJECT
 10
6238.0
 20
-582.99999999999761
 30
0.0
 11
6238.0
 21
-580.99999999999761
 31
0.0
1001
ACDBBLOCKREPETAG
1070
     1
1071
      207
1005
134D4A
  0
LINE
  5
134D4B
  8
OBJECT
 10
6226.4944465005337
 20
-582.99999999999761
 30
0.0
 11
6241.5055534994653
 21
-582.99999999999761
 31
0.0
1001
ACDBBLOCKREPETAG
1070
     1
1071
      208
1005
134D4B
  0
LINE
  5
134D4C
  8
OBJECT
 10
6230.2471969783928
 20
-589.49998110540889
 30
0.0
 11
6230.2471969783928
 21
-582.99998110540901
 31
0.0
1001
ACDBBLOCKREPETAG
1070
     1
1071
      209
1005
134D4C
  0
LINE
  5
134D4D
  8
OBJECT
 10
6241.5055534994653
 20
-589.49999999999761
 30
0.0
 11
6241.5055534994653
 21
-582.99999999999761
 31
0.0
1001
ACDBBLOCKREPETAG
1070
     1
1071
      210
1005
134D4D
  0
LINE
  5
134D4E
  8
OBJECT
 10
6237.7528030216063
 20
-589.49998110540889
 30
0.0
 11
6237.7528030216063
 21
-582.99998110540901
 31
0.0
1001
ACDBBLOCKREPETAG
1070
     1
1071
      211
1005
134D4E
  0
LINE
  5
134D4F
  8
CENTER
 10
6100.0
 20
-199.99999999999909
 30
0.0
 11
6259.0
 21
-199.99999999999909
 31
0.0
1001
ACDBBLOCKREPETAG
1070
     1
1071
      155
1005
134D4F
  0
LINE
  5
134D50
  8
OBJECT
 10
6100.0
 20
-261.99999999999909
 30
0.0
 11
6103.0
 21
-261.99999999999909
 31
0.0
1001
ACDBBLOCKREPETAG
1070
     1
1071
      156
1005
134D50
  0
ARC
  5
134D51
  8
OBJECT
 10
6103.0
 20
-258.99999999999909
 30
0.0
 40
3.0
 50
270.0
 51
0.0
1001
ACDBBLOCKREPETAG
1070
     1
1071
      157
1005
134D51
  0
LINE
  5
134D52
  8
OBJECT
 10
6100.0
 20
-138.0000000000027
 30
0.0
 11
6103.0
 21
-138.0000000000027
 31
0.0
1001
ACDBBLOCKREPETAG
1070
     1
1071
      158
1005
134D52
  0
LINE
  5
134D53
  8
OBJECT
 10
6106.0
 20
-140.99999999999909
 30
0.0
 11
6128.6547275935327
 21
-140.9999999999954
 31
0.0
1001
ACDBBLOCKREPETAG
1070
     1
1071
      159
1005
134D53
  0
LINE
  5
134D54
  8
OBJECT
 10
6106.0
 20
-259.00000000000267
 30
0.0
 11
6128.6547275935327
 21
-258.99999999999909
 31
0.0
1001
ACDBBLOCKREPETAG
1070
     1
1071
      160
1005
134D54
  0
LINE
  5
134D55
  8
CENTER
 10
6170.0
 20
-123.5195984073716
 30
0.0
 11
6170.0
 21
-276.48040159262649
 31
0.0
1001
ACDBBLOCKREPETAG
1070
     1
1071
      161
1005
134D55
  0
LINE
  5
134D56
  8
OBJECT
 10
6106.0
 20
-141.0000000000027
 30
0.0
 11
6106.0
 21
-258.99999999999909
 31
0.0
1001
ACDBBLOCKREPETAG
1070
     1
1071
      162
1005
134D56
  0
ARC
  5
134D57
  8
OBJECT
 10
6103.0
 20
-141.0000000000027
 30
0.0
 40
3.0
 50
0.0
 51
90.0
1001
ACDBBLOCKREPETAG
1070
     1
1071
      163
1005
134D57
  0
ARC
  5
134D58
  8
OBJECT
 10
6170.0
 20
-199.99999999999909
 30
0.0
 40
61.0
 50
37.167285461274467
 51
82.832714538705744
1001
ACDBBLOCKREPETAG
1070
     1
1071
      165
1005
134D58
  0
ARC
  5
134D59
  8
OBJECT
 10
6170.0
 20
-199.99999999999909
 30
0.0
 40
61.0
 50
157.16728546127851
 51
202.83271453872149
1001
ACDBBLOCKREPETAG
1070
     1
1071
      166
1005
134D59
  0
ARC
  5
134D5A
  8
OBJECT
 10
6170.0
 20
-199.99999999999909
 30
0.0
 40
61.0
 50
277.16728546129423
 51
322.83271453872419
1001
ACDBBLOCKREPETAG
1070
     1
1071
      167
1005
134D5A
  0
CIRCLE
  5
134D5B
  8
SLIM
 10
6234.0
 20
-199.99999999999909
 30
0.0
 40
4.0
1001
ACDBBLOCKREPETAG
1070
     1
1071
      168
1005
134D5B
  0
ARC
  5
134D5C
  8
OBJECT
 10
6234.0
 20
-199.99999999999909
 30
0.0
 40
10.0
 50
322.83271453872419
 51
37.167285461274467
1001
ACDBBLOCKREPETAG
1070
     1
1071
      169
1005
134D5C
  0
LINE
  5
134D5D
  8
OBJECT
 10
6218.6093749999973
 20
-163.14720279124501
 30
0.0
 11
6241.96875
 21
-193.9585578346296
 31
0.0
1001
ACDBBLOCKREPETAG
1070
     1
1071
      170
1005
134D5D
  0
LINE
  5
134D5E
  8
OBJECT
 10
6218.6093749999973
 20
-236.8527972087532
 30
0.0
 11
6241.96875
 21
-206.04144216536861
 31
0.0
1001
ACDBBLOCKREPETAG
1070
     1
1071
      171
1005
134D5E
  0
CIRCLE
  5
134D5F
  8
SLIM
 10
6138.0
 20
-144.5743741577962
 30
0.0
 40
3.9999999999999991
1001
ACDBBLOCKREPETAG
1070
     1
1071
      172
1005
134D5F
  0
ARC
  5
134D60
  8
OBJECT
 10
6138.0
 20
-144.5743741577962
 30
0.0
 40
9.9999999999999982
 50
82.832714538705744
 51
157.16728546127851
1001
ACDBBLOCKREPETAG
1070
     1
1071
      173
1005
134D60
  0
LINE
  5
134D61
  8
OBJECT
 10
6113.7798539167052
 20
-176.32944499229319
 30
0.0
 11
6128.783582609296
 21
-140.6939553040711
 31
0.0
1001
ACDBBLOCKREPETAG
1070
     1
1071
      174
1005
134D61
  0
LINE
  5
134D62
  8
OBJECT
 10
6177.6107710832994
 20
-139.47664778353919
 30
0.0
 11
6139.247667390704
 21
-134.65251313870161
 31
0.0
1001
ACDBBLOCKREPETAG
1070
     1
1071
      175
1005
134D62
  0
CIRCLE
  5
134D63
  8
SLIM
 10
6138.0
 20
-255.4256258422019
 30
0.0
 40
4.0
1001
ACDBBLOCKREPETAG
1070
     1
1071
      176
1005
134D63
  0
ARC
  5
134D64
  8
OBJECT
 10
6138.0
 20
-255.4256258422019
 30
0.0
 40
10.0
 50
202.83271453872149
 51
277.16728546129423
1001
ACDBBLOCKREPETAG
1070
     1
1071
      177
1005
134D64
  0
LINE
  5
134D65
  8
OBJECT
 10
6177.6107710832994
 20
-260.52335221645899
 30
0.0
 11
6139.247667390704
 21
-265.3474868612966
 31
0.0
1001
ACDBBLOCKREPETAG
1070
     1
1071
      178
1005
134D65
  0
LINE
  5
134D66
  8
OBJECT
 10
6113.7798539167052
 20
-223.67055500770491
 30
0.0
 11
6128.783582609296
 21
-259.30604469592708
 31
0.0
1001
ACDBBLOCKREPETAG
1070
     1
1071
      179
1005
134D66
  0
CIRCLE
  5
134D67
  8
OBJECT
 10
6170.0
 20
-199.99999999999909
 30
0.0
 40
46.0
1001
ACDBBLOCKREPETAG
1070
     1
1071
      180
1005
134D67
  0
POLYLINE
  5
134D68
  8
SLIM
 66
     1
 10
0.0
 20
0.0
 30
0.0
 70
     1
1001
ACDBBLOCKREPETAG
1070
     1
1071
      181
1005
134D68
  0
VERTEX
  5
135835
  8
SLIM
 10
6230.247223250266
 20
-193.49999999999909
 30
0.0
  0
VERTEX
  5
135836
  8
SLIM
 10
6226.4944465005337
 20
-199.99999999999909
 30
0.0
  0
VERTEX
  5
135837
  8
SLIM
 10
6230.247223250266
 20
-206.49999999999909
 30
0.0
  0
VERTEX
  5
135838
  8
SLIM
 10
6237.752776749734
 20
-206.49999999999909
 30
0.0
  0
VERTEX
  5
135839
  8
SLIM
 10
6241.5055534994653
 20
-199.99999999999909
 30
0.0
  0
VERTEX
  5
13583A
  8
SLIM
 10
6237.752776749734
 20
-193.49999999999909
 30
0.0
  0
SEQEND
  5
13583B
  8
SLIM
  0
POLYLINE
  5
134D69
  8
SLIM
 66
     1
 10
0.0
 20
0.0
 30
0.0
 70
     1
1001
ACDBBLOCKREPETAG
1070
     1
1071
      182
1005
134D69
  0
VERTEX
  5
13583C
  8
SLIM
 10
6134.2472232502696
 20
-151.0743741577962
 30
0.0
  0
VERTEX
  5
13583D
  8
SLIM
 10
6141.752776749734
 20
-151.0743741577962
 30
0.0
  0
VERTEX
  5
13583E
  8
SLIM
 10
6145.5055534994644
 20
-144.5743741577962
 30
0.0
  0
VERTEX
  5
13583F
  8
SLIM
 10
6141.7527767497304
 20
-138.07437415779259
 30
0.0
  0
VERTEX
  5
135840
  8
SLIM
 10
6134.2472232502696
 20
-138.0743741577962
 30
0.0
  0
VERTEX
  5
135841
  8
SLIM
 10
6130.4944465005337
 20
-144.57437415779259
 30
0.0
  0
SEQEND
  5
135842
  8
SLIM
  0
POLYLINE
  5
134D6A
  8
SLIM
 66
     1
 10
0.0
 20
0.0
 30
0.0
 70
     1
1001
ACDBBLOCKREPETAG
1070
     1
1071
      183
1005
134D6A
  0
VERTEX
  5
135843
  8
SLIM
 10
6145.5055534994644
 20
-255.4256258422019
 30
0.0
  0
VERTEX
  5
135844
  8
SLIM
 10
6141.7527767497304
 20
-248.9256258422019
 30
0.0
  0
VERTEX
  5
135845
  8
SLIM
 10
6134.2472232502696
 20
-248.9256258422019
 30
0.0
  0
VERTEX
  5
135846
  8
SLIM
 10
6130.4944465005337
 20
-255.42562584220559
 30
0.0
  0
VERTEX
  5
135847
  8
SLIM
 10
6134.247223250266
 20
-261.9256258422019
 30
0.0
  0
VERTEX
  5
135848
  8
SLIM
 10
6141.7527767497304
 20
-261.92562584220559
 30
0.0
  0
SEQEND
  5
135849
  8
SLIM
  0
LINE
  5
134D6B
  8
OBJECT
 10
3866.0
 20
-582.99999999999761
 30
0.0
 11
3866.0
 21
-580.99999999999761
 31
0.0
1001
ACDBBLOCKREPETAG
1070
     1
1071
      157
1005
134D6B
  0
ARC
  5
134D6C
  8
OBJECT
 10
3824.8134425017461
 20
-600.99999999999761
 30
0.0
 40
59.0
 50
270.0
 51
310.7972311667607
1001
ACDBBLOCKREPETAG
1070
     1
1071
      158
1005
134D6C
  0
LINE
  5
134D6D
  8
OBJECT
 10
3756.0
 20
-589.49999999999761
 30
0.0
 11
3891.0
 21
-589.49999999999761
 31
0.0
1001
ACDBBLOCKREPETAG
1070
     1
1071
      159
1005
134D6D
  0
LINE
  5
134D6E
  8
OBJECT
 10
3891.0
 20
-602.49999999999761
 30
0.0
 11
3756.0
 21
-602.49999999999761
 31
0.0
1001
ACDBBLOCKREPETAG
1070
     1
1071
      160
1005
134D6E
  0
LINE
  5
134D6F
  8
OBJECT
 10
3891.0
 20
-589.49999999999761
 30
0.0
 11
3891.0
 21
-602.49999999999761
 31
0.0
1001
ACDBBLOCKREPETAG
1070
     1
1071
      161
1005
134D6F
  0
LINE
  5
134D70
  8
OBJECT
 10
3884.0
 20
-611.49999999999761
 30
0.0
 11
3884.0
 21
-602.49999999999761
 31
0.0
1001
ACDBBLOCKREPETAG
1070
     1
1071
      162
1005
134D70
  0
LINE
  5
134D71
  8
OBJECT
 10
3866.0
 20
-614.99999999999761
 30
0.0
 11
3866.0
 21
-602.49999999999761
 31
0.0
1001
ACDBBLOCKREPETAG
1070
     1
1071
      163
1005
134D71
  0
LINE
  5
134D72
  8
OBJECT
 10
3776.0
 20
-611.49999999999761
 30
0.0
 11
3776.0
 21
-602.49999999999761
 31
0.0
1001
ACDBBLOCKREPETAG
1070
     1
1071
      164
1005
134D72
  0
LINE
  5
134D73
  8
OBJECT
 10
3756.0
 20
-589.49999999999761
 30
0.0
 11
3756.0
 21
-602.49999999999761
 31
0.0
1001
ACDBBLOCKREPETAG
1070
     1
1071
      165
1005
134D73
  0
LINE
  5
134D74
  8
OBJECT
 10
3858.0
 20
-614.99999999999761
 30
0.0
 11
3858.0
 21
-602.49999999999761
 31
0.0
1001
ACDBBLOCKREPETAG
1070
     1
1071
      166
1005
134D74
  0
LINE
  5
134D75
  8
OBJECT
 10
3866.0
 20
-611.49999999999761
 30
0.0
 11
3885.0
 21
-611.49999999999761
 31
0.0
1001
ACDBBLOCKREPETAG
1070
     1
1071
      167
1005
134D75
  0
LINE
  5
134D76
  8
OBJECT
 10
3885.0
 20
-614.99999999999761
 30
0.0
 11
3885.0
 21
-611.49999999999761
 31
0.0
1001
ACDBBLOCKREPETAG
1070
     1
1071
      168
1005
134D76
  0
LINE
  5
134D77
  8
OBJECT
 10
3858.0
 20
-611.49999999999761
 30
0.0
 11
3775.0
 21
-611.49999999999761
 31
0.0
1001
ACDBBLOCKREPETAG
1070
     1
1071
      169
1005
134D77
  0
LINE
  5
134D78
  8
OBJECT
 10
3775.0
 20
-611.49999999999761
 30
0.0
 11
3775.0
 21
-614.99999999999761
 31
0.0
1001
ACDBBLOCKREPETAG
1070
     1
1071
      170
1005
134D78
  0
LINE
  5
134D79
  8
OBJECT
 10
3869.5055534994649
 20
-589.49999999999761
 30
0.0
 11
3869.5055534994649
 21
-582.99999999999761
 31
0.0
1001
ACDBBLOCKREPETAG
1070
     1
1071
      171
1005
134D79
  0
LINE
  5
134D7A
  8
OBJECT
 10
3871.0
 20
-627.99999999999761
 30
0.0
 11
3871.0
 21
-632.99999999999761
 31
0.0
1001
ACDBBLOCKREPETAG
1070
     1
1071
      172
1005
134D7A
  0
LINE
  5
134D7B
  8
OBJECT
 10
3871.0
 20
-632.99999999999761
 30
0.0
 11
3853.0
 21
-632.99999999999761
 31
0.0
1001
ACDBBLOCKREPETAG
1070
     1
1071
      173
1005
134D7B
  0
LINE
  5
134D7C
  8
OBJECT
 10
3853.0
 20
-627.99999999999761
 30
0.0
 11
3853.0
 21
-632.99999999999761
 31
0.0
1001
ACDBBLOCKREPETAG
1070
     1
1071
      174
1005
134D7C
  0
LINE
  5
134D7D
  8
OBJECT
 10
3890.9999999999959
 20
-614.99999999999761
 30
0.0
 11
3756.0
 21
-614.99999999999761
 31
0.0
1001
ACDBBLOCKREPETAG
1070
     1
1071
      175
1005
134D7D
  0
LINE
  5
134D7E
  8
OBJECT
 10
3756.0
 20
-614.99999999999761
 30
0.0
 11
3756.0
 21
-627.99999999999761
 31
0.0
1001
ACDBBLOCKREPETAG
1070
     1
1071
      176
1005
134D7E
  0
LINE
  5
134D7F
  8
OBJECT
 10
3863.363099755235
 20
-645.66457125774514
 30
0.0
 11
3883.8297019999982
 21
-627.99999999999761
 31
0.0
1001
ACDBBLOCKREPETAG
1070
     1
1071
      177
1005
134D7F
  0
LINE
  5
134D80
  8
OBJECT
 10
3778.9999999999959
 20
-635.65708264965485
 30
0.0
 11
3778.9999999999959
 21
-659.99999999999761
 31
0.0
1001
ACDBBLOCKREPETAG
1070
     1
1071
      178
1005
134D80
  0
LINE
  5
134D81
  8
OBJECT
 10
3824.8134425017461
 20
-659.99999999999761
 30
0.0
 11
3778.9999999999959
 21
-659.99999999999761
 31
0.0
1001
ACDBBLOCKREPETAG
1070
     1
1071
      179
1005
134D81
  0
ARC
  5
134D82
  8
OBJECT
 10
3869.5
 20
-661.49999999999761
 30
0.0
 40
84.0
 50
178.97680669632871
 51
262.94651512902959
1001
ACDBBLOCKREPETAG
1070
     1
1071
      180
1005
134D82
  0
LINE
  5
134D83
  8
OBJECT
 10
3894.0
 20
-749.17200317020843
 30
0.0
 11
3859.1851511871191
 21
-744.86428428270153
 31
0.0
1001
ACDBBLOCKREPETAG
1070
     1
1071
      181
1005
134D83
  0
LINE
  5
134D84
  8
OBJECT
 10
3893.9999999999959
 20
-749.99999999999852
 30
0.0
 11
3893.9999999999959
 21
-628.99999999999761
 31
0.0
1001
ACDBBLOCKREPETAG
1070
     1
1071
      182
1005
134D84
  0
ARC
  5
134D85
  8
OBJECT
 10
3896.9999999999968
 20
-749.99999999999852
 30
0.0
 40
3.0
 50
180.0
 51
270.0
1001
ACDBBLOCKREPETAG
1070
     1
1071
      183
1005
134D85
  0
LINE
  5
134D86
  8
OBJECT
 10
3883.8297019999982
 20
-627.99999999999761
 30
0.0
 11
3756.0
 21
-627.99999999999761
 31
0.0
1001
ACDBBLOCKREPETAG
1070
     1
1071
      184
1005
134D86
  0
LINE
  5
134D87
  8
OBJECT
 10
3874.9460861482771
 20
-635.65708264965485
 30
0.0
 11
3778.9999999999959
 21
-635.65708264965485
 31
0.0
1001
ACDBBLOCKREPETAG
1070
     1
1071
      185
1005
134D87
  0
LINE
  5
134D88
  8
OBJECT
 10
3775.0
 20
-630.89006764214673
 30
0.0
 11
3778.9999999999959
 21
-635.65708264965485
 31
0.0
1001
ACDBBLOCKREPETAG
1070
     1
1071
      186
1005
134D88
  0
LINE
  5
134D89
  8
OBJECT
 10
3890.9999999999959
 20
-614.99999999999761
 30
0.0
 11
3890.9999999999932
 21
-628.99999999999761
 31
0.0
1001
ACDBBLOCKREPETAG
1070
     1
1071
      187
1005
134D89
  0
LINE
  5
134D8A
  8
HIDDEN
 10
3874.5
 20
-654.9999999999975
 30
0.0
 11
3785.5000000000009
 21
-654.9999999999975
 31
0.0
1001
ACDBBLOCKREPETAG
1070
     1
1071
      188
1005
134D8A
  0
LINE
  5
134D8B
  8
OBJECT
 10
3866.0
 20
-580.99999999999761
 30
0.0
 11
3858.0
 21
-580.99999999999761
 31
0.0
1001
ACDBBLOCKREPETAG
1070
     1
1071
      189
1005
134D8B
  0
LINE
  5
134D8C
  8
OBJECT
 10
3858.0
 20
-582.99999999999761
 30
0.0
 11
3858.0
 21
-580.99999999999761
 31
0.0
1001
ACDBBLOCKREPETAG
1070
     1
1071
      190
1005
134D8C
  0
LINE
  5
134D8D
  8
OBJECT
 10
3869.5055534994649
 20
-582.99999999999761
 30
0.0
 11
3854.494446500536
 21
-582.99999999999761
 31
0.0
1001
ACDBBLOCKREPETAG
1070
     1
1071
      191
1005
134D8D
  0
LINE
  5
134D8E
  8
CENTER
 10
3830.0
 20
-674.77158855533025
 30
0.0
 11
3830.0
 21
-574.49999999999761
 31
0.0
1001
ACDBBLOCKREPETAG
1070
     1
1071
      193
1005
134D8E
  0
LINE
  5
134D8F
  8
OBJECT
 10
3900.0
 20
-752.99999999999773
 30
0.0
 11
3896.9999999999968
 21
-752.99999999999852
 31
0.0
1001
ACDBBLOCKREPETAG
1070
     1
1071
      194
1005
134D8F
  0
LINE
  5
134D90
  8
OBJECT
 10
3900.0
 20
-628.99999999999761
 30
0.0
 11
3890.9999999999932
 21
-628.99999999999761
 31
0.0
1001
ACDBBLOCKREPETAG
1070
     1
1071
      195
1005
134D90
  0
LINE
  5
134D91
  8
OBJECT
 10
3865.7528030216058
 20
-589.49998110540889
 30
0.0
 11
3865.7528030216058
 21
-582.99998110540901
 31
0.0
1001
ACDBBLOCKREPETAG
1070
     1
1071
      196
1005
134D91
  0
LINE
  5
134D92
  8
OBJECT
 10
3854.494446500536
 20
-589.49999999999761
 30
0.0
 11
3854.494446500536
 21
-582.99999999999761
 31
0.0
1001
ACDBBLOCKREPETAG
1070
     1
1071
      197
1005
134D92
  0
LINE
  5
134D93
  8
OBJECT
 10
3858.2471969783951
 20
-589.49998110540889
 30
0.0
 11
3858.2471969783951
 21
-582.99998110540901
 31
0.0
1001
ACDBBLOCKREPETAG
1070
     1
1071
      198
1005
134D93
  0
LINE
  5
134D94
  8
OBJECT
 10
3770.0
 20
-582.99999999999761
 30
0.0
 11
3770.0
 21
-580.99999999999761
 31
0.0
1001
ACDBBLOCKREPETAG
1070
     1
1071
      199
1005
134D94
  0
LINE
  5
134D95
  8
OBJECT
 10
3770.0
 20
-614.99999999999761
 30
0.0
 11
3770.0
 21
-602.49999999999761
 31
0.0
1001
ACDBBLOCKREPETAG
1070
     1
1071
      200
1005
134D95
  0
LINE
  5
134D96
  8
OBJECT
 10
3762.0
 20
-614.99999999999761
 30
0.0
 11
3762.0
 21
-602.49999999999761
 31
0.0
1001
ACDBBLOCKREPETAG
1070
     1
1071
      201
1005
134D96
  0
LINE
  5
134D97
  8
OBJECT
 10
3773.5055534994649
 20
-589.49999999999761
 30
0.0
 11
3773.5055534994649
 21
-582.99999999999761
 31
0.0
1001
ACDBBLOCKREPETAG
1070
     1
1071
      202
1005
134D97
  0
LINE
  5
134D98
  8
OBJECT
 10
3775.0
 20
-627.99999999999761
 30
0.0
 11
3775.0
 21
-632.99999999999761
 31
0.0
1001
ACDBBLOCKREPETAG
1070
     1
1071
      203
1005
134D98
  0
LINE
  5
134D99
  8
OBJECT
 10
3775.0
 20
-632.99999999999761
 30
0.0
 11
3757.0
 21
-632.99999999999761
 31
0.0
1001
ACDBBLOCKREPETAG
1070
     1
1071
      204
1005
134D99
  0
LINE
  5
134D9A
  8
OBJECT
 10
3757.0
 20
-627.99999999999761
 30
0.0
 11
3757.0
 21
-632.99999999999761
 31
0.0
1001
ACDBBLOCKREPETAG
1070
     1
1071
      205
1005
134D9A
  0
LINE
  5
134D9B
  8
OBJECT
 10
3770.0
 20
-580.99999999999761
 30
0.0
 11
3762.0
 21
-580.99999999999761
 31
0.0
1001
ACDBBLOCKREPETAG
1070
     1
1071
      206
1005
134D9B
  0
LINE
  5
134D9C
  8
OBJECT
 10
3762.0
 20
-582.99999999999761
 30
0.0
 11
3762.0
 21
-580.99999999999761
 31
0.0
1001
ACDBBLOCKREPETAG
1070
     1
1071
      207
1005
134D9C
  0
LINE
  5
134D9D
  8
OBJECT
 10
3773.5055534994649
 20
-582.99999999999761
 30
0.0
 11
3758.4944465005369
 21
-582.99999999999761
 31
0.0
1001
ACDBBLOCKREPETAG
1070
     1
1071
      208
1005
134D9D
  0
LINE
  5
134D9E
  8
OBJECT
 10
3769.7528030216058
 20
-589.49998110540889
 30
0.0
 11
3769.7528030216058
 21
-582.99998110540901
 31
0.0
1001
ACDBBLOCKREPETAG
1070
     1
1071
      209
1005
134D9E
  0
LINE
  5
134D9F
  8
OBJECT
 10
3758.4944465005369
 20
-589.49999999999761
 30
0.0
 11
3758.4944465005369
 21
-582.99999999999761
 31
0.0
1001
ACDBBLOCKREPETAG
1070
     1
1071
      210
1005
134D9F
  0
LINE
  5
134DA0
  8
OBJECT
 10
3762.2471969783951
 20
-589.49998110540889
 30
0.0
 11
3762.2471969783951
 21
-582.99998110540901
 31
0.0
1001
ACDBBLOCKREPETAG
1070
     1
1071
      211
1005
134DA0
  0
CIRCLE
  5
134DA1
  8
OBJECT
 10
4000.0
 20
-690.99999999999761
 30
0.0
 40
62.0
1001
ACDBBLOCKREPETAG
1070
     1
1071
        0
1005
134DA1
  0
LINE
  5
134DA2
  8
OBJECT
 10
4095.0
 20
-569.99999999999955
 30
0.0
 11
3905.0
 21
-569.99999999999955
 31
0.0
1001
ACDBBLOCKREPETAG
1070
     1
1071
        0
1005
134DA2
  0
LINE
  5
134DA3
  8
OBJECT
 10
4095.0
 20
-549.99999999999955
 30
0.0
 11
3905.0
 21
-549.99999999999955
 31
0.0
1001
ACDBBLOCKREPETAG
1070
     1
1071
        1
1005
134DA3
  0
LINE
  5
134DA4
  8
OBJECT
 10
3902.5
 20
-914.99999999999955
 30
0.0
 11
4097.5
 21
-914.99999999999955
 31
0.0
1001
ACDBBLOCKREPETAG
1070
     1
1071
        2
1005
134DA4
  0
LINE
  5
134DA5
  8
OBJECT
 10
3908.237046000002
 20
-549.99999999999955
 30
0.0
 11
3908.237046582261
 21
-569.99999999999955
 31
0.0
1001
ACDBBLOCKREPETAG
1070
     1
1071
        3
1005
134DA5
  0
LINE
  5
134DA6
  8
OBJECT
 10
3905.0
 20
-549.99999999999955
 30
0.0
 11
3905.0
 21
-569.99999999999955
 31
0.0
1001
ACDBBLOCKREPETAG
1070
     1
1071
        4
1005
134DA6
  0
LINE
  5
134DA7
  8
OBJECT
 10
3916.0249090000002
 20
-549.99999999999955
 30
0.0
 11
3916.0249090000002
 21
-569.99999999999955
 31
0.0
1001
ACDBBLOCKREPETAG
1070
     1
1071
        5
1005
134DA7
  0
LINE
  5
134DA8
  8
OBJECT
 10
3967.6243270000018
 20
-549.99999999999955
 30
0.0
 11
3967.6243270000018
 21
-569.99999999999955
 31
0.0
1001
ACDBBLOCKREPETAG
1070
     1
1071
        6
1005
134DA8
  0
LINE
  5
134DA9
  8
OBJECT
 10
3975.41219
 20
-549.99999999999955
 30
0.0
 11
3975.41219
 21
-569.99999999999955
 31
0.0
1001
ACDBBLOCKREPETAG
1070
     1
1071
        7
1005
134DA9
  0
LINE
  5
134DAA
  8
OBJECT
 10
4024.5878090000001
 20
-549.99999999999955
 30
0.0
 11
4024.5878090000001
 21
-569.99999999999955
 31
0.0
1001
ACDBBLOCKREPETAG
1070
     1
1071
        8
1005
134DAA
  0
LINE
  5
134DAB
  8
OBJECT
 10
4032.375672000001
 20
-549.99999999999955
 30
0.0
 11
4032.375672000001
 21
-569.99999999999955
 31
0.0
1001
ACDBBLOCKREPETAG
1070
     1
1071
        9
1005
134DAB
  0
LINE
  5
134DAC
  8
OBJECT
 10
4083.9750910000012
 20
-549.99999999999955
 30
0.0
 11
4083.9750910000012
 21
-569.99999999999955
 31
0.0
1001
ACDBBLOCKREPETAG
1070
     1
1071
       10
1005
134DAC
  0
LINE
  5
134DAD
  8
OBJECT
 10
4091.762953999998
 20
-549.99999999999955
 30
0.0
 11
4091.7629534177431
 21
-569.99999999999955
 31
0.0
1001
ACDBBLOCKREPETAG
1070
     1
1071
       11
1005
134DAD
  0
LINE
  5
134DAE
  8
OBJECT
 10
4095.0
 20
-549.99999999999955
 30
0.0
 11
4095.0
 21
-569.99999999999955
 31
0.0
1001
ACDBBLOCKREPETAG
1070
     1
1071
       12
1005
134DAE
  0
LINE
  5
134DAF
  8
OBJECT
 10
4100.0
 20
-628.99999999999955
 30
0.0
 11
3900.0
 21
-628.99999999999955
 31
0.0
1001
ACDBBLOCKREPETAG
1070
     1
1071
       13
1005
134DAF
  0
LINE
  5
134DB0
  8
OBJECT
 10
4100.0
 20
-752.99999999999773
 30
0.0
 11
4092.5
 21
-752.99999999999773
 31
0.0
1001
ACDBBLOCKREPETAG
1070
     1
1071
       14
1005
134DB0
  0
LINE
  5
134DB1
  8
OBJECT
 10
3902.5
 20
-914.99999999999955
 30
0.0
 11
3902.5
 21
-902.99999999999784
 31
0.0
1001
ACDBBLOCKREPETAG
1070
     1
1071
       15
1005
134DB1
  0
LINE
  5
134DB2
  8
OBJECT
 10
4097.5
 20
-914.99999999999955
 30
0.0
 11
4097.5
 21
-902.99999999999784
 31
0.0
1001
ACDBBLOCKREPETAG
1070
     1
1071
       16
1005
134DB2
  0
LINE
  5
134DB3
  8
OBJECT
 10
3902.5
 20
-902.99999999999784
 30
0.0
 11
4097.5
 21
-902.99999999999784
 31
0.0
1001
ACDBBLOCKREPETAG
1070
     1
1071
       17
1005
134DB3
  0
LINE
  5
134DB4
  8
HIDDEN
 10
3930.0
 20
-624.99999999999955
 30
0.0
 11
4070.0
 21
-624.99999999999955
 31
0.0
1001
ACDBBLOCKREPETAG
1070
     1
1071
       18
1005
134DB4
  0
LINE
  5
134DB5
  8
CENTER
 10
4000.0
 20
-534.99999999999955
 30
0.0
 11
4000.0
 21
-914.99999999999955
 31
0.0
1001
ACDBBLOCKREPETAG
1070
     1
1071
       19
1005
134DB5
  0
LINE
  5
134DB6
  8
OBJECT
 10
4092.5
 20
-752.99999999999773
 30
0.0
 11
4092.5
 21
-902.99999999999784
 31
0.0
1001
ACDBBLOCKREPETAG
1070
     1
1071
       20
1005
134DB6
  0
LINE
  5
134DB7
  8
OBJECT
 10
3914.5
 20
-569.99999999999955
 30
0.0
 11
3914.5
 21
-628.99999999999955
 31
0.0
1001
ACDBBLOCKREPETAG
1070
     1
1071
       21
1005
134DB7
  0
LINE
  5
134DB8
  8
OBJECT
 10
4085.5
 20
-569.99999999999955
 30
0.0
 11
4085.5
 21
-628.99999999999955
 31
0.0
1001
ACDBBLOCKREPETAG
1070
     1
1071
       22
1005
134DB8
  0
POINT
  5
134DB9
  8
DOTS
 10
4000.0
 20
-749.99999999999955
 30
0.0
1001
ACDBBLOCKREPETAG
1070
     1
1071
       24
1005
134DB9
  0
LINE
  5
134DBA
  8
OBJECT
 10
3900.0
 20
-752.99999999999773
 30
0.0
 11
3907.5
 21
-752.99999999999773
 31
0.0
1001
ACDBBLOCKREPETAG
1070
     1
1071
       25
1005
134DBA
  0
LINE
  5
134DBB
  8
OBJECT
 10
3907.5
 20
-752.99999999999773
 30
0.0
 11
3907.5
 21
-902.99999999999784
 31
0.0
1001
ACDBBLOCKREPETAG
1070
     1
1071
       26
1005
134DBB
  0
ARC
  5
134DBC
  8
OBJECT
 10
4214.4155190291494
 20
-715.62073879202455
 30
0.0
 40
149.554492306393
 50
144.60628028468801
 51
164.2211863995189
1001
ACDBBLOCKREPETAG
1070
     1
1071
       28
1005
134DBC
  0
ARC
  5
134DBD
  8
OBJECT
 10
4139.1422781245283
 20
-690.99999999999761
 30
0.0
 40
70.496447952551449
 50
166.8426918235858
 51
193.15730817641409
1001
ACDBBLOCKREPETAG
1070
     1
1071
       29
1005
134DBD
  0
ARC
  5
134DBE
  8
OBJECT
 10
4214.4155190291494
 20
-666.3792612079701
 30
0.0
 40
149.55449230639621
 50
195.7788136004809
 51
215.3937197153119
1001
ACDBBLOCKREPETAG
1070
     1
1071
       30
1005
134DBE
  0
ARC
  5
134DBF
  8
OBJECT
 10
3785.584480970851
 20
-715.62073879202455
 30
0.0
 40
149.554492306393
 50
15.778813600532009
 51
35.393719715228642
1001
ACDBBLOCKREPETAG
1070
     1
1071
       31
1005
134DBF
  0
ARC
  5
134DC0
  8
OBJECT
 10
3860.8577218754722
 20
-690.99999999999761
 30
0.0
 40
70.496447952551449
 50
346.84269182358582
 51
13.15730817641421
1001
ACDBBLOCKREPETAG
1070
     1
1071
       32
1005
134DC0
  0
ARC
  5
134DC1
  8
OBJECT
 10
3785.584480970851
 20
-666.3792612079701
 30
0.0
 40
149.55449230639621
 50
324.60628028477117
 51
344.22118639946802
1001
ACDBBLOCKREPETAG
1070
     1
1071
       33
1005
134DC1
  0
LINE
  5
134DC2
  8
CENTER
 10
3899.9999999999968
 20
-199.99999999999909
 30
0.0
 11
3740.9999999999959
 21
-199.99999999999909
 31
0.0
1001
ACDBBLOCKREPETAG
1070
     1
1071
      155
1005
134DC2
  0
LINE
  5
134DC3
  8
OBJECT
 10
3899.9999999999968
 20
-261.99999999999909
 30
0.0
 11
3896.9999999999968
 21
-261.99999999999909
 31
0.0
1001
ACDBBLOCKREPETAG
1070
     1
1071
      156
1005
134DC3
  0
ARC
  5
134DC4
  8
OBJECT
 10
3896.9999999999968
 20
-258.99999999999909
 30
0.0
 40
3.0
 50
180.0
 51
270.0
1001
ACDBBLOCKREPETAG
1070
     1
1071
      157
1005
134DC4
  0
LINE
  5
134DC5
  8
OBJECT
 10
3899.9999999999968
 20
-138.0000000000027
 30
0.0
 11
3896.9999999999968
 21
-138.0000000000027
 31
0.0
1001
ACDBBLOCKREPETAG
1070
     1
1071
      158
1005
134DC5
  0
LINE
  5
134DC6
  8
OBJECT
 10
3893.9999999999959
 20
-140.99999999999909
 30
0.0
 11
3871.3452724064632
 21
-140.9999999999954
 31
0.0
1001
ACDBBLOCKREPETAG
1070
     1
1071
      159
1005
134DC6
  0
LINE
  5
134DC7
  8
OBJECT
 10
3893.9999999999959
 20
-259.00000000000267
 30
0.0
 11
3871.3452724064632
 21
-258.99999999999909
 31
0.0
1001
ACDBBLOCKREPETAG
1070
     1
1071
      160
1005
134DC7
  0
LINE
  5
134DC8
  8
CENTER
 10
3829.9999999999959
 20
-123.5195984073716
 30
0.0
 11
3829.9999999999959
 21
-276.48040159262649
 31
0.0
1001
ACDBBLOCKREPETAG
1070
     1
1071
      161
1005
134DC8
  0
LINE
  5
134DC9
  8
OBJECT
 10
3893.9999999999959
 20
-141.0000000000027
 30
0.0
 11
3893.9999999999959
 21
-258.99999999999909
 31
0.0
1001
ACDBBLOCKREPETAG
1070
     1
1071
      162
1005
134DC9
  0
ARC
  5
134DCA
  8
OBJECT
 10
3896.9999999999968
 20
-141.0000000000027
 30
0.0
 40
3.0
 50
90.0
 51
180.0
1001
ACDBBLOCKREPETAG
1070
     1
1071
      163
1005
134DCA
  0
ARC
  5
134DCB
  8
OBJECT
 10
3829.9999999999959
 20
-199.99999999999909
 30
0.0
 40
61.0
 50
97.16728546129427
 51
142.83271453872419
1001
ACDBBLOCKREPETAG
1070
     1
1071
      165
1005
134DCB
  0
ARC
  5
134DCC
  8
OBJECT
 10
3829.9999999999959
 20
-199.99999999999909
 30
0.0
 40
61.0
 50
337.16728546124438
 51
22.832714538755649
1001
ACDBBLOCKREPETAG
1070
     1
1071
      166
1005
134DCC
  0
ARC
  5
134DCD
  8
OBJECT
 10
3829.9999999999959
 20
-199.99999999999909
 30
0.0
 40
61.0
 50
217.16728546127581
 51
262.83271453870572
1001
ACDBBLOCKREPETAG
1070
     1
1071
      167
1005
134DCD
  0
CIRCLE
  5
134DCE
  8
SLIM
 10
3765.9999999999959
 20
-199.99999999999909
 30
0.0
 40
4.0
1001
ACDBBLOCKREPETAG
1070
     1
1071
      168
1005
134DCE
  0
ARC
  5
134DCF
  8
OBJECT
 10
3765.9999999999959
 20
-199.99999999999909
 30
0.0
 40
10.0
 50
142.83271453872419
 51
217.16728546127581
1001
ACDBBLOCKREPETAG
1070
     1
1071
      169
1005
134DCF
  0
LINE
  5
134DD0
  8
OBJECT
 10
3781.390625
 20
-163.14720279124501
 30
0.0
 11
3758.0312499999968
 21
-193.9585578346296
 31
0.0
1001
ACDBBLOCKREPETAG
1070
     1
1071
      170
1005
134DD0
  0
LINE
  5
134DD1
  8
OBJECT
 10
3781.390625
 20
-236.8527972087532
 30
0.0
 11
3758.0312499999968
 21
-206.04144216536861
 31
0.0
1001
ACDBBLOCKREPETAG
1070
     1
1071
      171
1005
134DD1
  0
CIRCLE
  5
134DD2
  8
SLIM
 10
3861.9999999999959
 20
-144.5743741577962
 30
0.0
 40
3.9999999999999991
1001
ACDBBLOCKREPETAG
1070
     1
1071
      172
1005
134DD2
  0
ARC
  5
134DD3
  8
OBJECT
 10
3861.9999999999959
 20
-144.5743741577962
 30
0.0
 40
9.9999999999999982
 50
22.832714538755649
 51
97.16728546129427
1001
ACDBBLOCKREPETAG
1070
     1
1071
      173
1005
134DD3
  0
LINE
  5
134DD4
  8
OBJECT
 10
3886.2201460832912
 20
-176.32944499229319
 30
0.0
 11
3871.2164173907008
 21
-140.6939553040711
 31
0.0
1001
ACDBBLOCKREPETAG
1070
     1
1071
      174
1005
134DD4
  0
LINE
  5
134DD5
  8
OBJECT
 10
3822.3892289166979
 20
-139.47664778353919
 30
0.0
 11
3860.7523326092928
 21
-134.65251313870161
 31
0.0
1001
ACDBBLOCKREPETAG
1070
     1
1071
      175
1005
134DD5
  0
CIRCLE
  5
134DD6
  8
SLIM
 10
3861.9999999999959
 20
-255.4256258422019
 30
0.0
 40
4.0
1001
ACDBBLOCKREPETAG
1070
     1
1071
      176
1005
134DD6
  0
ARC
  5
134DD7
  8
OBJECT
 10
3861.9999999999959
 20
-255.4256258422019
 30
0.0
 40
10.0
 50
262.83271453870572
 51
337.16728546124438
1001
ACDBBLOCKREPETAG
1070
     1
1071
      177
1005
134DD7
  0
LINE
  5
134DD8
  8
OBJECT
 10
3822.3892289166979
 20
-260.52335221645899
 30
0.0
 11
3860.7523326092928
 21
-265.3474868612966
 31
0.0
1001
ACDBBLOCKREPETAG
1070
     1
1071
      178
1005
134DD8
  0
LINE
  5
134DD9
  8
OBJECT
 10
3886.2201460832912
 20
-223.67055500770491
 30
0.0
 11
3871.2164173907008
 21
-259.30604469592708
 31
0.0
1001
ACDBBLOCKREPETAG
1070
     1
1071
      179
1005
134DD9
  0
CIRCLE
  5
134DDA
  8
OBJECT
 10
3829.9999999999959
 20
-199.99999999999909
 30
0.0
 40
46.0
1001
ACDBBLOCKREPETAG
1070
     1
1071
      180
1005
134DDA
  0
POLYLINE
  5
134DDB
  8
SLIM
 66
     1
 10
0.0
 20
0.0
 30
0.0
 70
     1
1001
ACDBBLOCKREPETAG
1070
     1
1071
      181
1005
134DDB
  0
VERTEX
  5
13584A
  8
SLIM
 10
3769.7527767497309
 20
-193.49999999999909
 30
0.0
  0
VERTEX
  5
13584B
  8
SLIM
 10
3773.5055534994608
 20
-199.99999999999909
 30
0.0
  0
VERTEX
  5
13584C
  8
SLIM
 10
3769.7527767497309
 20
-206.49999999999909
 30
0.0
  0
VERTEX
  5
13584D
  8
SLIM
 10
3762.2472232502628
 20
-206.49999999999909
 30
0.0
  0
VERTEX
  5
13584E
  8
SLIM
 10
3758.4944465005319
 20
-199.99999999999909
 30
0.0
  0
VERTEX
  5
13584F
  8
SLIM
 10
3762.2472232502628
 20
-193.49999999999909
 30
0.0
  0
SEQEND
  5
135850
  8
SLIM
  0
POLYLINE
  5
134DDC
  8
SLIM
 66
     1
 10
0.0
 20
0.0
 30
0.0
 70
     1
1001
ACDBBLOCKREPETAG
1070
     1
1071
      182
1005
134DDC
  0
VERTEX
  5
135851
  8
SLIM
 10
3865.7527767497272
 20
-151.0743741577962
 30
0.0
  0
VERTEX
  5
135852
  8
SLIM
 10
3858.2472232502628
 20
-151.0743741577962
 30
0.0
  0
VERTEX
  5
135853
  8
SLIM
 10
3854.4944465005319
 20
-144.5743741577962
 30
0.0
  0
VERTEX
  5
135854
  8
SLIM
 10
3858.247223250266
 20
-138.07437415779259
 30
0.0
  0
VERTEX
  5
135855
  8
SLIM
 10
3865.7527767497272
 20
-138.0743741577962
 30
0.0
  0
VERTEX
  5
135856
  8
SLIM
 10
3869.5055534994608
 20
-144.57437415779259
 30
0.0
  0
SEQEND
  5
135857
  8
SLIM
  0
POLYLINE
  5
134DDD
  8
SLIM
 66
     1
 10
0.0
 20
0.0
 30
0.0
 70
     1
1001
ACDBBLOCKREPETAG
1070
     1
1071
      183
1005
134DDD
  0
VERTEX
  5
135858
  8
SLIM
 10
3854.4944465005319
 20
-255.4256258422019
 30
0.0
  0
VERTEX
  5
135859
  8
SLIM
 10
3858.247223250266
 20
-248.9256258422019
 30
0.0
  0
VERTEX
  5
13585A
  8
SLIM
 10
3865.7527767497272
 20
-248.9256258422019
 30
0.0
  0
VERTEX
  5
13585B
  8
SLIM
 10
3869.5055534994608
 20
-255.42562584220559
 30
0.0
  0
VERTEX
  5
13585C
  8
SLIM
 10
3865.7527767497309
 20
-261.9256258422019
 30
0.0
  0
VERTEX
  5
13585D
  8
SLIM
 10
3858.247223250266
 20
-261.92562584220559
 30
0.0
  0
SEQEND
  5
13585E
  8
SLIM
  0
LINE
  5
134DDE
  8
CENTER
 10
4000.0000000000032
 20
-320.99999999999898
 30
0.0
 11
4000.0000000000032
 21
-299.99999999999898
 31
0.0
1001
ACDBBLOCKREPETAG
1070
     1
1071
        0
1005
134DDE
  0
LINE
  5
134DDF
  8
OBJECT
 10
4062.0000000000032
 20
-303.0
 30
0.0
 11
4062.0000000000032
 21
-299.99999999999898
 31
0.0
1001
ACDBBLOCKREPETAG
1070
     1
1071
        1
1005
134DDF
  0
ARC
  5
134DE0
  8
OBJECT
 10
4059.0000000000032
 20
-303.0
 30
0.0
 40
3.0
 50
270.0
 51
0.0
1001
ACDBBLOCKREPETAG
1070
     1
1071
        2
1005
134DE0
  0
LINE
  5
134DE1
  8
OBJECT
 10
3938.000000000005
 20
-299.99999999999898
 30
0.0
 11
3938.000000000005
 21
-302.99999999999818
 31
0.0
1001
ACDBBLOCKREPETAG
1070
     1
1071
        3
1005
134DE1
  0
ARC
  5
134DE2
  8
OBJECT
 10
3941.0000000000041
 20
-302.99999999999818
 30
0.0
 40
3.0
 50
180.0
 51
270.0
1001
ACDBBLOCKREPETAG
1070
     1
1071
        4
1005
134DE2
  0
LINE
  5
134DE3
  8
OBJECT
 10
3941.0000000000041
 20
-305.99999999999818
 30
0.0
 11
4059.0000000000032
 21
-306.0
 31
0.0
1001
ACDBBLOCKREPETAG
1070
     1
1071
        5
1005
134DE3
  0
ARC
  5
134DE4
  8
OBJECT
 10
3973.8931207053251
 20
-173.82438331578209
 30
0.0
 40
90.0
 50
274.21795726566182
 51
281.60300086771468
1001
ACDBBLOCKREPETAG
1070
     1
1071
        0
1005
134DE4
  0
LINE
  5
134DE5
  8
OBJECT
 10
3991.994750999992
 20
-261.98520799999727
 30
0.0
 11
3996.6424319999928
 21
-248.3387539999994
 31
0.0
1001
ACDBBLOCKREPETAG
1070
     1
1071
       28
1005
134DE5
  0
LINE
  5
134DE6
  8
OBJECT
 10
3955.2887960976809
 20
-207.0733020425842
 30
0.0
 11
3935.6054186421102
 21
-216.60084009147889
 31
0.0
1001
ACDBBLOCKREPETAG
1070
     1
1071
       29
1005
134DE6
  0
LINE
  5
134DE7
  8
OBJECT
 10
3937.3350639238638
 20
-222.25658973369261
 30
0.0
 11
3961.756073885118
 21
-210.43584915155679
 31
0.0
1001
ACDBBLOCKREPETAG
1070
     1
1071
       30
1005
134DE7
  0
LINE
  5
134DE8
  8
OBJECT
 10
3996.6424319999928
 20
-248.3387539999994
 30
0.0
 11
3970.3289245926439
 21
-210.9660806555467
 31
0.0
1001
ACDBBLOCKREPETAG
1070
     1
1071
       31
1005
134DE8
  0
ARC
  5
134DE9
  8
OBJECT
 10
3960.51700480005
 20
-217.87449798398211
 30
0.0
 40
12.0
 50
35.148769561176962
 51
115.8288295732624
1001
ACDBBLOCKREPETAG
1070
     1
1071
      259
1005
134DE9
  0
ARC
  5
134DEA
  8
OBJECT
 10
3965.2415463179791
 20
-217.63664646295089
 30
0.0
 40
8.0
 50
35.148769561176962
 51
115.8288292916689
1001
ACDBBLOCKREPETAG
1070
     1
1071
      260
1005
134DEA
  0
ARC
  5
134DEB
  8
OBJECT
 10
4000.0
 20
-199.99999999999909
 30
0.0
 40
90.0
 50
201.08359599996669
 51
248.9164040000301
1001
ACDBBLOCKREPETAG
1070
     1
1071
      268
1005
134DEB
  0
ARC
  5
134DEC
  8
OBJECT
 10
4000.0
 20
-199.99999999999909
 30
0.0
 40
90.0
 50
111.0835959999699
 51
158.9164034710258
1001
ACDBBLOCKREPETAG
1070
     1
1071
      269
1005
134DEC
  0
LINE
  5
134DED
  8
OBJECT
 10
3916.0249094448668
 20
-167.62432755513231
 30
0.0
 11
3908.237046582261
 21
-175.4121904177382
 31
0.0
1001
ACDBBLOCKREPETAG
1070
     1
1071
      270
1005
134DED
  0
LINE
  5
134DEE
  8
OBJECT
 10
3916.0249090000002
 20
-232.37567199999921
 30
0.0
 11
3908.2370469998132
 21
-224.58781114059909
 31
0.0
1001
ACDBBLOCKREPETAG
1070
     1
1071
      271
1005
134DEE
  0
ARC
  5
134DEF
  8
OBJECT
 10
4000.0
 20
-199.99999999999909
 30
0.0
 40
95.0
 50
164.99999981420299
 51
195.00000115869909
1001
ACDBBLOCKREPETAG
1070
     1
1071
      272
1005
134DEF
  0
ARC
  5
134DF0
  8
OBJECT
 10
4000.0
 20
-199.99999999999909
 30
0.0
 40
92.5
 50
287.80189678392043
 51
342.19810359941607
1001
ACDBBLOCKREPETAG
1070
     1
1071
        1
1005
134DF0
  0
ARC
  5
134DF1
  8
OBJECT
 10
4000.0
 20
-199.99999999999909
 30
0.0
 40
90.0
 50
291.08359599996987
 51
338.9164040000332
1001
ACDBBLOCKREPETAG
1070
     1
1071
        3
1005
134DF1
  0
CIRCLE
  5
134DF2
  8
OBJECT
 10
4000.0
 20
-199.99999999999909
 30
0.0
 40
80.0
1001
ACDBBLOCKREPETAG
1070
     1
1071
        4
1005
134DF2
  0
ARC
  5
134DF3
  8
OBJECT
 10
4000.0
 20
-199.99999999999909
 30
0.0
 40
90.0
 50
21.083596528974049
 51
68.916404000030013
1001
ACDBBLOCKREPETAG
1070
     1
1071
        5
1005
134DF3
  0
CIRCLE
  5
134DF4
  8
OBJECT
 10
4000.0
 20
-199.99999999999909
 30
0.0
 40
66.5
1001
ACDBBLOCKREPETAG
1070
     1
1071
        7
1005
134DF4
  0
LINE
  5
134DF5
  8
OBJECT
 10
4083.9750905551332
 20
-167.62432755513231
 30
0.0
 11
4091.762953417739
 21
-175.4121904177382
 31
0.0
1001
ACDBBLOCKREPETAG
1070
     1
1071
        8
1005
134DF5
  0
LINE
  5
134DF6
  8
OBJECT
 10
4083.9750910000012
 20
-232.37567199999921
 30
0.0
 11
4091.7629530001868
 21
-224.58781114059909
 31
0.0
1001
ACDBBLOCKREPETAG
1070
     1
1071
        9
1005
134DF6
  0
ARC
  5
134DF7
  8
OBJECT
 10
4000.0
 20
-199.99999999999909
 30
0.0
 40
95.0
 50
344.99999884130068
 51
15.000000185796971
1001
ACDBBLOCKREPETAG
1070
     1
1071
       10
1005
134DF7
  0
LINE
  5
134DF8
  8
OBJECT
 10
4032.3756729999982
 20
-283.9750909999994
 30
0.0
 11
4024.5878109482819
 21
-291.76295305171419
 31
0.0
1001
ACDBBLOCKREPETAG
1070
     1
1071
       11
1005
134DF8
  0
LINE
  5
134DF9
  8
OBJECT
 10
3967.624327999999
 20
-283.9750909999994
 30
0.0
 11
3975.4121904177409
 21
-291.76295341774039
 31
0.0
1001
ACDBBLOCKREPETAG
1070
     1
1071
       12
1005
134DF9
  0
ARC
  5
134DFA
  8
OBJECT
 10
4000.0
 20
-199.99999999999909
 30
0.0
 40
95.0
 50
254.999999814208
 51
285.0000010386097
1001
ACDBBLOCKREPETAG
1070
     1
1071
       13
1005
134DFA
  0
LINE
  5
134DFB
  8
OBJECT
 10
4032.3756729999982
 20
-116.0249099999992
 30
0.0
 11
4024.5878095822591
 21
-108.2370465822578
 31
0.0
1001
ACDBBLOCKREPETAG
1070
     1
1071
       14
1005
134DFB
  0
ARC
  5
134DFC
  8
OBJECT
 10
4000.0
 20
-199.99999999999909
 30
0.0
 40
95.0
 50
74.999999814207953
 51
104.9999993327599
1001
ACDBBLOCKREPETAG
1070
     1
1071
       15
1005
134DFC
  0
LINE
  5
134DFD
  8
OBJECT
 10
3967.624327999999
 20
-116.0249099999992
 30
0.0
 11
3975.412191783766
 21
-108.2370462162316
 31
0.0
1001
ACDBBLOCKREPETAG
1070
     1
1071
       16
1005
134DFD
  0
LINE
  5
134DFE
  8
OBJECT
 10
4055.1784370000009
 20
-162.884098999998
 30
0.0
 11
4032.534570109272
 21
-178.11554723457169
 31
0.0
1001
ACDBBLOCKREPETAG
1070
     1
1071
       17
1005
134DFE
  0
LINE
  5
134DFF
  8
OBJECT
 10
3944.8041210000019
 20
-162.88106899999821
 30
0.0
 11
4032.534570109272
 21
-178.11554723457169
 31
0.0
1001
ACDBBLOCKREPETAG
1070
     1
1071
       18
1005
134DFF
  0
ARC
  5
134E00
  8
OBJECT
 10
4000.0
 20
-199.99999999999909
 30
0.0
 40
92.5
 50
197.80189544246551
 51
252.19810417430571
1001
ACDBBLOCKREPETAG
1070
     1
1071
       22
1005
134E00
  0
ARC
  5
134E01
  8
OBJECT
 10
4000.0
 20
-199.99999999999909
 30
0.0
 40
92.5
 50
107.80189486746769
 51
162.1981051326415
1001
ACDBBLOCKREPETAG
1070
     1
1071
       23
1005
134E01
  0
ARC
  5
134E02
  8
OBJECT
 10
4000.0
 20
-199.99999999999909
 30
0.0
 40
92.5
 50
17.80189582568811
 51
72.198104174305684
1001
ACDBBLOCKREPETAG
1070
     1
1071
       24
1005
134E02
  0
ARC
  5
134E03
  8
OBJECT
 10
4000.0
 20
-199.99999999999909
 30
0.0
 40
62.5
 50
144.42390307809791
 51
193.7174643727642
1001
ACDBBLOCKREPETAG
1070
     1
1071
       26
1005
134E03
  0
ARC
  5
134E04
  8
OBJECT
 10
4000.0
 20
-199.99999999999909
 30
0.0
 40
62.5
 50
262.64111297834887
 51
33.92683896333525
1001
ACDBBLOCKREPETAG
1070
     1
1071
       27
1005
134E04
  0
LINE
  5
134E05
  8
OBJECT
 10
4068.6458301719758
 20
-137.99999999999909
 30
0.0
 11
4100.0
 21
-137.99999999999909
 31
0.0
1001
ACDBBLOCKREPETAG
1070
     1
1071
       33
1005
134E05
  0
LINE
  5
134E06
  8
OBJECT
 10
4068.6458301719758
 20
-261.99999999999909
 30
0.0
 11
4100.0000000000036
 21
-261.99999999999909
 31
0.0
1001
ACDBBLOCKREPETAG
1070
     1
1071
       34
1005
134E06
  0
LINE
  5
134E07
  8
OBJECT
 10
4062.0
 20
-268.64583017197862
 30
0.0
 11
4062.0000000000032
 21
-299.99999999999898
 31
0.0
1001
ACDBBLOCKREPETAG
1070
     1
1071
       35
1005
134E07
  0
LINE
  5
134E08
  8
OBJECT
 10
3937.9999999999968
 20
-268.64583017197492
 30
0.0
 11
3938.0
 21
-299.99999999999898
 31
0.0
1001
ACDBBLOCKREPETAG
1070
     1
1071
       36
1005
134E08
  0
LINE
  5
134E09
  8
OBJECT
 10
3931.3541698280242
 20
-261.99999999999909
 30
0.0
 11
3899.9999999999968
 21
-261.99999999999909
 31
0.0
1001
ACDBBLOCKREPETAG
1070
     1
1071
       37
1005
134E09
  0
LINE
  5
134E0A
  8
OBJECT
 10
3931.3541698280219
 20
-137.99999999999909
 30
0.0
 11
3899.9999999999968
 21
-137.99999999999909
 31
0.0
1001
ACDBBLOCKREPETAG
1070
     1
1071
       38
1005
134E0A
  0
ARC
  5
134E0B
  8
OBJECT
 10
4000.0
 20
-199.99999999999909
 30
0.0
 40
97.5
 50
39.48657743384517
 51
140.51342256615479
1001
ACDBBLOCKREPETAG
1070
     1
1071
       39
1005
134E0B
  0
ARC
  5
134E0C
  8
OBJECT
 10
4000.0
 20
-199.99999999999909
 30
0.0
 40
97.5
 50
219.48657743384521
 51
230.51342256616741
1001
ACDBBLOCKREPETAG
1070
     1
1071
       40
1005
134E0C
  0
ARC
  5
134E0D
  8
OBJECT
 10
4000.0
 20
-199.99999999999909
 30
0.0
 40
97.5
 50
309.48657743383143
 51
320.51342256615482
1001
ACDBBLOCKREPETAG
1070
     1
1071
       41
1005
134E0D
  0
LINE
  5
134E0E
  8
CENTER
 10
3900.0
 20
-199.99999999999909
 30
0.0
 11
4100.0
 21
-199.99999999999909
 31
0.0
1001
ACDBBLOCKREPETAG
1070
     1
1071
       42
1005
134E0E
  0
LINE
  5
134E0F
  8
CENTER
 10
4000.0
 20
-86.499999999999091
 30
0.0
 11
4000.0
 21
-299.99999999999898
 31
0.0
1001
ACDBBLOCKREPETAG
1070
     1
1071
       43
1005
134E0F
  0
POINT
  5
134E10
  8
DOTS
 10
4000.0
 20
-199.99999999999909
 30
0.0
1001
ACDBBLOCKREPETAG
1070
     1
1071
      281
1005
134E10
  0
LINE
  5
134E11
  8
OBJECT
 10
4134.0
 20
-582.99999999999761
 30
0.0
 11
4134.0
 21
-580.99999999999761
 31
0.0
1001
ACDBBLOCKREPETAG
1070
     1
1071
      157
1005
134E11
  0
ARC
  5
134E12
  8
OBJECT
 10
4175.1865574982548
 20
-600.99999999999761
 30
0.0
 40
59.0
 50
229.20276883323919
 51
270.0
1001
ACDBBLOCKREPETAG
1070
     1
1071
      158
1005
134E12
  0
LINE
  5
134E13
  8
OBJECT
 10
4244.0
 20
-589.49999999999761
 30
0.0
 11
4109.0
 21
-589.49999999999761
 31
0.0
1001
ACDBBLOCKREPETAG
1070
     1
1071
      159
1005
134E13
  0
LINE
  5
134E14
  8
OBJECT
 10
4109.0
 20
-602.49999999999761
 30
0.0
 11
4244.0
 21
-602.49999999999761
 31
0.0
1001
ACDBBLOCKREPETAG
1070
     1
1071
      160
1005
134E14
  0
LINE
  5
134E15
  8
OBJECT
 10
4109.0
 20
-589.49999999999761
 30
0.0
 11
4109.0
 21
-602.49999999999761
 31
0.0
1001
ACDBBLOCKREPETAG
1070
     1
1071
      161
1005
134E15
  0
LINE
  5
134E16
  8
OBJECT
 10
4116.0
 20
-611.49999999999761
 30
0.0
 11
4116.0
 21
-602.49999999999761
 31
0.0
1001
ACDBBLOCKREPETAG
1070
     1
1071
      162
1005
134E16
  0
LINE
  5
134E17
  8
OBJECT
 10
4134.0
 20
-614.99999999999761
 30
0.0
 11
4134.0
 21
-602.49999999999761
 31
0.0
1001
ACDBBLOCKREPETAG
1070
     1
1071
      163
1005
134E17
  0
LINE
  5
134E18
  8
OBJECT
 10
4224.0
 20
-611.49999999999761
 30
0.0
 11
4224.0
 21
-602.49999999999761
 31
0.0
1001
ACDBBLOCKREPETAG
1070
     1
1071
      164
1005
134E18
  0
LINE
  5
134E19
  8
OBJECT
 10
4244.0
 20
-589.49999999999761
 30
0.0
 11
4244.0
 21
-602.49999999999761
 31
0.0
1001
ACDBBLOCKREPETAG
1070
     1
1071
      165
1005
134E19
  0
LINE
  5
134E1A
  8
OBJECT
 10
4142.0
 20
-614.99999999999761
 30
0.0
 11
4142.0
 21
-602.49999999999761
 31
0.0
1001
ACDBBLOCKREPETAG
1070
     1
1071
      166
1005
134E1A
  0
LINE
  5
134E1B
  8
OBJECT
 10
4134.0
 20
-611.49999999999761
 30
0.0
 11
4115.0
 21
-611.49999999999761
 31
0.0
1001
ACDBBLOCKREPETAG
1070
     1
1071
      167
1005
134E1B
  0
LINE
  5
134E1C
  8
OBJECT
 10
4115.0
 20
-614.99999999999761
 30
0.0
 11
4115.0
 21
-611.49999999999761
 31
0.0
1001
ACDBBLOCKREPETAG
1070
     1
1071
      168
1005
134E1C
  0
LINE
  5
134E1D
  8
OBJECT
 10
4142.0
 20
-611.49999999999761
 30
0.0
 11
4225.0
 21
-611.49999999999761
 31
0.0
1001
ACDBBLOCKREPETAG
1070
     1
1071
      169
1005
134E1D
  0
LINE
  5
134E1E
  8
OBJECT
 10
4225.0
 20
-611.49999999999761
 30
0.0
 11
4225.0
 21
-614.99999999999761
 31
0.0
1001
ACDBBLOCKREPETAG
1070
     1
1071
      170
1005
134E1E
  0
LINE
  5
134E1F
  8
OBJECT
 10
4130.4944465005347
 20
-589.49999999999761
 30
0.0
 11
4130.4944465005347
 21
-582.99999999999761
 31
0.0
1001
ACDBBLOCKREPETAG
1070
     1
1071
      171
1005
134E1F
  0
LINE
  5
134E20
  8
OBJECT
 10
4129.0
 20
-627.99999999999761
 30
0.0
 11
4129.0
 21
-632.99999999999761
 31
0.0
1001
ACDBBLOCKREPETAG
1070
     1
1071
      172
1005
134E20
  0
LINE
  5
134E21
  8
OBJECT
 10
4129.0
 20
-632.99999999999761
 30
0.0
 11
4147.0
 21
-632.99999999999761
 31
0.0
1001
ACDBBLOCKREPETAG
1070
     1
1071
      173
1005
134E21
  0
LINE
  5
134E22
  8
OBJECT
 10
4147.0
 20
-627.99999999999761
 30
0.0
 11
4147.0
 21
-632.99999999999761
 31
0.0
1001
ACDBBLOCKREPETAG
1070
     1
1071
      174
1005
134E22
  0
LINE
  5
134E23
  8
OBJECT
 10
4109.0000000000036
 20
-614.99999999999761
 30
0.0
 11
4244.0
 21
-614.99999999999761
 31
0.0
1001
ACDBBLOCKREPETAG
1070
     1
1071
      175
1005
134E23
  0
LINE
  5
134E24
  8
OBJECT
 10
4244.0
 20
-614.99999999999761
 30
0.0
 11
4244.0
 21
-627.99999999999761
 31
0.0
1001
ACDBBLOCKREPETAG
1070
     1
1071
      176
1005
134E24
  0
LINE
  5
134E25
  8
OBJECT
 10
4136.6369002447664
 20
-645.66457125774514
 30
0.0
 11
4116.1702980000009
 21
-627.99999999999761
 31
0.0
1001
ACDBBLOCKREPETAG
1070
     1
1071
      177
1005
134E25
  0
LINE
  5
134E26
  8
OBJECT
 10
4221.0000000000018
 20
-635.65708264965485
 30
0.0
 11
4221.0000000000018
 21
-659.99999999999761
 31
0.0
1001
ACDBBLOCKREPETAG
1070
     1
1071
      178
1005
134E26
  0
LINE
  5
134E27
  8
OBJECT
 10
4175.1865574982548
 20
-659.99999999999761
 30
0.0
 11
4221.0000000000018
 21
-659.99999999999761
 31
0.0
1001
ACDBBLOCKREPETAG
1070
     1
1071
      179
1005
134E27
  0
ARC
  5
134E28
  8
OBJECT
 10
4130.5
 20
-661.49999999999761
 30
0.0
 40
84.0
 50
277.05348487097029
 51
1.023193303671255
1001
ACDBBLOCKREPETAG
1070
     1
1071
      180
1005
134E28
  0
LINE
  5
134E29
  8
OBJECT
 10
4106.0
 20
-749.17200317020843
 30
0.0
 11
4140.8148488128809
 21
-744.86428428270153
 31
0.0
1001
ACDBBLOCKREPETAG
1070
     1
1071
      181
1005
134E29
  0
LINE
  5
134E2A
  8
OBJECT
 10
4106.0000000000036
 20
-749.99999999999852
 30
0.0
 11
4106.0000000000036
 21
-628.99999999999761
 31
0.0
1001
ACDBBLOCKREPETAG
1070
     1
1071
      182
1005
134E2A
  0
ARC
  5
134E2B
  8
OBJECT
 10
4103.0000000000036
 20
-749.99999999999852
 30
0.0
 40
3.0
 50
270.0
 51
0.0
1001
ACDBBLOCKREPETAG
1070
     1
1071
      183
1005
134E2B
  0
LINE
  5
134E2C
  8
OBJECT
 10
4116.1702980000009
 20
-627.99999999999761
 30
0.0
 11
4244.0
 21
-627.99999999999761
 31
0.0
1001
ACDBBLOCKREPETAG
1070
     1
1071
      184
1005
134E2C
  0
LINE
  5
134E2D
  8
OBJECT
 10
4125.0539138517233
 20
-635.65708264965485
 30
0.0
 11
4221.0000000000018
 21
-635.65708264965485
 31
0.0
1001
ACDBBLOCKREPETAG
1070
     1
1071
      185
1005
134E2D
  0
LINE
  5
134E2E
  8
OBJECT
 10
4225.0
 20
-630.89006764214673
 30
0.0
 11
4221.0000000000018
 21
-635.65708264965485
 31
0.0
1001
ACDBBLOCKREPETAG
1070
     1
1071
      186
1005
134E2E
  0
LINE
  5
134E2F
  8
OBJECT
 10
4109.0000000000036
 20
-614.99999999999761
 30
0.0
 11
4109.0000000000073
 21
-628.99999999999761
 31
0.0
1001
ACDBBLOCKREPETAG
1070
     1
1071
      187
1005
134E2F
  0
LINE
  5
134E30
  8
HIDDEN
 10
4125.5
 20
-654.9999999999975
 30
0.0
 11
4214.5
 21
-654.9999999999975
 31
0.0
1001
ACDBBLOCKREPETAG
1070
     1
1071
      188
1005
134E30
  0
LINE
  5
134E31
  8
OBJECT
 10
4134.0
 20
-580.99999999999761
 30
0.0
 11
4142.0
 21
-580.99999999999761
 31
0.0
1001
ACDBBLOCKREPETAG
1070
     1
1071
      189
1005
134E31
  0
LINE
  5
134E32
  8
OBJECT
 10
4142.0
 20
-582.99999999999761
 30
0.0
 11
4142.0
 21
-580.99999999999761
 31
0.0
1001
ACDBBLOCKREPETAG
1070
     1
1071
      190
1005
134E32
  0
LINE
  5
134E33
  8
OBJECT
 10
4130.4944465005347
 20
-582.99999999999761
 30
0.0
 11
4145.5055534994644
 21
-582.99999999999761
 31
0.0
1001
ACDBBLOCKREPETAG
1070
     1
1071
      191
1005
134E33
  0
LINE
  5
134E34
  8
CENTER
 10
4170.0
 20
-674.77158855533025
 30
0.0
 11
4170.0
 21
-574.49999999999761
 31
0.0
1001
ACDBBLOCKREPETAG
1070
     1
1071
      193
1005
134E34
  0
LINE
  5
134E35
  8
OBJECT
 10
4100.0
 20
-752.99999999999773
 30
0.0
 11
4103.0000000000036
 21
-752.99999999999852
 31
0.0
1001
ACDBBLOCKREPETAG
1070
     1
1071
      194
1005
134E35
  0
LINE
  5
134E36
  8
OBJECT
 10
4100.0
 20
-628.99999999999761
 30
0.0
 11
4109.0000000000073
 21
-628.99999999999761
 31
0.0
1001
ACDBBLOCKREPETAG
1070
     1
1071
      195
1005
134E36
  0
LINE
  5
134E37
  8
OBJECT
 10
4134.2471969783946
 20
-589.49998110540889
 30
0.0
 11
4134.2471969783946
 21
-582.99998110540901
 31
0.0
1001
ACDBBLOCKREPETAG
1070
     1
1071
      196
1005
134E37
  0
LINE
  5
134E38
  8
OBJECT
 10
4145.5055534994644
 20
-589.49999999999761
 30
0.0
 11
4145.5055534994644
 21
-582.99999999999761
 31
0.0
1001
ACDBBLOCKREPETAG
1070
     1
1071
      197
1005
134E38
  0
LINE
  5
134E39
  8
OBJECT
 10
4141.7528030216054
 20
-589.49998110540889
 30
0.0
 11
4141.7528030216054
 21
-582.99998110540901
 31
0.0
1001
ACDBBLOCKREPETAG
1070
     1
1071
      198
1005
134E39
  0
LINE
  5
134E3A
  8
OBJECT
 10
4230.0
 20
-582.99999999999761
 30
0.0
 11
4230.0
 21
-580.99999999999761
 31
0.0
1001
ACDBBLOCKREPETAG
1070
     1
1071
      199
1005
134E3A
  0
LINE
  5
134E3B
  8
OBJECT
 10
4230.0
 20
-614.99999999999761
 30
0.0
 11
4230.0
 21
-602.49999999999761
 31
0.0
1001
ACDBBLOCKREPETAG
1070
     1
1071
      200
1005
134E3B
  0
LINE
  5
134E3C
  8
OBJECT
 10
4238.0
 20
-614.99999999999761
 30
0.0
 11
4238.0
 21
-602.49999999999761
 31
0.0
1001
ACDBBLOCKREPETAG
1070
     1
1071
      201
1005
134E3C
  0
LINE
  5
134E3D
  8
OBJECT
 10
4226.4944465005347
 20
-589.49999999999761
 30
0.0
 11
4226.4944465005347
 21
-582.99999999999761
 31
0.0
1001
ACDBBLOCKREPETAG
1070
     1
1071
      202
1005
134E3D
  0
LINE
  5
134E3E
  8
OBJECT
 10
4225.0
 20
-627.99999999999761
 30
0.0
 11
4225.0
 21
-632.99999999999761
 31
0.0
1001
ACDBBLOCKREPETAG
1070
     1
1071
      203
1005
134E3E
  0
LINE
  5
134E3F
  8
OBJECT
 10
4225.0
 20
-632.99999999999761
 30
0.0
 11
4243.0
 21
-632.99999999999761
 31
0.0
1001
ACDBBLOCKREPETAG
1070
     1
1071
      204
1005
134E3F
  0
LINE
  5
134E40
  8
OBJECT
 10
4243.0
 20
-627.99999999999761
 30
0.0
 11
4243.0
 21
-632.99999999999761
 31
0.0
1001
ACDBBLOCKREPETAG
1070
     1
1071
      205
1005
134E40
  0
LINE
  5
134E41
  8
OBJECT
 10
4230.0
 20
-580.99999999999761
 30
0.0
 11
4238.0
 21
-580.99999999999761
 31
0.0
1001
ACDBBLOCKREPETAG
1070
     1
1071
      206
1005
134E41
  0
LINE
  5
134E42
  8
OBJECT
 10
4238.0
 20
-582.99999999999761
 30
0.0
 11
4238.0
 21
-580.99999999999761
 31
0.0
1001
ACDBBLOCKREPETAG
1070
     1
1071
      207
1005
134E42
  0
LINE
  5
134E43
  8
OBJECT
 10
4226.4944465005347
 20
-582.99999999999761
 30
0.0
 11
4241.5055534994644
 21
-582.99999999999761
 31
0.0
1001
ACDBBLOCKREPETAG
1070
     1
1071
      208
1005
134E43
  0
LINE
  5
134E44
  8
OBJECT
 10
4230.2471969783928
 20
-589.49998110540889
 30
0.0
 11
4230.2471969783928
 21
-582.99998110540901
 31
0.0
1001
ACDBBLOCKREPETAG
1070
     1
1071
      209
1005
134E44
  0
LINE
  5
134E45
  8
OBJECT
 10
4241.5055534994644
 20
-589.49999999999761
 30
0.0
 11
4241.5055534994644
 21
-582.99999999999761
 31
0.0
1001
ACDBBLOCKREPETAG
1070
     1
1071
      210
1005
134E45
  0
LINE
  5
134E46
  8
OBJECT
 10
4237.7528030216063
 20
-589.49998110540889
 30
0.0
 11
4237.7528030216063
 21
-582.99998110540901
 31
0.0
1001
ACDBBLOCKREPETAG
1070
     1
1071
      211
1005
134E46
  0
LINE
  5
134E47
  8
CENTER
 10
4100.0
 20
-199.99999999999909
 30
0.0
 11
4259.0
 21
-199.99999999999909
 31
0.0
1001
ACDBBLOCKREPETAG
1070
     1
1071
      155
1005
134E47
  0
LINE
  5
134E48
  8
OBJECT
 10
4100.0
 20
-261.99999999999909
 30
0.0
 11
4103.0
 21
-261.99999999999909
 31
0.0
1001
ACDBBLOCKREPETAG
1070
     1
1071
      156
1005
134E48
  0
ARC
  5
134E49
  8
OBJECT
 10
4103.0
 20
-258.99999999999909
 30
0.0
 40
3.0
 50
270.0
 51
0.0
1001
ACDBBLOCKREPETAG
1070
     1
1071
      157
1005
134E49
  0
LINE
  5
134E4A
  8
OBJECT
 10
4100.0
 20
-138.0000000000027
 30
0.0
 11
4103.0
 21
-138.0000000000027
 31
0.0
1001
ACDBBLOCKREPETAG
1070
     1
1071
      158
1005
134E4A
  0
LINE
  5
134E4B
  8
OBJECT
 10
4106.0
 20
-140.99999999999909
 30
0.0
 11
4128.6547275935327
 21
-140.9999999999954
 31
0.0
1001
ACDBBLOCKREPETAG
1070
     1
1071
      159
1005
134E4B
  0
LINE
  5
134E4C
  8
OBJECT
 10
4106.0
 20
-259.00000000000267
 30
0.0
 11
4128.6547275935327
 21
-258.99999999999909
 31
0.0
1001
ACDBBLOCKREPETAG
1070
     1
1071
      160
1005
134E4C
  0
LINE
  5
134E4D
  8
CENTER
 10
4170.0
 20
-123.5195984073716
 30
0.0
 11
4170.0
 21
-276.48040159262649
 31
0.0
1001
ACDBBLOCKREPETAG
1070
     1
1071
      161
1005
134E4D
  0
LINE
  5
134E4E
  8
OBJECT
 10
4106.0
 20
-141.0000000000027
 30
0.0
 11
4106.0
 21
-258.99999999999909
 31
0.0
1001
ACDBBLOCKREPETAG
1070
     1
1071
      162
1005
134E4E
  0
ARC
  5
134E4F
  8
OBJECT
 10
4103.0
 20
-141.0000000000027
 30
0.0
 40
3.0
 50
0.0
 51
90.0
1001
ACDBBLOCKREPETAG
1070
     1
1071
      163
1005
134E4F
  0
ARC
  5
134E50
  8
OBJECT
 10
4170.0
 20
-199.99999999999909
 30
0.0
 40
61.0
 50
37.167285461274467
 51
82.832714538705744
1001
ACDBBLOCKREPETAG
1070
     1
1071
      165
1005
134E50
  0
ARC
  5
134E51
  8
OBJECT
 10
4170.0
 20
-199.99999999999909
 30
0.0
 40
61.0
 50
157.16728546127851
 51
202.83271453872149
1001
ACDBBLOCKREPETAG
1070
     1
1071
      166
1005
134E51
  0
ARC
  5
134E52
  8
OBJECT
 10
4170.0
 20
-199.99999999999909
 30
0.0
 40
61.0
 50
277.16728546129423
 51
322.83271453872419
1001
ACDBBLOCKREPETAG
1070
     1
1071
      167
1005
134E52
  0
CIRCLE
  5
134E53
  8
SLIM
 10
4234.0
 20
-199.99999999999909
 30
0.0
 40
4.0
1001
ACDBBLOCKREPETAG
1070
     1
1071
      168
1005
134E53
  0
ARC
  5
134E54
  8
OBJECT
 10
4234.0
 20
-199.99999999999909
 30
0.0
 40
10.0
 50
322.83271453872419
 51
37.167285461274467
1001
ACDBBLOCKREPETAG
1070
     1
1071
      169
1005
134E54
  0
LINE
  5
134E55
  8
OBJECT
 10
4218.6093749999973
 20
-163.14720279124501
 30
0.0
 11
4241.96875
 21
-193.9585578346296
 31
0.0
1001
ACDBBLOCKREPETAG
1070
     1
1071
      170
1005
134E55
  0
LINE
  5
134E56
  8
OBJECT
 10
4218.6093749999973
 20
-236.8527972087532
 30
0.0
 11
4241.96875
 21
-206.04144216536861
 31
0.0
1001
ACDBBLOCKREPETAG
1070
     1
1071
      171
1005
134E56
  0
CIRCLE
  5
134E57
  8
SLIM
 10
4138.0
 20
-144.5743741577962
 30
0.0
 40
3.9999999999999991
1001
ACDBBLOCKREPETAG
1070
     1
1071
      172
1005
134E57
  0
ARC
  5
134E58
  8
OBJECT
 10
4138.0
 20
-144.5743741577962
 30
0.0
 40
9.9999999999999982
 50
82.832714538705744
 51
157.16728546127851
1001
ACDBBLOCKREPETAG
1070
     1
1071
      173
1005
134E58
  0
LINE
  5
134E59
  8
OBJECT
 10
4113.7798539167043
 20
-176.32944499229319
 30
0.0
 11
4128.783582609296
 21
-140.6939553040711
 31
0.0
1001
ACDBBLOCKREPETAG
1070
     1
1071
      174
1005
134E59
  0
LINE
  5
134E5A
  8
OBJECT
 10
4177.6107710832994
 20
-139.47664778353919
 30
0.0
 11
4139.247667390704
 21
-134.65251313870161
 31
0.0
1001
ACDBBLOCKREPETAG
1070
     1
1071
      175
1005
134E5A
  0
CIRCLE
  5
134E5B
  8
SLIM
 10
4138.0
 20
-255.4256258422019
 30
0.0
 40
4.0
1001
ACDBBLOCKREPETAG
1070
     1
1071
      176
1005
134E5B
  0
ARC
  5
134E5C
  8
OBJECT
 10
4138.0
 20
-255.4256258422019
 30
0.0
 40
10.0
 50
202.83271453872149
 51
277.16728546129423
1001
ACDBBLOCKREPETAG
1070
     1
1071
      177
1005
134E5C
  0
LINE
  5
134E5D
  8
OBJECT
 10
4177.6107710832994
 20
-260.52335221645899
 30
0.0
 11
4139.247667390704
 21
-265.3474868612966
 31
0.0
1001
ACDBBLOCKREPETAG
1070
     1
1071
      178
1005
134E5D
  0
LINE
  5
134E5E
  8
OBJECT
 10
4113.7798539167043
 20
-223.67055500770491
 30
0.0
 11
4128.783582609296
 21
-259.30604469592708
 31
0.0
1001
ACDBBLOCKREPETAG
1070
     1
1071
      179
1005
134E5E
  0
CIRCLE
  5
134E5F
  8
OBJECT
 10
4170.0
 20
-199.99999999999909
 30
0.0
 40
46.0
1001
ACDBBLOCKREPETAG
1070
     1
1071
      180
1005
134E5F
  0
POLYLINE
  5
134E60
  8
SLIM
 66
     1
 10
0.0
 20
0.0
 30
0.0
 70
     1
1001
ACDBBLOCKREPETAG
1070
     1
1071
      181
1005
134E60
  0
VERTEX
  5
13585F
  8
SLIM
 10
4230.2472232502651
 20
-193.49999999999909
 30
0.0
  0
VERTEX
  5
135860
  8
SLIM
 10
4226.4944465005347
 20
-199.99999999999909
 30
0.0
  0
VERTEX
  5
135861
  8
SLIM
 10
4230.2472232502651
 20
-206.49999999999909
 30
0.0
  0
VERTEX
  5
135862
  8
SLIM
 10
4237.752776749734
 20
-206.49999999999909
 30
0.0
  0
VERTEX
  5
135863
  8
SLIM
 10
4241.5055534994644
 20
-199.99999999999909
 30
0.0
  0
VERTEX
  5
135864
  8
SLIM
 10
4237.752776749734
 20
-193.49999999999909
 30
0.0
  0
SEQEND
  5
135865
  8
SLIM
  0
POLYLINE
  5
134E61
  8
SLIM
 66
     1
 10
0.0
 20
0.0
 30
0.0
 70
     1
1001
ACDBBLOCKREPETAG
1070
     1
1071
      182
1005
134E61
  0
VERTEX
  5
135866
  8
SLIM
 10
4134.2472232502687
 20
-151.0743741577962
 30
0.0
  0
VERTEX
  5
135867
  8
SLIM
 10
4141.752776749734
 20
-151.0743741577962
 30
0.0
  0
VERTEX
  5
135868
  8
SLIM
 10
4145.5055534994644
 20
-144.5743741577962
 30
0.0
  0
VERTEX
  5
135869
  8
SLIM
 10
4141.7527767497286
 20
-138.07437415779259
 30
0.0
  0
VERTEX
  5
13586A
  8
SLIM
 10
4134.2472232502687
 20
-138.0743741577962
 30
0.0
  0
VERTEX
  5
13586B
  8
SLIM
 10
4130.4944465005347
 20
-144.57437415779259
 30
0.0
  0
SEQEND
  5
13586C
  8
SLIM
  0
POLYLINE
  5
134E62
  8
SLIM
 66
     1
 10
0.0
 20
0.0
 30
0.0
 70
     1
1001
ACDBBLOCKREPETAG
1070
     1
1071
      183
1005
134E62
  0
VERTEX
  5
13586D
  8
SLIM
 10
4145.5055534994644
 20
-255.4256258422019
 30
0.0
  0
VERTEX
  5
13586E
  8
SLIM
 10
4141.7527767497286
 20
-248.9256258422019
 30
0.0
  0
VERTEX
  5
13586F
  8
SLIM
 10
4134.2472232502687
 20
-248.9256258422019
 30
0.0
  0
VERTEX
  5
135870
  8
SLIM
 10
4130.4944465005347
 20
-255.42562584220559
 30
0.0
  0
VERTEX
  5
135871
  8
SLIM
 10
4134.2472232502651
 20
-261.9256258422019
 30
0.0
  0
VERTEX
  5
135872
  8
SLIM
 10
4141.7527767497286
 20
-261.92562584220559
 30
0.0
  0
SEQEND
  5
135873
  8
SLIM
  0
TEXT
  5
134E63
  8
SLIM
 10
5824.6000000000004
 20
-1589.0000000000009
 30
0.0
 40
28.0
  1
※ 対応スラブ厚　180～405
 41
0.75
  0
TEXT
  5
134E64
  8
SLIM
 10
5611.5
 20
-1682.3333333333339
 30
0.0
 40
28.0
  1
国土交通大臣認定・（財）日本消防設備安全センター性能評定取得品
 41
0.75
  0
TEXT
  5
134E65
  8
SLIM
 10
5631.1000000000004
 20
-1729.0
 30
0.0
 40
28.0
  1
注）ご採用にあたり、認定書及び評定書の内容をご確認ください。
 41
0.75
  0
LINE
  5
134E66
  8
SLIM
 10
7897.5000000000928
 20
-766.05282860997045
 30
0.0
 11
7913.5528286100662
 21
-749.99999999999773
 31
0.0
1001
ACAD
1010
0.0
1020
0.0
1030
0.0
  0
LINE
  5
134E67
  8
SLIM
 10
7897.5000000000928
 20
-784.01334085210874
 30
0.0
 11
7931.5133408522042
 21
-749.99999999999773
 31
0.0
1001
ACAD
1010
0.0
1020
0.0
1030
0.0
  0
LINE
  5
134E68
  8
SLIM
 10
7897.5000000000928
 20
-801.97385309424703
 30
0.0
 11
7949.4738530943423
 21
-749.99999999999773
 31
0.0
1001
ACAD
1010
0.0
1020
0.0
1030
0.0
  0
LINE
  5
134E69
  8
SLIM
 10
7897.5000000000928
 20
-819.93436533638555
 30
0.0
 11
7967.4343653364804
 21
-749.99999999999773
 31
0.0
1001
ACAD
1010
0.0
1020
0.0
1030
0.0
  0
LINE
  5
134E6A
  8
SLIM
 10
7897.5000000000928
 20
-837.89487757852385
 30
0.0
 11
7985.3948775786184
 21
-749.99999999999773
 31
0.0
1001
ACAD
1010
0.0
1020
0.0
1030
0.0
  0
LINE
  5
134E6B
  8
SLIM
 10
7897.5000000000928
 20
-855.85538982066203
 30
0.0
 11
8003.3553898207574
 21
-749.99999999999773
 31
0.0
1001
ACAD
1010
0.0
1020
0.0
1030
0.0
  0
LINE
  5
134E6C
  8
SLIM
 10
7897.5000000000928
 20
-873.81590206280032
 30
0.0
 11
8021.3159020628946
 21
-749.99999999999773
 31
0.0
1001
ACAD
1010
0.0
1020
0.0
1030
0.0
  0
LINE
  5
134E6D
  8
SLIM
 10
7897.5000000000928
 20
-891.7764143049385
 30
0.0
 11
8039.2764143050317
 21
-749.99999999999773
 31
0.0
1001
ACAD
1010
0.0
1020
0.0
1030
0.0
  0
LINE
  5
134E6E
  8
SLIM
 10
7897.5000000000928
 20
-909.73692654707668
 30
0.0
 11
8057.2369265471707
 21
-749.99999999999773
 31
0.0
1001
ACAD
1010
0.0
1020
0.0
1030
0.0
  0
LINE
  5
134E6F
  8
SLIM
 10
7897.5000000000928
 20
-927.69743878921508
 30
0.0
 11
8075.1974387893106
 21
-749.99999999999773
 31
0.0
1001
ACAD
1010
0.0
1020
0.0
1030
0.0
  0
LINE
  5
134E70
  8
SLIM
 10
7897.5000000000928
 20
-945.6579510313536
 30
0.0
 11
8093.1579510314468
 21
-749.99999999999773
 31
0.0
1001
ACAD
1010
0.0
1020
0.0
1030
0.0
  0
LINE
  5
134E71
  8
SLIM
 10
7897.5000000000928
 20
-963.61846327349156
 30
0.0
 11
8102.4999999999063
 21
-758.61846327367755
 31
0.0
1001
ACAD
1010
0.0
1020
0.0
1030
0.0
  0
LINE
  5
134E72
  8
SLIM
 10
7897.5000000000928
 20
-981.57897551563019
 30
0.0
 11
8102.4999999999063
 21
-776.57897551581561
 31
0.0
1001
ACAD
1010
0.0
1020
0.0
1030
0.0
  0
LINE
  5
134E73
  8
SLIM
 10
7898.5898389662798
 20
-998.44964879158101
 30
0.0
 11
8102.4999999999063
 21
-794.53948775795391
 31
0.0
1001
ACAD
1010
0.0
1020
0.0
1030
0.0
  0
LINE
  5
134E74
  8
SLIM
 10
7900.8041486947632
 20
-1014.1958513052371
 30
0.0
 11
8102.4999999999063
 21
-812.50000000009231
 31
0.0
1001
ACAD
1010
0.0
1020
0.0
1030
0.0
  0
LINE
  5
134E75
  8
SLIM
 10
7903.0184584232438
 20
-1029.942053818892
 30
0.0
 11
8102.4999999999063
 21
-830.46051224223049
 31
0.0
1001
ACAD
1010
0.0
1020
0.0
1030
0.0
  0
LINE
  5
134E76
  8
SLIM
 10
7905.2327681517281
 20
-1045.688256332548
 30
0.0
 11
8102.4999999999063
 21
-848.4210244843689
 31
0.0
1001
ACAD
1010
0.0
1020
0.0
1030
0.0
  0
LINE
  5
134E77
  8
SLIM
 10
7907.4470778802124
 20
-1061.4344588462029
 30
0.0
 11
8102.4999999999063
 21
-866.38153672650731
 31
0.0
1001
ACAD
1010
0.0
1020
0.0
1030
0.0
  0
LINE
  5
134E78
  8
SLIM
 10
7909.6613876086958
 20
-1077.180661359858
 30
0.0
 11
8102.4999999999063
 21
-884.3420489686456
 31
0.0
1001
ACAD
1010
0.0
1020
0.0
1030
0.0
  0
LINE
  5
134E79
  8
SLIM
 10
7911.8756973371737
 20
-1092.9268638735141
 30
0.0
 11
8102.4999999999063
 21
-902.30256121078355
 31
0.0
1001
ACAD
1010
0.0
1020
0.0
1030
0.0
  0
LINE
  5
134E7A
  8
SLIM
 10
7914.0900070656589
 20
-1108.6730663871699
 30
0.0
 11
8102.4999999999063
 21
-920.26307345292196
 31
0.0
1001
ACAD
1010
0.0
1020
0.0
1030
0.0
  0
LINE
  5
134E7B
  8
SLIM
 10
7916.3043167941414
 20
-1124.419268900825
 30
0.0
 11
8102.4999999999063
 21
-938.22358569506036
 31
0.0
1001
ACAD
1010
0.0
1020
0.0
1030
0.0
  0
LINE
  5
134E7C
  8
SLIM
 10
7918.5186265226248
 20
-1140.1654714144811
 30
0.0
 11
8102.4999999999063
 21
-956.18409793719877
 31
0.0
1001
ACAD
1010
0.0
1020
0.0
1030
0.0
  0
LINE
  5
134E7D
  8
SLIM
 10
7920.0
 20
-1156.644610179244
 30
0.0
 11
8102.4999999999063
 21
-974.14461017933684
 31
0.0
1001
ACAD
1010
0.0
1020
0.0
1030
0.0
  0
LINE
  5
134E7E
  8
SLIM
 10
7929.6051224213852
 20
-1164.999999999998
 30
0.0
 11
8102.2700189725447
 21
-992.33510344883939
 31
0.0
1001
ACAD
1010
0.0
1020
0.0
1030
0.0
  0
LINE
  5
134E7F
  8
SLIM
 10
7930.0
 20
-1182.565634663521
 30
0.0
 11
7947.5656346635233
 21
-1164.999999999998
 31
0.0
1001
ACAD
1010
0.0
1020
0.0
1030
0.0
  0
LINE
  5
134E80
  8
SLIM
 10
7947.5656346635233
 20
-1164.999999999998
 30
0.0
 11
8099.3310260601947
 21
-1013.234608603328
 31
0.0
1001
ACAD
1010
0.0
1020
0.0
1030
0.0
  0
LINE
  5
134E81
  8
SLIM
 10
7940.5261469056613
 20
-1189.999999999997
 30
0.0
 11
7965.5261469056613
 21
-1164.999999999998
 31
0.0
1001
ACAD
1010
0.0
1020
0.0
1030
0.0
  0
LINE
  5
134E82
  8
SLIM
 10
7965.5261469056613
 20
-1164.999999999998
 30
0.0
 11
8096.392033147843
 21
-1034.1341137578161
 31
0.0
1001
ACAD
1010
0.0
1020
0.0
1030
0.0
  0
LINE
  5
134E83
  8
SLIM
 10
7958.4866591477976
 20
-1189.999999999997
 30
0.0
 11
7983.4866591477967
 21
-1164.999999999998
 31
0.0
1001
ACAD
1010
0.0
1020
0.0
1030
0.0
  0
LINE
  5
134E84
  8
SLIM
 10
7983.4866591477967
 20
-1164.999999999998
 30
0.0
 11
8093.4530402354931
 21
-1055.0336189123041
 31
0.0
1001
ACAD
1010
0.0
1020
0.0
1030
0.0
  0
LINE
  5
134E85
  8
SLIM
 10
7976.4471713899384
 20
-1189.999999999997
 30
0.0
 11
8001.4471713899393
 21
-1164.999999999998
 31
0.0
1001
ACAD
1010
0.0
1020
0.0
1030
0.0
  0
LINE
  5
134E86
  8
SLIM
 10
8001.4471713899393
 20
-1164.999999999998
 30
0.0
 11
8090.5140473231431
 21
-1075.9331240667921
 31
0.0
1001
ACAD
1010
0.0
1020
0.0
1030
0.0
  0
LINE
  5
134E87
  8
SLIM
 10
7994.4076836320764
 20
-1189.999999999997
 30
0.0
 11
8019.4076836320764
 21
-1164.999999999998
 31
0.0
1001
ACAD
1010
0.0
1020
0.0
1030
0.0
  0
LINE
  5
134E88
  8
SLIM
 10
8019.4076836320764
 20
-1164.999999999998
 30
0.0
 11
8087.5750544107932
 21
-1096.8326292212801
 31
0.0
1001
ACAD
1010
0.0
1020
0.0
1030
0.0
  0
LINE
  5
134E89
  8
SLIM
 10
8012.3681958742154
 20
-1189.999999999997
 30
0.0
 11
8037.3681958742127
 21
-1164.999999999998
 31
0.0
1001
ACAD
1010
0.0
1020
0.0
1030
0.0
  0
LINE
  5
134E8A
  8
SLIM
 10
8037.3681958742127
 20
-1164.999999999998
 30
0.0
 11
8084.6360614984433
 21
-1117.732134375769
 31
0.0
1001
ACAD
1010
0.0
1020
0.0
1030
0.0
  0
LINE
  5
134E8B
  8
SLIM
 10
8030.3287081163526
 20
-1189.999999999997
 30
0.0
 11
8055.3287081163544
 21
-1164.999999999998
 31
0.0
1001
ACAD
1010
0.0
1020
0.0
1030
0.0
  0
LINE
  5
134E8C
  8
SLIM
 10
8055.3287081163544
 20
-1164.999999999998
 30
0.0
 11
8081.6970685860933
 21
-1138.631639530257
 31
0.0
1001
ACAD
1010
0.0
1020
0.0
1030
0.0
  0
LINE
  5
134E8D
  8
SLIM
 10
8048.2892203584888
 20
-1189.999999999997
 30
0.0
 11
8070.0
 21
-1168.289220358489
 31
0.0
1001
ACAD
1010
0.0
1020
0.0
1030
0.0
  0
LINE
  5
134E8E
  8
SLIM
 10
8073.2892203584888
 20
-1164.999999999998
 30
0.0
 11
8080.0
 21
-1158.289220358489
 31
0.0
1001
ACAD
1010
0.0
1020
0.0
1030
0.0
  0
LINE
  5
134E8F
  8
SLIM
 10
8066.2497326006278
 20
-1189.999999999997
 30
0.0
 11
8070.0
 21
-1186.2497326006271
 31
0.0
1001
ACAD
1010
0.0
1020
0.0
1030
0.0
  0
LINE
  5
134E90
  8
OBJECT
 10
7897.5000000000928
 20
-749.99999999999773
 30
0.0
 11
8102.4999999999063
 21
-749.99999999999773
 31
0.0
  0
LINE
  5
134E91
  8
OBJECT
 10
8102.4999999999063
 20
-749.99999999999773
 30
0.0
 11
8102.4999999999063
 21
-990.69968280980572
 31
0.0
  0
LINE
  5
134E92
  8
OBJECT
 10
8102.4999999999063
 20
-990.69968280980572
 30
0.0
 11
8080.0
 21
-1150.699682809146
 31
0.0
  0
LINE
  5
134E93
  8
OBJECT
 10
8080.0
 20
-1150.699682809146
 30
0.0
 11
8080.0
 21
-1164.999999999998
 31
0.0
  0
LINE
  5
134E94
  8
OBJECT
 10
8080.0
 20
-1164.999999999998
 30
0.0
 11
7920.0
 21
-1164.999999999998
 31
0.0
  0
LINE
  5
134E95
  8
OBJECT
 10
7920.0
 20
-1164.999999999998
 30
0.0
 11
7920.0
 21
-1150.699682809146
 31
0.0
  0
LINE
  5
134E96
  8
OBJECT
 10
7920.0
 20
-1150.699682809146
 30
0.0
 11
7897.5000000000928
 21
-990.69968280980572
 31
0.0
  0
LINE
  5
134E97
  8
OBJECT
 10
7897.5000000000928
 20
-990.69968280980572
 30
0.0
 11
7897.5000000000928
 21
-749.99999999999773
 31
0.0
  0
LINE
  5
134E98
  8
OBJECT
 10
7930.0
 20
-1164.999999999998
 30
0.0
 11
7930.0
 21
-1189.999999999997
 31
0.0
  0
LINE
  5
134E99
  8
OBJECT
 10
7930.0
 20
-1189.999999999997
 30
0.0
 11
8070.0
 21
-1189.999999999997
 31
0.0
  0
LINE
  5
134E9A
  8
OBJECT
 10
8070.0
 20
-1189.999999999997
 30
0.0
 11
8070.0
 21
-1164.999999999998
 31
0.0
  0
LINE
  5
134E9B
  8
SLIM
 10
5897.5000000000928
 20
-766.05282860997045
 30
0.0
 11
5913.5528286100653
 21
-749.99999999999773
 31
0.0
1001
ACAD
1010
0.0
1020
0.0
1030
0.0
  0
LINE
  5
134E9C
  8
SLIM
 10
5897.5000000000928
 20
-784.01334085210874
 30
0.0
 11
5931.5133408522042
 21
-749.99999999999773
 31
0.0
1001
ACAD
1010
0.0
1020
0.0
1030
0.0
  0
LINE
  5
134E9D
  8
SLIM
 10
5897.5000000000928
 20
-801.97385309424703
 30
0.0
 11
5949.4738530943423
 21
-749.99999999999773
 31
0.0
1001
ACAD
1010
0.0
1020
0.0
1030
0.0
  0
LINE
  5
134E9E
  8
SLIM
 10
5897.5000000000928
 20
-819.93436533638555
 30
0.0
 11
5967.4343653364804
 21
-749.99999999999773
 31
0.0
1001
ACAD
1010
0.0
1020
0.0
1030
0.0
  0
LINE
  5
134E9F
  8
SLIM
 10
5897.5000000000928
 20
-837.89487757852385
 30
0.0
 11
5985.3948775786184
 21
-749.99999999999773
 31
0.0
1001
ACAD
1010
0.0
1020
0.0
1030
0.0
  0
LINE
  5
134EA0
  8
SLIM
 10
5897.5000000000928
 20
-855.85538982066203
 30
0.0
 11
6003.3553898207574
 21
-749.99999999999773
 31
0.0
1001
ACAD
1010
0.0
1020
0.0
1030
0.0
  0
LINE
  5
134EA1
  8
SLIM
 10
5897.5000000000928
 20
-873.81590206280032
 30
0.0
 11
6021.3159020628946
 21
-749.99999999999773
 31
0.0
1001
ACAD
1010
0.0
1020
0.0
1030
0.0
  0
LINE
  5
134EA2
  8
SLIM
 10
5897.5000000000928
 20
-891.7764143049385
 30
0.0
 11
6039.2764143050326
 21
-749.99999999999773
 31
0.0
1001
ACAD
1010
0.0
1020
0.0
1030
0.0
  0
LINE
  5
134EA3
  8
SLIM
 10
5897.5000000000928
 20
-909.73692654707668
 30
0.0
 11
6057.2369265471707
 21
-749.99999999999773
 31
0.0
1001
ACAD
1010
0.0
1020
0.0
1030
0.0
  0
LINE
  5
134EA4
  8
SLIM
 10
5897.5000000000928
 20
-927.69743878921508
 30
0.0
 11
6075.1974387893097
 21
-749.99999999999773
 31
0.0
1001
ACAD
1010
0.0
1020
0.0
1030
0.0
  0
LINE
  5
134EA5
  8
SLIM
 10
5897.5000000000928
 20
-945.6579510313536
 30
0.0
 11
6093.1579510314468
 21
-749.99999999999773
 31
0.0
1001
ACAD
1010
0.0
1020
0.0
1030
0.0
  0
LINE
  5
134EA6
  8
SLIM
 10
5897.5000000000928
 20
-963.61846327349156
 30
0.0
 11
6102.4999999999072
 21
-758.61846327367755
 31
0.0
1001
ACAD
1010
0.0
1020
0.0
1030
0.0
  0
LINE
  5
134EA7
  8
SLIM
 10
5897.5000000000928
 20
-981.57897551563019
 30
0.0
 11
6102.4999999999072
 21
-776.57897551581561
 31
0.0
1001
ACAD
1010
0.0
1020
0.0
1030
0.0
  0
LINE
  5
134EA8
  8
SLIM
 10
5898.5898389662798
 20
-998.44964879158101
 30
0.0
 11
6102.4999999999072
 21
-794.53948775795391
 31
0.0
1001
ACAD
1010
0.0
1020
0.0
1030
0.0
  0
LINE
  5
134EA9
  8
SLIM
 10
5900.8041486947632
 20
-1014.1958513052371
 30
0.0
 11
6102.4999999999072
 21
-812.50000000009231
 31
0.0
1001
ACAD
1010
0.0
1020
0.0
1030
0.0
  0
LINE
  5
134EAA
  8
SLIM
 10
5903.0184584232456
 20
-1029.942053818892
 30
0.0
 11
6102.4999999999072
 21
-830.46051224223049
 31
0.0
1001
ACAD
1010
0.0
1020
0.0
1030
0.0
  0
LINE
  5
134EAB
  8
SLIM
 10
5905.2327681517281
 20
-1045.688256332548
 30
0.0
 11
6102.4999999999072
 21
-848.4210244843689
 31
0.0
1001
ACAD
1010
0.0
1020
0.0
1030
0.0
  0
LINE
  5
134EAC
  8
SLIM
 10
5907.4470778802097
 20
-1061.4344588462029
 30
0.0
 11
6102.4999999999072
 21
-866.38153672650731
 31
0.0
1001
ACAD
1010
0.0
1020
0.0
1030
0.0
  0
LINE
  5
134EAD
  8
SLIM
 10
5909.661387608694
 20
-1077.180661359858
 30
0.0
 11
6102.4999999999072
 21
-884.3420489686456
 31
0.0
1001
ACAD
1010
0.0
1020
0.0
1030
0.0
  0
LINE
  5
134EAE
  8
SLIM
 10
5911.8756973371756
 20
-1092.9268638735141
 30
0.0
 11
6102.4999999999072
 21
-902.30256121078355
 31
0.0
1001
ACAD
1010
0.0
1020
0.0
1030
0.0
  0
LINE
  5
134EAF
  8
SLIM
 10
5914.0900070656589
 20
-1108.6730663871699
 30
0.0
 11
6102.4999999999072
 21
-920.26307345292196
 31
0.0
1001
ACAD
1010
0.0
1020
0.0
1030
0.0
  0
LINE
  5
134EB0
  8
SLIM
 10
5916.3043167941432
 20
-1124.419268900825
 30
0.0
 11
6102.4999999999072
 21
-938.22358569506036
 31
0.0
1001
ACAD
1010
0.0
1020
0.0
1030
0.0
  0
LINE
  5
134EB1
  8
SLIM
 10
5918.5186265226248
 20
-1140.1654714144811
 30
0.0
 11
6102.4999999999072
 21
-956.18409793719877
 31
0.0
1001
ACAD
1010
0.0
1020
0.0
1030
0.0
  0
LINE
  5
134EB2
  8
SLIM
 10
5920.0
 20
-1156.644610179244
 30
0.0
 11
6102.4999999999072
 21
-974.14461017933684
 31
0.0
1001
ACAD
1010
0.0
1020
0.0
1030
0.0
  0
LINE
  5
134EB3
  8
SLIM
 10
5929.6051224213852
 20
-1164.999999999998
 30
0.0
 11
6102.2700189725429
 21
-992.33510344883939
 31
0.0
1001
ACAD
1010
0.0
1020
0.0
1030
0.0
  0
LINE
  5
134EB4
  8
SLIM
 10
5930.0
 20
-1182.565634663521
 30
0.0
 11
5947.5656346635233
 21
-1164.999999999998
 31
0.0
1001
ACAD
1010
0.0
1020
0.0
1030
0.0
  0
LINE
  5
134EB5
  8
SLIM
 10
5947.5656346635233
 20
-1164.999999999998
 30
0.0
 11
6099.3310260601929
 21
-1013.234608603328
 31
0.0
1001
ACAD
1010
0.0
1020
0.0
1030
0.0
  0
LINE
  5
134EB6
  8
SLIM
 10
5940.5261469056613
 20
-1189.999999999997
 30
0.0
 11
5965.5261469056604
 21
-1164.999999999998
 31
0.0
1001
ACAD
1010
0.0
1020
0.0
1030
0.0
  0
LINE
  5
134EB7
  8
SLIM
 10
5965.5261469056604
 20
-1164.999999999998
 30
0.0
 11
6096.392033147843
 21
-1034.1341137578161
 31
0.0
1001
ACAD
1010
0.0
1020
0.0
1030
0.0
  0
LINE
  5
134EB8
  8
SLIM
 10
5958.4866591478003
 20
-1189.999999999997
 30
0.0
 11
5983.4866591478003
 21
-1164.999999999998
 31
0.0
1001
ACAD
1010
0.0
1020
0.0
1030
0.0
  0
LINE
  5
134EB9
  8
SLIM
 10
5983.4866591478003
 20
-1164.999999999998
 30
0.0
 11
6093.4530402354931
 21
-1055.0336189123041
 31
0.0
1001
ACAD
1010
0.0
1020
0.0
1030
0.0
  0
LINE
  5
134EBA
  8
SLIM
 10
5976.4471713899384
 20
-1189.999999999997
 30
0.0
 11
6001.4471713899366
 21
-1164.999999999998
 31
0.0
1001
ACAD
1010
0.0
1020
0.0
1030
0.0
  0
LINE
  5
134EBB
  8
SLIM
 10
6001.4471713899366
 20
-1164.999999999998
 30
0.0
 11
6090.5140473231431
 21
-1075.9331240667921
 31
0.0
1001
ACAD
1010
0.0
1020
0.0
1030
0.0
  0
LINE
  5
134EBC
  8
SLIM
 10
5994.4076836320764
 20
-1189.999999999997
 30
0.0
 11
6019.4076836320774
 21
-1164.999999999998
 31
0.0
1001
ACAD
1010
0.0
1020
0.0
1030
0.0
  0
LINE
  5
134EBD
  8
SLIM
 10
6019.4076836320774
 20
-1164.999999999998
 30
0.0
 11
6087.5750544107932
 21
-1096.8326292212801
 31
0.0
1001
ACAD
1010
0.0
1020
0.0
1030
0.0
  0
LINE
  5
134EBE
  8
SLIM
 10
6012.3681958742163
 20
-1189.999999999997
 30
0.0
 11
6037.3681958742172
 21
-1164.999999999998
 31
0.0
1001
ACAD
1010
0.0
1020
0.0
1030
0.0
  0
LINE
  5
134EBF
  8
SLIM
 10
6037.3681958742172
 20
-1164.999999999998
 30
0.0
 11
6084.6360614984433
 21
-1117.732134375769
 31
0.0
1001
ACAD
1010
0.0
1020
0.0
1030
0.0
  0
LINE
  5
134EC0
  8
SLIM
 10
6030.3287081163526
 20
-1189.999999999997
 30
0.0
 11
6055.3287081163517
 21
-1164.999999999998
 31
0.0
1001
ACAD
1010
0.0
1020
0.0
1030
0.0
  0
LINE
  5
134EC1
  8
SLIM
 10
6055.3287081163517
 20
-1164.999999999998
 30
0.0
 11
6081.6970685860952
 21
-1138.631639530257
 31
0.0
1001
ACAD
1010
0.0
1020
0.0
1030
0.0
  0
LINE
  5
134EC2
  8
SLIM
 10
6048.2892203584897
 20
-1189.999999999997
 30
0.0
 11
6070.0
 21
-1168.289220358489
 31
0.0
1001
ACAD
1010
0.0
1020
0.0
1030
0.0
  0
LINE
  5
134EC3
  8
SLIM
 10
6073.2892203584934
 20
-1164.999999999998
 30
0.0
 11
6080.0
 21
-1158.289220358489
 31
0.0
1001
ACAD
1010
0.0
1020
0.0
1030
0.0
  0
LINE
  5
134EC4
  8
SLIM
 10
6066.2497326006287
 20
-1189.999999999997
 30
0.0
 11
6070.0
 21
-1186.2497326006271
 31
0.0
1001
ACAD
1010
0.0
1020
0.0
1030
0.0
  0
LINE
  5
134EC5
  8
OBJECT
 10
5897.5000000000928
 20
-749.99999999999773
 30
0.0
 11
6102.4999999999072
 21
-749.99999999999773
 31
0.0
  0
LINE
  5
134EC6
  8
OBJECT
 10
6102.4999999999072
 20
-749.99999999999773
 30
0.0
 11
6102.4999999999072
 21
-990.69968280980572
 31
0.0
  0
LINE
  5
134EC7
  8
OBJECT
 10
6102.4999999999072
 20
-990.69968280980572
 30
0.0
 11
6080.0
 21
-1150.699682809146
 31
0.0
  0
LINE
  5
134EC8
  8
OBJECT
 10
6080.0
 20
-1150.699682809146
 30
0.0
 11
6080.0
 21
-1164.999999999998
 31
0.0
  0
LINE
  5
134EC9
  8
OBJECT
 10
6080.0
 20
-1164.999999999998
 30
0.0
 11
5920.0
 21
-1164.999999999998
 31
0.0
  0
LINE
  5
134ECA
  8
OBJECT
 10
5920.0
 20
-1164.999999999998
 30
0.0
 11
5920.0
 21
-1150.699682809146
 31
0.0
  0
LINE
  5
134ECB
  8
OBJECT
 10
5920.0
 20
-1150.699682809146
 30
0.0
 11
5897.5000000000928
 21
-990.69968280980572
 31
0.0
  0
LINE
  5
134ECC
  8
OBJECT
 10
5897.5000000000928
 20
-990.69968280980572
 30
0.0
 11
5897.5000000000928
 21
-749.99999999999773
 31
0.0
  0
LINE
  5
134ECD
  8
OBJECT
 10
5930.0
 20
-1164.999999999998
 30
0.0
 11
5930.0
 21
-1189.999999999997
 31
0.0
  0
LINE
  5
134ECE
  8
OBJECT
 10
5930.0
 20
-1189.999999999997
 30
0.0
 11
6070.0
 21
-1189.999999999997
 31
0.0
  0
LINE
  5
134ECF
  8
OBJECT
 10
6070.0
 20
-1189.999999999997
 30
0.0
 11
6070.0
 21
-1164.999999999998
 31
0.0
  0
LINE
  5
134ED0
  8
CENTER
 10
8000.0
 20
-1643.9999999999991
 30
0.0
 11
8000.0
 21
-1417.9999999999991
 31
0.0
1001
ACDBBLOCKREPETAG
1070
     1
1071
        0
1005
134ED0
  0
LINE
  5
134ED1
  8
CENTER
 10
7894.7678858541567
 20
-1538.9999999999991
 30
0.0
 11
8105.2321141458424
 21
-1538.9999999999991
 31
0.0
1001
ACDBBLOCKREPETAG
1070
     1
1071
        1
1005
134ED1
  0
CIRCLE
  5
134ED2
  8
OBJECT
 10
8000.0
 20
-1538.9999999999991
 30
0.0
 40
62.5
1001
ACDBBLOCKREPETAG
1070
     1
1071
        2
1005
134ED2
  0
CIRCLE
  5
134ED3
  8
OBJECT
 10
8000.0
 20
-1538.9999999999991
 30
0.0
 40
75.0
1001
ACDBBLOCKREPETAG
1070
     1
1071
        3
1005
134ED3
  0
ARC
  5
134ED4
  8
OBJECT
 10
8000.0
 20
-1538.9999999999991
 30
0.0
 40
90.0
 50
124.11056017877129
 51
175.8894398211431
1001
ACDBBLOCKREPETAG
1070
     1
1071
        4
1005
134ED4
  0
ARC
  5
134ED5
  8
OBJECT
 10
8000.0
 20
-1538.9999999999991
 30
0.0
 40
90.0
 50
244.1105601790079
 51
295.88943982099198
1001
ACDBBLOCKREPETAG
1070
     1
1071
        5
1005
134ED5
  0
ARC
  5
134ED6
  8
OBJECT
 10
8000.0
 20
-1538.9999999999991
 30
0.0
 40
90.0
 50
4.1105601788568462
 51
55.889439821228699
1001
ACDBBLOCKREPETAG
1070
     1
1071
        6
1005
134ED6
  0
CIRCLE
  5
134ED7
  8
SLIM
 10
8000.0
 20
-1445.9999999999991
 30
0.0
 40
6.0
1001
ACDBBLOCKREPETAG
1070
     1
1071
        7
1005
134ED7
  0
ARC
  5
134ED8
  8
OBJECT
 10
8000.0
 20
-1445.9999999999991
 30
0.0
 40
13.0
 50
55.889439821228699
 51
124.11056017877129
1001
ACDBBLOCKREPETAG
1070
     1
1071
        8
1005
134ED8
  0
LINE
  5
134ED9
  8
OBJECT
 10
7949.5287555726281
 20
-1464.483870967742
 30
0.0
 11
7992.7097091382657
 21
-1435.2365591397861
 31
0.0
1001
ACDBBLOCKREPETAG
1070
     1
1071
        9
1005
134ED9
  0
LINE
  5
134EDA
  8
OBJECT
 10
8050.4712444273764
 20
-1464.483870967742
 30
0.0
 11
8007.2902908617298
 21
-1435.2365591397861
 31
0.0
1001
ACDBBLOCKREPETAG
1070
     1
1071
       10
1005
134EDA
  0
POLYLINE
  5
134EDB
  8
SLIM
 66
     1
 10
0.0
 20
0.0
 30
0.0
 70
     1
1001
ACDBBLOCKREPETAG
1070
     1
1071
       11
1005
134EDB
  0
VERTEX
  5
135874
  8
SLIM
 10
7990.5
 20
-1451.484827557302
 30
0.0
  0
VERTEX
  5
135875
  8
SLIM
 10
8000.0
 20
-1456.9696551146039
 30
0.0
  0
VERTEX
  5
135876
  8
SLIM
 10
8009.5
 20
-1451.484827557302
 30
0.0
  0
VERTEX
  5
135877
  8
SLIM
 10
8009.5
 20
-1440.5151724426969
 30
0.0
  0
VERTEX
  5
135878
  8
SLIM
 10
8000.0
 20
-1435.0303448853949
 30
0.0
  0
VERTEX
  5
135879
  8
SLIM
 10
7990.5
 20
-1440.5151724426969
 30
0.0
  0
SEQEND
  5
13587A
  8
SLIM
  0
CIRCLE
  5
134EDC
  8
SLIM
 10
7919.4596374480507
 20
-1585.4999999999991
 30
0.0
 40
5.9999999999999991
1001
ACDBBLOCKREPETAG
1070
     1
1071
       12
1005
134EDC
  0
ARC
  5
134EDD
  8
OBJECT
 10
7919.4596374480507
 20
-1585.4999999999991
 30
0.0
 40
13.0
 50
175.8894398211431
 51
244.1105601790079
1001
ACDBBLOCKREPETAG
1070
     1
1071
       13
1005
134EDD
  0
LINE
  5
134EDE
  8
OBJECT
 10
7960.7027614800709
 20
-1619.9674443508479
 30
0.0
 11
7913.7833696618336
 21
-1597.195297517344
 31
0.0
1001
ACDBBLOCKREPETAG
1070
     1
1071
       14
1005
134EDE
  0
LINE
  5
134EDF
  8
OBJECT
 10
7910.2315170527017
 20
-1532.5486846814081
 30
0.0
 11
7906.4930788001029
 21
-1584.5681433428681
 31
0.0
1001
ACDBBLOCKREPETAG
1070
     1
1071
       15
1005
134EDF
  0
POLYLINE
  5
134EE0
  8
SLIM
 66
     1
 10
0.0
 20
0.0
 30
0.0
 70
     1
1001
ACDBBLOCKREPETAG
1070
     1
1071
       16
1005
134EE0
  0
VERTEX
  5
13587B
  8
SLIM
 10
7928.9596374480507
 20
-1590.9848275573011
 30
0.0
  0
VERTEX
  5
13587C
  8
SLIM
 10
7928.9596374480507
 20
-1580.0151724426969
 30
0.0
  0
VERTEX
  5
13587D
  8
SLIM
 10
7919.4596374480507
 20
-1574.5303448853949
 30
0.0
  0
VERTEX
  5
13587E
  8
SLIM
 10
7909.9596374480461
 20
-1580.0151724426969
 30
0.0
  0
VERTEX
  5
13587F
  8
SLIM
 10
7909.9596374480461
 20
-1590.9848275573011
 30
0.0
  0
VERTEX
  5
135880
  8
SLIM
 10
7919.459637448047
 20
-1596.4696551146039
 30
0.0
  0
SEQEND
  5
135881
  8
SLIM
  0
CIRCLE
  5
134EE1
  8
SLIM
 10
8080.5403625519548
 20
-1585.4999999999991
 30
0.0
 40
6.0
1001
ACDBBLOCKREPETAG
1070
     1
1071
       17
1005
134EE1
  0
ARC
  5
134EE2
  8
OBJECT
 10
8080.5403625519548
 20
-1585.4999999999991
 30
0.0
 40
13.0
 50
295.88943982099198
 51
4.1105601788568462
1001
ACDBBLOCKREPETAG
1070
     1
1071
       18
1005
134EE2
  0
LINE
  5
134EE3
  8
OBJECT
 10
8089.7684829473019
 20
-1532.5486846814081
 30
0.0
 11
8093.5069211998962
 21
-1584.5681433428681
 31
0.0
1001
ACDBBLOCKREPETAG
1070
     1
1071
       19
1005
134EE3
  0
LINE
  5
134EE4
  8
OBJECT
 10
8039.2972385199282
 20
-1619.9674443508479
 30
0.0
 11
8086.2166303381618
 21
-1597.195297517344
 31
0.0
1001
ACDBBLOCKREPETAG
1070
     1
1071
       20
1005
134EE4
  0
POLYLINE
  5
134EE5
  8
SLIM
 66
     1
 10
0.0
 20
0.0
 30
0.0
 70
     1
1001
ACDBBLOCKREPETAG
1070
     1
1071
       21
1005
134EE5
  0
VERTEX
  5
135882
  8
SLIM
 10
8080.5403625519548
 20
-1574.5303448853949
 30
0.0
  0
VERTEX
  5
135883
  8
SLIM
 10
8071.0403625519557
 20
-1580.0151724426969
 30
0.0
  0
VERTEX
  5
135884
  8
SLIM
 10
8071.0403625519557
 20
-1590.9848275573011
 30
0.0
  0
VERTEX
  5
135885
  8
SLIM
 10
8080.5403625519548
 20
-1596.4696551146039
 30
0.0
  0
VERTEX
  5
135886
  8
SLIM
 10
8090.0403625519557
 20
-1590.9848275573011
 30
0.0
  0
VERTEX
  5
135887
  8
SLIM
 10
8090.0403625519557
 20
-1580.0151724426969
 30
0.0
  0
SEQEND
  5
135888
  8
SLIM
  0
LINE
  5
134EE6
  8
CENTER
 10
4000.0
 20
-1643.9999999999991
 30
0.0
 11
4000.0
 21
-1417.9999999999991
 31
0.0
1001
ACDBBLOCKREPETAG
1070
     1
1071
        0
1005
134EE6
  0
LINE
  5
134EE7
  8
CENTER
 10
3894.7678858541599
 20
-1538.9999999999991
 30
0.0
 11
4105.2321141458406
 21
-1538.9999999999991
 31
0.0
1001
ACDBBLOCKREPETAG
1070
     1
1071
        1
1005
134EE7
  0
CIRCLE
  5
134EE8
  8
OBJECT
 10
4000.0
 20
-1538.9999999999991
 30
0.0
 40
62.5
1001
ACDBBLOCKREPETAG
1070
     1
1071
        2
1005
134EE8
  0
CIRCLE
  5
134EE9
  8
OBJECT
 10
4000.0
 20
-1538.9999999999991
 30
0.0
 40
75.0
1001
ACDBBLOCKREPETAG
1070
     1
1071
        3
1005
134EE9
  0
ARC
  5
134EEA
  8
OBJECT
 10
4000.0
 20
-1538.9999999999991
 30
0.0
 40
90.0
 50
124.11056017877129
 51
175.8894398211431
1001
ACDBBLOCKREPETAG
1070
     1
1071
        4
1005
134EEA
  0
ARC
  5
134EEB
  8
OBJECT
 10
4000.0
 20
-1538.9999999999991
 30
0.0
 40
90.0
 50
244.11056017898451
 51
295.88943982101551
1001
ACDBBLOCKREPETAG
1070
     1
1071
        5
1005
134EEB
  0
ARC
  5
134EEC
  8
OBJECT
 10
4000.0
 20
-1538.9999999999991
 30
0.0
 40
90.0
 50
4.1105601788568462
 51
55.889439821228699
1001
ACDBBLOCKREPETAG
1070
     1
1071
        6
1005
134EEC
  0
CIRCLE
  5
134EED
  8
SLIM
 10
4000.0
 20
-1445.9999999999991
 30
0.0
 40
6.0
1001
ACDBBLOCKREPETAG
1070
     1
1071
        7
1005
134EED
  0
ARC
  5
134EEE
  8
OBJECT
 10
4000.0
 20
-1445.9999999999991
 30
0.0
 40
13.0
 50
55.889439821228699
 51
124.11056017877129
1001
ACDBBLOCKREPETAG
1070
     1
1071
        8
1005
134EEE
  0
LINE
  5
134EEF
  8
OBJECT
 10
3949.5287555726291
 20
-1464.483870967742
 30
0.0
 11
3992.709709138268
 21
-1435.2365591397861
 31
0.0
1001
ACDBBLOCKREPETAG
1070
     1
1071
        9
1005
134EEF
  0
LINE
  5
134EF0
  8
OBJECT
 10
4050.471244427376
 20
-1464.483870967742
 30
0.0
 11
4007.290290861732
 21
-1435.2365591397861
 31
0.0
1001
ACDBBLOCKREPETAG
1070
     1
1071
       10
1005
134EF0
  0
POLYLINE
  5
134EF1
  8
SLIM
 66
     1
 10
0.0
 20
0.0
 30
0.0
 70
     1
1001
ACDBBLOCKREPETAG
1070
     1
1071
       11
1005
134EF1
  0
VERTEX
  5
135889
  8
SLIM
 10
3990.5
 20
-1451.484827557302
 30
0.0
  0
VERTEX
  5
13588A
  8
SLIM
 10
4000.0
 20
-1456.9696551146039
 30
0.0
  0
VERTEX
  5
13588B
  8
SLIM
 10
4009.5
 20
-1451.484827557302
 30
0.0
  0
VERTEX
  5
13588C
  8
SLIM
 10
4009.5
 20
-1440.5151724426969
 30
0.0
  0
VERTEX
  5
13588D
  8
SLIM
 10
4000.0
 20
-1435.0303448853949
 30
0.0
  0
VERTEX
  5
13588E
  8
SLIM
 10
3990.5
 20
-1440.5151724426969
 30
0.0
  0
SEQEND
  5
13588F
  8
SLIM
  0
CIRCLE
  5
134EF2
  8
SLIM
 10
3919.4596374480502
 20
-1585.4999999999991
 30
0.0
 40
5.9999999999999991
1001
ACDBBLOCKREPETAG
1070
     1
1071
       12
1005
134EF2
  0
ARC
  5
134EF3
  8
OBJECT
 10
3919.4596374480502
 20
-1585.4999999999991
 30
0.0
 40
13.0
 50
175.8894398211431
 51
244.11056017898451
1001
ACDBBLOCKREPETAG
1070
     1
1071
       13
1005
134EF3
  0
LINE
  5
134EF4
  8
OBJECT
 10
3960.7027614800718
 20
-1619.9674443508479
 30
0.0
 11
3913.7833696618368
 21
-1597.195297517344
 31
0.0
1001
ACDBBLOCKREPETAG
1070
     1
1071
       14
1005
134EF4
  0
LINE
  5
134EF5
  8
OBJECT
 10
3910.2315170527008
 20
-1532.5486846814081
 30
0.0
 11
3906.4930788001038
 21
-1584.5681433428681
 31
0.0
1001
ACDBBLOCKREPETAG
1070
     1
1071
       15
1005
134EF5
  0
POLYLINE
  5
134EF6
  8
SLIM
 66
     1
 10
0.0
 20
0.0
 30
0.0
 70
     1
1001
ACDBBLOCKREPETAG
1070
     1
1071
       16
1005
134EF6
  0
VERTEX
  5
135890
  8
SLIM
 10
3928.9596374480502
 20
-1590.9848275573011
 30
0.0
  0
VERTEX
  5
135891
  8
SLIM
 10
3928.9596374480502
 20
-1580.0151724426969
 30
0.0
  0
VERTEX
  5
135892
  8
SLIM
 10
3919.4596374480502
 20
-1574.5303448853949
 30
0.0
  0
VERTEX
  5
135893
  8
SLIM
 10
3909.9596374480461
 20
-1580.0151724426969
 30
0.0
  0
VERTEX
  5
135894
  8
SLIM
 10
3909.9596374480461
 20
-1590.9848275573011
 30
0.0
  0
VERTEX
  5
135895
  8
SLIM
 10
3919.4596374480461
 20
-1596.4696551146039
 30
0.0
  0
SEQEND
  5
135896
  8
SLIM
  0
CIRCLE
  5
134EF7
  8
SLIM
 10
4080.5403625519521
 20
-1585.4999999999991
 30
0.0
 40
6.0
1001
ACDBBLOCKREPETAG
1070
     1
1071
       17
1005
134EF7
  0
ARC
  5
134EF8
  8
OBJECT
 10
4080.5403625519521
 20
-1585.4999999999991
 30
0.0
 40
13.0
 50
295.88943982101551
 51
4.1105601788568462
1001
ACDBBLOCKREPETAG
1070
     1
1071
       18
1005
134EF8
  0
LINE
  5
134EF9
  8
OBJECT
 10
4089.7684829473019
 20
-1532.5486846814081
 30
0.0
 11
4093.5069211998962
 21
-1584.5681433428681
 31
0.0
1001
ACDBBLOCKREPETAG
1070
     1
1071
       19
1005
134EF9
  0
LINE
  5
134EFA
  8
OBJECT
 10
4039.2972385199269
 20
-1619.9674443508479
 30
0.0
 11
4086.2166303381632
 21
-1597.195297517344
 31
0.0
1001
ACDBBLOCKREPETAG
1070
     1
1071
       20
1005
134EFA
  0
POLYLINE
  5
134EFB
  8
SLIM
 66
     1
 10
0.0
 20
0.0
 30
0.0
 70
     1
1001
ACDBBLOCKREPETAG
1070
     1
1071
       21
1005
134EFB
  0
VERTEX
  5
135897
  8
SLIM
 10
4080.5403625519521
 20
-1574.5303448853949
 30
0.0
  0
VERTEX
  5
135898
  8
SLIM
 10
4071.040362551953
 20
-1580.0151724426969
 30
0.0
  0
VERTEX
  5
135899
  8
SLIM
 10
4071.040362551953
 20
-1590.9848275573011
 30
0.0
  0
VERTEX
  5
13589A
  8
SLIM
 10
4080.5403625519521
 20
-1596.4696551146039
 30
0.0
  0
VERTEX
  5
13589B
  8
SLIM
 10
4090.040362551953
 20
-1590.9848275573011
 30
0.0
  0
VERTEX
  5
13589C
  8
SLIM
 10
4090.040362551953
 20
-1580.0151724426969
 30
0.0
  0
SEQEND
  5
13589D
  8
SLIM
  0
LINE
  5
134EFC
  8
OBJECT
 10
8092.4999999999973
 20
-989.99999999999955
 30
0.0
 11
8092.4999999999973
 21
-914.99999999999955
 31
0.0
1001
ACDBBLOCKREPETAG
1070
     1
1071
       12
1005
134EFC
  0
LINE
  5
134EFD
  8
OBJECT
 10
8093.5403615519499
 20
-1264.9999999999991
 30
0.0
 11
7906.4596374480461
 21
-1264.9999999999991
 31
0.0
1001
ACDBBLOCKREPETAG
1070
     1
1071
       13
1005
134EFD
  0
LINE
  5
134EFE
  8
OBJECT
 10
7906.4596374480498
 20
-1291.5
 30
0.0
 11
8093.5403625519502
 21
-1291.5
 31
0.0
1001
ACDBBLOCKREPETAG
1070
     1
1071
       14
1005
134EFE
  0
LINE
  5
134EFF
  8
OBJECT
 10
8093.5403625519502
 20
-1275.5000000000009
 30
0.0
 11
7906.4596374480498
 21
-1275.5000000000009
 31
0.0
1001
ACDBBLOCKREPETAG
1070
     1
1071
       15
1005
134EFF
  0
LINE
  5
134F00
  8
OBJECT
 10
8005.9999999999982
 20
-1306.999999999997
 30
0.0
 11
8005.9999999999982
 21
-1301.5
 31
0.0
1001
ACDBBLOCKREPETAG
1070
     1
1071
       16
1005
134F00
  0
LINE
  5
134F01
  8
OBJECT
 10
7993.9999999999973
 20
-1306.999999999997
 30
0.0
 11
7993.9999999999973
 21
-1301.5
 31
0.0
1001
ACDBBLOCKREPETAG
1070
     1
1071
       17
1005
134F01
  0
LINE
  5
134F02
  8
OBJECT
 10
7993.9999999999973
 20
-1306.999999999997
 30
0.0
 11
8005.9999999999982
 21
-1306.999999999997
 31
0.0
1001
ACDBBLOCKREPETAG
1070
     1
1071
       18
1005
134F02
  0
LINE
  5
134F03
  8
OBJECT
 10
7993.9999999999973
 20
-1275.5000000000009
 30
0.0
 11
7993.9999999999973
 21
-1264.9999999999991
 31
0.0
1001
ACDBBLOCKREPETAG
1070
     1
1071
       19
1005
134F03
  0
LINE
  5
134F04
  8
OBJECT
 10
8005.9999999999982
 20
-1275.5000000000009
 30
0.0
 11
8005.9999999999982
 21
-1264.9999999999991
 31
0.0
1001
ACDBBLOCKREPETAG
1070
     1
1071
       20
1005
134F04
  0
LINE
  5
134F05
  8
OBJECT
 10
8016.4999999999982
 20
-1244.499999999997
 30
0.0
 11
8016.4999999999982
 21
-1246.999999999998
 31
0.0
1001
ACDBBLOCKREPETAG
1070
     1
1071
       21
1005
134F05
  0
LINE
  5
134F06
  8
OBJECT
 10
7989.9999999999982
 20
-1241.0
 30
0.0
 11
7989.9999999999982
 21
-1246.999999999998
 31
0.0
1001
ACDBBLOCKREPETAG
1070
     1
1071
       22
1005
134F06
  0
LINE
  5
134F07
  8
OBJECT
 10
8008.4999999999973
 20
-1241.0
 30
0.0
 11
7989.9999999999982
 21
-1241.0
 31
0.0
1001
ACDBBLOCKREPETAG
1070
     1
1071
       23
1005
134F07
  0
LINE
  5
134F08
  8
OBJECT
 10
8093.5403615519499
 20
-1246.999999999998
 30
0.0
 11
7906.4596374480461
 21
-1246.999999999998
 31
0.0
1001
ACDBBLOCKREPETAG
1070
     1
1071
       24
1005
134F08
  0
LINE
  5
134F09
  8
OBJECT
 10
8016.4999999999982
 20
-1244.499999999997
 30
0.0
 11
8008.4999999999973
 21
-1241.0
 31
0.0
1001
ACDBBLOCKREPETAG
1070
     1
1071
       25
1005
134F09
  0
LINE
  5
134F0A
  8
HIDDEN
 10
7930.0
 20
-1224.9999999999991
 30
0.0
 11
8070.0
 21
-1224.9999999999991
 31
0.0
1001
ACDBBLOCKREPETAG
1070
     1
1071
       26
1005
134F0A
  0
LINE
  5
134F0B
  8
CENTER
 10
8000.0
 20
-914.99999999999955
 30
0.0
 11
8000.0
 21
-1321.999999999998
 31
0.0
1001
ACDBBLOCKREPETAG
1070
     1
1071
       27
1005
134F0B
  0
LINE
  5
134F0C
  8
OBJECT
 10
7918.5
 20
-1264.9999999999991
 30
0.0
 11
7918.5
 21
-1275.5000000000009
 31
0.0
1001
ACDBBLOCKREPETAG
1070
     1
1071
       28
1005
134F0C
  0
LINE
  5
134F0D
  8
OBJECT
 10
8081.5
 20
-1264.9999999999991
 30
0.0
 11
8081.5
 21
-1275.5000000000009
 31
0.0
1001
ACDBBLOCKREPETAG
1070
     1
1071
       29
1005
134F0D
  0
LINE
  5
134F0E
  8
OBJECT
 10
7930.0
 20
-1149.9999999999991
 30
0.0
 11
7930.0
 21
-1213.9999999999991
 31
0.0
1001
ACDBBLOCKREPETAG
1070
     1
1071
       30
1005
134F0E
  0
LINE
  5
134F0F
  8
OBJECT
 10
8070.0
 20
-1149.9999999999991
 30
0.0
 11
8070.0
 21
-1213.9999999999991
 31
0.0
1001
ACDBBLOCKREPETAG
1070
     1
1071
       31
1005
134F0F
  0
LINE
  5
134F10
  8
OBJECT
 10
7930.0
 20
-1149.9999999999991
 30
0.0
 11
8070.0
 21
-1149.9999999999991
 31
0.0
1001
ACDBBLOCKREPETAG
1070
     1
1071
       32
1005
134F10
  0
LINE
  5
134F11
  8
OBJECT
 10
7919.4999999999982
 20
-1213.9999999999991
 30
0.0
 11
8080.5000000000036
 21
-1213.9999999999991
 31
0.0
1001
ACDBBLOCKREPETAG
1070
     1
1071
       33
1005
134F11
  0
LINE
  5
134F12
  8
OBJECT
 10
7907.5
 20
-989.99999999999955
 30
0.0
 11
7907.5
 21
-914.99999999999955
 31
0.0
1001
ACDBBLOCKREPETAG
1070
     1
1071
       34
1005
134F12
  0
LINE
  5
134F13
  8
OBJECT
 10
8092.4999999999973
 20
-989.99999999999955
 30
0.0
 11
7907.5
 21
-989.99999999999955
 31
0.0
1001
ACDBBLOCKREPETAG
1070
     1
1071
       35
1005
134F13
  0
LINE
  5
134F14
  8
OBJECT
 10
7907.5
 20
-989.99999999999955
 30
0.0
 11
7930.0
 21
-1149.9999999999991
 31
0.0
1001
ACDBBLOCKREPETAG
1070
     1
1071
       36
1005
134F14
  0
LINE
  5
134F15
  8
OBJECT
 10
8070.0
 20
-1149.9999999999991
 30
0.0
 11
8092.4999999999973
 21
-989.99999999999955
 31
0.0
1001
ACDBBLOCKREPETAG
1070
     1
1071
       37
1005
134F15
  0
LINE
  5
134F16
  8
OBJECT
 10
8080.5
 20
-1213.9999999999991
 30
0.0
 11
8080.5
 21
-1246.999999999998
 31
0.0
1001
ACDBBLOCKREPETAG
1070
     1
1071
       38
1005
134F16
  0
LINE
  5
134F17
  8
OBJECT
 10
7919.5000000000027
 20
-1213.9999999999991
 30
0.0
 11
7919.5000000000027
 21
-1246.999999999998
 31
0.0
1001
ACDBBLOCKREPETAG
1070
     1
1071
       39
1005
134F17
  0
LINE
  5
134F18
  8
OBJECT
 10
8010.9696549999944
 20
-1291.5
 30
0.0
 11
8010.9696549999944
 21
-1301.5
 31
0.0
1001
ACDBBLOCKREPETAG
1070
     1
1071
       40
1005
134F18
  0
LINE
  5
134F19
  8
OBJECT
 10
8005.4848269999939
 20
-1291.5
 30
0.0
 11
8005.4848269999939
 21
-1301.5
 31
0.0
1001
ACDBBLOCKREPETAG
1070
     1
1071
       41
1005
134F19
  0
LINE
  5
134F1A
  8
OBJECT
 10
7994.5151719999976
 20
-1291.5
 30
0.0
 11
7994.5151719999976
 21
-1301.5
 31
0.0
1001
ACDBBLOCKREPETAG
1070
     1
1071
       42
1005
134F1A
  0
LINE
  5
134F1B
  8
OBJECT
 10
7989.0303449999947
 20
-1291.5
 30
0.0
 11
7989.0303449999947
 21
-1301.5
 31
0.0
1001
ACDBBLOCKREPETAG
1070
     1
1071
       43
1005
134F1B
  0
LINE
  5
134F1C
  8
OBJECT
 10
7989.0303449999947
 20
-1301.5
 30
0.0
 11
8010.9696549999944
 21
-1301.5
 31
0.0
1001
ACDBBLOCKREPETAG
1070
     1
1071
       44
1005
134F1C
  0
LINE
  5
134F1D
  8
OBJECT
 10
7906.4596374480461
 20
-1246.999999999998
 30
0.0
 11
7906.4596374480461
 21
-1264.9999999999991
 31
0.0
1001
ACDBBLOCKREPETAG
1070
     1
1071
       45
1005
134F1D
  0
LINE
  5
134F1E
  8
OBJECT
 10
7906.4596374480498
 20
-1275.5000000000009
 30
0.0
 11
7906.4596374480498
 21
-1291.5
 31
0.0
1001
ACDBBLOCKREPETAG
1070
     1
1071
       46
1005
134F1E
  0
LINE
  5
134F1F
  8
OBJECT
 10
8093.540362551953
 20
-1246.999999999998
 30
0.0
 11
8093.540362551953
 21
-1264.9999999999991
 31
0.0
1001
ACDBBLOCKREPETAG
1070
     1
1071
       47
1005
134F1F
  0
LINE
  5
134F20
  8
OBJECT
 10
8093.5403625519502
 20
-1275.5000000000009
 30
0.0
 11
8093.5403625519502
 21
-1291.5
 31
0.0
1001
ACDBBLOCKREPETAG
1070
     1
1071
       48
1005
134F20
  0
LINE
  5
134F21
  8
OBJECT
 10
7925.4596374480407
 20
-1306.999999999997
 30
0.0
 11
7925.4596374480407
 21
-1301.5
 31
0.0
1001
ACDBBLOCKREPETAG
1070
     1
1071
       49
1005
134F21
  0
LINE
  5
134F22
  8
OBJECT
 10
7913.4596374480416
 20
-1306.999999999997
 30
0.0
 11
7913.4596374480416
 21
-1301.5
 31
0.0
1001
ACDBBLOCKREPETAG
1070
     1
1071
       50
1005
134F22
  0
LINE
  5
134F23
  8
OBJECT
 10
7913.4596374480416
 20
-1306.999999999997
 30
0.0
 11
7925.4596374480407
 21
-1306.999999999997
 31
0.0
1001
ACDBBLOCKREPETAG
1070
     1
1071
       51
1005
134F23
  0
LINE
  5
134F24
  8
OBJECT
 10
7913.4596374480416
 20
-1275.5000000000009
 30
0.0
 11
7913.4596374480416
 21
-1264.9999999999991
 31
0.0
1001
ACDBBLOCKREPETAG
1070
     1
1071
       52
1005
134F24
  0
LINE
  5
134F25
  8
OBJECT
 10
7930.4292924480387
 20
-1291.5
 30
0.0
 11
7930.4292924480387
 21
-1301.5
 31
0.0
1001
ACDBBLOCKREPETAG
1070
     1
1071
       53
1005
134F25
  0
LINE
  5
134F26
  8
OBJECT
 10
7924.9444644480382
 20
-1291.5
 30
0.0
 11
7924.9444644480382
 21
-1301.5
 31
0.0
1001
ACDBBLOCKREPETAG
1070
     1
1071
       54
1005
134F26
  0
LINE
  5
134F27
  8
OBJECT
 10
7913.9748094480419
 20
-1291.5
 30
0.0
 11
7913.9748094480419
 21
-1301.5
 31
0.0
1001
ACDBBLOCKREPETAG
1070
     1
1071
       55
1005
134F27
  0
LINE
  5
134F28
  8
OBJECT
 10
7908.4899824480417
 20
-1291.5
 30
0.0
 11
7908.4899824480417
 21
-1301.5
 31
0.0
1001
ACDBBLOCKREPETAG
1070
     1
1071
       56
1005
134F28
  0
LINE
  5
134F29
  8
OBJECT
 10
7908.4899824480417
 20
-1301.5
 30
0.0
 11
7930.4292924480387
 21
-1301.5
 31
0.0
1001
ACDBBLOCKREPETAG
1070
     1
1071
       57
1005
134F29
  0
LINE
  5
134F2A
  8
OBJECT
 10
7911.4596374480443
 20
-1241.0
 30
0.0
 11
7911.4596374480443
 21
-1246.999999999998
 31
0.0
1001
ACDBBLOCKREPETAG
1070
     1
1071
       58
1005
134F2A
  0
LINE
  5
134F2B
  8
OBJECT
 10
7919.5000000000027
 20
-1241.0
 30
0.0
 11
7911.4596374480443
 21
-1241.0
 31
0.0
1001
ACDBBLOCKREPETAG
1070
     1
1071
       59
1005
134F2B
  0
LINE
  5
134F2C
  8
OBJECT
 10
8074.5403625519548
 20
-1306.999999999997
 30
0.0
 11
8074.5403625519548
 21
-1301.5
 31
0.0
1001
ACDBBLOCKREPETAG
1070
     1
1071
       60
1005
134F2C
  0
LINE
  5
134F2D
  8
OBJECT
 10
8086.5403625519548
 20
-1306.999999999997
 30
0.0
 11
8086.5403625519548
 21
-1301.5
 31
0.0
1001
ACDBBLOCKREPETAG
1070
     1
1071
       61
1005
134F2D
  0
LINE
  5
134F2E
  8
OBJECT
 10
8086.5403625519548
 20
-1306.999999999997
 30
0.0
 11
8074.5403625519548
 21
-1306.999999999997
 31
0.0
1001
ACDBBLOCKREPETAG
1070
     1
1071
       62
1005
134F2E
  0
LINE
  5
134F2F
  8
OBJECT
 10
8086.5403625519548
 20
-1275.5000000000009
 30
0.0
 11
8086.5403625519548
 21
-1264.9999999999991
 31
0.0
1001
ACDBBLOCKREPETAG
1070
     1
1071
       63
1005
134F2F
  0
LINE
  5
134F30
  8
OBJECT
 10
8069.5707075519604
 20
-1291.5
 30
0.0
 11
8069.5707075519604
 21
-1301.5
 31
0.0
1001
ACDBBLOCKREPETAG
1070
     1
1071
       64
1005
134F30
  0
LINE
  5
134F31
  8
OBJECT
 10
8075.0555355519591
 20
-1291.5
 30
0.0
 11
8075.0555355519591
 21
-1301.5
 31
0.0
1001
ACDBBLOCKREPETAG
1070
     1
1071
       65
1005
134F31
  0
LINE
  5
134F32
  8
OBJECT
 10
8086.0251905519572
 20
-1291.5
 30
0.0
 11
8086.0251905519572
 21
-1301.5
 31
0.0
1001
ACDBBLOCKREPETAG
1070
     1
1071
       66
1005
134F32
  0
LINE
  5
134F33
  8
OBJECT
 10
8091.5100175519592
 20
-1291.5
 30
0.0
 11
8091.5100175519592
 21
-1301.5
 31
0.0
1001
ACDBBLOCKREPETAG
1070
     1
1071
       67
1005
134F33
  0
LINE
  5
134F34
  8
OBJECT
 10
8091.5100175519592
 20
-1301.5
 30
0.0
 11
8069.5707075519604
 21
-1301.5
 31
0.0
1001
ACDBBLOCKREPETAG
1070
     1
1071
       68
1005
134F34
  0
LINE
  5
134F35
  8
OBJECT
 10
8088.5403625519584
 20
-1241.0
 30
0.0
 11
8088.5403625519584
 21
-1246.999999999998
 31
0.0
1001
ACDBBLOCKREPETAG
1070
     1
1071
       69
1005
134F35
  0
LINE
  5
134F36
  8
OBJECT
 10
8080.5
 20
-1241.0
 30
0.0
 11
8088.5403625519584
 21
-1241.0
 31
0.0
1001
ACDBBLOCKREPETAG
1070
     1
1071
       70
1005
134F36
  0
LINE
  5
134F37
  8
OBJECT
 10
5930.0
 20
-1149.9999999999991
 30
0.0
 11
5930.0
 21
-1264.9999999999991
 31
0.0
1001
ACDBBLOCKREPETAG
1070
     1
1071
        0
1005
134F37
  0
LINE
  5
134F38
  8
OBJECT
 10
5930.0
 20
-1149.9999999999991
 30
0.0
 11
6070.0
 21
-1149.9999999999991
 31
0.0
1001
ACDBBLOCKREPETAG
1070
     1
1071
        1
1005
134F38
  0
LINE
  5
134F39
  8
OBJECT
 10
6092.5000000000009
 20
-989.99999999999955
 30
0.0
 11
5907.5
 21
-989.99999999999955
 31
0.0
1001
ACDBBLOCKREPETAG
1070
     1
1071
        2
1005
134F39
  0
LINE
  5
134F3A
  8
OBJECT
 10
6092.5000000000009
 20
-989.99999999999955
 30
0.0
 11
6092.5000000000009
 21
-914.99999999999955
 31
0.0
1001
ACDBBLOCKREPETAG
1070
     1
1071
        3
1005
134F3A
  0
LINE
  5
134F3B
  8
OBJECT
 10
5907.5
 20
-989.99999999999955
 30
0.0
 11
5907.5
 21
-914.99999999999955
 31
0.0
1001
ACDBBLOCKREPETAG
1070
     1
1071
        4
1005
134F3B
  0
LINE
  5
134F3C
  8
OBJECT
 10
5930.0
 20
-1264.9999999999991
 30
0.0
 11
6070.0
 21
-1264.9999999999991
 31
0.0
1001
ACDBBLOCKREPETAG
1070
     1
1071
        5
1005
134F3C
  0
LINE
  5
134F3D
  8
OBJECT
 10
6070.0
 20
-1149.9999999999991
 30
0.0
 11
6070.0
 21
-1264.9999999999991
 31
0.0
1001
ACDBBLOCKREPETAG
1070
     1
1071
        6
1005
134F3D
  0
LINE
  5
134F3E
  8
OBJECT
 10
5907.5
 20
-989.99999999999955
 30
0.0
 11
5930.0
 21
-1149.9999999999991
 31
0.0
1001
ACDBBLOCKREPETAG
1070
     1
1071
        7
1005
134F3E
  0
LINE
  5
134F3F
  8
OBJECT
 10
6070.0
 20
-1149.9999999999991
 30
0.0
 11
6092.5000000000009
 21
-989.99999999999955
 31
0.0
1001
ACDBBLOCKREPETAG
1070
     1
1071
        8
1005
134F3F
  0
LINE
  5
134F40
  8
HIDDEN
 10
5937.5
 20
-1149.9999999999991
 30
0.0
 11
5937.5
 21
-1264.9999999999991
 31
0.0
1001
ACDBBLOCKREPETAG
1070
     1
1071
        9
1005
134F40
  0
LINE
  5
134F41
  8
HIDDEN
 10
6062.5
 20
-1149.9999999999991
 30
0.0
 11
6062.5
 21
-1264.9999999999991
 31
0.0
1001
ACDBBLOCKREPETAG
1070
     1
1071
       10
1005
134F41
  0
LINE
  5
134F42
  8
CENTER
 10
6000.0
 20
-914.99999999999955
 30
0.0
 11
6000.0
 21
-1279.9999999999991
 31
0.0
1001
ACDBBLOCKREPETAG
1070
     1
1071
       11
1005
134F42
  0
LINE
  5
134F43
  8
OBJECT
 10
4092.5
 20
-989.99999999999955
 30
0.0
 11
4092.5
 21
-914.99999999999955
 31
0.0
1001
ACDBBLOCKREPETAG
1070
     1
1071
       12
1005
134F43
  0
LINE
  5
134F44
  8
OBJECT
 10
4093.5403615519499
 20
-1264.9999999999991
 30
0.0
 11
3906.4596374480461
 21
-1264.9999999999991
 31
0.0
1001
ACDBBLOCKREPETAG
1070
     1
1071
       13
1005
134F44
  0
LINE
  5
134F45
  8
OBJECT
 10
3906.4596374480502
 20
-1291.5
 30
0.0
 11
4093.5403625519511
 21
-1291.5
 31
0.0
1001
ACDBBLOCKREPETAG
1070
     1
1071
       14
1005
134F45
  0
LINE
  5
134F46
  8
OBJECT
 10
4093.5403625519511
 20
-1275.5000000000009
 30
0.0
 11
3906.4596374480502
 21
-1275.5000000000009
 31
0.0
1001
ACDBBLOCKREPETAG
1070
     1
1071
       15
1005
134F46
  0
LINE
  5
134F47
  8
OBJECT
 10
4005.999999999995
 20
-1306.999999999997
 30
0.0
 11
4005.999999999995
 21
-1301.5
 31
0.0
1001
ACDBBLOCKREPETAG
1070
     1
1071
       16
1005
134F47
  0
LINE
  5
134F48
  8
OBJECT
 10
3993.9999999999959
 20
-1306.999999999997
 30
0.0
 11
3993.9999999999959
 21
-1301.5
 31
0.0
1001
ACDBBLOCKREPETAG
1070
     1
1071
       17
1005
134F48
  0
LINE
  5
134F49
  8
OBJECT
 10
3993.9999999999959
 20
-1306.999999999997
 30
0.0
 11
4005.999999999995
 21
-1306.999999999997
 31
0.0
1001
ACDBBLOCKREPETAG
1070
     1
1071
       18
1005
134F49
  0
LINE
  5
134F4A
  8
OBJECT
 10
3993.9999999999959
 20
-1275.5000000000009
 30
0.0
 11
3993.9999999999959
 21
-1264.9999999999991
 31
0.0
1001
ACDBBLOCKREPETAG
1070
     1
1071
       19
1005
134F4A
  0
LINE
  5
134F4B
  8
OBJECT
 10
4005.999999999995
 20
-1275.5000000000009
 30
0.0
 11
4005.999999999995
 21
-1264.9999999999991
 31
0.0
1001
ACDBBLOCKREPETAG
1070
     1
1071
       20
1005
134F4B
  0
LINE
  5
134F4C
  8
OBJECT
 10
4016.4999999999959
 20
-1244.499999999997
 30
0.0
 11
4016.4999999999959
 21
-1246.999999999998
 31
0.0
1001
ACDBBLOCKREPETAG
1070
     1
1071
       21
1005
134F4C
  0
LINE
  5
134F4D
  8
OBJECT
 10
3989.9999999999968
 20
-1241.0
 30
0.0
 11
3989.9999999999968
 21
-1246.999999999998
 31
0.0
1001
ACDBBLOCKREPETAG
1070
     1
1071
       22
1005
134F4D
  0
LINE
  5
134F4E
  8
OBJECT
 10
4008.4999999999968
 20
-1241.0
 30
0.0
 11
3989.9999999999968
 21
-1241.0
 31
0.0
1001
ACDBBLOCKREPETAG
1070
     1
1071
       23
1005
134F4E
  0
LINE
  5
134F4F
  8
OBJECT
 10
4093.5403615519499
 20
-1246.999999999998
 30
0.0
 11
3906.4596374480461
 21
-1246.999999999998
 31
0.0
1001
ACDBBLOCKREPETAG
1070
     1
1071
       24
1005
134F4F
  0
LINE
  5
134F50
  8
OBJECT
 10
4016.4999999999959
 20
-1244.499999999997
 30
0.0
 11
4008.4999999999968
 21
-1241.0
 31
0.0
1001
ACDBBLOCKREPETAG
1070
     1
1071
       25
1005
134F50
  0
LINE
  5
134F51
  8
HIDDEN
 10
3930.0
 20
-1224.9999999999991
 30
0.0
 11
4070.0
 21
-1224.9999999999991
 31
0.0
1001
ACDBBLOCKREPETAG
1070
     1
1071
       26
1005
134F51
  0
LINE
  5
134F52
  8
CENTER
 10
4000.0
 20
-914.99999999999955
 30
0.0
 11
4000.0
 21
-1321.999999999998
 31
0.0
1001
ACDBBLOCKREPETAG
1070
     1
1071
       27
1005
134F52
  0
LINE
  5
134F53
  8
OBJECT
 10
3918.5
 20
-1264.9999999999991
 30
0.0
 11
3918.5
 21
-1275.5000000000009
 31
0.0
1001
ACDBBLOCKREPETAG
1070
     1
1071
       28
1005
134F53
  0
LINE
  5
134F54
  8
OBJECT
 10
4081.5
 20
-1264.9999999999991
 30
0.0
 11
4081.5
 21
-1275.5000000000009
 31
0.0
1001
ACDBBLOCKREPETAG
1070
     1
1071
       29
1005
134F54
  0
LINE
  5
134F55
  8
OBJECT
 10
3930.0
 20
-1149.9999999999991
 30
0.0
 11
3930.0
 21
-1213.9999999999991
 31
0.0
1001
ACDBBLOCKREPETAG
1070
     1
1071
       30
1005
134F55
  0
LINE
  5
134F56
  8
OBJECT
 10
4070.0
 20
-1149.9999999999991
 30
0.0
 11
4070.0
 21
-1213.9999999999991
 31
0.0
1001
ACDBBLOCKREPETAG
1070
     1
1071
       31
1005
134F56
  0
LINE
  5
134F57
  8
OBJECT
 10
3930.0
 20
-1149.9999999999991
 30
0.0
 11
4070.0
 21
-1149.9999999999991
 31
0.0
1001
ACDBBLOCKREPETAG
1070
     1
1071
       32
1005
134F57
  0
LINE
  5
134F58
  8
OBJECT
 10
3919.4999999999968
 20
-1213.9999999999991
 30
0.0
 11
4080.5000000000032
 21
-1213.9999999999991
 31
0.0
1001
ACDBBLOCKREPETAG
1070
     1
1071
       33
1005
134F58
  0
LINE
  5
134F59
  8
OBJECT
 10
3907.5
 20
-989.99999999999955
 30
0.0
 11
3907.5
 21
-914.99999999999955
 31
0.0
1001
ACDBBLOCKREPETAG
1070
     1
1071
       34
1005
134F59
  0
LINE
  5
134F5A
  8
OBJECT
 10
4092.5
 20
-989.99999999999955
 30
0.0
 11
3907.5
 21
-989.99999999999955
 31
0.0
1001
ACDBBLOCKREPETAG
1070
     1
1071
       35
1005
134F5A
  0
LINE
  5
134F5B
  8
OBJECT
 10
3907.5
 20
-989.99999999999955
 30
0.0
 11
3930.0
 21
-1149.9999999999991
 31
0.0
1001
ACDBBLOCKREPETAG
1070
     1
1071
       36
1005
134F5B
  0
LINE
  5
134F5C
  8
OBJECT
 10
4070.0
 20
-1149.9999999999991
 30
0.0
 11
4092.5
 21
-989.99999999999955
 31
0.0
1001
ACDBBLOCKREPETAG
1070
     1
1071
       37
1005
134F5C
  0
LINE
  5
134F5D
  8
OBJECT
 10
4080.4999999999982
 20
-1213.9999999999991
 30
0.0
 11
4080.4999999999982
 21
-1246.999999999998
 31
0.0
1001
ACDBBLOCKREPETAG
1070
     1
1071
       38
1005
134F5D
  0
LINE
  5
134F5E
  8
OBJECT
 10
3919.5
 20
-1213.9999999999991
 30
0.0
 11
3919.5
 21
-1246.999999999998
 31
0.0
1001
ACDBBLOCKREPETAG
1070
     1
1071
       39
1005
134F5E
  0
LINE
  5
134F5F
  8
OBJECT
 10
4010.969654999994
 20
-1291.5
 30
0.0
 11
4010.969654999994
 21
-1301.5
 31
0.0
1001
ACDBBLOCKREPETAG
1070
     1
1071
       40
1005
134F5F
  0
LINE
  5
134F60
  8
OBJECT
 10
4005.484826999992
 20
-1291.5
 30
0.0
 11
4005.484826999992
 21
-1301.5
 31
0.0
1001
ACDBBLOCKREPETAG
1070
     1
1071
       41
1005
134F60
  0
LINE
  5
134F61
  8
OBJECT
 10
3994.5151719999958
 20
-1291.5
 30
0.0
 11
3994.5151719999958
 21
-1301.5
 31
0.0
1001
ACDBBLOCKREPETAG
1070
     1
1071
       42
1005
134F61
  0
LINE
  5
134F62
  8
OBJECT
 10
3989.030344999996
 20
-1291.5
 30
0.0
 11
3989.030344999996
 21
-1301.5
 31
0.0
1001
ACDBBLOCKREPETAG
1070
     1
1071
       43
1005
134F62
  0
LINE
  5
134F63
  8
OBJECT
 10
3989.030344999996
 20
-1301.5
 30
0.0
 11
4010.969654999994
 21
-1301.5
 31
0.0
1001
ACDBBLOCKREPETAG
1070
     1
1071
       44
1005
134F63
  0
LINE
  5
134F64
  8
OBJECT
 10
3906.4596374480461
 20
-1246.999999999998
 30
0.0
 11
3906.4596374480461
 21
-1264.9999999999991
 31
0.0
1001
ACDBBLOCKREPETAG
1070
     1
1071
       45
1005
134F64
  0
LINE
  5
134F65
  8
OBJECT
 10
3906.4596374480502
 20
-1275.5000000000009
 30
0.0
 11
3906.4596374480502
 21
-1291.5
 31
0.0
1001
ACDBBLOCKREPETAG
1070
     1
1071
       46
1005
134F65
  0
LINE
  5
134F66
  8
OBJECT
 10
4093.5403625519539
 20
-1246.999999999998
 30
0.0
 11
4093.5403625519539
 21
-1264.9999999999991
 31
0.0
1001
ACDBBLOCKREPETAG
1070
     1
1071
       47
1005
134F66
  0
LINE
  5
134F67
  8
OBJECT
 10
4093.5403625519511
 20
-1275.5000000000009
 30
0.0
 11
4093.5403625519511
 21
-1291.5
 31
0.0
1001
ACDBBLOCKREPETAG
1070
     1
1071
       48
1005
134F67
  0
LINE
  5
134F68
  8
OBJECT
 10
3925.4596374480429
 20
-1306.999999999997
 30
0.0
 11
3925.4596374480429
 21
-1301.5
 31
0.0
1001
ACDBBLOCKREPETAG
1070
     1
1071
       49
1005
134F68
  0
LINE
  5
134F69
  8
OBJECT
 10
3913.459637448042
 20
-1306.999999999997
 30
0.0
 11
3913.459637448042
 21
-1301.5
 31
0.0
1001
ACDBBLOCKREPETAG
1070
     1
1071
       50
1005
134F69
  0
LINE
  5
134F6A
  8
OBJECT
 10
3913.459637448042
 20
-1306.999999999997
 30
0.0
 11
3925.4596374480429
 21
-1306.999999999997
 31
0.0
1001
ACDBBLOCKREPETAG
1070
     1
1071
       51
1005
134F6A
  0
LINE
  5
134F6B
  8
OBJECT
 10
3913.459637448042
 20
-1275.5000000000009
 30
0.0
 11
3913.459637448042
 21
-1264.9999999999991
 31
0.0
1001
ACDBBLOCKREPETAG
1070
     1
1071
       52
1005
134F6B
  0
LINE
  5
134F6C
  8
OBJECT
 10
3930.4292924480401
 20
-1291.5
 30
0.0
 11
3930.4292924480401
 21
-1301.5
 31
0.0
1001
ACDBBLOCKREPETAG
1070
     1
1071
       53
1005
134F6C
  0
LINE
  5
134F6D
  8
OBJECT
 10
3924.9444644480391
 20
-1291.5
 30
0.0
 11
3924.9444644480391
 21
-1301.5
 31
0.0
1001
ACDBBLOCKREPETAG
1070
     1
1071
       54
1005
134F6D
  0
LINE
  5
134F6E
  8
OBJECT
 10
3913.9748094480419
 20
-1291.5
 30
0.0
 11
3913.9748094480419
 21
-1301.5
 31
0.0
1001
ACDBBLOCKREPETAG
1070
     1
1071
       55
1005
134F6E
  0
LINE
  5
134F6F
  8
OBJECT
 10
3908.4899824480422
 20
-1291.5
 30
0.0
 11
3908.4899824480422
 21
-1301.5
 31
0.0
1001
ACDBBLOCKREPETAG
1070
     1
1071
       56
1005
134F6F
  0
LINE
  5
134F70
  8
OBJECT
 10
3908.4899824480422
 20
-1301.5
 30
0.0
 11
3930.4292924480401
 21
-1301.5
 31
0.0
1001
ACDBBLOCKREPETAG
1070
     1
1071
       57
1005
134F70
  0
LINE
  5
134F71
  8
OBJECT
 10
3911.4596374480429
 20
-1241.0
 30
0.0
 11
3911.4596374480429
 21
-1246.999999999998
 31
0.0
1001
ACDBBLOCKREPETAG
1070
     1
1071
       58
1005
134F71
  0
LINE
  5
134F72
  8
OBJECT
 10
3919.5
 20
-1241.0
 30
0.0
 11
3911.4596374480429
 21
-1241.0
 31
0.0
1001
ACDBBLOCKREPETAG
1070
     1
1071
       59
1005
134F72
  0
LINE
  5
134F73
  8
OBJECT
 10
4074.540362551958
 20
-1306.999999999997
 30
0.0
 11
4074.540362551958
 21
-1301.5
 31
0.0
1001
ACDBBLOCKREPETAG
1070
     1
1071
       60
1005
134F73
  0
LINE
  5
134F74
  8
OBJECT
 10
4086.5403625519562
 20
-1306.999999999997
 30
0.0
 11
4086.5403625519562
 21
-1301.5
 31
0.0
1001
ACDBBLOCKREPETAG
1070
     1
1071
       61
1005
134F74
  0
LINE
  5
134F75
  8
OBJECT
 10
4086.5403625519562
 20
-1306.999999999997
 30
0.0
 11
4074.540362551958
 21
-1306.999999999997
 31
0.0
1001
ACDBBLOCKREPETAG
1070
     1
1071
       62
1005
134F75
  0
LINE
  5
134F76
  8
OBJECT
 10
4086.5403625519562
 20
-1275.5000000000009
 30
0.0
 11
4086.5403625519562
 21
-1264.9999999999991
 31
0.0
1001
ACDBBLOCKREPETAG
1070
     1
1071
       63
1005
134F76
  0
LINE
  5
134F77
  8
OBJECT
 10
4069.570707551959
 20
-1291.5
 30
0.0
 11
4069.570707551959
 21
-1301.5
 31
0.0
1001
ACDBBLOCKREPETAG
1070
     1
1071
       64
1005
134F77
  0
LINE
  5
134F78
  8
OBJECT
 10
4075.05553555196
 20
-1291.5
 30
0.0
 11
4075.05553555196
 21
-1301.5
 31
0.0
1001
ACDBBLOCKREPETAG
1070
     1
1071
       65
1005
134F78
  0
LINE
  5
134F79
  8
OBJECT
 10
4086.0251905519581
 20
-1291.5
 30
0.0
 11
4086.0251905519581
 21
-1301.5
 31
0.0
1001
ACDBBLOCKREPETAG
1070
     1
1071
       66
1005
134F79
  0
LINE
  5
134F7A
  8
OBJECT
 10
4091.5100175519569
 20
-1291.5
 30
0.0
 11
4091.5100175519569
 21
-1301.5
 31
0.0
1001
ACDBBLOCKREPETAG
1070
     1
1071
       67
1005
134F7A
  0
LINE
  5
134F7B
  8
OBJECT
 10
4091.5100175519569
 20
-1301.5
 30
0.0
 11
4069.570707551959
 21
-1301.5
 31
0.0
1001
ACDBBLOCKREPETAG
1070
     1
1071
       68
1005
134F7B
  0
LINE
  5
134F7C
  8
OBJECT
 10
4088.540362551958
 20
-1241.0
 30
0.0
 11
4088.540362551958
 21
-1246.999999999998
 31
0.0
1001
ACDBBLOCKREPETAG
1070
     1
1071
       69
1005
134F7C
  0
LINE
  5
134F7D
  8
OBJECT
 10
4080.4999999999982
 20
-1241.0
 30
0.0
 11
4088.540362551958
 21
-1241.0
 31
0.0
1001
ACDBBLOCKREPETAG
1070
     1
1071
       70
1005
134F7D
  0
LINE
  5
134F7E
  8
OBJECT
 10
1930.0
 20
-1149.9999999999991
 30
0.0
 11
1930.0
 21
-1264.9999999999991
 31
0.0
1001
ACDBBLOCKREPETAG
1070
     1
1071
        0
1005
134F7E
  0
LINE
  5
134F7F
  8
OBJECT
 10
1930.0
 20
-1149.9999999999991
 30
0.0
 11
2070.0
 21
-1149.9999999999991
 31
0.0
1001
ACDBBLOCKREPETAG
1070
     1
1071
        1
1005
134F7F
  0
LINE
  5
134F80
  8
OBJECT
 10
2092.5
 20
-989.99999999999955
 30
0.0
 11
1907.5
 21
-989.99999999999955
 31
0.0
1001
ACDBBLOCKREPETAG
1070
     1
1071
        2
1005
134F80
  0
LINE
  5
134F81
  8
OBJECT
 10
2092.5
 20
-989.99999999999955
 30
0.0
 11
2092.5
 21
-914.99999999999955
 31
0.0
1001
ACDBBLOCKREPETAG
1070
     1
1071
        3
1005
134F81
  0
LINE
  5
134F82
  8
OBJECT
 10
1907.5
 20
-989.99999999999955
 30
0.0
 11
1907.5
 21
-914.99999999999955
 31
0.0
1001
ACDBBLOCKREPETAG
1070
     1
1071
        4
1005
134F82
  0
LINE
  5
134F83
  8
OBJECT
 10
1930.0
 20
-1264.9999999999991
 30
0.0
 11
2070.0
 21
-1264.9999999999991
 31
0.0
1001
ACDBBLOCKREPETAG
1070
     1
1071
        5
1005
134F83
  0
LINE
  5
134F84
  8
OBJECT
 10
2070.0
 20
-1149.9999999999991
 30
0.0
 11
2070.0
 21
-1264.9999999999991
 31
0.0
1001
ACDBBLOCKREPETAG
1070
     1
1071
        6
1005
134F84
  0
LINE
  5
134F85
  8
OBJECT
 10
1907.5
 20
-989.99999999999955
 30
0.0
 11
1930.0
 21
-1149.9999999999991
 31
0.0
1001
ACDBBLOCKREPETAG
1070
     1
1071
        7
1005
134F85
  0
LINE
  5
134F86
  8
OBJECT
 10
2070.0
 20
-1149.9999999999991
 30
0.0
 11
2092.5
 21
-989.99999999999955
 31
0.0
1001
ACDBBLOCKREPETAG
1070
     1
1071
        8
1005
134F86
  0
LINE
  5
134F87
  8
HIDDEN
 10
1937.5
 20
-1149.9999999999991
 30
0.0
 11
1937.5
 21
-1264.9999999999991
 31
0.0
1001
ACDBBLOCKREPETAG
1070
     1
1071
        9
1005
134F87
  0
LINE
  5
134F88
  8
HIDDEN
 10
2062.5
 20
-1149.9999999999991
 30
0.0
 11
2062.5
 21
-1264.9999999999991
 31
0.0
1001
ACDBBLOCKREPETAG
1070
     1
1071
       10
1005
134F88
  0
LINE
  5
134F89
  8
CENTER
 10
2000.0
 20
-914.99999999999955
 30
0.0
 11
2000.0
 21
-1279.9999999999991
 31
0.0
1001
ACDBBLOCKREPETAG
1070
     1
1071
       11
1005
134F89
  0
LINE
  5
134F8A
  8
OBJECT
 10
1866.0
 20
-582.99999999999761
 30
0.0
 11
1866.0
 21
-580.99999999999761
 31
0.0
1001
ACDBBLOCKREPETAG
1070
     1
1071
      157
1005
134F8A
  0
ARC
  5
134F8B
  8
OBJECT
 10
1824.8134425017449
 20
-600.99999999999761
 30
0.0
 40
59.0
 50
270.0
 51
310.7972311667607
1001
ACDBBLOCKREPETAG
1070
     1
1071
      158
1005
134F8B
  0
LINE
  5
134F8C
  8
OBJECT
 10
1756.0
 20
-589.49999999999761
 30
0.0
 11
1891.0
 21
-589.49999999999761
 31
0.0
1001
ACDBBLOCKREPETAG
1070
     1
1071
      159
1005
134F8C
  0
LINE
  5
134F8D
  8
OBJECT
 10
1891.0
 20
-602.49999999999761
 30
0.0
 11
1756.0
 21
-602.49999999999761
 31
0.0
1001
ACDBBLOCKREPETAG
1070
     1
1071
      160
1005
134F8D
  0
LINE
  5
134F8E
  8
OBJECT
 10
1891.0
 20
-589.49999999999761
 30
0.0
 11
1891.0
 21
-602.49999999999761
 31
0.0
1001
ACDBBLOCKREPETAG
1070
     1
1071
      161
1005
134F8E
  0
LINE
  5
134F8F
  8
OBJECT
 10
1884.0
 20
-611.49999999999761
 30
0.0
 11
1884.0
 21
-602.49999999999761
 31
0.0
1001
ACDBBLOCKREPETAG
1070
     1
1071
      162
1005
134F8F
  0
LINE
  5
134F90
  8
OBJECT
 10
1866.0
 20
-614.99999999999761
 30
0.0
 11
1866.0
 21
-602.49999999999761
 31
0.0
1001
ACDBBLOCKREPETAG
1070
     1
1071
      163
1005
134F90
  0
LINE
  5
134F91
  8
OBJECT
 10
1776.0
 20
-611.49999999999761
 30
0.0
 11
1776.0
 21
-602.49999999999761
 31
0.0
1001
ACDBBLOCKREPETAG
1070
     1
1071
      164
1005
134F91
  0
LINE
  5
134F92
  8
OBJECT
 10
1756.0
 20
-589.49999999999761
 30
0.0
 11
1756.0
 21
-602.49999999999761
 31
0.0
1001
ACDBBLOCKREPETAG
1070
     1
1071
      165
1005
134F92
  0
LINE
  5
134F93
  8
OBJECT
 10
1858.0
 20
-614.99999999999761
 30
0.0
 11
1858.0
 21
-602.49999999999761
 31
0.0
1001
ACDBBLOCKREPETAG
1070
     1
1071
      166
1005
134F93
  0
LINE
  5
134F94
  8
OBJECT
 10
1866.0
 20
-611.49999999999761
 30
0.0
 11
1885.0
 21
-611.49999999999761
 31
0.0
1001
ACDBBLOCKREPETAG
1070
     1
1071
      167
1005
134F94
  0
LINE
  5
134F95
  8
OBJECT
 10
1885.0
 20
-614.99999999999761
 30
0.0
 11
1885.0
 21
-611.49999999999761
 31
0.0
1001
ACDBBLOCKREPETAG
1070
     1
1071
      168
1005
134F95
  0
LINE
  5
134F96
  8
OBJECT
 10
1858.0
 20
-611.49999999999761
 30
0.0
 11
1775.0
 21
-611.49999999999761
 31
0.0
1001
ACDBBLOCKREPETAG
1070
     1
1071
      169
1005
134F96
  0
LINE
  5
134F97
  8
OBJECT
 10
1775.0
 20
-611.49999999999761
 30
0.0
 11
1775.0
 21
-614.99999999999761
 31
0.0
1001
ACDBBLOCKREPETAG
1070
     1
1071
      170
1005
134F97
  0
LINE
  5
134F98
  8
OBJECT
 10
1869.505553499464
 20
-589.49999999999761
 30
0.0
 11
1869.505553499464
 21
-582.99999999999761
 31
0.0
1001
ACDBBLOCKREPETAG
1070
     1
1071
      171
1005
134F98
  0
LINE
  5
134F99
  8
OBJECT
 10
1871.0
 20
-627.99999999999761
 30
0.0
 11
1871.0
 21
-632.99999999999761
 31
0.0
1001
ACDBBLOCKREPETAG
1070
     1
1071
      172
1005
134F99
  0
LINE
  5
134F9A
  8
OBJECT
 10
1871.0
 20
-632.99999999999761
 30
0.0
 11
1853.0
 21
-632.99999999999761
 31
0.0
1001
ACDBBLOCKREPETAG
1070
     1
1071
      173
1005
134F9A
  0
LINE
  5
134F9B
  8
OBJECT
 10
1853.0
 20
-627.99999999999761
 30
0.0
 11
1853.0
 21
-632.99999999999761
 31
0.0
1001
ACDBBLOCKREPETAG
1070
     1
1071
      174
1005
134F9B
  0
LINE
  5
134F9C
  8
OBJECT
 10
1890.9999999999959
 20
-614.99999999999761
 30
0.0
 11
1756.0
 21
-614.99999999999761
 31
0.0
1001
ACDBBLOCKREPETAG
1070
     1
1071
      175
1005
134F9C
  0
LINE
  5
134F9D
  8
OBJECT
 10
1756.0
 20
-614.99999999999761
 30
0.0
 11
1756.0
 21
-627.99999999999761
 31
0.0
1001
ACDBBLOCKREPETAG
1070
     1
1071
      176
1005
134F9D
  0
LINE
  5
134F9E
  8
OBJECT
 10
1863.363099755235
 20
-645.66457125774514
 30
0.0
 11
1883.8297019999991
 21
-627.99999999999761
 31
0.0
1001
ACDBBLOCKREPETAG
1070
     1
1071
      177
1005
134F9E
  0
LINE
  5
134F9F
  8
OBJECT
 10
1778.9999999999959
 20
-635.65708264965485
 30
0.0
 11
1778.9999999999959
 21
-659.99999999999761
 31
0.0
1001
ACDBBLOCKREPETAG
1070
     1
1071
      178
1005
134F9F
  0
LINE
  5
134FA0
  8
OBJECT
 10
1824.8134425017449
 20
-659.99999999999761
 30
0.0
 11
1778.9999999999959
 21
-659.99999999999761
 31
0.0
1001
ACDBBLOCKREPETAG
1070
     1
1071
      179
1005
134FA0
  0
ARC
  5
134FA1
  8
OBJECT
 10
1869.5
 20
-661.49999999999761
 30
0.0
 40
84.0
 50
178.97680669632871
 51
262.94651512902959
1001
ACDBBLOCKREPETAG
1070
     1
1071
      180
1005
134FA1
  0
LINE
  5
134FA2
  8
OBJECT
 10
1894.0
 20
-749.17200317020843
 30
0.0
 11
1859.1851511871159
 21
-744.86428428270153
 31
0.0
1001
ACDBBLOCKREPETAG
1070
     1
1071
      181
1005
134FA2
  0
LINE
  5
134FA3
  8
OBJECT
 10
1893.9999999999959
 20
-749.99999999999852
 30
0.0
 11
1893.9999999999959
 21
-628.99999999999761
 31
0.0
1001
ACDBBLOCKREPETAG
1070
     1
1071
      182
1005
134FA3
  0
ARC
  5
134FA4
  8
OBJECT
 10
1896.9999999999959
 20
-749.99999999999852
 30
0.0
 40
3.0
 50
180.0
 51
270.0
1001
ACDBBLOCKREPETAG
1070
     1
1071
      183
1005
134FA4
  0
LINE
  5
134FA5
  8
OBJECT
 10
1883.8297019999991
 20
-627.99999999999761
 30
0.0
 11
1756.0
 21
-627.99999999999761
 31
0.0
1001
ACDBBLOCKREPETAG
1070
     1
1071
      184
1005
134FA5
  0
LINE
  5
134FA6
  8
OBJECT
 10
1874.9460861482769
 20
-635.65708264965485
 30
0.0
 11
1778.9999999999959
 21
-635.65708264965485
 31
0.0
1001
ACDBBLOCKREPETAG
1070
     1
1071
      185
1005
134FA6
  0
LINE
  5
134FA7
  8
OBJECT
 10
1775.0
 20
-630.89006764214673
 30
0.0
 11
1778.9999999999959
 21
-635.65708264965485
 31
0.0
1001
ACDBBLOCKREPETAG
1070
     1
1071
      186
1005
134FA7
  0
LINE
  5
134FA8
  8
OBJECT
 10
1890.9999999999959
 20
-614.99999999999761
 30
0.0
 11
1890.999999999993
 21
-628.99999999999761
 31
0.0
1001
ACDBBLOCKREPETAG
1070
     1
1071
      187
1005
134FA8
  0
LINE
  5
134FA9
  8
HIDDEN
 10
1874.5
 20
-654.9999999999975
 30
0.0
 11
1785.5
 21
-654.9999999999975
 31
0.0
1001
ACDBBLOCKREPETAG
1070
     1
1071
      188
1005
134FA9
  0
LINE
  5
134FAA
  8
OBJECT
 10
1866.0
 20
-580.99999999999761
 30
0.0
 11
1858.0
 21
-580.99999999999761
 31
0.0
1001
ACDBBLOCKREPETAG
1070
     1
1071
      189
1005
134FAA
  0
LINE
  5
134FAB
  8
OBJECT
 10
1858.0
 20
-582.99999999999761
 30
0.0
 11
1858.0
 21
-580.99999999999761
 31
0.0
1001
ACDBBLOCKREPETAG
1070
     1
1071
      190
1005
134FAB
  0
LINE
  5
134FAC
  8
OBJECT
 10
1869.505553499464
 20
-582.99999999999761
 30
0.0
 11
1854.4944465005351
 21
-582.99999999999761
 31
0.0
1001
ACDBBLOCKREPETAG
1070
     1
1071
      191
1005
134FAC
  0
LINE
  5
134FAD
  8
CENTER
 10
1830.0
 20
-674.77158855533025
 30
0.0
 11
1830.0
 21
-574.49999999999761
 31
0.0
1001
ACDBBLOCKREPETAG
1070
     1
1071
      193
1005
134FAD
  0
LINE
  5
134FAE
  8
OBJECT
 10
1900.0
 20
-752.99999999999773
 30
0.0
 11
1896.9999999999959
 21
-752.99999999999852
 31
0.0
1001
ACDBBLOCKREPETAG
1070
     1
1071
      194
1005
134FAE
  0
LINE
  5
134FAF
  8
OBJECT
 10
1900.0
 20
-628.99999999999761
 30
0.0
 11
1890.999999999993
 21
-628.99999999999761
 31
0.0
1001
ACDBBLOCKREPETAG
1070
     1
1071
      195
1005
134FAF
  0
LINE
  5
134FB0
  8
OBJECT
 10
1865.752803021604
 20
-589.49998110540889
 30
0.0
 11
1865.752803021604
 21
-582.99998110540901
 31
0.0
1001
ACDBBLOCKREPETAG
1070
     1
1071
      196
1005
134FB0
  0
LINE
  5
134FB1
  8
OBJECT
 10
1854.4944465005351
 20
-589.49999999999761
 30
0.0
 11
1854.4944465005351
 21
-582.99999999999761
 31
0.0
1001
ACDBBLOCKREPETAG
1070
     1
1071
      197
1005
134FB1
  0
LINE
  5
134FB2
  8
OBJECT
 10
1858.247196978394
 20
-589.49998110540889
 30
0.0
 11
1858.247196978394
 21
-582.99998110540901
 31
0.0
1001
ACDBBLOCKREPETAG
1070
     1
1071
      198
1005
134FB2
  0
LINE
  5
134FB3
  8
OBJECT
 10
1770.0
 20
-582.99999999999761
 30
0.0
 11
1770.0
 21
-580.99999999999761
 31
0.0
1001
ACDBBLOCKREPETAG
1070
     1
1071
      199
1005
134FB3
  0
LINE
  5
134FB4
  8
OBJECT
 10
1770.0
 20
-614.99999999999761
 30
0.0
 11
1770.0
 21
-602.49999999999761
 31
0.0
1001
ACDBBLOCKREPETAG
1070
     1
1071
      200
1005
134FB4
  0
LINE
  5
134FB5
  8
OBJECT
 10
1762.0
 20
-614.99999999999761
 30
0.0
 11
1762.0
 21
-602.49999999999761
 31
0.0
1001
ACDBBLOCKREPETAG
1070
     1
1071
      201
1005
134FB5
  0
LINE
  5
134FB6
  8
OBJECT
 10
1773.505553499464
 20
-589.49999999999761
 30
0.0
 11
1773.505553499464
 21
-582.99999999999761
 31
0.0
1001
ACDBBLOCKREPETAG
1070
     1
1071
      202
1005
134FB6
  0
LINE
  5
134FB7
  8
OBJECT
 10
1775.0
 20
-627.99999999999761
 30
0.0
 11
1775.0
 21
-632.99999999999761
 31
0.0
1001
ACDBBLOCKREPETAG
1070
     1
1071
      203
1005
134FB7
  0
LINE
  5
134FB8
  8
OBJECT
 10
1775.0
 20
-632.99999999999761
 30
0.0
 11
1757.0
 21
-632.99999999999761
 31
0.0
1001
ACDBBLOCKREPETAG
1070
     1
1071
      204
1005
134FB8
  0
LINE
  5
134FB9
  8
OBJECT
 10
1757.0
 20
-627.99999999999761
 30
0.0
 11
1757.0
 21
-632.99999999999761
 31
0.0
1001
ACDBBLOCKREPETAG
1070
     1
1071
      205
1005
134FB9
  0
LINE
  5
134FBA
  8
OBJECT
 10
1770.0
 20
-580.99999999999761
 30
0.0
 11
1762.0
 21
-580.99999999999761
 31
0.0
1001
ACDBBLOCKREPETAG
1070
     1
1071
      206
1005
134FBA
  0
LINE
  5
134FBB
  8
OBJECT
 10
1762.0
 20
-582.99999999999761
 30
0.0
 11
1762.0
 21
-580.99999999999761
 31
0.0
1001
ACDBBLOCKREPETAG
1070
     1
1071
      207
1005
134FBB
  0
LINE
  5
134FBC
  8
OBJECT
 10
1773.505553499464
 20
-582.99999999999761
 30
0.0
 11
1758.494446500536
 21
-582.99999999999761
 31
0.0
1001
ACDBBLOCKREPETAG
1070
     1
1071
      208
1005
134FBC
  0
LINE
  5
134FBD
  8
OBJECT
 10
1769.7528030216049
 20
-589.49998110540889
 30
0.0
 11
1769.7528030216049
 21
-582.99998110540901
 31
0.0
1001
ACDBBLOCKREPETAG
1070
     1
1071
      209
1005
134FBD
  0
LINE
  5
134FBE
  8
OBJECT
 10
1758.494446500536
 20
-589.49999999999761
 30
0.0
 11
1758.494446500536
 21
-582.99999999999761
 31
0.0
1001
ACDBBLOCKREPETAG
1070
     1
1071
      210
1005
134FBE
  0
LINE
  5
134FBF
  8
OBJECT
 10
1762.2471969783951
 20
-589.49998110540889
 30
0.0
 11
1762.2471969783951
 21
-582.99998110540901
 31
0.0
1001
ACDBBLOCKREPETAG
1070
     1
1071
      211
1005
134FBF
  0
CIRCLE
  5
134FC0
  8
OBJECT
 10
2000.0
 20
-690.99999999999761
 30
0.0
 40
62.0
1001
ACDBBLOCKREPETAG
1070
     1
1071
        0
1005
134FC0
  0
LINE
  5
134FC1
  8
OBJECT
 10
2095.0
 20
-569.99999999999955
 30
0.0
 11
1905.0
 21
-569.99999999999955
 31
0.0
1001
ACDBBLOCKREPETAG
1070
     1
1071
        0
1005
134FC1
  0
LINE
  5
134FC2
  8
OBJECT
 10
2095.0
 20
-549.99999999999955
 30
0.0
 11
1905.0
 21
-549.99999999999955
 31
0.0
1001
ACDBBLOCKREPETAG
1070
     1
1071
        1
1005
134FC2
  0
LINE
  5
134FC3
  8
OBJECT
 10
1902.5
 20
-914.99999999999955
 30
0.0
 11
2097.5
 21
-914.99999999999955
 31
0.0
1001
ACDBBLOCKREPETAG
1070
     1
1071
        2
1005
134FC3
  0
LINE
  5
134FC4
  8
OBJECT
 10
1908.237046000002
 20
-549.99999999999955
 30
0.0
 11
1908.2370465822601
 21
-569.99999999999955
 31
0.0
1001
ACDBBLOCKREPETAG
1070
     1
1071
        3
1005
134FC4
  0
LINE
  5
134FC5
  8
OBJECT
 10
1905.0
 20
-549.99999999999955
 30
0.0
 11
1905.0
 21
-569.99999999999955
 31
0.0
1001
ACDBBLOCKREPETAG
1070
     1
1071
        4
1005
134FC5
  0
LINE
  5
134FC6
  8
OBJECT
 10
1916.024909
 20
-549.99999999999955
 30
0.0
 11
1916.024909
 21
-569.99999999999955
 31
0.0
1001
ACDBBLOCKREPETAG
1070
     1
1071
        5
1005
134FC6
  0
LINE
  5
134FC7
  8
OBJECT
 10
1967.6243270000009
 20
-549.99999999999955
 30
0.0
 11
1967.6243270000009
 21
-569.99999999999955
 31
0.0
1001
ACDBBLOCKREPETAG
1070
     1
1071
        6
1005
134FC7
  0
LINE
  5
134FC8
  8
OBJECT
 10
1975.4121899999991
 20
-549.99999999999955
 30
0.0
 11
1975.4121899999991
 21
-569.99999999999955
 31
0.0
1001
ACDBBLOCKREPETAG
1070
     1
1071
        7
1005
134FC8
  0
LINE
  5
134FC9
  8
OBJECT
 10
2024.587809000001
 20
-549.99999999999955
 30
0.0
 11
2024.587809000001
 21
-569.99999999999955
 31
0.0
1001
ACDBBLOCKREPETAG
1070
     1
1071
        8
1005
134FC9
  0
LINE
  5
134FCA
  8
OBJECT
 10
2032.3756720000019
 20
-549.99999999999955
 30
0.0
 11
2032.3756720000019
 21
-569.99999999999955
 31
0.0
1001
ACDBBLOCKREPETAG
1070
     1
1071
        9
1005
134FCA
  0
LINE
  5
134FCB
  8
OBJECT
 10
2083.9750910000012
 20
-549.99999999999955
 30
0.0
 11
2083.9750910000012
 21
-569.99999999999955
 31
0.0
1001
ACDBBLOCKREPETAG
1070
     1
1071
       10
1005
134FCB
  0
LINE
  5
134FCC
  8
OBJECT
 10
2091.762953999998
 20
-549.99999999999955
 30
0.0
 11
2091.7629534177431
 21
-569.99999999999955
 31
0.0
1001
ACDBBLOCKREPETAG
1070
     1
1071
       11
1005
134FCC
  0
LINE
  5
134FCD
  8
OBJECT
 10
2095.0
 20
-549.99999999999955
 30
0.0
 11
2095.0
 21
-569.99999999999955
 31
0.0
1001
ACDBBLOCKREPETAG
1070
     1
1071
       12
1005
134FCD
  0
LINE
  5
134FCE
  8
OBJECT
 10
2100.0
 20
-628.99999999999955
 30
0.0
 11
1900.0
 21
-628.99999999999955
 31
0.0
1001
ACDBBLOCKREPETAG
1070
     1
1071
       13
1005
134FCE
  0
LINE
  5
134FCF
  8
OBJECT
 10
2100.0
 20
-752.99999999999773
 30
0.0
 11
2092.5
 21
-752.99999999999773
 31
0.0
1001
ACDBBLOCKREPETAG
1070
     1
1071
       14
1005
134FCF
  0
LINE
  5
134FD0
  8
OBJECT
 10
1902.5
 20
-914.99999999999955
 30
0.0
 11
1902.5
 21
-902.99999999999784
 31
0.0
1001
ACDBBLOCKREPETAG
1070
     1
1071
       15
1005
134FD0
  0
LINE
  5
134FD1
  8
OBJECT
 10
2097.5
 20
-914.99999999999955
 30
0.0
 11
2097.5
 21
-902.99999999999784
 31
0.0
1001
ACDBBLOCKREPETAG
1070
     1
1071
       16
1005
134FD1
  0
LINE
  5
134FD2
  8
OBJECT
 10
1902.5
 20
-902.99999999999784
 30
0.0
 11
2097.5
 21
-902.99999999999784
 31
0.0
1001
ACDBBLOCKREPETAG
1070
     1
1071
       17
1005
134FD2
  0
LINE
  5
134FD3
  8
HIDDEN
 10
1930.0
 20
-624.99999999999955
 30
0.0
 11
2070.0
 21
-624.99999999999955
 31
0.0
1001
ACDBBLOCKREPETAG
1070
     1
1071
       18
1005
134FD3
  0
LINE
  5
134FD4
  8
CENTER
 10
2000.0
 20
-534.99999999999955
 30
0.0
 11
2000.0
 21
-914.99999999999955
 31
0.0
1001
ACDBBLOCKREPETAG
1070
     1
1071
       19
1005
134FD4
  0
LINE
  5
134FD5
  8
OBJECT
 10
2092.5
 20
-752.99999999999773
 30
0.0
 11
2092.5
 21
-902.99999999999784
 31
0.0
1001
ACDBBLOCKREPETAG
1070
     1
1071
       20
1005
134FD5
  0
LINE
  5
134FD6
  8
OBJECT
 10
1914.5
 20
-569.99999999999955
 30
0.0
 11
1914.5
 21
-628.99999999999955
 31
0.0
1001
ACDBBLOCKREPETAG
1070
     1
1071
       21
1005
134FD6
  0
LINE
  5
134FD7
  8
OBJECT
 10
2085.5
 20
-569.99999999999955
 30
0.0
 11
2085.5
 21
-628.99999999999955
 31
0.0
1001
ACDBBLOCKREPETAG
1070
     1
1071
       22
1005
134FD7
  0
POINT
  5
134FD8
  8
DOTS
 10
2000.0
 20
-749.99999999999955
 30
0.0
1001
ACDBBLOCKREPETAG
1070
     1
1071
       24
1005
134FD8
  0
LINE
  5
134FD9
  8
OBJECT
 10
1900.0
 20
-752.99999999999773
 30
0.0
 11
1907.5
 21
-752.99999999999773
 31
0.0
1001
ACDBBLOCKREPETAG
1070
     1
1071
       25
1005
134FD9
  0
LINE
  5
134FDA
  8
OBJECT
 10
1907.5
 20
-752.99999999999773
 30
0.0
 11
1907.5
 21
-902.99999999999784
 31
0.0
1001
ACDBBLOCKREPETAG
1070
     1
1071
       26
1005
134FDA
  0
ARC
  5
134FDB
  8
OBJECT
 10
2214.4155190291499
 20
-715.62073879202455
 30
0.0
 40
149.554492306393
 50
144.60628028468801
 51
164.2211863995189
1001
ACDBBLOCKREPETAG
1070
     1
1071
       28
1005
134FDB
  0
ARC
  5
134FDC
  8
OBJECT
 10
2139.1422781245269
 20
-690.99999999999761
 30
0.0
 40
70.496447952551449
 50
166.84269182358281
 51
193.1573081764171
1001
ACDBBLOCKREPETAG
1070
     1
1071
       29
1005
134FDC
  0
ARC
  5
134FDD
  8
OBJECT
 10
2214.4155190291499
 20
-666.3792612079701
 30
0.0
 40
149.55449230639621
 50
195.7788136004809
 51
215.3937197153119
1001
ACDBBLOCKREPETAG
1070
     1
1071
       30
1005
134FDD
  0
ARC
  5
134FDE
  8
OBJECT
 10
1785.5844809708501
 20
-715.62073879202455
 30
0.0
 40
149.554492306393
 50
15.77881360052846
 51
35.393719715228642
1001
ACDBBLOCKREPETAG
1070
     1
1071
       31
1005
134FDE
  0
ARC
  5
134FDF
  8
OBJECT
 10
1860.8577218754731
 20
-690.99999999999761
 30
0.0
 40
70.496447952551449
 50
346.84269182358292
 51
13.15730817641716
1001
ACDBBLOCKREPETAG
1070
     1
1071
       32
1005
134FDF
  0
ARC
  5
134FE0
  8
OBJECT
 10
1785.5844809708501
 20
-666.3792612079701
 30
0.0
 40
149.55449230639621
 50
324.60628028477117
 51
344.22118639947161
1001
ACDBBLOCKREPETAG
1070
     1
1071
       33
1005
134FE0
  0
LINE
  5
134FE1
  8
CENTER
 10
1899.9999999999959
 20
-199.99999999999909
 30
0.0
 11
1740.9999999999959
 21
-199.99999999999909
 31
0.0
1001
ACDBBLOCKREPETAG
1070
     1
1071
      155
1005
134FE1
  0
LINE
  5
134FE2
  8
OBJECT
 10
1899.9999999999959
 20
-261.99999999999909
 30
0.0
 11
1896.9999999999959
 21
-261.99999999999909
 31
0.0
1001
ACDBBLOCKREPETAG
1070
     1
1071
      156
1005
134FE2
  0
ARC
  5
134FE3
  8
OBJECT
 10
1896.9999999999959
 20
-258.99999999999909
 30
0.0
 40
3.0
 50
180.0
 51
270.0
1001
ACDBBLOCKREPETAG
1070
     1
1071
      157
1005
134FE3
  0
LINE
  5
134FE4
  8
OBJECT
 10
1899.9999999999959
 20
-138.0000000000027
 30
0.0
 11
1896.9999999999959
 21
-138.0000000000027
 31
0.0
1001
ACDBBLOCKREPETAG
1070
     1
1071
      158
1005
134FE4
  0
LINE
  5
134FE5
  8
OBJECT
 10
1893.9999999999959
 20
-140.99999999999909
 30
0.0
 11
1871.345272406463
 21
-140.9999999999954
 31
0.0
1001
ACDBBLOCKREPETAG
1070
     1
1071
      159
1005
134FE5
  0
LINE
  5
134FE6
  8
OBJECT
 10
1893.9999999999959
 20
-259.00000000000267
 30
0.0
 11
1871.345272406463
 21
-258.99999999999909
 31
0.0
1001
ACDBBLOCKREPETAG
1070
     1
1071
      160
1005
134FE6
  0
LINE
  5
134FE7
  8
CENTER
 10
1829.9999999999959
 20
-123.5195984073716
 30
0.0
 11
1829.9999999999959
 21
-276.48040159262649
 31
0.0
1001
ACDBBLOCKREPETAG
1070
     1
1071
      161
1005
134FE7
  0
LINE
  5
134FE8
  8
OBJECT
 10
1893.9999999999959
 20
-141.0000000000027
 30
0.0
 11
1893.9999999999959
 21
-258.99999999999909
 31
0.0
1001
ACDBBLOCKREPETAG
1070
     1
1071
      162
1005
134FE8
  0
ARC
  5
134FE9
  8
OBJECT
 10
1896.9999999999959
 20
-141.0000000000027
 30
0.0
 40
3.0
 50
90.0
 51
180.0
1001
ACDBBLOCKREPETAG
1070
     1
1071
      163
1005
134FE9
  0
ARC
  5
134FEA
  8
OBJECT
 10
1829.9999999999959
 20
-199.99999999999909
 30
0.0
 40
61.0
 50
97.16728546129427
 51
142.83271453872419
1001
ACDBBLOCKREPETAG
1070
     1
1071
      165
1005
134FEA
  0
ARC
  5
134FEB
  8
OBJECT
 10
1829.9999999999959
 20
-199.99999999999909
 30
0.0
 40
61.0
 50
337.16728546124438
 51
22.832714538755649
1001
ACDBBLOCKREPETAG
1070
     1
1071
      166
1005
134FEB
  0
ARC
  5
134FEC
  8
OBJECT
 10
1829.9999999999959
 20
-199.99999999999909
 30
0.0
 40
61.0
 50
217.16728546127581
 51
262.83271453870572
1001
ACDBBLOCKREPETAG
1070
     1
1071
      167
1005
134FEC
  0
CIRCLE
  5
134FED
  8
SLIM
 10
1765.9999999999959
 20
-199.99999999999909
 30
0.0
 40
4.0
1001
ACDBBLOCKREPETAG
1070
     1
1071
      168
1005
134FED
  0
ARC
  5
134FEE
  8
OBJECT
 10
1765.9999999999959
 20
-199.99999999999909
 30
0.0
 40
10.0
 50
142.83271453872419
 51
217.16728546127581
1001
ACDBBLOCKREPETAG
1070
     1
1071
      169
1005
134FEE
  0
LINE
  5
134FEF
  8
OBJECT
 10
1781.390625
 20
-163.14720279124501
 30
0.0
 11
1758.0312499999959
 21
-193.9585578346296
 31
0.0
1001
ACDBBLOCKREPETAG
1070
     1
1071
      170
1005
134FEF
  0
LINE
  5
134FF0
  8
OBJECT
 10
1781.390625
 20
-236.8527972087532
 30
0.0
 11
1758.0312499999959
 21
-206.04144216536861
 31
0.0
1001
ACDBBLOCKREPETAG
1070
     1
1071
      171
1005
134FF0
  0
CIRCLE
  5
134FF1
  8
SLIM
 10
1861.9999999999959
 20
-144.5743741577962
 30
0.0
 40
3.9999999999999991
1001
ACDBBLOCKREPETAG
1070
     1
1071
      172
1005
134FF1
  0
ARC
  5
134FF2
  8
OBJECT
 10
1861.9999999999959
 20
-144.5743741577962
 30
0.0
 40
9.9999999999999982
 50
22.832714538755649
 51
97.16728546129427
1001
ACDBBLOCKREPETAG
1070
     1
1071
      173
1005
134FF2
  0
LINE
  5
134FF3
  8
OBJECT
 10
1886.220146083291
 20
-176.32944499229319
 30
0.0
 11
1871.2164173906999
 21
-140.6939553040711
 31
0.0
1001
ACDBBLOCKREPETAG
1070
     1
1071
      174
1005
134FF3
  0
LINE
  5
134FF4
  8
OBJECT
 10
1822.389228916697
 20
-139.47664778353919
 30
0.0
 11
1860.7523326092919
 21
-134.65251313870161
 31
0.0
1001
ACDBBLOCKREPETAG
1070
     1
1071
      175
1005
134FF4
  0
CIRCLE
  5
134FF5
  8
SLIM
 10
1861.9999999999959
 20
-255.4256258422019
 30
0.0
 40
4.0
1001
ACDBBLOCKREPETAG
1070
     1
1071
      176
1005
134FF5
  0
ARC
  5
134FF6
  8
OBJECT
 10
1861.9999999999959
 20
-255.4256258422019
 30
0.0
 40
10.0
 50
262.83271453870572
 51
337.16728546124438
1001
ACDBBLOCKREPETAG
1070
     1
1071
      177
1005
134FF6
  0
LINE
  5
134FF7
  8
OBJECT
 10
1822.389228916697
 20
-260.52335221645899
 30
0.0
 11
1860.7523326092919
 21
-265.3474868612966
 31
0.0
1001
ACDBBLOCKREPETAG
1070
     1
1071
      178
1005
134FF7
  0
LINE
  5
134FF8
  8
OBJECT
 10
1886.220146083291
 20
-223.67055500770491
 30
0.0
 11
1871.2164173906999
 21
-259.30604469592708
 31
0.0
1001
ACDBBLOCKREPETAG
1070
     1
1071
      179
1005
134FF8
  0
CIRCLE
  5
134FF9
  8
OBJECT
 10
1829.9999999999959
 20
-199.99999999999909
 30
0.0
 40
46.0
1001
ACDBBLOCKREPETAG
1070
     1
1071
      180
1005
134FF9
  0
POLYLINE
  5
134FFA
  8
SLIM
 66
     1
 10
0.0
 20
0.0
 30
0.0
 70
     1
1001
ACDBBLOCKREPETAG
1070
     1
1071
      181
1005
134FFA
  0
VERTEX
  5
13589E
  8
SLIM
 10
1769.7527767497299
 20
-193.49999999999909
 30
0.0
  0
VERTEX
  5
13589F
  8
SLIM
 10
1773.505553499461
 20
-199.99999999999909
 30
0.0
  0
VERTEX
  5
1358A0
  8
SLIM
 10
1769.7527767497299
 20
-206.49999999999909
 30
0.0
  0
VERTEX
  5
1358A1
  8
SLIM
 10
1762.2472232502621
 20
-206.49999999999909
 30
0.0
  0
VERTEX
  5
1358A2
  8
SLIM
 10
1758.4944465005319
 20
-199.99999999999909
 30
0.0
  0
VERTEX
  5
1358A3
  8
SLIM
 10
1762.2472232502621
 20
-193.49999999999909
 30
0.0
  0
SEQEND
  5
1358A4
  8
SLIM
  0
POLYLINE
  5
134FFB
  8
SLIM
 66
     1
 10
0.0
 20
0.0
 30
0.0
 70
     1
1001
ACDBBLOCKREPETAG
1070
     1
1071
      182
1005
134FFB
  0
VERTEX
  5
1358A5
  8
SLIM
 10
1865.752776749727
 20
-151.0743741577962
 30
0.0
  0
VERTEX
  5
1358A6
  8
SLIM
 10
1858.2472232502621
 20
-151.0743741577962
 30
0.0
  0
VERTEX
  5
1358A7
  8
SLIM
 10
1854.4944465005319
 20
-144.5743741577962
 30
0.0
  0
VERTEX
  5
1358A8
  8
SLIM
 10
1858.247223250266
 20
-138.07437415779259
 30
0.0
  0
VERTEX
  5
1358A9
  8
SLIM
 10
1865.752776749727
 20
-138.0743741577962
 30
0.0
  0
VERTEX
  5
1358AA
  8
SLIM
 10
1869.505553499461
 20
-144.57437415779259
 30
0.0
  0
SEQEND
  5
1358AB
  8
SLIM
  0
POLYLINE
  5
134FFC
  8
SLIM
 66
     1
 10
0.0
 20
0.0
 30
0.0
 70
     1
1001
ACDBBLOCKREPETAG
1070
     1
1071
      183
1005
134FFC
  0
VERTEX
  5
1358AC
  8
SLIM
 10
1854.4944465005319
 20
-255.4256258422019
 30
0.0
  0
VERTEX
  5
1358AD
  8
SLIM
 10
1858.247223250266
 20
-248.9256258422019
 30
0.0
  0
VERTEX
  5
1358AE
  8
SLIM
 10
1865.752776749727
 20
-248.9256258422019
 30
0.0
  0
VERTEX
  5
1358AF
  8
SLIM
 10
1869.505553499461
 20
-255.42562584220559
 30
0.0
  0
VERTEX
  5
1358B0
  8
SLIM
 10
1865.752776749729
 20
-261.9256258422019
 30
0.0
  0
VERTEX
  5
1358B1
  8
SLIM
 10
1858.247223250266
 20
-261.92562584220559
 30
0.0
  0
SEQEND
  5
1358B2
  8
SLIM
  0
LINE
  5
134FFD
  8
CENTER
 10
2000.000000000003
 20
-320.99999999999898
 30
0.0
 11
2000.000000000003
 21
-299.99999999999898
 31
0.0
1001
ACDBBLOCKREPETAG
1070
     1
1071
        0
1005
134FFD
  0
LINE
  5
134FFE
  8
OBJECT
 10
2062.0000000000041
 20
-303.0
 30
0.0
 11
2062.0000000000041
 21
-299.99999999999898
 31
0.0
1001
ACDBBLOCKREPETAG
1070
     1
1071
        1
1005
134FFE
  0
ARC
  5
134FFF
  8
OBJECT
 10
2059.0000000000041
 20
-303.0
 30
0.0
 40
3.0
 50
270.0
 51
0.0
1001
ACDBBLOCKREPETAG
1070
     1
1071
        2
1005
134FFF
  0
LINE
  5
135000
  8
OBJECT
 10
1938.0000000000041
 20
-299.99999999999898
 30
0.0
 11
1938.0000000000041
 21
-302.99999999999818
 31
0.0
1001
ACDBBLOCKREPETAG
1070
     1
1071
        3
1005
135000
  0
ARC
  5
135001
  8
OBJECT
 10
1941.000000000003
 20
-302.99999999999818
 30
0.0
 40
3.0
 50
180.0
 51
270.0
1001
ACDBBLOCKREPETAG
1070
     1
1071
        4
1005
135001
  0
LINE
  5
135002
  8
OBJECT
 10
1941.000000000003
 20
-305.99999999999818
 30
0.0
 11
2059.0000000000041
 21
-306.0
 31
0.0
1001
ACDBBLOCKREPETAG
1070
     1
1071
        5
1005
135002
  0
ARC
  5
135003
  8
OBJECT
 10
1973.8931207053249
 20
-173.82438331578209
 30
0.0
 40
90.0
 50
274.21795726566182
 51
281.60300086770189
1001
ACDBBLOCKREPETAG
1070
     1
1071
        0
1005
135003
  0
LINE
  5
135004
  8
OBJECT
 10
1991.9947509999911
 20
-261.98520799999727
 30
0.0
 11
1996.6424319999919
 21
-248.3387539999994
 31
0.0
1001
ACDBBLOCKREPETAG
1070
     1
1071
       28
1005
135004
  0
LINE
  5
135005
  8
OBJECT
 10
1955.28879609768
 20
-207.0733020425842
 30
0.0
 11
1935.60541864211
 21
-216.60084009147889
 31
0.0
1001
ACDBBLOCKREPETAG
1070
     1
1071
       29
1005
135005
  0
LINE
  5
135006
  8
OBJECT
 10
1937.335063923862
 20
-222.25658973369261
 30
0.0
 11
1961.7560738851171
 21
-210.43584915155679
 31
0.0
1001
ACDBBLOCKREPETAG
1070
     1
1071
       30
1005
135006
  0
LINE
  5
135007
  8
OBJECT
 10
1996.6424319999919
 20
-248.3387539999994
 30
0.0
 11
1970.3289245926419
 21
-210.9660806555467
 31
0.0
1001
ACDBBLOCKREPETAG
1070
     1
1071
       31
1005
135007
  0
ARC
  5
135008
  8
OBJECT
 10
1960.51700480005
 20
-217.87449798398211
 30
0.0
 40
12.0
 50
35.148769561169452
 51
115.8288295732507
1001
ACDBBLOCKREPETAG
1070
     1
1071
      259
1005
135008
  0
ARC
  5
135009
  8
OBJECT
 10
1965.241546317978
 20
-217.63664646295089
 30
0.0
 40
8.0
 50
35.148769561169452
 51
115.8288292916689
1001
ACDBBLOCKREPETAG
1070
     1
1071
      260
1005
135009
  0
ARC
  5
13500A
  8
OBJECT
 10
2000.0
 20
-199.99999999999909
 30
0.0
 40
90.0
 50
201.08359599996669
 51
248.9164040000301
1001
ACDBBLOCKREPETAG
1070
     1
1071
      268
1005
13500A
  0
ARC
  5
13500B
  8
OBJECT
 10
2000.0
 20
-199.99999999999909
 30
0.0
 40
90.0
 50
111.0835959999699
 51
158.9164034710258
1001
ACDBBLOCKREPETAG
1070
     1
1071
      269
1005
13500B
  0
LINE
  5
13500C
  8
OBJECT
 10
1916.024909444865
 20
-167.62432755513231
 30
0.0
 11
1908.2370465822601
 21
-175.4121904177382
 31
0.0
1001
ACDBBLOCKREPETAG
1070
     1
1071
      270
1005
13500C
  0
LINE
  5
13500D
  8
OBJECT
 10
1916.024909
 20
-232.37567199999921
 30
0.0
 11
1908.2370469998129
 21
-224.58781114059909
 31
0.0
1001
ACDBBLOCKREPETAG
1070
     1
1071
      271
1005
13500D
  0
ARC
  5
13500E
  8
OBJECT
 10
2000.0
 20
-199.99999999999909
 30
0.0
 40
95.0
 50
164.9999998142064
 51
195.00000115869909
1001
ACDBBLOCKREPETAG
1070
     1
1071
      272
1005
13500E
  0
ARC
  5
13500F
  8
OBJECT
 10
2000.0
 20
-199.99999999999909
 30
0.0
 40
92.5
 50
287.80189678393282
 51
342.19810359942011
1001
ACDBBLOCKREPETAG
1070
     1
1071
        1
1005
13500F
  0
ARC
  5
135010
  8
OBJECT
 10
2000.0
 20
-199.99999999999909
 30
0.0
 40
90.0
 50
291.08359599996987
 51
338.9164040000332
1001
ACDBBLOCKREPETAG
1070
     1
1071
        3
1005
135010
  0
CIRCLE
  5
135011
  8
OBJECT
 10
2000.0
 20
-199.99999999999909
 30
0.0
 40
80.0
1001
ACDBBLOCKREPETAG
1070
     1
1071
        4
1005
135011
  0
ARC
  5
135012
  8
OBJECT
 10
2000.0
 20
-199.99999999999909
 30
0.0
 40
90.0
 50
21.083596528974049
 51
68.916404000030013
1001
ACDBBLOCKREPETAG
1070
     1
1071
        5
1005
135012
  0
CIRCLE
  5
135013
  8
OBJECT
 10
2000.0
 20
-199.99999999999909
 30
0.0
 40
66.5
1001
ACDBBLOCKREPETAG
1070
     1
1071
        7
1005
135013
  0
LINE
  5
135014
  8
OBJECT
 10
2083.9750905551341
 20
-167.62432755513231
 30
0.0
 11
2091.762953417739
 21
-175.4121904177382
 31
0.0
1001
ACDBBLOCKREPETAG
1070
     1
1071
        8
1005
135014
  0
LINE
  5
135015
  8
OBJECT
 10
2083.9750910000012
 20
-232.37567199999921
 30
0.0
 11
2091.7629530001868
 21
-224.58781114059909
 31
0.0
1001
ACDBBLOCKREPETAG
1070
     1
1071
        9
1005
135015
  0
ARC
  5
135016
  8
OBJECT
 10
2000.0
 20
-199.99999999999909
 30
0.0
 40
95.0
 50
344.99999884130068
 51
15.000000185793599
1001
ACDBBLOCKREPETAG
1070
     1
1071
       10
1005
135016
  0
LINE
  5
135017
  8
OBJECT
 10
2032.375672999998
 20
-283.9750909999994
 30
0.0
 11
2024.587810948284
 21
-291.76295305171419
 31
0.0
1001
ACDBBLOCKREPETAG
1070
     1
1071
       11
1005
135017
  0
LINE
  5
135018
  8
OBJECT
 10
1967.6243279999981
 20
-283.9750909999994
 30
0.0
 11
1975.41219041774
 21
-291.76295341774039
 31
0.0
1001
ACDBBLOCKREPETAG
1070
     1
1071
       12
1005
135018
  0
ARC
  5
135019
  8
OBJECT
 10
2000.0
 20
-199.99999999999909
 30
0.0
 40
95.0
 50
254.9999998142205
 51
285.00000103859719
1001
ACDBBLOCKREPETAG
1070
     1
1071
       13
1005
135019
  0
LINE
  5
13501A
  8
OBJECT
 10
2032.375672999998
 20
-116.0249099999992
 30
0.0
 11
2024.5878095822591
 21
-108.2370465822578
 31
0.0
1001
ACDBBLOCKREPETAG
1070
     1
1071
       14
1005
13501A
  0
ARC
  5
13501B
  8
OBJECT
 10
2000.0
 20
-199.99999999999909
 30
0.0
 40
95.0
 50
74.999999814220544
 51
104.9999993327599
1001
ACDBBLOCKREPETAG
1070
     1
1071
       15
1005
13501B
  0
LINE
  5
13501C
  8
OBJECT
 10
1967.6243279999981
 20
-116.0249099999992
 30
0.0
 11
1975.412191783766
 21
-108.2370462162316
 31
0.0
1001
ACDBBLOCKREPETAG
1070
     1
1071
       16
1005
13501C
  0
LINE
  5
13501D
  8
OBJECT
 10
2055.1784370000032
 20
-162.884098999998
 30
0.0
 11
2032.534570109274
 21
-178.11554723457169
 31
0.0
1001
ACDBBLOCKREPETAG
1070
     1
1071
       17
1005
13501D
  0
LINE
  5
13501E
  8
OBJECT
 10
1944.804121000001
 20
-162.88106899999821
 30
0.0
 11
2032.534570109274
 21
-178.11554723457169
 31
0.0
1001
ACDBBLOCKREPETAG
1070
     1
1071
       18
1005
13501E
  0
ARC
  5
13501F
  8
OBJECT
 10
2000.0
 20
-199.99999999999909
 30
0.0
 40
92.5
 50
197.80189544246551
 51
252.19810417429329
1001
ACDBBLOCKREPETAG
1070
     1
1071
       22
1005
13501F
  0
ARC
  5
135020
  8
OBJECT
 10
2000.0
 20
-199.99999999999909
 30
0.0
 40
92.5
 50
107.80189486746769
 51
162.1981051326415
1001
ACDBBLOCKREPETAG
1070
     1
1071
       23
1005
135020
  0
ARC
  5
135021
  8
OBJECT
 10
2000.0
 20
-199.99999999999909
 30
0.0
 40
92.5
 50
17.80189582568811
 51
72.198104174293292
1001
ACDBBLOCKREPETAG
1070
     1
1071
       24
1005
135021
  0
ARC
  5
135022
  8
OBJECT
 10
2000.0
 20
-199.99999999999909
 30
0.0
 40
62.5
 50
144.42390307809791
 51
193.7174643727671
1001
ACDBBLOCKREPETAG
1070
     1
1071
       26
1005
135022
  0
ARC
  5
135023
  8
OBJECT
 10
2000.0
 20
-199.99999999999909
 30
0.0
 40
62.5
 50
262.64111297834887
 51
33.92683896333525
1001
ACDBBLOCKREPETAG
1070
     1
1071
       27
1005
135023
  0
LINE
  5
135024
  8
OBJECT
 10
2068.6458301719758
 20
-137.99999999999909
 30
0.0
 11
2100.0
 21
-137.99999999999909
 31
0.0
1001
ACDBBLOCKREPETAG
1070
     1
1071
       33
1005
135024
  0
LINE
  5
135025
  8
OBJECT
 10
2068.6458301719758
 20
-261.99999999999909
 30
0.0
 11
2100.0000000000041
 21
-261.99999999999909
 31
0.0
1001
ACDBBLOCKREPETAG
1070
     1
1071
       34
1005
135025
  0
LINE
  5
135026
  8
OBJECT
 10
2062.0
 20
-268.64583017197862
 30
0.0
 11
2062.0000000000041
 21
-299.99999999999898
 31
0.0
1001
ACDBBLOCKREPETAG
1070
     1
1071
       35
1005
135026
  0
LINE
  5
135027
  8
OBJECT
 10
1937.9999999999959
 20
-268.64583017197492
 30
0.0
 11
1938.0
 21
-299.99999999999898
 31
0.0
1001
ACDBBLOCKREPETAG
1070
     1
1071
       36
1005
135027
  0
LINE
  5
135028
  8
OBJECT
 10
1931.3541698280239
 20
-261.99999999999909
 30
0.0
 11
1899.9999999999959
 21
-261.99999999999909
 31
0.0
1001
ACDBBLOCKREPETAG
1070
     1
1071
       37
1005
135028
  0
LINE
  5
135029
  8
OBJECT
 10
1931.3541698280201
 20
-137.99999999999909
 30
0.0
 11
1899.9999999999959
 21
-137.99999999999909
 31
0.0
1001
ACDBBLOCKREPETAG
1070
     1
1071
       38
1005
135029
  0
ARC
  5
13502A
  8
OBJECT
 10
2000.0
 20
-199.99999999999909
 30
0.0
 40
97.5
 50
39.486577433836892
 51
140.51342256616309
1001
ACDBBLOCKREPETAG
1070
     1
1071
       39
1005
13502A
  0
ARC
  5
13502B
  8
OBJECT
 10
2000.0
 20
-199.99999999999909
 30
0.0
 40
97.5
 50
219.48657743383691
 51
230.5134225661574
1001
ACDBBLOCKREPETAG
1070
     1
1071
       40
1005
13502B
  0
ARC
  5
13502C
  8
OBJECT
 10
2000.0
 20
-199.99999999999909
 30
0.0
 40
97.5
 50
309.48657743384149
 51
320.51342256616311
1001
ACDBBLOCKREPETAG
1070
     1
1071
       41
1005
13502C
  0
LINE
  5
13502D
  8
CENTER
 10
1900.0
 20
-199.99999999999909
 30
0.0
 11
2100.0
 21
-199.99999999999909
 31
0.0
1001
ACDBBLOCKREPETAG
1070
     1
1071
       42
1005
13502D
  0
LINE
  5
13502E
  8
CENTER
 10
2000.0
 20
-86.499999999999091
 30
0.0
 11
2000.0
 21
-299.99999999999898
 31
0.0
1001
ACDBBLOCKREPETAG
1070
     1
1071
       43
1005
13502E
  0
POINT
  5
13502F
  8
DOTS
 10
2000.0
 20
-199.99999999999909
 30
0.0
1001
ACDBBLOCKREPETAG
1070
     1
1071
      281
1005
13502F
  0
LINE
  5
135030
  8
OBJECT
 10
2134.0
 20
-582.99999999999761
 30
0.0
 11
2134.0
 21
-580.99999999999761
 31
0.0
1001
ACDBBLOCKREPETAG
1070
     1
1071
      157
1005
135030
  0
ARC
  5
135031
  8
OBJECT
 10
2175.1865574982548
 20
-600.99999999999761
 30
0.0
 40
59.0
 50
229.20276883323919
 51
270.0
1001
ACDBBLOCKREPETAG
1070
     1
1071
      158
1005
135031
  0
LINE
  5
135032
  8
OBJECT
 10
2244.0
 20
-589.49999999999761
 30
0.0
 11
2109.0
 21
-589.49999999999761
 31
0.0
1001
ACDBBLOCKREPETAG
1070
     1
1071
      159
1005
135032
  0
LINE
  5
135033
  8
OBJECT
 10
2109.0
 20
-602.49999999999761
 30
0.0
 11
2244.0
 21
-602.49999999999761
 31
0.0
1001
ACDBBLOCKREPETAG
1070
     1
1071
      160
1005
135033
  0
LINE
  5
135034
  8
OBJECT
 10
2109.0
 20
-589.49999999999761
 30
0.0
 11
2109.0
 21
-602.49999999999761
 31
0.0
1001
ACDBBLOCKREPETAG
1070
     1
1071
      161
1005
135034
  0
LINE
  5
135035
  8
OBJECT
 10
2116.0
 20
-611.49999999999761
 30
0.0
 11
2116.0
 21
-602.49999999999761
 31
0.0
1001
ACDBBLOCKREPETAG
1070
     1
1071
      162
1005
135035
  0
LINE
  5
135036
  8
OBJECT
 10
2134.0
 20
-614.99999999999761
 30
0.0
 11
2134.0
 21
-602.49999999999761
 31
0.0
1001
ACDBBLOCKREPETAG
1070
     1
1071
      163
1005
135036
  0
LINE
  5
135037
  8
OBJECT
 10
2224.0
 20
-611.49999999999761
 30
0.0
 11
2224.0
 21
-602.49999999999761
 31
0.0
1001
ACDBBLOCKREPETAG
1070
     1
1071
      164
1005
135037
  0
LINE
  5
135038
  8
OBJECT
 10
2244.0
 20
-589.49999999999761
 30
0.0
 11
2244.0
 21
-602.49999999999761
 31
0.0
1001
ACDBBLOCKREPETAG
1070
     1
1071
      165
1005
135038
  0
LINE
  5
135039
  8
OBJECT
 10
2142.0
 20
-614.99999999999761
 30
0.0
 11
2142.0
 21
-602.49999999999761
 31
0.0
1001
ACDBBLOCKREPETAG
1070
     1
1071
      166
1005
135039
  0
LINE
  5
13503A
  8
OBJECT
 10
2134.0
 20
-611.49999999999761
 30
0.0
 11
2115.0
 21
-611.49999999999761
 31
0.0
1001
ACDBBLOCKREPETAG
1070
     1
1071
      167
1005
13503A
  0
LINE
  5
13503B
  8
OBJECT
 10
2115.0
 20
-614.99999999999761
 30
0.0
 11
2115.0
 21
-611.49999999999761
 31
0.0
1001
ACDBBLOCKREPETAG
1070
     1
1071
      168
1005
13503B
  0
LINE
  5
13503C
  8
OBJECT
 10
2142.0
 20
-611.49999999999761
 30
0.0
 11
2225.0
 21
-611.49999999999761
 31
0.0
1001
ACDBBLOCKREPETAG
1070
     1
1071
      169
1005
13503C
  0
LINE
  5
13503D
  8
OBJECT
 10
2225.0
 20
-611.49999999999761
 30
0.0
 11
2225.0
 21
-614.99999999999761
 31
0.0
1001
ACDBBLOCKREPETAG
1070
     1
1071
      170
1005
13503D
  0
LINE
  5
13503E
  8
OBJECT
 10
2130.494446500536
 20
-589.49999999999761
 30
0.0
 11
2130.494446500536
 21
-582.99999999999761
 31
0.0
1001
ACDBBLOCKREPETAG
1070
     1
1071
      171
1005
13503E
  0
LINE
  5
13503F
  8
OBJECT
 10
2129.0
 20
-627.99999999999761
 30
0.0
 11
2129.0
 21
-632.99999999999761
 31
0.0
1001
ACDBBLOCKREPETAG
1070
     1
1071
      172
1005
13503F
  0
LINE
  5
135040
  8
OBJECT
 10
2129.0
 20
-632.99999999999761
 30
0.0
 11
2147.0
 21
-632.99999999999761
 31
0.0
1001
ACDBBLOCKREPETAG
1070
     1
1071
      173
1005
135040
  0
LINE
  5
135041
  8
OBJECT
 10
2147.0
 20
-627.99999999999761
 30
0.0
 11
2147.0
 21
-632.99999999999761
 31
0.0
1001
ACDBBLOCKREPETAG
1070
     1
1071
      174
1005
135041
  0
LINE
  5
135042
  8
OBJECT
 10
2109.0000000000032
 20
-614.99999999999761
 30
0.0
 11
2244.0
 21
-614.99999999999761
 31
0.0
1001
ACDBBLOCKREPETAG
1070
     1
1071
      175
1005
135042
  0
LINE
  5
135043
  8
OBJECT
 10
2244.0
 20
-614.99999999999761
 30
0.0
 11
2244.0
 21
-627.99999999999761
 31
0.0
1001
ACDBBLOCKREPETAG
1070
     1
1071
      176
1005
135043
  0
LINE
  5
135044
  8
OBJECT
 10
2136.636900244765
 20
-645.66457125774514
 30
0.0
 11
2116.1702980000009
 21
-627.99999999999761
 31
0.0
1001
ACDBBLOCKREPETAG
1070
     1
1071
      177
1005
135044
  0
LINE
  5
135045
  8
OBJECT
 10
2221.0000000000041
 20
-635.65708264965485
 30
0.0
 11
2221.0000000000041
 21
-659.99999999999761
 31
0.0
1001
ACDBBLOCKREPETAG
1070
     1
1071
      178
1005
135045
  0
LINE
  5
135046
  8
OBJECT
 10
2175.1865574982548
 20
-659.99999999999761
 30
0.0
 11
2221.0000000000041
 21
-659.99999999999761
 31
0.0
1001
ACDBBLOCKREPETAG
1070
     1
1071
      179
1005
135046
  0
ARC
  5
135047
  8
OBJECT
 10
2130.5
 20
-661.49999999999761
 30
0.0
 40
84.0
 50
277.05348487097029
 51
1.023193303671255
1001
ACDBBLOCKREPETAG
1070
     1
1071
      180
1005
135047
  0
LINE
  5
135048
  8
OBJECT
 10
2106.0
 20
-749.17200317020843
 30
0.0
 11
2140.8148488128832
 21
-744.86428428270153
 31
0.0
1001
ACDBBLOCKREPETAG
1070
     1
1071
      181
1005
135048
  0
LINE
  5
135049
  8
OBJECT
 10
2106.0000000000041
 20
-749.99999999999852
 30
0.0
 11
2106.0000000000041
 21
-628.99999999999761
 31
0.0
1001
ACDBBLOCKREPETAG
1070
     1
1071
      182
1005
135049
  0
ARC
  5
13504A
  8
OBJECT
 10
2103.0000000000041
 20
-749.99999999999852
 30
0.0
 40
3.0
 50
270.0
 51
0.0
1001
ACDBBLOCKREPETAG
1070
     1
1071
      183
1005
13504A
  0
LINE
  5
13504B
  8
OBJECT
 10
2116.1702980000009
 20
-627.99999999999761
 30
0.0
 11
2244.0
 21
-627.99999999999761
 31
0.0
1001
ACDBBLOCKREPETAG
1070
     1
1071
      184
1005
13504B
  0
LINE
  5
13504C
  8
OBJECT
 10
2125.0539138517229
 20
-635.65708264965485
 30
0.0
 11
2221.0000000000041
 21
-635.65708264965485
 31
0.0
1001
ACDBBLOCKREPETAG
1070
     1
1071
      185
1005
13504C
  0
LINE
  5
13504D
  8
OBJECT
 10
2225.0
 20
-630.89006764214673
 30
0.0
 11
2221.0000000000041
 21
-635.65708264965485
 31
0.0
1001
ACDBBLOCKREPETAG
1070
     1
1071
      186
1005
13504D
  0
LINE
  5
13504E
  8
OBJECT
 10
2109.0000000000032
 20
-614.99999999999761
 30
0.0
 11
2109.0000000000068
 21
-628.99999999999761
 31
0.0
1001
ACDBBLOCKREPETAG
1070
     1
1071
      187
1005
13504E
  0
LINE
  5
13504F
  8
HIDDEN
 10
2125.5
 20
-654.9999999999975
 30
0.0
 11
2214.5
 21
-654.9999999999975
 31
0.0
1001
ACDBBLOCKREPETAG
1070
     1
1071
      188
1005
13504F
  0
LINE
  5
135050
  8
OBJECT
 10
2134.0
 20
-580.99999999999761
 30
0.0
 11
2142.0
 21
-580.99999999999761
 31
0.0
1001
ACDBBLOCKREPETAG
1070
     1
1071
      189
1005
135050
  0
LINE
  5
135051
  8
OBJECT
 10
2142.0
 20
-582.99999999999761
 30
0.0
 11
2142.0
 21
-580.99999999999761
 31
0.0
1001
ACDBBLOCKREPETAG
1070
     1
1071
      190
1005
135051
  0
LINE
  5
135052
  8
OBJECT
 10
2130.494446500536
 20
-582.99999999999761
 30
0.0
 11
2145.505553499464
 21
-582.99999999999761
 31
0.0
1001
ACDBBLOCKREPETAG
1070
     1
1071
      191
1005
135052
  0
LINE
  5
135053
  8
CENTER
 10
2170.0
 20
-674.77158855533025
 30
0.0
 11
2170.0
 21
-574.49999999999761
 31
0.0
1001
ACDBBLOCKREPETAG
1070
     1
1071
      193
1005
135053
  0
LINE
  5
135054
  8
OBJECT
 10
2100.0
 20
-752.99999999999773
 30
0.0
 11
2103.0000000000041
 21
-752.99999999999852
 31
0.0
1001
ACDBBLOCKREPETAG
1070
     1
1071
      194
1005
135054
  0
LINE
  5
135055
  8
OBJECT
 10
2100.0
 20
-628.99999999999761
 30
0.0
 11
2109.0000000000068
 21
-628.99999999999761
 31
0.0
1001
ACDBBLOCKREPETAG
1070
     1
1071
      195
1005
135055
  0
LINE
  5
135056
  8
OBJECT
 10
2134.247196978396
 20
-589.49998110540889
 30
0.0
 11
2134.247196978396
 21
-582.99998110540901
 31
0.0
1001
ACDBBLOCKREPETAG
1070
     1
1071
      196
1005
135056
  0
LINE
  5
135057
  8
OBJECT
 10
2145.505553499464
 20
-589.49999999999761
 30
0.0
 11
2145.505553499464
 21
-582.99999999999761
 31
0.0
1001
ACDBBLOCKREPETAG
1070
     1
1071
      197
1005
135057
  0
LINE
  5
135058
  8
OBJECT
 10
2141.7528030216049
 20
-589.49998110540889
 30
0.0
 11
2141.7528030216049
 21
-582.99998110540901
 31
0.0
1001
ACDBBLOCKREPETAG
1070
     1
1071
      198
1005
135058
  0
LINE
  5
135059
  8
OBJECT
 10
2230.0
 20
-582.99999999999761
 30
0.0
 11
2230.0
 21
-580.99999999999761
 31
0.0
1001
ACDBBLOCKREPETAG
1070
     1
1071
      199
1005
135059
  0
LINE
  5
13505A
  8
OBJECT
 10
2230.0
 20
-614.99999999999761
 30
0.0
 11
2230.0
 21
-602.49999999999761
 31
0.0
1001
ACDBBLOCKREPETAG
1070
     1
1071
      200
1005
13505A
  0
LINE
  5
13505B
  8
OBJECT
 10
2238.0
 20
-614.99999999999761
 30
0.0
 11
2238.0
 21
-602.49999999999761
 31
0.0
1001
ACDBBLOCKREPETAG
1070
     1
1071
      201
1005
13505B
  0
LINE
  5
13505C
  8
OBJECT
 10
2226.494446500536
 20
-589.49999999999761
 30
0.0
 11
2226.494446500536
 21
-582.99999999999761
 31
0.0
1001
ACDBBLOCKREPETAG
1070
     1
1071
      202
1005
13505C
  0
LINE
  5
13505D
  8
OBJECT
 10
2225.0
 20
-627.99999999999761
 30
0.0
 11
2225.0
 21
-632.99999999999761
 31
0.0
1001
ACDBBLOCKREPETAG
1070
     1
1071
      203
1005
13505D
  0
LINE
  5
13505E
  8
OBJECT
 10
2225.0
 20
-632.99999999999761
 30
0.0
 11
2243.0
 21
-632.99999999999761
 31
0.0
1001
ACDBBLOCKREPETAG
1070
     1
1071
      204
1005
13505E
  0
LINE
  5
13505F
  8
OBJECT
 10
2243.0
 20
-627.99999999999761
 30
0.0
 11
2243.0
 21
-632.99999999999761
 31
0.0
1001
ACDBBLOCKREPETAG
1070
     1
1071
      205
1005
13505F
  0
LINE
  5
135060
  8
OBJECT
 10
2230.0
 20
-580.99999999999761
 30
0.0
 11
2238.0
 21
-580.99999999999761
 31
0.0
1001
ACDBBLOCKREPETAG
1070
     1
1071
      206
1005
135060
  0
LINE
  5
135061
  8
OBJECT
 10
2238.0
 20
-582.99999999999761
 30
0.0
 11
2238.0
 21
-580.99999999999761
 31
0.0
1001
ACDBBLOCKREPETAG
1070
     1
1071
      207
1005
135061
  0
LINE
  5
135062
  8
OBJECT
 10
2226.494446500536
 20
-582.99999999999761
 30
0.0
 11
2241.5055534994649
 21
-582.99999999999761
 31
0.0
1001
ACDBBLOCKREPETAG
1070
     1
1071
      208
1005
135062
  0
LINE
  5
135063
  8
OBJECT
 10
2230.247196978396
 20
-589.49998110540889
 30
0.0
 11
2230.247196978396
 21
-582.99998110540901
 31
0.0
1001
ACDBBLOCKREPETAG
1070
     1
1071
      209
1005
135063
  0
LINE
  5
135064
  8
OBJECT
 10
2241.5055534994649
 20
-589.49999999999761
 30
0.0
 11
2241.5055534994649
 21
-582.99999999999761
 31
0.0
1001
ACDBBLOCKREPETAG
1070
     1
1071
      210
1005
135064
  0
LINE
  5
135065
  8
OBJECT
 10
2237.7528030216058
 20
-589.49998110540889
 30
0.0
 11
2237.7528030216058
 21
-582.99998110540901
 31
0.0
1001
ACDBBLOCKREPETAG
1070
     1
1071
      211
1005
135065
  0
LINE
  5
135066
  8
CENTER
 10
2100.0
 20
-199.99999999999909
 30
0.0
 11
2259.0
 21
-199.99999999999909
 31
0.0
1001
ACDBBLOCKREPETAG
1070
     1
1071
      155
1005
135066
  0
LINE
  5
135067
  8
OBJECT
 10
2100.0
 20
-261.99999999999909
 30
0.0
 11
2103.0
 21
-261.99999999999909
 31
0.0
1001
ACDBBLOCKREPETAG
1070
     1
1071
      156
1005
135067
  0
ARC
  5
135068
  8
OBJECT
 10
2103.0
 20
-258.99999999999909
 30
0.0
 40
3.0
 50
270.0
 51
0.0
1001
ACDBBLOCKREPETAG
1070
     1
1071
      157
1005
135068
  0
LINE
  5
135069
  8
OBJECT
 10
2100.0
 20
-138.0000000000027
 30
0.0
 11
2103.0
 21
-138.0000000000027
 31
0.0
1001
ACDBBLOCKREPETAG
1070
     1
1071
      158
1005
135069
  0
LINE
  5
13506A
  8
OBJECT
 10
2106.0
 20
-140.99999999999909
 30
0.0
 11
2128.6547275935341
 21
-140.9999999999954
 31
0.0
1001
ACDBBLOCKREPETAG
1070
     1
1071
      159
1005
13506A
  0
LINE
  5
13506B
  8
OBJECT
 10
2106.0
 20
-259.00000000000267
 30
0.0
 11
2128.6547275935341
 21
-258.99999999999909
 31
0.0
1001
ACDBBLOCKREPETAG
1070
     1
1071
      160
1005
13506B
  0
LINE
  5
13506C
  8
CENTER
 10
2170.0
 20
-123.5195984073716
 30
0.0
 11
2170.0
 21
-276.48040159262649
 31
0.0
1001
ACDBBLOCKREPETAG
1070
     1
1071
      161
1005
13506C
  0
LINE
  5
13506D
  8
OBJECT
 10
2106.0
 20
-141.0000000000027
 30
0.0
 11
2106.0
 21
-258.99999999999909
 31
0.0
1001
ACDBBLOCKREPETAG
1070
     1
1071
      162
1005
13506D
  0
ARC
  5
13506E
  8
OBJECT
 10
2103.0
 20
-141.0000000000027
 30
0.0
 40
3.0
 50
0.0
 51
90.0
1001
ACDBBLOCKREPETAG
1070
     1
1071
      163
1005
13506E
  0
ARC
  5
13506F
  8
OBJECT
 10
2170.0
 20
-199.99999999999909
 30
0.0
 40
61.0
 50
37.167285461274467
 51
82.832714538705744
1001
ACDBBLOCKREPETAG
1070
     1
1071
      165
1005
13506F
  0
ARC
  5
135070
  8
OBJECT
 10
2170.0
 20
-199.99999999999909
 30
0.0
 40
61.0
 50
157.16728546126831
 51
202.83271453873161
1001
ACDBBLOCKREPETAG
1070
     1
1071
      166
1005
135070
  0
ARC
  5
135071
  8
OBJECT
 10
2170.0
 20
-199.99999999999909
 30
0.0
 40
61.0
 50
277.16728546129423
 51
322.83271453872419
1001
ACDBBLOCKREPETAG
1070
     1
1071
      167
1005
135071
  0
CIRCLE
  5
135072
  8
SLIM
 10
2234.0
 20
-199.99999999999909
 30
0.0
 40
4.0
1001
ACDBBLOCKREPETAG
1070
     1
1071
      168
1005
135072
  0
ARC
  5
135073
  8
OBJECT
 10
2234.0
 20
-199.99999999999909
 30
0.0
 40
10.0
 50
322.83271453872419
 51
37.167285461274467
1001
ACDBBLOCKREPETAG
1070
     1
1071
      169
1005
135073
  0
LINE
  5
135074
  8
OBJECT
 10
2218.6093749999968
 20
-163.14720279124501
 30
0.0
 11
2241.96875
 21
-193.9585578346296
 31
0.0
1001
ACDBBLOCKREPETAG
1070
     1
1071
      170
1005
135074
  0
LINE
  5
135075
  8
OBJECT
 10
2218.6093749999968
 20
-236.8527972087532
 30
0.0
 11
2241.96875
 21
-206.04144216536861
 31
0.0
1001
ACDBBLOCKREPETAG
1070
     1
1071
      171
1005
135075
  0
CIRCLE
  5
135076
  8
SLIM
 10
2138.0
 20
-144.5743741577962
 30
0.0
 40
3.9999999999999991
1001
ACDBBLOCKREPETAG
1070
     1
1071
      172
1005
135076
  0
ARC
  5
135077
  8
OBJECT
 10
2138.0
 20
-144.5743741577962
 30
0.0
 40
9.9999999999999982
 50
82.832714538705744
 51
157.16728546126831
1001
ACDBBLOCKREPETAG
1070
     1
1071
      173
1005
135077
  0
LINE
  5
135078
  8
OBJECT
 10
2113.7798539167052
 20
-176.32944499229319
 30
0.0
 11
2128.783582609296
 21
-140.6939553040711
 31
0.0
1001
ACDBBLOCKREPETAG
1070
     1
1071
      174
1005
135078
  0
LINE
  5
135079
  8
OBJECT
 10
2177.6107710832989
 20
-139.47664778353919
 30
0.0
 11
2139.247667390704
 21
-134.65251313870161
 31
0.0
1001
ACDBBLOCKREPETAG
1070
     1
1071
      175
1005
135079
  0
CIRCLE
  5
13507A
  8
SLIM
 10
2138.0
 20
-255.4256258422019
 30
0.0
 40
4.0
1001
ACDBBLOCKREPETAG
1070
     1
1071
      176
1005
13507A
  0
ARC
  5
13507B
  8
OBJECT
 10
2138.0
 20
-255.4256258422019
 30
0.0
 40
10.0
 50
202.83271453873161
 51
277.16728546129423
1001
ACDBBLOCKREPETAG
1070
     1
1071
      177
1005
13507B
  0
LINE
  5
13507C
  8
OBJECT
 10
2177.6107710832989
 20
-260.52335221645899
 30
0.0
 11
2139.247667390704
 21
-265.3474868612966
 31
0.0
1001
ACDBBLOCKREPETAG
1070
     1
1071
      178
1005
13507C
  0
LINE
  5
13507D
  8
OBJECT
 10
2113.7798539167052
 20
-223.67055500770491
 30
0.0
 11
2128.783582609296
 21
-259.30604469592708
 31
0.0
1001
ACDBBLOCKREPETAG
1070
     1
1071
      179
1005
13507D
  0
CIRCLE
  5
13507E
  8
OBJECT
 10
2170.0
 20
-199.99999999999909
 30
0.0
 40
46.0
1001
ACDBBLOCKREPETAG
1070
     1
1071
      180
1005
13507E
  0
POLYLINE
  5
13507F
  8
SLIM
 66
     1
 10
0.0
 20
0.0
 30
0.0
 70
     1
1001
ACDBBLOCKREPETAG
1070
     1
1071
      181
1005
13507F
  0
VERTEX
  5
1358B3
  8
SLIM
 10
2230.247223250266
 20
-193.49999999999909
 30
0.0
  0
VERTEX
  5
1358B4
  8
SLIM
 10
2226.494446500536
 20
-199.99999999999909
 30
0.0
  0
VERTEX
  5
1358B5
  8
SLIM
 10
2230.247223250266
 20
-206.49999999999909
 30
0.0
  0
VERTEX
  5
1358B6
  8
SLIM
 10
2237.752776749734
 20
-206.49999999999909
 30
0.0
  0
VERTEX
  5
1358B7
  8
SLIM
 10
2241.5055534994649
 20
-199.99999999999909
 30
0.0
  0
VERTEX
  5
1358B8
  8
SLIM
 10
2237.752776749734
 20
-193.49999999999909
 30
0.0
  0
SEQEND
  5
1358B9
  8
SLIM
  0
POLYLINE
  5
135080
  8
SLIM
 66
     1
 10
0.0
 20
0.0
 30
0.0
 70
     1
1001
ACDBBLOCKREPETAG
1070
     1
1071
      182
1005
135080
  0
VERTEX
  5
1358BA
  8
SLIM
 10
2134.2472232502701
 20
-151.0743741577962
 30
0.0
  0
VERTEX
  5
1358BB
  8
SLIM
 10
2141.752776749734
 20
-151.0743741577962
 30
0.0
  0
VERTEX
  5
1358BC
  8
SLIM
 10
2145.505553499464
 20
-144.5743741577962
 30
0.0
  0
VERTEX
  5
1358BD
  8
SLIM
 10
2141.7527767497309
 20
-138.07437415779259
 30
0.0
  0
VERTEX
  5
1358BE
  8
SLIM
 10
2134.2472232502701
 20
-138.0743741577962
 30
0.0
  0
VERTEX
  5
1358BF
  8
SLIM
 10
2130.494446500536
 20
-144.57437415779259
 30
0.0
  0
SEQEND
  5
1358C0
  8
SLIM
  0
POLYLINE
  5
135081
  8
SLIM
 66
     1
 10
0.0
 20
0.0
 30
0.0
 70
     1
1001
ACDBBLOCKREPETAG
1070
     1
1071
      183
1005
135081
  0
VERTEX
  5
1358C1
  8
SLIM
 10
2145.505553499464
 20
-255.4256258422019
 30
0.0
  0
VERTEX
  5
1358C2
  8
SLIM
 10
2141.7527767497309
 20
-248.9256258422019
 30
0.0
  0
VERTEX
  5
1358C3
  8
SLIM
 10
2134.2472232502701
 20
-248.9256258422019
 30
0.0
  0
VERTEX
  5
1358C4
  8
SLIM
 10
2130.494446500536
 20
-255.42562584220559
 30
0.0
  0
VERTEX
  5
1358C5
  8
SLIM
 10
2134.247223250266
 20
-261.9256258422019
 30
0.0
  0
VERTEX
  5
1358C6
  8
SLIM
 10
2141.7527767497309
 20
-261.92562584220559
 30
0.0
  0
SEQEND
  5
1358C7
  8
SLIM
  0
TEXT
  5
135082
  8
SLIM
 10
-0.0000000000000053
 20
520.0
 30
0.0
 40
100.0
  1
5HF-U707-S
 41
0.75
  0
TEXT
  5
135083
  8
SLIM
 10
-0.0000000000000053
 20
370.0
 30
0.0
 40
100.0
  1
5HF-U707-W
 41
0.75
  0
TEXT
  5
135084
  8
SLIM
 10
3853.75
 20
-1806.4999999999991
 30
0.0
 40
35.0
  1
両受けスタイル（W）
 41
0.75
  0
TEXT
  5
135085
  8
SLIM
 10
7824.6000000000022
 20
-1862.9999999999991
 30
0.0
 40
28.0
  1
※ 対応スラブ厚　180～405
 41
0.75
  0
TEXT
  5
135086
  8
SLIM
 10
7611.4999999999982
 20
-1956.333333333333
 30
0.0
 40
28.0
  1
国土交通大臣認定・（財）日本消防設備安全センター性能評定取得品
 41
0.75
  0
TEXT
  5
135087
  8
SLIM
 10
7631.1000000000004
 20
-2003.0
 30
0.0
 40
28.0
  1
注）ご採用にあたり、認定書及び評定書の内容をご確認ください。
 41
0.75
  0
TEXT
  5
135088
  8
SLIM
 10
7739.125
 20
-1806.4999999999991
 30
0.0
 40
35.0
  1
両受けスタイル（W）＋シンドカット
 41
0.75
  0
TEXT
  5
135089
  8
SLIM
 10
5741.6249999999991
 20
-1532.5
 30
0.0
 40
35.0
  1
片受けスタイル（S）＋シンドカット
 41
0.75
  0
TEXT
  5
13508A
  8
SLIM
 10
1856.25
 20
-1532.5
 30
0.0
 40
35.0
  1
片受けスタイル（S）
 41
0.75
  0
VIEWPORT
  5
F6BA7
 67
     1
  8
0
 10
145.33033752441401
 20
101.8328354358673
 30
0.0
 40
334.0025019414623
 41
222.19657968139651
 68
     1
 69
     1
1001
ACAD
1000
MVIEW
1002
{
1070
    16
1010
0.0
1020
0.0
1030
0.0
1010
0.0
1020
0.0
1030
1.0
1040
0.0
1040
222.19657968139651
1040
145.33033752441401
1040
101.8328354358673
1040
50.0
1040
0.0
1040
0.0
1070
     0
1070
     0
1070
     1
1070
     1
1070
     0
1070
     0
1070
     0
1070
     0
1040
0.0
1040
0.0
1040
0.0
1040
10.0
1040
10.0
1040
10.0
1040
10.0
1070
     0
1002
{
1002
}
1002
}
  0
VIEWPORT
  5
F6BA9
 67
     1
  8
OBJECT
 10
145.3303314447403
 20
101.8328338861465
 30
0.0
 40
232.5285303115844
 41
162.93253421783439
 68
     2
 69
     2
1001
ACAD
1000
MVIEW
1002
{
1070
    16
1010
0.0
1020
0.0
1030
0.0
1010
0.0
1020
0.0
1030
1.0
1040
0.0
1040
25942.55904403147
1040
2377.604457077377
1040
-7591.5176687056619
1040
50.0
1040
0.0
1040
0.0
1070
     0
1070
   600
1070
     1
1070
     1
1070
     0
1070
     0
1070
     0
1070
     0
1040
0.0
1040
0.0
1040
0.0
1040
1.0
1040
1.0
1040
0.0
1040
0.0
1070
     0
1002
{
1002
}
1002
}
  0
ENDSEC
  0
EOF
