  0
SECTION
  2
HEADER
  9
$ACADVER
  1
AC1009
  9
$INSBASE
 10
0.0
 20
0.0
 30
0.0
  9
$EXTMIN
 10
-0.0000000000000089
 20
-1903.0
 30
0.0
  9
$EXTMAX
 10
8387.1000000000004
 20
620.0
 30
0.0
  9
$LIMMIN
 10
0.0
 20
0.0
  9
$LIMMAX
 10
210.0
 20
297.0
  9
$ORTHOMODE
 70
     0
  9
$REGENMODE
 70
     1
  9
$FILLMODE
 70
     1
  9
$QTEXTMODE
 70
     0
  9
$MIRRTEXT
 70
     0
  9
$DRAGMODE
 70
     2
  9
$LTSCALE
 40
1.0
  9
$OSMODE
 70
   125
  9
$ATTMODE
 70
     1
  9
$TEXTSIZE
 40
4.0
  9
$TRACEWID
 40
0.05
  9
$TEXTSTYLE
  7
STANDARD
  9
$CLAYER
  8
OBJECT
  9
$CELTYPE
  6
BYLAYER
  9
$CECOLOR
 62
   256
  9
$DIMSCALE
 40
10.0
  9
$DIMASZ
 40
2.0
  9
$DIMEXO
 40
1.0
  9
$DIMDLI
 40
10.0
  9
$DIMRND
 40
0.0
  9
$DIMDLE
 40
0.0
  9
$DIMEXE
 40
1.0
  9
$DIMTP
 40
0.0
  9
$DIMTM
 40
0.0
  9
$DIMTXT
 40
3.2000000000000002
  9
$DIMCEN
 40
0.0
  9
$DIMTSZ
 40
0.0
  9
$DIMTOL
 70
     0
  9
$DIMLIM
 70
     0
  9
$DIMTIH
 70
     0
  9
$DIMTOH
 70
     0
  9
$DIMSE1
 70
     0
  9
$DIMSE2
 70
     0
  9
$DIMTAD
 70
     1
  9
$DIMZIN
 70
     8
  9
$DIMBLK
  1
OPEN30
  9
$DIMASO
 70
     1
  9
$DIMSHO
 70
     1
  9
$DIMPOST
  1

  9
$DIMAPOST
  1

  9
$DIMALT
 70
     0
  9
$DIMALTD
 70
     2
  9
$DIMALTF
 40
25.399999999999999
  9
$DIMLFAC
 40
1.0
  9
$DIMTOFL
 70
     1
  9
$DIMTVP
 40
0.0
  9
$DIMTIX
 70
     0
  9
$DIMSOXD
 70
     0
  9
$DIMSAH
 70
     0
  9
$DIMBLK1
  1

  9
$DIMBLK2
  1

  9
$DIMSTYLE
  2
S10
  9
$DIMCLRD
 70
   256
  9
$DIMCLRE
 70
   256
  9
$DIMCLRT
 70
   256
  9
$DIMTFAC
 40
1.0
  9
$DIMGAP
 40
0.9
  9
$LUNITS
 70
     2
  9
$LUPREC
 70
     2
  9
$SKETCHINC
 40
0.1
  9
$FILLETRAD
 40
0.0
  9
$AUNITS
 70
     0
  9
$AUPREC
 70
     2
  9
$MENU
  1
ACAD
  9
$ELEVATION
 40
0.0
  9
$PELEVATION
 40
0.0
  9
$THICKNESS
 40
0.0
  9
$LIMCHECK
 70
     0
  9
$BLIPMODE
 70
     0
  9
$CHAMFERA
 40
2.0
  9
$CHAMFERB
 40
2.0
  9
$SKPOLY
 70
     0
  9
$TDCREATE
 40
2453095.4929404748
  9
$TDUPDATE
 40
2456678.794258472
  9
$TDINDWG
 40
18.485061932899999
  9
$TDUSRTIMER
 40
18.4850612153
  9
$USRTIMER
 70
     1
  9
$ANGBASE
 50
0.0
  9
$ANGDIR
 70
     0
  9
$PDMODE
 70
    35
  9
$PDSIZE
 40
2.0
  9
$PLINEWID
 40
0.0
  9
$COORDS
 70
     1
  9
$SPLFRAME
 70
     0
  9
$SPLINETYPE
 70
     6
  9
$SPLINESEGS
 70
     8
  9
$ATTDIA
 70
     1
  9
$ATTREQ
 70
     1
  9
$HANDLING
 70
     1
  9
$HANDSEED
  5
126462
  9
$SURFTAB1
 70
     6
  9
$SURFTAB2
 70
     6
  9
$SURFTYPE
 70
     6
  9
$SURFU
 70
     6
  9
$SURFV
 70
     6
  9
$UCSNAME
  2

  9
$UCSORG
 10
0.0
 20
0.0
 30
0.0
  9
$UCSXDIR
 10
1.0
 20
0.0
 30
0.0
  9
$UCSYDIR
 10
0.0
 20
1.0
 30
0.0
  9
$PUCSNAME
  2

  9
$PUCSORG
 10
0.0
 20
0.0
 30
0.0
  9
$PUCSXDIR
 10
1.0
 20
0.0
 30
0.0
  9
$PUCSYDIR
 10
0.0
 20
1.0
 30
0.0
  9
$USERI1
 70
     0
  9
$USERI2
 70
     0
  9
$USERI3
 70
     0
  9
$USERI4
 70
     0
  9
$USERI5
 70
     0
  9
$USERR1
 40
0.0
  9
$USERR2
 40
0.0
  9
$USERR3
 40
0.0
  9
$USERR4
 40
0.0
  9
$USERR5
 40
0.0
  9
$WORLDVIEW
 70
     1
  9
$SHADEDGE
 70
     3
  9
$SHADEDIF
 70
    70
  9
$TILEMODE
 70
     1
  9
$MAXACTVP
 70
    64
  9
$PLIMCHECK
 70
     0
  9
$PEXTMIN
 10
29.066066288948051
 20
20.366566777229309
 30
0.0
  9
$PEXTMAX
 10
261.5945966005325
 20
183.29910099506381
 30
0.0
  9
$PLIMMIN
 10
-3.17498779296875
 20
-3.1749999523162842
  9
$PLIMMAX
 10
293.83566284179687
 20
206.8406708240509
  9
$UNITMODE
 70
     0
  9
$VISRETAIN
 70
     1
  9
$PLINEGEN
 70
     0
  9
$PSLTSCALE
 70
     1
  0
ENDSEC
  0
SECTION
  2
TABLES
  0
TABLE
  2
VPORT
 70
     1
  0
VPORT
  2
*ACTIVE
 70
     0
 10
0.0
 20
0.0
 11
1.0
 21
1.0
 12
7111.9716468089
 22
-511.22124903372691
 13
0.0
 23
0.0
 14
1.0
 24
1.0
 15
0.0
 25
0.0
 16
0.0
 26
0.0
 36
1.0
 17
0.0
 27
0.0
 37
0.0
 40
8699.6902239190003
 41
1.964560862865947
 42
50.0
 43
0.0
 44
0.0
 50
0.0
 51
0.0
 71
     0
 72
   600
 73
     1
 74
     1
 75
     0
 76
     0
 77
     0
 78
     0
  0
ENDTAB
  0
TABLE
  2
LTYPE
 70
     5
  0
LTYPE
  2
CONTINUOUS
 70
     0
  3
Solid line
 72
    65
 73
     0
 40
0.0
  0
LTYPE
  2
PHANTOM2
 70
     0
  3
___ _ _ ___ _ _ ___ _ _ ___ _ _
 72
    65
 73
     6
 40
1.25
 49
0.625
 49
-0.125
 49
0.125
 49
-0.125
 49
0.125
 49
-0.125
  0
LTYPE
  2
ACAD_ISO08W100
 70
     0
  3
ISO long-dash short-dash ____ __ ____ __ ____ _
 72
    65
 73
     4
 40
36.0
 49
24.0
 49
-3.0
 49
6.0
 49
-3.0
  0
LTYPE
  2
ACAD_ISO02W100
 70
     0
  3
ISO dash __ __ __ __ __ __ __ __ __ __ __ __ __
 72
    65
 73
     2
 40
15.0
 49
12.0
 49
-3.0
  0
ENDTAB
  0
TABLE
  2
LAYER
 70
     7
  0
LAYER
  2
0
 70
     0
 62
     7
  6
CONTINUOUS
  0
LAYER
  2
OBJECT
 70
     0
 62
     4
  6
CONTINUOUS
  0
LAYER
  2
DEFPOINTS
 70
     0
 62
     7
  6
CONTINUOUS
  0
LAYER
  2
HIDDEN
 70
     0
 62
     2
  6
ACAD_ISO02W100
  0
LAYER
  2
CENTER
 70
     0
 62
     2
  6
ACAD_ISO08W100
  0
LAYER
  2
DOTS
 70
     0
 62
     1
  6
CONTINUOUS
  0
LAYER
  2
SLIM
 70
     0
 62
     2
  6
CONTINUOUS
  0
ENDTAB
  0
TABLE
  2
STYLE
 70
     2
  0
STYLE
  2
STANDARD
 70
     0
 40
0.0
 41
0.75
 50
0.0
 71
     0
 42
4.0
  3
simplex.shx
  4
bigfont.shx
  0
STYLE
  2
ANNOTATIVE
 70
     0
 40
0.0
 41
1.0
 50
0.0
 71
     0
 42
0.2
  3
txt
  4

  0
ENDTAB
  0
TABLE
  2
VIEW
 70
     0
  0
ENDTAB
  0
TABLE
  2
UCS
 70
     0
  0
ENDTAB
  0
TABLE
  2
APPID
 70
    18
  0
APPID
  2
ACAD
 70
     0
  0
APPID
  2
ACADANNOTATIVE
 70
     0
  0
APPID
  2
ACAD_PSEXT
 70
     0
  0
APPID
  2
ACAD_EXEMPT_FROM_CAD_STANDARDS
 70
     0
  0
APPID
  2
ACAECLAYERSTANDARD
 70
     0
  0
APPID
  2
ACAUTHENVIRON
 70
     0
  0
APPID
  2
ACDBDYNAMICBLOCKTRUENAME
 70
     0
  0
APPID
  2
ACDBDYNAMICBLOCKGUID
 70
     0
  0
APPID
  2
ACDBBLOCKREPETAG
 70
     0
  0
APPID
  2
ACDBBLOCKREPBTAG
 70
     0
  0
APPID
  2
ACAD_NAV_VCDISPLAY
 70
     0
  0
APPID
  2
ACAD_DSTYLE_DIMRADIAL_EXTENSION
 70
     0
  0
APPID
  2
ACAD_DSTYLE_DIMJAG
 70
     0
  0
APPID
  2
ACAD_DSTYLE_DIMTALN
 70
     0
  0
APPID
  2
ACADANNOPO
 70
     0
  0
APPID
  2
GRADIENTCOLOR1ACI
 70
     0
  0
APPID
  2
GRADIENTCOLOR2ACI
 70
     0
  0
APPID
  2
ACAD_MLEADERVER
 70
     0
  0
ENDTAB
  0
TABLE
  2
DIMSTYLE
 70
     3
  0
DIMSTYLE
  2
STANDARD
 70
     0
  3

  4

  5

  6

  7

 40
1.0
 41
0.18
 42
0.0625
 43
0.38
 44
0.18
 45
0.0
 46
0.0
 47
0.0
 48
0.0
140
0.18
141
0.09
142
0.0
143
25.399999999999999
144
1.0
145
0.0
146
1.0
147
0.09
 71
     0
 72
     0
 73
     1
 74
     1
 75
     0
 76
     0
 77
     0
 78
     0
170
     0
171
     2
172
     0
173
     0
174
     0
175
     0
176
     0
177
     0
178
     0
  0
DIMSTYLE
  2
ANNOTATIVE
 70
     0
  3

  4

  5

  6

  7

 40
1.0
 41
0.18
 42
0.0625
 43
0.38
 44
0.18
 45
0.0
 46
0.0
 47
0.0
 48
0.0
140
0.18
141
0.09
142
0.0
143
25.399999999999999
144
1.0
145
0.0
146
1.0
147
0.09
 71
     0
 72
     0
 73
     1
 74
     1
 75
     0
 76
     0
 77
     0
 78
     0
170
     0
171
     2
172
     0
173
     0
174
     0
175
     0
176
     0
177
     0
178
     0
  0
DIMSTYLE
  2
S10
 70
     0
  3

  4

  5

  6

  7

 40
10.0
 41
2.0
 42
1.0
 43
10.0
 44
1.0
 45
0.0
 46
0.0
 47
0.0
 48
0.0
140
3.2000000000000002
141
0.0
142
0.0
143
25.399999999999999
144
1.0
145
0.0
146
1.0
147
0.9
 71
     0
 72
     0
 73
     0
 74
     0
 75
     0
 76
     0
 77
     1
 78
     8
170
     0
171
     2
172
     1
173
     0
174
     0
175
     0
176
   256
177
   256
178
   256
  0
ENDTAB
  0
ENDSEC
  0
SECTION
  2
BLOCKS
  0
BLOCK
  8
0
  2
$MODEL_SPACE
 70
     0
 10
0.0
 20
0.0
 30
0.0
  3
$MODEL_SPACE
  1

  0
ENDBLK
  5
1263AF
  8
0
  0
BLOCK
 67
     1
  8
0
  2
$PAPER_SPACE
 70
     0
 10
0.0
 20
0.0
 30
0.0
  3
$PAPER_SPACE
  1

  0
ENDBLK
  5
1263AB
 67
     1
  8
0
  0
BLOCK
  8
0
  2
_OPEN30
 70
     0
 10
0.0
 20
0.0
 30
0.0
  3
_OPEN30
  1

  0
LINE
  5
202
  8
0
  6
BYBLOCK
 62
     0
 10
-1.0
 20
0.26794919
 30
0.0
 11
0.0
 21
0.0
 31
0.0
  0
LINE
  5
203
  8
0
  6
BYBLOCK
 62
     0
 10
0.0
 20
0.0
 30
0.0
 11
-1.0
 21
-0.26794919
 31
0.0
  0
LINE
  5
204
  8
0
  6
BYBLOCK
 62
     0
 10
0.0
 20
0.0
 30
0.0
 11
-1.0
 21
0.0
 31
0.0
  0
ENDBLK
  5
206
  8
0
  0
ENDSEC
  0
SECTION
  2
ENTITIES
  0
LINE
  5
125B8A
  8
OBJECT
 10
7897.0
 20
-528.99999999999761
 30
0.0
 11
7900.0
 21
-528.99999999999761
 31
0.0
1001
ACDBBLOCKREPETAG
1070
     1
1071
        1
1005
125B8A
  0
ARC
  5
125B8B
  8
OBJECT
 10
7897.0
 20
-531.99999999999773
 30
0.0
 40
3.0
 50
90.0
 51
180.0
1001
ACDBBLOCKREPETAG
1070
     1
1071
        2
1005
125B8B
  0
LINE
  5
125B8C
  8
OBJECT
 10
7900.0
 20
-652.99999999999761
 30
0.0
 11
7897.0
 21
-652.99999999999761
 31
0.0
1001
ACDBBLOCKREPETAG
1070
     1
1071
        3
1005
125B8C
  0
ARC
  5
125B8D
  8
OBJECT
 10
7897.0
 20
-649.99999999999761
 30
0.0
 40
3.0
 50
180.0
 51
270.0
1001
ACDBBLOCKREPETAG
1070
     1
1071
        4
1005
125B8D
  0
LINE
  5
125B8E
  8
OBJECT
 10
7894.0
 20
-649.99999999999761
 30
0.0
 11
7894.0
 21
-531.99999999999773
 31
0.0
1001
ACDBBLOCKREPETAG
1070
     1
1071
        5
1005
125B8E
  0
CIRCLE
  5
125B8F
  8
OBJECT
 10
8000.0
 20
-590.99999999999761
 30
0.0
 40
62.0
1001
ACDBBLOCKREPETAG
1070
     1
1071
        0
1005
125B8F
  0
LINE
  5
125B90
  8
OBJECT
 10
8095.0
 20
-469.99999999999932
 30
0.0
 11
7905.0
 21
-469.99999999999932
 31
0.0
1001
ACDBBLOCKREPETAG
1070
     1
1071
        0
1005
125B90
  0
LINE
  5
125B91
  8
OBJECT
 10
8095.0
 20
-449.99999999999932
 30
0.0
 11
7905.0
 21
-449.99999999999932
 31
0.0
1001
ACDBBLOCKREPETAG
1070
     1
1071
        1
1005
125B91
  0
LINE
  5
125B92
  8
OBJECT
 10
7902.5
 20
-814.99999999999955
 30
0.0
 11
8097.5000000000009
 21
-814.99999999999955
 31
0.0
1001
ACDBBLOCKREPETAG
1070
     1
1071
        2
1005
125B92
  0
LINE
  5
125B93
  8
OBJECT
 10
7908.237046000002
 20
-449.99999999999932
 30
0.0
 11
7908.2370465822614
 21
-469.99999999999932
 31
0.0
1001
ACDBBLOCKREPETAG
1070
     1
1071
        3
1005
125B93
  0
LINE
  5
125B94
  8
OBJECT
 10
7905.0
 20
-449.99999999999932
 30
0.0
 11
7905.0
 21
-469.99999999999932
 31
0.0
1001
ACDBBLOCKREPETAG
1070
     1
1071
        4
1005
125B94
  0
LINE
  5
125B95
  8
OBJECT
 10
7916.0249089999988
 20
-449.99999999999932
 30
0.0
 11
7916.0249089999988
 21
-469.99999999999932
 31
0.0
1001
ACDBBLOCKREPETAG
1070
     1
1071
        5
1005
125B95
  0
LINE
  5
125B96
  8
OBJECT
 10
7967.6243270000023
 20
-449.99999999999932
 30
0.0
 11
7967.6243270000023
 21
-469.99999999999932
 31
0.0
1001
ACDBBLOCKREPETAG
1070
     1
1071
        6
1005
125B96
  0
LINE
  5
125B97
  8
OBJECT
 10
7975.4121899999973
 20
-449.99999999999932
 30
0.0
 11
7975.4121899999973
 21
-469.99999999999932
 31
0.0
1001
ACDBBLOCKREPETAG
1070
     1
1071
        7
1005
125B97
  0
LINE
  5
125B98
  8
OBJECT
 10
8024.5878090000006
 20
-449.99999999999932
 30
0.0
 11
8024.5878090000006
 21
-469.99999999999932
 31
0.0
1001
ACDBBLOCKREPETAG
1070
     1
1071
        8
1005
125B98
  0
LINE
  5
125B99
  8
OBJECT
 10
8032.3756720000038
 20
-449.99999999999932
 30
0.0
 11
8032.3756720000038
 21
-469.99999999999932
 31
0.0
1001
ACDBBLOCKREPETAG
1070
     1
1071
        9
1005
125B99
  0
LINE
  5
125B9A
  8
OBJECT
 10
8083.9750910000021
 20
-449.99999999999932
 30
0.0
 11
8083.9750910000021
 21
-469.99999999999932
 31
0.0
1001
ACDBBLOCKREPETAG
1070
     1
1071
       10
1005
125B9A
  0
LINE
  5
125B9B
  8
OBJECT
 10
8091.762953999998
 20
-449.99999999999932
 30
0.0
 11
8091.7629534177404
 21
-469.99999999999932
 31
0.0
1001
ACDBBLOCKREPETAG
1070
     1
1071
       11
1005
125B9B
  0
LINE
  5
125B9C
  8
OBJECT
 10
8095.0
 20
-449.99999999999932
 30
0.0
 11
8095.0
 21
-469.99999999999932
 31
0.0
1001
ACDBBLOCKREPETAG
1070
     1
1071
       12
1005
125B9C
  0
LINE
  5
125B9D
  8
OBJECT
 10
8100.0
 20
-528.99999999999955
 30
0.0
 11
7900.0
 21
-528.99999999999955
 31
0.0
1001
ACDBBLOCKREPETAG
1070
     1
1071
       13
1005
125B9D
  0
LINE
  5
125B9E
  8
OBJECT
 10
8100.0
 20
-652.99999999999761
 30
0.0
 11
8092.4999999999973
 21
-652.99999999999761
 31
0.0
1001
ACDBBLOCKREPETAG
1070
     1
1071
       14
1005
125B9E
  0
LINE
  5
125B9F
  8
OBJECT
 10
7902.5
 20
-814.99999999999955
 30
0.0
 11
7902.5
 21
-802.99999999999784
 31
0.0
1001
ACDBBLOCKREPETAG
1070
     1
1071
       15
1005
125B9F
  0
LINE
  5
125BA0
  8
OBJECT
 10
8097.5000000000009
 20
-814.99999999999955
 30
0.0
 11
8097.5000000000009
 21
-802.99999999999784
 31
0.0
1001
ACDBBLOCKREPETAG
1070
     1
1071
       16
1005
125BA0
  0
LINE
  5
125BA1
  8
OBJECT
 10
7902.5
 20
-802.99999999999784
 30
0.0
 11
8097.5000000000009
 21
-802.99999999999784
 31
0.0
1001
ACDBBLOCKREPETAG
1070
     1
1071
       17
1005
125BA1
  0
LINE
  5
125BA2
  8
HIDDEN
 10
7930.0
 20
-524.99999999999955
 30
0.0
 11
8070.0
 21
-524.99999999999955
 31
0.0
1001
ACDBBLOCKREPETAG
1070
     1
1071
       18
1005
125BA2
  0
LINE
  5
125BA3
  8
CENTER
 10
8000.0
 20
-434.99999999999949
 30
0.0
 11
8000.0
 21
-814.99999999999955
 31
0.0
1001
ACDBBLOCKREPETAG
1070
     1
1071
       19
1005
125BA3
  0
LINE
  5
125BA4
  8
OBJECT
 10
8092.4999999999973
 20
-652.99999999999761
 30
0.0
 11
8092.4999999999973
 21
-802.99999999999784
 31
0.0
1001
ACDBBLOCKREPETAG
1070
     1
1071
       20
1005
125BA4
  0
LINE
  5
125BA5
  8
OBJECT
 10
7914.5
 20
-469.99999999999932
 30
0.0
 11
7914.5
 21
-528.99999999999955
 31
0.0
1001
ACDBBLOCKREPETAG
1070
     1
1071
       21
1005
125BA5
  0
LINE
  5
125BA6
  8
OBJECT
 10
8085.5000000000027
 20
-469.99999999999932
 30
0.0
 11
8085.5000000000027
 21
-528.99999999999955
 31
0.0
1001
ACDBBLOCKREPETAG
1070
     1
1071
       22
1005
125BA6
  0
POINT
  5
125BA7
  8
DOTS
 10
8000.0
 20
-649.99999999999955
 30
0.0
1001
ACDBBLOCKREPETAG
1070
     1
1071
       24
1005
125BA7
  0
LINE
  5
125BA8
  8
OBJECT
 10
7900.0
 20
-652.99999999999761
 30
0.0
 11
7907.5
 21
-652.99999999999761
 31
0.0
1001
ACDBBLOCKREPETAG
1070
     1
1071
       25
1005
125BA8
  0
LINE
  5
125BA9
  8
OBJECT
 10
7907.5
 20
-652.99999999999761
 30
0.0
 11
7907.5
 21
-802.99999999999784
 31
0.0
1001
ACDBBLOCKREPETAG
1070
     1
1071
       26
1005
125BA9
  0
ARC
  5
125BAA
  8
OBJECT
 10
8214.4155190291513
 20
-615.62073879202455
 30
0.0
 40
149.554492306393
 50
144.60628028468801
 51
164.2211863995189
1001
ACDBBLOCKREPETAG
1070
     1
1071
       28
1005
125BAA
  0
ARC
  5
125BAB
  8
OBJECT
 10
8139.1422781245292
 20
-590.99999999999761
 30
0.0
 40
70.496447952551449
 50
166.8426918235858
 51
193.15730817641409
1001
ACDBBLOCKREPETAG
1070
     1
1071
       29
1005
125BAB
  0
ARC
  5
125BAC
  8
OBJECT
 10
8214.4155190291513
 20
-566.3792612079701
 30
0.0
 40
149.55449230639621
 50
195.7788136004809
 51
215.3937197153119
1001
ACDBBLOCKREPETAG
1070
     1
1071
       30
1005
125BAC
  0
ARC
  5
125BAD
  8
OBJECT
 10
7785.5844809708497
 20
-615.62073879202455
 30
0.0
 40
149.554492306393
 50
15.778813600524931
 51
35.393719715228642
1001
ACDBBLOCKREPETAG
1070
     1
1071
       31
1005
125BAD
  0
ARC
  5
125BAE
  8
OBJECT
 10
7860.8577218754726
 20
-590.99999999999761
 30
0.0
 40
70.496447952551449
 50
346.84269182358582
 51
13.15730817641421
1001
ACDBBLOCKREPETAG
1070
     1
1071
       32
1005
125BAE
  0
ARC
  5
125BAF
  8
OBJECT
 10
7785.5844809708497
 20
-566.3792612079701
 30
0.0
 40
149.55449230639621
 50
324.60628028477117
 51
344.22118639947507
1001
ACDBBLOCKREPETAG
1070
     1
1071
       33
1005
125BAF
  0
LINE
  5
125BB0
  8
CENTER
 10
7878.9999999999973
 20
-199.99999999999909
 30
0.0
 11
7899.9999999999973
 21
-199.99999999999909
 31
0.0
1001
ACDBBLOCKREPETAG
1070
     1
1071
        0
1005
125BB0
  0
LINE
  5
125BB1
  8
OBJECT
 10
7896.9999999999973
 20
-261.99999999999909
 30
0.0
 11
7899.9999999999973
 21
-261.99999999999909
 31
0.0
1001
ACDBBLOCKREPETAG
1070
     1
1071
        1
1005
125BB1
  0
ARC
  5
125BB2
  8
OBJECT
 10
7896.9999999999973
 20
-258.99999999999909
 30
0.0
 40
3.0
 50
180.0
 51
270.0
1001
ACDBBLOCKREPETAG
1070
     1
1071
        2
1005
125BB2
  0
LINE
  5
125BB3
  8
OBJECT
 10
7899.9999999999973
 20
-137.99999999999909
 30
0.0
 11
7896.9999999999973
 21
-137.99999999999909
 31
0.0
1001
ACDBBLOCKREPETAG
1070
     1
1071
        3
1005
125BB3
  0
ARC
  5
125BB4
  8
OBJECT
 10
7896.9999999999973
 20
-140.99999999999909
 30
0.0
 40
3.0
 50
90.0
 51
180.0
1001
ACDBBLOCKREPETAG
1070
     1
1071
        4
1005
125BB4
  0
LINE
  5
125BB5
  8
OBJECT
 10
7893.9999999999973
 20
-140.99999999999909
 30
0.0
 11
7893.9999999999973
 21
-258.99999999999909
 31
0.0
1001
ACDBBLOCKREPETAG
1070
     1
1071
        5
1005
125BB5
  0
LINE
  5
125BB6
  8
CENTER
 10
8000.0000000000027
 20
-320.99999999999892
 30
0.0
 11
8000.0000000000027
 21
-299.99999999999892
 31
0.0
1001
ACDBBLOCKREPETAG
1070
     1
1071
        0
1005
125BB6
  0
LINE
  5
125BB7
  8
OBJECT
 10
8062.0000000000018
 20
-303.0
 30
0.0
 11
8062.0000000000018
 21
-299.99999999999892
 31
0.0
1001
ACDBBLOCKREPETAG
1070
     1
1071
        1
1005
125BB7
  0
ARC
  5
125BB8
  8
OBJECT
 10
8059.0000000000018
 20
-303.0
 30
0.0
 40
3.0
 50
270.0
 51
0.0
1001
ACDBBLOCKREPETAG
1070
     1
1071
        2
1005
125BB8
  0
LINE
  5
125BB9
  8
OBJECT
 10
7938.0000000000018
 20
-299.99999999999892
 30
0.0
 11
7938.0000000000018
 21
-302.99999999999818
 31
0.0
1001
ACDBBLOCKREPETAG
1070
     1
1071
        3
1005
125BB9
  0
ARC
  5
125BBA
  8
OBJECT
 10
7941.0000000000018
 20
-302.99999999999818
 30
0.0
 40
3.0
 50
180.0
 51
270.0
1001
ACDBBLOCKREPETAG
1070
     1
1071
        4
1005
125BBA
  0
LINE
  5
125BBB
  8
OBJECT
 10
7941.0000000000018
 20
-305.99999999999818
 30
0.0
 11
8059.0000000000018
 21
-306.0
 31
0.0
1001
ACDBBLOCKREPETAG
1070
     1
1071
        5
1005
125BBB
  0
LINE
  5
125BBC
  8
SLIM
 10
7918.5743713244692
 20
-137.74153073842379
 30
0.0
 11
7937.7415307384244
 21
-118.5743713244679
 31
0.0
1001
GRADIENTCOLOR1ACI
1070
     5
1001
GRADIENTCOLOR2ACI
1070
     2
1001
ACAD
1010
0.0
1020
0.0
1030
0.0
1001
ACDBBLOCKREPETAG
1070
     1
1071
      301
1005
125BBC
  0
LINE
  5
125BBD
  8
SLIM
 10
7927.2961581839618
 20
-137.99999999999909
 30
0.0
 11
7959.4220169794107
 21
-105.8741412045496
 31
0.0
1001
GRADIENTCOLOR1ACI
1070
     5
1001
GRADIENTCOLOR2ACI
1070
     2
1001
ACAD
1010
0.0
1020
0.0
1030
0.0
1001
ACDBBLOCKREPETAG
1070
     1
1071
      302
1005
125BBD
  0
LINE
  5
125BBE
  8
SLIM
 10
7955.2080715681668
 20
-119.0683427368643
 30
0.0
 11
7973.2147923567691
 21
-101.06162194825821
 31
0.0
1001
GRADIENTCOLOR1ACI
1070
     5
1001
GRADIENTCOLOR2ACI
1070
     2
1001
ACAD
1010
0.0
1020
0.0
1030
0.0
1001
ACDBBLOCKREPETAG
1070
     1
1071
      303
1005
125BBE
  0
LINE
  5
125BBF
  8
SLIM
 10
7971.1389053532557
 20
-112.11776507284389
 30
0.0
 11
7984.5919680901698
 21
-98.664702335928993
 31
0.0
1001
GRADIENTCOLOR1ACI
1070
     5
1001
GRADIENTCOLOR2ACI
1070
     2
1001
ACAD
1010
0.0
1020
0.0
1030
0.0
1001
ACDBBLOCKREPETAG
1070
     1
1071
      304
1005
125BBF
  0
LINE
  5
125BC0
  8
SLIM
 10
7986.2342955596032
 20
-106.0026309875652
 30
0.0
 11
7994.59428198766
 21
-97.642644559507801
 31
0.0
1001
GRADIENTCOLOR1ACI
1070
     5
1001
GRADIENTCOLOR2ACI
1070
     2
1001
ACAD
1010
0.0
1020
0.0
1030
0.0
1001
ACDBBLOCKREPETAG
1070
     1
1071
      278
1005
125BC0
  0
LINE
  5
125BC1
  8
SLIM
 10
7996.138677540931
 20
-105.0785051273038
 30
0.0
 11
8000.0
 21
-101.21718266823839
 31
0.0
1001
GRADIENTCOLOR1ACI
1070
     5
1001
GRADIENTCOLOR2ACI
1070
     2
1001
ACAD
1010
0.0
1020
0.0
1030
0.0
1001
ACDBBLOCKREPETAG
1070
     1
1071
      305
1005
125BC1
  0
LINE
  5
125BC2
  8
SLIM
 10
8000.0
 20
-101.21718266823839
 30
0.0
 11
8003.652099419467
 21
-97.565083248774314
 31
0.0
1001
GRADIENTCOLOR1ACI
1070
     5
1001
GRADIENTCOLOR2ACI
1070
     2
1001
ACAD
1010
0.0
1020
0.0
1030
0.0
1001
ACDBBLOCKREPETAG
1070
     1
1071
      306
1005
125BC2
  0
LINE
  5
125BC3
  8
SLIM
 10
8005.0624562444928
 20
-105.13498254481389
 30
0.0
 11
8011.9933588609547
 21
-98.204079928355625
 31
0.0
1001
GRADIENTCOLOR1ACI
1070
     5
1001
GRADIENTCOLOR2ACI
1070
     2
1001
ACAD
1010
0.0
1020
0.0
1030
0.0
1001
ACDBBLOCKREPETAG
1070
     1
1071
      307
1005
125BC3
  0
LINE
  5
125BC4
  8
SLIM
 10
8013.2492495222623
 20
-105.9284453881143
 30
0.0
 11
8019.7558130592479
 21
-99.421881851129058
 31
0.0
1001
GRADIENTCOLOR1ACI
1070
     5
1001
GRADIENTCOLOR2ACI
1070
     2
1001
ACAD
1010
0.0
1020
0.0
1030
0.0
1001
ACDBBLOCKREPETAG
1070
     1
1071
      282
1005
125BC4
  0
LINE
  5
125BC5
  8
SLIM
 10
8020.8432248281179
 20
-107.31472620332499
 30
0.0
 11
8027.0297896486627
 21
-101.1281613827821
 31
0.0
1001
GRADIENTCOLOR1ACI
1070
     5
1001
GRADIENTCOLOR2ACI
1070
     2
1001
ACAD
1010
0.0
1020
0.0
1030
0.0
1001
ACDBBLOCKREPETAG
1070
     1
1071
      283
1005
125BC5
  0
LINE
  5
125BC6
  8
SLIM
 10
8026.7444850762586
 20
-110.3937220762563
 30
0.0
 11
8033.877784086586
 21
-103.2604230659298
 31
0.0
1001
GRADIENTCOLOR1ACI
1070
     5
1001
GRADIENTCOLOR2ACI
1070
     2
1001
ACAD
1010
0.0
1020
0.0
1030
0.0
1001
ACDBBLOCKREPETAG
1070
     1
1071
      284
1005
125BC6
  0
LINE
  5
125BC7
  8
SLIM
 10
8032.6605739035549
 20
-113.4578893700272
 30
0.0
 11
8040.3445940865868
 21
-105.7738691869987
 31
0.0
1001
GRADIENTCOLOR1ACI
1070
     5
1001
GRADIENTCOLOR2ACI
1070
     2
1001
ACAD
1010
0.0
1020
0.0
1030
0.0
1001
ACDBBLOCKREPETAG
1070
     1
1071
      285
1005
125BC7
  0
LINE
  5
125BC8
  8
SLIM
 10
8038.983012933968
 20
-116.115706460684
 30
0.0
 11
8046.4630285156381
 21
-108.63569087901411
 31
0.0
1001
GRADIENTCOLOR1ACI
1070
     5
1001
GRADIENTCOLOR2ACI
1070
     2
1001
ACAD
1010
0.0
1020
0.0
1030
0.0
1001
ACDBBLOCKREPETAG
1070
     1
1071
      286
1005
125BC8
  0
LINE
  5
125BC9
  8
SLIM
 10
8044.9326113883499
 20
-119.1463641273716
 30
0.0
 11
8052.2573273714534
 21
-111.8216481442697
 31
0.0
1001
GRADIENTCOLOR1ACI
1070
     5
1001
GRADIENTCOLOR2ACI
1070
     2
1001
ACAD
1010
0.0
1020
0.0
1030
0.0
1001
ACDBBLOCKREPETAG
1070
     1
1071
      287
1005
125BC9
  0
LINE
  5
125BCA
  8
SLIM
 10
8050.5348792738341
 20
-122.5243523629576
 30
0.0
 11
8057.7453005374227
 21
-115.3139310993673
 31
0.0
1001
GRADIENTCOLOR1ACI
1070
     5
1001
GRADIENTCOLOR2ACI
1070
     2
1001
ACAD
1010
0.0
1020
0.0
1030
0.0
1001
ACDBBLOCKREPETAG
1070
     1
1071
      288
1005
125BCA
  0
LINE
  5
125BCB
  8
SLIM
 10
7919.0997883728269
 20
-262.93969938503398
 30
0.0
 11
7920.039487757861
 21
-261.99999999999909
 31
0.0
1001
GRADIENTCOLOR1ACI
1070
     5
1001
GRADIENTCOLOR2ACI
1070
     2
1001
ACAD
1010
0.0
1020
0.0
1030
0.0
1001
ACDBBLOCKREPETAG
1070
     1
1071
      289
1005
125BCB
  0
LINE
  5
125BCC
  8
SLIM
 10
8055.807705723706
 20
-126.2317820341551
 30
0.0
 11
8062.9396993850351
 21
-119.0997883728258
 31
0.0
1001
GRADIENTCOLOR1ACI
1070
     5
1001
GRADIENTCOLOR2ACI
1070
     2
1001
ACAD
1010
0.0
1020
0.0
1030
0.0
1001
ACDBBLOCKREPETAG
1070
     1
1071
      290
1005
125BCC
  0
LINE
  5
125BCD
  8
SLIM
 10
7923.1706450290276
 20
-267.84909884990361
 30
0.0
 11
7929.019743878931
 21
-261.99999999999909
 31
0.0
1001
GRADIENTCOLOR1ACI
1070
     5
1001
GRADIENTCOLOR2ACI
1070
     2
1001
ACAD
1010
0.0
1020
0.0
1030
0.0
1001
ACDBBLOCKREPETAG
1070
     1
1071
      291
1005
125BCD
  0
LINE
  5
125BCE
  8
SLIM
 10
8060.7629465796699
 20
-130.25679729926071
 30
0.0
 11
8067.8490988499034
 21
-123.17064502902539
 31
0.0
1001
GRADIENTCOLOR1ACI
1070
     5
1001
GRADIENTCOLOR2ACI
1070
     2
1001
ACAD
1010
0.0
1020
0.0
1030
0.0
1001
ACDBBLOCKREPETAG
1070
     1
1071
      292
1005
125BCE
  0
LINE
  5
125BCF
  8
SLIM
 10
7927.5215549283794
 20
-272.47844507162011
 30
0.0
 11
7934.5926227402433
 21
-265.40737725975481
 31
0.0
1001
GRADIENTCOLOR1ACI
1070
     5
1001
GRADIENTCOLOR2ACI
1070
     2
1001
ACAD
1010
0.0
1020
0.0
1030
0.0
1001
ACDBBLOCKREPETAG
1070
     1
1071
      293
1005
125BCF
  0
LINE
  5
125BD0
  8
SLIM
 10
8065.4073772597576
 20
-134.5926227402434
 30
0.0
 11
8072.4784450716224
 21
-127.52155492837799
 31
0.0
1001
GRADIENTCOLOR1ACI
1070
     5
1001
GRADIENTCOLOR2ACI
1070
     2
1001
ACAD
1010
0.0
1020
0.0
1030
0.0
1001
ACDBBLOCKREPETAG
1070
     1
1071
      294
1005
125BD0
  0
LINE
  5
125BD1
  8
SLIM
 10
7932.1509011500939
 20
-276.82935497097282
 30
0.0
 11
7937.9999999999936
 21
-270.980256121075
 31
0.0
1001
GRADIENTCOLOR1ACI
1070
     5
1001
GRADIENTCOLOR2ACI
1070
     2
1001
ACAD
1010
0.0
1020
0.0
1030
0.0
1001
ACDBBLOCKREPETAG
1070
     1
1071
      295
1005
125BD1
  0
LINE
  5
125BD2
  8
SLIM
 10
8070.980256121069
 20
-137.99999999999901
 30
0.0
 11
8076.8293549709733
 21
-132.15090115009451
 31
0.0
1001
GRADIENTCOLOR1ACI
1070
     5
1001
GRADIENTCOLOR2ACI
1070
     2
1001
ACAD
1010
0.0
1020
0.0
1030
0.0
1001
ACDBBLOCKREPETAG
1070
     1
1071
      296
1005
125BD2
  0
LINE
  5
125BD3
  8
SLIM
 10
7937.0603006149649
 20
-280.90021162717238
 30
0.0
 11
7937.9999999999955
 21
-279.9605122421421
 31
0.0
1001
GRADIENTCOLOR1ACI
1070
     5
1001
GRADIENTCOLOR2ACI
1070
     2
1001
ACAD
1010
0.0
1020
0.0
1030
0.0
1001
ACDBBLOCKREPETAG
1070
     1
1071
      297
1005
125BD3
  0
LINE
  5
125BD4
  8
SLIM
 10
8079.9605122421362
 20
-137.99999999999901
 30
0.0
 11
8080.9002116271704
 21
-137.06030061496409
 31
0.0
1001
GRADIENTCOLOR1ACI
1070
     5
1001
GRADIENTCOLOR2ACI
1070
     2
1001
ACAD
1010
0.0
1020
0.0
1030
0.0
1001
ACDBBLOCKREPETAG
1070
     1
1071
      298
1005
125BD4
  0
LINE
  5
125BD5
  8
SLIM
 10
8062.0000000000018
 20
-272.70384181603538
 30
0.0
 11
8072.7038418160373
 21
-261.99999999999909
 31
0.0
1001
GRADIENTCOLOR1ACI
1070
     5
1001
GRADIENTCOLOR2ACI
1070
     2
1001
ACAD
1010
0.0
1020
0.0
1030
0.0
1001
ACDBBLOCKREPETAG
1070
     1
1071
      299
1005
125BD5
  0
LINE
  5
125BD6
  8
SLIM
 10
8062.2584692615746
 20
-281.4256286755305
 30
0.0
 11
8081.4256286755299
 21
-262.25846926157431
 31
0.0
1001
GRADIENTCOLOR1ACI
1070
     5
1001
GRADIENTCOLOR2ACI
1070
     2
1001
ACAD
1010
0.0
1020
0.0
1030
0.0
1001
ACDBBLOCKREPETAG
1070
     1
1071
      300
1005
125BD6
  0
LINE
  5
125BD7
  8
OBJECT
 10
8068.6458301719767
 20
-137.99999999999909
 30
0.0
 11
8100.0
 21
-137.99999999999909
 31
0.0
1001
ACDBBLOCKREPETAG
1070
     1
1071
      242
1005
125BD7
  0
LINE
  5
125BD8
  8
OBJECT
 10
8068.6458301719767
 20
-261.99999999999909
 30
0.0
 11
8100.0000000000064
 21
-261.99999999999909
 31
0.0
1001
ACDBBLOCKREPETAG
1070
     1
1071
      243
1005
125BD8
  0
LINE
  5
125BD9
  8
OBJECT
 10
8062.0
 20
-268.64583017197862
 30
0.0
 11
8062.00000000001
 21
-299.99999999999892
 31
0.0
1001
ACDBBLOCKREPETAG
1070
     1
1071
      244
1005
125BD9
  0
LINE
  5
125BDA
  8
OBJECT
 10
7937.9999999999891
 20
-268.64583017197492
 30
0.0
 11
7938.0
 21
-299.99999999999892
 31
0.0
1001
ACDBBLOCKREPETAG
1070
     1
1071
      245
1005
125BDA
  0
LINE
  5
125BDB
  8
OBJECT
 10
7931.354169828026
 20
-261.99999999999909
 30
0.0
 11
7899.9999999999909
 21
-261.99999999999909
 31
0.0
1001
ACDBBLOCKREPETAG
1070
     1
1071
      246
1005
125BDB
  0
LINE
  5
125BDC
  8
OBJECT
 10
7931.354169828026
 20
-137.99999999999909
 30
0.0
 11
7899.9999999999909
 21
-137.99999999999909
 31
0.0
1001
ACDBBLOCKREPETAG
1070
     1
1071
      247
1005
125BDC
  0
LINE
  5
125BDD
  8
CENTER
 10
7900.0
 20
-199.99999999999909
 30
0.0
 11
8100.0
 21
-199.99999999999909
 31
0.0
1001
ACDBBLOCKREPETAG
1070
     1
1071
      251
1005
125BDD
  0
LINE
  5
125BDE
  8
CENTER
 10
8000.0
 20
-82.499999999999091
 30
0.0
 11
8000.0
 21
-299.99999999999892
 31
0.0
1001
ACDBBLOCKREPETAG
1070
     1
1071
      252
1005
125BDE
  0
ARC
  5
125BDF
  8
OBJECT
 10
8000.0
 20
-199.99999999999909
 30
0.0
 40
102.5
 50
37.220066868561332
 51
142.77993313143861
1001
ACDBBLOCKREPETAG
1070
     1
1071
      256
1005
125BDF
  0
ARC
  5
125BE0
  8
OBJECT
 10
8000.0
 20
-199.99999999999909
 30
0.0
 40
102.5
 50
217.2200668685613
 51
232.7799331314061
1001
ACDBBLOCKREPETAG
1070
     1
1071
      257
1005
125BE0
  0
ARC
  5
125BE1
  8
OBJECT
 10
8000.0
 20
-199.99999999999909
 30
0.0
 40
102.5
 50
307.2200668685939
 51
322.77993313143872
1001
ACDBBLOCKREPETAG
1070
     1
1071
      258
1005
125BE1
  0
ARC
  5
125BE2
  8
OBJECT
 10
7973.8931207053256
 20
-173.82438331578209
 30
0.0
 40
90.0
 50
274.21795726566182
 51
281.60300086768922
1001
ACDBBLOCKREPETAG
1070
     1
1071
      261
1005
125BE2
  0
LINE
  5
125BE3
  8
OBJECT
 10
7991.994750999992
 20
-261.98520799999727
 30
0.0
 11
7996.6424319999942
 21
-248.3387539999994
 31
0.0
1001
ACDBBLOCKREPETAG
1070
     1
1071
      262
1005
125BE3
  0
LINE
  5
125BE4
  8
OBJECT
 10
7955.2887960976786
 20
-207.0733020425842
 30
0.0
 11
7935.6054186421097
 21
-216.60084009147889
 31
0.0
1001
ACDBBLOCKREPETAG
1070
     1
1071
      263
1005
125BE4
  0
LINE
  5
125BE5
  8
OBJECT
 10
7937.3350639238643
 20
-222.25658973369261
 30
0.0
 11
7961.7560738851162
 21
-210.43584915155679
 31
0.0
1001
ACDBBLOCKREPETAG
1070
     1
1071
      264
1005
125BE5
  0
LINE
  5
125BE6
  8
OBJECT
 10
7996.6424319999942
 20
-248.3387539999994
 30
0.0
 11
7970.3289245926408
 21
-210.9660806555467
 31
0.0
1001
ACDBBLOCKREPETAG
1070
     1
1071
      265
1005
125BE6
  0
ARC
  5
125BE7
  8
OBJECT
 10
7960.5170048000518
 20
-217.87449798398211
 30
0.0
 40
12.0
 50
35.148769561161963
 51
115.8288295732624
1001
ACDBBLOCKREPETAG
1070
     1
1071
      266
1005
125BE7
  0
ARC
  5
125BE8
  8
OBJECT
 10
7965.2415463179786
 20
-217.63664646295089
 30
0.0
 40
8.0
 50
35.148769561161963
 51
115.8288292916689
1001
ACDBBLOCKREPETAG
1070
     1
1071
      267
1005
125BE8
  0
ARC
  5
125BE9
  8
OBJECT
 10
8000.0
 20
-199.99999999999909
 30
0.0
 40
90.0
 50
201.08359599996521
 51
248.91640400002939
1001
ACDBBLOCKREPETAG
1070
     1
1071
      273
1005
125BE9
  0
ARC
  5
125BEA
  8
OBJECT
 10
8000.0
 20
-199.99999999999909
 30
0.0
 40
90.0
 50
111.0835959999705
 51
158.91640347115251
1001
ACDBBLOCKREPETAG
1070
     1
1071
      274
1005
125BEA
  0
LINE
  5
125BEB
  8
OBJECT
 10
7916.0249094448664
 20
-167.62432755513231
 30
0.0
 11
7908.2370465822614
 21
-175.41219041773809
 31
0.0
1001
ACDBBLOCKREPETAG
1070
     1
1071
      275
1005
125BEB
  0
LINE
  5
125BEC
  8
OBJECT
 10
7916.0249089999988
 20
-232.37567199999921
 30
0.0
 11
7908.2370469998141
 21
-224.58781114059909
 31
0.0
1001
ACDBBLOCKREPETAG
1070
     1
1071
      276
1005
125BEC
  0
ARC
  5
125BED
  8
OBJECT
 10
8000.0
 20
-199.99999999999909
 30
0.0
 40
95.0
 50
164.99999981411651
 51
195.00000115873701
1001
ACDBBLOCKREPETAG
1070
     1
1071
      277
1005
125BED
  0
ARC
  5
125BEE
  8
OBJECT
 10
8000.0
 20
-199.99999999999909
 30
0.0
 40
92.5
 50
287.80189678391901
 51
342.1981035993042
1001
ACDBBLOCKREPETAG
1070
     1
1071
      209
1005
125BEE
  0
ARC
  5
125BEF
  8
OBJECT
 10
8000.0
 20
-199.99999999999909
 30
0.0
 40
90.0
 50
291.08359599997061
 51
338.91640400003479
1001
ACDBBLOCKREPETAG
1070
     1
1071
      211
1005
125BEF
  0
CIRCLE
  5
125BF0
  8
OBJECT
 10
8000.0
 20
-199.99999999999909
 30
0.0
 40
80.0
1001
ACDBBLOCKREPETAG
1070
     1
1071
      212
1005
125BF0
  0
ARC
  5
125BF1
  8
OBJECT
 10
8000.0
 20
-199.99999999999909
 30
0.0
 40
90.0
 50
21.08359652884743
 51
68.916404000029431
1001
ACDBBLOCKREPETAG
1070
     1
1071
      213
1005
125BF1
  0
CIRCLE
  5
125BF2
  8
OBJECT
 10
8000.0
 20
-199.99999999999909
 30
0.0
 40
66.5
1001
ACDBBLOCKREPETAG
1070
     1
1071
      215
1005
125BF2
  0
LINE
  5
125BF3
  8
OBJECT
 10
8083.9750905551327
 20
-167.62432755513231
 30
0.0
 11
8091.7629534177404
 21
-175.4121904177382
 31
0.0
1001
ACDBBLOCKREPETAG
1070
     1
1071
      216
1005
125BF3
  0
LINE
  5
125BF4
  8
OBJECT
 10
8083.9750910000021
 20
-232.37567199999921
 30
0.0
 11
8091.7629530001877
 21
-224.58781114059909
 31
0.0
1001
ACDBBLOCKREPETAG
1070
     1
1071
      217
1005
125BF4
  0
ARC
  5
125BF5
  8
OBJECT
 10
8000.0
 20
-199.99999999999909
 30
0.0
 40
95.0
 50
344.99999884126299
 51
15.00000018588349
1001
ACDBBLOCKREPETAG
1070
     1
1071
      218
1005
125BF5
  0
LINE
  5
125BF6
  8
OBJECT
 10
8032.375672999995
 20
-283.9750909999994
 30
0.0
 11
8024.587810948281
 21
-291.76295305171419
 31
0.0
1001
ACDBBLOCKREPETAG
1070
     1
1071
      219
1005
125BF6
  0
LINE
  5
125BF7
  8
OBJECT
 10
7967.6243279999981
 20
-283.9750909999994
 30
0.0
 11
7975.4121904177382
 21
-291.76295341774039
 31
0.0
1001
ACDBBLOCKREPETAG
1070
     1
1071
      220
1005
125BF7
  0
ARC
  5
125BF8
  8
OBJECT
 10
8000.0
 20
-199.99999999999909
 30
0.0
 40
95.0
 50
254.99999981420709
 51
285.00000103861061
1001
ACDBBLOCKREPETAG
1070
     1
1071
      221
1005
125BF8
  0
LINE
  5
125BF9
  8
OBJECT
 10
8032.375672999995
 20
-116.0249099999992
 30
0.0
 11
8024.5878095822618
 21
-108.2370465822578
 31
0.0
1001
ACDBBLOCKREPETAG
1070
     1
1071
      222
1005
125BF9
  0
ARC
  5
125BFA
  8
OBJECT
 10
8000.0
 20
-199.99999999999909
 30
0.0
 40
95.0
 50
74.999999814207143
 51
104.99999933254421
1001
ACDBBLOCKREPETAG
1070
     1
1071
      223
1005
125BFA
  0
LINE
  5
125BFB
  8
OBJECT
 10
7967.6243279999981
 20
-116.0249099999992
 30
0.0
 11
7975.4121917837692
 21
-108.2370462162316
 31
0.0
1001
ACDBBLOCKREPETAG
1070
     1
1071
      224
1005
125BFB
  0
LINE
  5
125BFC
  8
OBJECT
 10
8055.1784370000023
 20
-162.884098999998
 30
0.0
 11
8032.5345701092747
 21
-178.11554723457169
 31
0.0
1001
ACDBBLOCKREPETAG
1070
     1
1071
      225
1005
125BFC
  0
LINE
  5
125BFD
  8
OBJECT
 10
7944.804121000001
 20
-162.88106899999821
 30
0.0
 11
8032.5345701092747
 21
-178.11554723457169
 31
0.0
1001
ACDBBLOCKREPETAG
1070
     1
1071
      226
1005
125BFD
  0
ARC
  5
125BFE
  8
OBJECT
 10
8000.0
 20
-199.99999999999909
 30
0.0
 40
92.5
 50
197.8018954425261
 51
252.19810417408729
1001
ACDBBLOCKREPETAG
1070
     1
1071
      230
1005
125BFE
  0
ARC
  5
125BFF
  8
OBJECT
 10
8000.0
 20
-199.99999999999909
 30
0.0
 40
92.5
 50
107.80189486746769
 51
162.19810513270031
1001
ACDBBLOCKREPETAG
1070
     1
1071
      231
1005
125BFF
  0
ARC
  5
125C00
  8
OBJECT
 10
8000.0
 20
-199.99999999999909
 30
0.0
 40
92.5
 50
17.801895825711568
 51
72.19810417408732
1001
ACDBBLOCKREPETAG
1070
     1
1071
      232
1005
125C00
  0
ARC
  5
125C01
  8
OBJECT
 10
8000.0
 20
-199.99999999999909
 30
0.0
 40
62.5
 50
144.42390307805491
 51
193.7174643726803
1001
ACDBBLOCKREPETAG
1070
     1
1071
      234
1005
125C01
  0
ARC
  5
125C02
  8
OBJECT
 10
8000.0
 20
-199.99999999999909
 30
0.0
 40
62.5
 50
262.64111297834887
 51
33.92683896333525
1001
ACDBBLOCKREPETAG
1070
     1
1071
      235
1005
125C02
  0
POINT
  5
125C03
  8
DOTS
 10
8000.0
 20
-199.99999999999909
 30
0.0
1001
ACDBBLOCKREPETAG
1070
     1
1071
      280
1005
125C03
  0
LINE
  5
125C04
  8
OBJECT
 10
8222.9999999999873
 20
-477.99999999999852
 30
0.0
 11
8229.9999999999873
 21
-477.99999999999852
 31
0.0
1001
ACDBBLOCKREPETAG
1070
     1
1071
       83
1005
125C04
  0
LINE
  5
125C05
  8
OBJECT
 10
8229.9999999999873
 20
-477.99999999999852
 30
0.0
 11
8229.9999999999873
 21
-601.99999999999852
 31
0.0
1001
ACDBBLOCKREPETAG
1070
     1
1071
       84
1005
125C05
  0
LINE
  5
125C06
  8
OBJECT
 10
8105.9999999999854
 20
-548.35026377572513
 30
0.0
 11
8105.9999999999854
 21
-649.99999999999852
 31
0.0
1001
ACDBBLOCKREPETAG
1070
     1
1071
       85
1005
125C06
  0
LINE
  5
125C07
  8
OBJECT
 10
8229.9999999999873
 20
-601.99999999999852
 30
0.0
 11
8222.9999999999873
 21
-601.99999999999852
 31
0.0
1001
ACDBBLOCKREPETAG
1070
     1
1071
       86
1005
125C07
  0
LINE
  5
125C08
  8
OBJECT
 10
8222.9999999999873
 20
-601.99999999999852
 30
0.0
 11
8222.9999999999873
 21
-477.99999999999852
 31
0.0
1001
ACDBBLOCKREPETAG
1070
     1
1071
       87
1005
125C08
  0
LINE
  5
125C09
  8
CENTER
 10
8154.9999999999864
 20
-539.99999999999852
 30
0.0
 11
8244.9999999999873
 21
-539.99999999999852
 31
0.0
1001
ACDBBLOCKREPETAG
1070
     1
1071
       88
1005
125C09
  0
LINE
  5
125C0A
  8
OBJECT
 10
8099.9999999999809
 20
-652.99999999999761
 30
0.0
 11
8102.9999999999854
 21
-652.99999999999852
 31
0.0
1001
ACDBBLOCKREPETAG
1070
     1
1071
       89
1005
125C0A
  0
ARC
  5
125C0B
  8
OBJECT
 10
8102.9999999999854
 20
-649.99999999999852
 30
0.0
 40
3.0
 50
270.0
 51
0.0
1001
ACDBBLOCKREPETAG
1070
     1
1071
       90
1005
125C0B
  0
LINE
  5
125C0C
  8
OBJECT
 10
8222.9999999999873
 20
-480.99999999999841
 30
0.0
 11
8186.9999999999864
 21
-480.99999999999841
 31
0.0
1001
ACDBBLOCKREPETAG
1070
     1
1071
       91
1005
125C0C
  0
LINE
  5
125C0D
  8
OBJECT
 10
8186.9999999999864
 20
-480.99999999999841
 30
0.0
 11
8186.9999999999864
 21
-598.99999999999852
 31
0.0
1001
ACDBBLOCKREPETAG
1070
     1
1071
       92
1005
125C0D
  0
LINE
  5
125C0E
  8
OBJECT
 10
8182.9999999999873
 20
-485.49999999999841
 30
0.0
 11
8182.9999999999873
 21
-594.49999999999852
 31
0.0
1001
ACDBBLOCKREPETAG
1070
     1
1071
       93
1005
125C0E
  0
LINE
  5
125C0F
  8
OBJECT
 10
8182.9999999999873
 20
-485.49999999999841
 30
0.0
 11
8169.9999999999854
 21
-485.49999999999841
 31
0.0
1001
ACDBBLOCKREPETAG
1070
     1
1071
       94
1005
125C0F
  0
LINE
  5
125C10
  8
OBJECT
 10
8186.9999999999864
 20
-598.99999999999852
 30
0.0
 11
8222.9999999999873
 21
-598.99999999999852
 31
0.0
1001
ACDBBLOCKREPETAG
1070
     1
1071
       95
1005
125C10
  0
LINE
  5
125C11
  8
OBJECT
 10
8186.9999999999864
 20
-480.99999999999841
 30
0.0
 11
8182.9999999999873
 21
-485.49999999999841
 31
0.0
1001
ACDBBLOCKREPETAG
1070
     1
1071
       96
1005
125C11
  0
LINE
  5
125C12
  8
OBJECT
 10
8169.9999999999854
 20
-485.49999999999841
 30
0.0
 11
8169.9999999999854
 21
-570.74491827928557
 31
0.0
1001
ACDBBLOCKREPETAG
1070
     1
1071
       97
1005
125C12
  0
ARC
  5
125C13
  8
OBJECT
 10
8172.7999999999856
 20
-579.99999999999852
 30
0.0
 40
85.0
 50
91.887731891831123
 51
143.1301023540934
1001
ACDBBLOCKREPETAG
1070
     1
1071
       98
1005
125C13
  0
LINE
  5
125C14
  8
HIDDEN
 10
8177.9999999999864
 20
-495.49999999999841
 30
0.0
 11
8177.9999999999864
 21
-584.49999999999852
 31
0.0
1001
ACDBBLOCKREPETAG
1070
     1
1071
      100
1005
125C14
  0
LINE
  5
125C15
  8
OBJECT
 10
8105.9999999999854
 20
-646.07945073181554
 30
0.0
 11
8176.6313199210299
 21
-594.49999999999852
 31
0.0
1001
ACDBBLOCKREPETAG
1070
     1
1071
      101
1005
125C15
  0
LINE
  5
125C16
  8
OBJECT
 10
8099.9999999999809
 20
-528.99999999999761
 30
0.0
 11
8104.7999999999838
 21
-528.99999999999761
 31
0.0
1001
ACDBBLOCKREPETAG
1070
     1
1071
      102
1005
125C16
  0
LINE
  5
125C17
  8
OBJECT
 10
8105.9999999999854
 20
-548.35026377572785
 30
0.0
 11
8104.7999999999838
 21
-528.99999999999761
 31
0.0
1001
ACDBBLOCKREPETAG
1070
     1
1071
      103
1005
125C17
  0
LINE
  5
125C18
  8
OBJECT
 10
8182.9999999999873
 20
-594.49999999999852
 30
0.0
 11
8176.6313199210299
 21
-594.49999999999852
 31
0.0
1001
ACDBBLOCKREPETAG
1070
     1
1071
      104
1005
125C18
  0
LINE
  5
125C19
  8
OBJECT
 10
8186.9999999999864
 20
-598.99999999999852
 30
0.0
 11
8182.9999999999873
 21
-594.49999999999852
 31
0.0
1001
ACDBBLOCKREPETAG
1070
     1
1071
      105
1005
125C19
  0
LINE
  5
125C1A
  8
OBJECT
 10
8222.9999999999873
 20
-137.99999999999909
 30
0.0
 11
8229.9999999999873
 21
-137.99999999999909
 31
0.0
1001
ACDBBLOCKREPETAG
1070
     1
1071
       85
1005
125C1A
  0
LINE
  5
125C1B
  8
OBJECT
 10
8229.9999999999873
 20
-137.99999999999909
 30
0.0
 11
8229.9999999999873
 21
-261.99999999999909
 31
0.0
1001
ACDBBLOCKREPETAG
1070
     1
1071
       86
1005
125C1B
  0
LINE
  5
125C1C
  8
OBJECT
 10
8229.9999999999873
 20
-261.99999999999909
 30
0.0
 11
8222.9999999999873
 21
-261.99999999999909
 31
0.0
1001
ACDBBLOCKREPETAG
1070
     1
1071
       87
1005
125C1C
  0
LINE
  5
125C1D
  8
OBJECT
 10
8222.9999999999873
 20
-261.99999999999909
 30
0.0
 11
8222.9999999999873
 21
-137.99999999999909
 31
0.0
1001
ACDBBLOCKREPETAG
1070
     1
1071
       88
1005
125C1D
  0
LINE
  5
125C1E
  8
CENTER
 10
8244.9999999999873
 20
-199.99999999999909
 30
0.0
 11
8100.0
 21
-199.99999999999909
 31
0.0
1001
ACDBBLOCKREPETAG
1070
     1
1071
       89
1005
125C1E
  0
LINE
  5
125C1F
  8
OBJECT
 10
8169.9999749641856
 20
-245.0000000000027
 30
0.0
 11
8106.0
 21
-244.99999999999909
 31
0.0
1001
ACDBBLOCKREPETAG
1070
     1
1071
       90
1005
125C1F
  0
LINE
  5
125C20
  8
OBJECT
 10
8169.9999749641856
 20
-154.99999999999909
 30
0.0
 11
8106.0
 21
-154.99999999999909
 31
0.0
1001
ACDBBLOCKREPETAG
1070
     1
1071
       91
1005
125C20
  0
LINE
  5
125C21
  8
OBJECT
 10
8222.9999999999873
 20
-140.99999999999909
 30
0.0
 11
8186.9999999999864
 21
-140.99999999999909
 31
0.0
1001
ACDBBLOCKREPETAG
1070
     1
1071
       92
1005
125C21
  0
LINE
  5
125C22
  8
OBJECT
 10
8186.9999999999864
 20
-140.99999999999909
 30
0.0
 11
8186.9999999999864
 21
-258.99999999999909
 31
0.0
1001
ACDBBLOCKREPETAG
1070
     1
1071
       93
1005
125C22
  0
LINE
  5
125C23
  8
OBJECT
 10
8186.9999999999864
 20
-258.99999999999909
 30
0.0
 11
8222.9999999999873
 21
-258.99999999999909
 31
0.0
1001
ACDBBLOCKREPETAG
1070
     1
1071
       94
1005
125C23
  0
LINE
  5
125C24
  8
OBJECT
 10
8182.9999999999873
 20
-145.49999999999909
 30
0.0
 11
8169.9999999999854
 21
-145.49999999999909
 31
0.0
1001
ACDBBLOCKREPETAG
1070
     1
1071
       95
1005
125C24
  0
LINE
  5
125C25
  8
OBJECT
 10
8169.9999999999854
 20
-254.49999999999909
 30
0.0
 11
8182.9999999999873
 21
-254.49999999999909
 31
0.0
1001
ACDBBLOCKREPETAG
1070
     1
1071
       96
1005
125C25
  0
LINE
  5
125C26
  8
OBJECT
 10
8182.9999999999873
 20
-254.49999999999909
 30
0.0
 11
8182.9999999999873
 21
-145.49999999999909
 31
0.0
1001
ACDBBLOCKREPETAG
1070
     1
1071
       97
1005
125C26
  0
LINE
  5
125C27
  8
OBJECT
 10
8186.9999999999864
 20
-140.99999999999909
 30
0.0
 11
8182.9999999999873
 21
-145.49999999999909
 31
0.0
1001
ACDBBLOCKREPETAG
1070
     1
1071
       98
1005
125C27
  0
LINE
  5
125C28
  8
OBJECT
 10
8186.9999999999864
 20
-258.99999999999909
 30
0.0
 11
8182.9999999999873
 21
-254.49999999999909
 31
0.0
1001
ACDBBLOCKREPETAG
1070
     1
1071
       99
1005
125C28
  0
LINE
  5
125C29
  8
OBJECT
 10
8103.0
 20
-137.99999999999909
 30
0.0
 11
8100.0
 21
-137.99999999999909
 31
0.0
1001
ACDBBLOCKREPETAG
1070
     1
1071
      100
1005
125C29
  0
ARC
  5
125C2A
  8
OBJECT
 10
8103.0
 20
-140.99999999999909
 30
0.0
 40
3.0
 50
0.0
 51
90.0
1001
ACDBBLOCKREPETAG
1070
     1
1071
      101
1005
125C2A
  0
LINE
  5
125C2B
  8
OBJECT
 10
8100.0
 20
-261.99999999999909
 30
0.0
 11
8103.0
 21
-261.99999999999909
 31
0.0
1001
ACDBBLOCKREPETAG
1070
     1
1071
      102
1005
125C2B
  0
ARC
  5
125C2C
  8
OBJECT
 10
8103.0
 20
-258.99999999999909
 30
0.0
 40
3.0
 50
270.0
 51
0.0
1001
ACDBBLOCKREPETAG
1070
     1
1071
      103
1005
125C2C
  0
LINE
  5
125C2D
  8
OBJECT
 10
8106.0
 20
-258.99999999999909
 30
0.0
 11
8106.0
 21
-210.3227903203578
 31
0.0
1001
ACDBBLOCKREPETAG
1070
     1
1071
      104
1005
125C2D
  0
LINE
  5
125C2E
  8
OBJECT
 10
8106.0
 20
-189.6772096796403
 30
0.0
 11
8106.0
 21
-140.99999999999909
 31
0.0
1001
ACDBBLOCKREPETAG
1070
     1
1071
      105
1005
125C2E
  0
LINE
  5
125C2F
  8
HIDDEN
 10
8177.9999999999864
 20
-155.49999999999909
 30
0.0
 11
8177.9999999999864
 21
-244.49999999999909
 31
0.0
1001
ACDBBLOCKREPETAG
1070
     1
1071
      106
1005
125C2F
  0
LINE
  5
125C30
  8
OBJECT
 10
8169.9999749641856
 20
-254.4999509238105
 30
0.0
 11
8169.9999749641856
 21
-145.4999509238105
 31
0.0
1001
ACDBBLOCKREPETAG
1070
     1
1071
      108
1005
125C30
  0
ARC
  5
125C31
  8
OBJECT
 10
8149.8000000000247
 20
-199.99999999999909
 30
0.0
 40
45.000000000000547
 50
90.0
 51
270.0
1001
ACDBBLOCKREPETAG
1070
     1
1071
      109
1005
125C31
  0
LINE
  5
125C32
  8
OBJECT
 10
5897.0
 20
-528.99999999999761
 30
0.0
 11
5900.0
 21
-528.99999999999761
 31
0.0
1001
ACDBBLOCKREPETAG
1070
     1
1071
        1
1005
125C32
  0
ARC
  5
125C33
  8
OBJECT
 10
5897.0
 20
-531.99999999999773
 30
0.0
 40
3.0
 50
90.0
 51
180.0
1001
ACDBBLOCKREPETAG
1070
     1
1071
        2
1005
125C33
  0
LINE
  5
125C34
  8
OBJECT
 10
5900.0
 20
-652.99999999999761
 30
0.0
 11
5897.0
 21
-652.99999999999761
 31
0.0
1001
ACDBBLOCKREPETAG
1070
     1
1071
        3
1005
125C34
  0
ARC
  5
125C35
  8
OBJECT
 10
5897.0
 20
-649.99999999999761
 30
0.0
 40
3.0
 50
180.0
 51
270.0
1001
ACDBBLOCKREPETAG
1070
     1
1071
        4
1005
125C35
  0
LINE
  5
125C36
  8
OBJECT
 10
5894.0
 20
-649.99999999999761
 30
0.0
 11
5894.0
 21
-531.99999999999773
 31
0.0
1001
ACDBBLOCKREPETAG
1070
     1
1071
        5
1005
125C36
  0
CIRCLE
  5
125C37
  8
OBJECT
 10
6000.0
 20
-590.99999999999761
 30
0.0
 40
62.0
1001
ACDBBLOCKREPETAG
1070
     1
1071
        0
1005
125C37
  0
LINE
  5
125C38
  8
OBJECT
 10
6095.0
 20
-469.99999999999932
 30
0.0
 11
5905.0
 21
-469.99999999999932
 31
0.0
1001
ACDBBLOCKREPETAG
1070
     1
1071
        0
1005
125C38
  0
LINE
  5
125C39
  8
OBJECT
 10
6095.0
 20
-449.99999999999932
 30
0.0
 11
5905.0
 21
-449.99999999999932
 31
0.0
1001
ACDBBLOCKREPETAG
1070
     1
1071
        1
1005
125C39
  0
LINE
  5
125C3A
  8
OBJECT
 10
5902.4999999999991
 20
-814.99999999999955
 30
0.0
 11
6097.5
 21
-814.99999999999955
 31
0.0
1001
ACDBBLOCKREPETAG
1070
     1
1071
        2
1005
125C3A
  0
LINE
  5
125C3B
  8
OBJECT
 10
5908.237046000002
 20
-449.99999999999932
 30
0.0
 11
5908.2370465822614
 21
-469.99999999999932
 31
0.0
1001
ACDBBLOCKREPETAG
1070
     1
1071
        3
1005
125C3B
  0
LINE
  5
125C3C
  8
OBJECT
 10
5905.0
 20
-449.99999999999932
 30
0.0
 11
5905.0
 21
-469.99999999999932
 31
0.0
1001
ACDBBLOCKREPETAG
1070
     1
1071
        4
1005
125C3C
  0
LINE
  5
125C3D
  8
OBJECT
 10
5916.0249089999998
 20
-449.99999999999932
 30
0.0
 11
5916.0249089999998
 21
-469.99999999999932
 31
0.0
1001
ACDBBLOCKREPETAG
1070
     1
1071
        5
1005
125C3D
  0
LINE
  5
125C3E
  8
OBJECT
 10
5967.6243270000023
 20
-449.99999999999932
 30
0.0
 11
5967.6243270000023
 21
-469.99999999999932
 31
0.0
1001
ACDBBLOCKREPETAG
1070
     1
1071
        6
1005
125C3E
  0
LINE
  5
125C3F
  8
OBJECT
 10
5975.41219
 20
-449.99999999999932
 30
0.0
 11
5975.41219
 21
-469.99999999999932
 31
0.0
1001
ACDBBLOCKREPETAG
1070
     1
1071
        7
1005
125C3F
  0
LINE
  5
125C40
  8
OBJECT
 10
6024.5878089999987
 20
-449.99999999999932
 30
0.0
 11
6024.5878089999987
 21
-469.99999999999932
 31
0.0
1001
ACDBBLOCKREPETAG
1070
     1
1071
        8
1005
125C40
  0
LINE
  5
125C41
  8
OBJECT
 10
6032.3756720000029
 20
-449.99999999999932
 30
0.0
 11
6032.3756720000029
 21
-469.99999999999932
 31
0.0
1001
ACDBBLOCKREPETAG
1070
     1
1071
        9
1005
125C41
  0
LINE
  5
125C42
  8
OBJECT
 10
6083.9750910000012
 20
-449.99999999999932
 30
0.0
 11
6083.9750910000012
 21
-469.99999999999932
 31
0.0
1001
ACDBBLOCKREPETAG
1070
     1
1071
       10
1005
125C42
  0
LINE
  5
125C43
  8
OBJECT
 10
6091.762953999998
 20
-449.99999999999932
 30
0.0
 11
6091.7629534177431
 21
-469.99999999999932
 31
0.0
1001
ACDBBLOCKREPETAG
1070
     1
1071
       11
1005
125C43
  0
LINE
  5
125C44
  8
OBJECT
 10
6095.0
 20
-449.99999999999932
 30
0.0
 11
6095.0
 21
-469.99999999999932
 31
0.0
1001
ACDBBLOCKREPETAG
1070
     1
1071
       12
1005
125C44
  0
LINE
  5
125C45
  8
OBJECT
 10
6100.0
 20
-528.99999999999955
 30
0.0
 11
5900.0
 21
-528.99999999999955
 31
0.0
1001
ACDBBLOCKREPETAG
1070
     1
1071
       13
1005
125C45
  0
LINE
  5
125C46
  8
OBJECT
 10
6100.0
 20
-652.99999999999761
 30
0.0
 11
6092.5000000000009
 21
-652.99999999999761
 31
0.0
1001
ACDBBLOCKREPETAG
1070
     1
1071
       14
1005
125C46
  0
LINE
  5
125C47
  8
OBJECT
 10
5902.4999999999991
 20
-814.99999999999955
 30
0.0
 11
5902.4999999999991
 21
-802.99999999999784
 31
0.0
1001
ACDBBLOCKREPETAG
1070
     1
1071
       15
1005
125C47
  0
LINE
  5
125C48
  8
OBJECT
 10
6097.5
 20
-814.99999999999955
 30
0.0
 11
6097.5
 21
-802.99999999999784
 31
0.0
1001
ACDBBLOCKREPETAG
1070
     1
1071
       16
1005
125C48
  0
LINE
  5
125C49
  8
OBJECT
 10
5902.4999999999991
 20
-802.99999999999784
 30
0.0
 11
6097.5
 21
-802.99999999999784
 31
0.0
1001
ACDBBLOCKREPETAG
1070
     1
1071
       17
1005
125C49
  0
LINE
  5
125C4A
  8
HIDDEN
 10
5930.0
 20
-524.99999999999955
 30
0.0
 11
6070.0
 21
-524.99999999999955
 31
0.0
1001
ACDBBLOCKREPETAG
1070
     1
1071
       18
1005
125C4A
  0
LINE
  5
125C4B
  8
CENTER
 10
6000.0
 20
-434.99999999999949
 30
0.0
 11
6000.0
 21
-814.99999999999955
 31
0.0
1001
ACDBBLOCKREPETAG
1070
     1
1071
       19
1005
125C4B
  0
LINE
  5
125C4C
  8
OBJECT
 10
6092.5000000000009
 20
-652.99999999999761
 30
0.0
 11
6092.5000000000009
 21
-802.99999999999784
 31
0.0
1001
ACDBBLOCKREPETAG
1070
     1
1071
       20
1005
125C4C
  0
LINE
  5
125C4D
  8
OBJECT
 10
5914.5
 20
-469.99999999999932
 30
0.0
 11
5914.5
 21
-528.99999999999955
 31
0.0
1001
ACDBBLOCKREPETAG
1070
     1
1071
       21
1005
125C4D
  0
LINE
  5
125C4E
  8
OBJECT
 10
6085.5
 20
-469.99999999999932
 30
0.0
 11
6085.5
 21
-528.99999999999955
 31
0.0
1001
ACDBBLOCKREPETAG
1070
     1
1071
       22
1005
125C4E
  0
POINT
  5
125C4F
  8
DOTS
 10
6000.0
 20
-649.99999999999955
 30
0.0
1001
ACDBBLOCKREPETAG
1070
     1
1071
       24
1005
125C4F
  0
LINE
  5
125C50
  8
OBJECT
 10
5900.0
 20
-652.99999999999761
 30
0.0
 11
5907.5
 21
-652.99999999999761
 31
0.0
1001
ACDBBLOCKREPETAG
1070
     1
1071
       25
1005
125C50
  0
LINE
  5
125C51
  8
OBJECT
 10
5907.5
 20
-652.99999999999761
 30
0.0
 11
5907.5
 21
-802.99999999999784
 31
0.0
1001
ACDBBLOCKREPETAG
1070
     1
1071
       26
1005
125C51
  0
ARC
  5
125C52
  8
OBJECT
 10
6214.4155190291494
 20
-615.62073879202455
 30
0.0
 40
149.554492306393
 50
144.60628028468801
 51
164.2211863995189
1001
ACDBBLOCKREPETAG
1070
     1
1071
       28
1005
125C52
  0
ARC
  5
125C53
  8
OBJECT
 10
6139.1422781245274
 20
-590.99999999999761
 30
0.0
 40
70.496447952551449
 50
166.8426918235858
 51
193.15730817641409
1001
ACDBBLOCKREPETAG
1070
     1
1071
       29
1005
125C53
  0
ARC
  5
125C54
  8
OBJECT
 10
6214.4155190291494
 20
-566.3792612079701
 30
0.0
 40
149.55449230639621
 50
195.7788136004809
 51
215.3937197153119
1001
ACDBBLOCKREPETAG
1070
     1
1071
       30
1005
125C54
  0
ARC
  5
125C55
  8
OBJECT
 10
5785.5844809708497
 20
-615.62073879202455
 30
0.0
 40
149.554492306393
 50
15.778813600524931
 51
35.393719715228642
1001
ACDBBLOCKREPETAG
1070
     1
1071
       31
1005
125C55
  0
ARC
  5
125C56
  8
OBJECT
 10
5860.8577218754717
 20
-590.99999999999761
 30
0.0
 40
70.496447952551449
 50
346.84269182358582
 51
13.15730817641421
1001
ACDBBLOCKREPETAG
1070
     1
1071
       32
1005
125C56
  0
ARC
  5
125C57
  8
OBJECT
 10
5785.5844809708497
 20
-566.3792612079701
 30
0.0
 40
149.55449230639621
 50
324.60628028477117
 51
344.22118639947507
1001
ACDBBLOCKREPETAG
1070
     1
1071
       33
1005
125C57
  0
LINE
  5
125C58
  8
CENTER
 10
5878.9999999999973
 20
-199.99999999999909
 30
0.0
 11
5899.9999999999973
 21
-199.99999999999909
 31
0.0
1001
ACDBBLOCKREPETAG
1070
     1
1071
        0
1005
125C58
  0
LINE
  5
125C59
  8
OBJECT
 10
5896.9999999999973
 20
-261.99999999999909
 30
0.0
 11
5899.9999999999973
 21
-261.99999999999909
 31
0.0
1001
ACDBBLOCKREPETAG
1070
     1
1071
        1
1005
125C59
  0
ARC
  5
125C5A
  8
OBJECT
 10
5896.9999999999973
 20
-258.99999999999909
 30
0.0
 40
3.0
 50
180.0
 51
270.0
1001
ACDBBLOCKREPETAG
1070
     1
1071
        2
1005
125C5A
  0
LINE
  5
125C5B
  8
OBJECT
 10
5899.9999999999973
 20
-137.99999999999909
 30
0.0
 11
5896.9999999999973
 21
-137.99999999999909
 31
0.0
1001
ACDBBLOCKREPETAG
1070
     1
1071
        3
1005
125C5B
  0
ARC
  5
125C5C
  8
OBJECT
 10
5896.9999999999973
 20
-140.99999999999909
 30
0.0
 40
3.0
 50
90.0
 51
180.0
1001
ACDBBLOCKREPETAG
1070
     1
1071
        4
1005
125C5C
  0
LINE
  5
125C5D
  8
OBJECT
 10
5893.9999999999982
 20
-140.99999999999909
 30
0.0
 11
5893.9999999999982
 21
-258.99999999999909
 31
0.0
1001
ACDBBLOCKREPETAG
1070
     1
1071
        5
1005
125C5D
  0
LINE
  5
125C5E
  8
CENTER
 10
6000.0000000000027
 20
-320.99999999999892
 30
0.0
 11
6000.0000000000027
 21
-299.99999999999892
 31
0.0
1001
ACDBBLOCKREPETAG
1070
     1
1071
        0
1005
125C5E
  0
LINE
  5
125C5F
  8
OBJECT
 10
6062.0000000000036
 20
-303.0
 30
0.0
 11
6062.0000000000036
 21
-299.99999999999892
 31
0.0
1001
ACDBBLOCKREPETAG
1070
     1
1071
        1
1005
125C5F
  0
ARC
  5
125C60
  8
OBJECT
 10
6059.0000000000036
 20
-303.0
 30
0.0
 40
3.0
 50
270.0
 51
0.0
1001
ACDBBLOCKREPETAG
1070
     1
1071
        2
1005
125C60
  0
LINE
  5
125C61
  8
OBJECT
 10
5938.0000000000036
 20
-299.99999999999892
 30
0.0
 11
5938.0000000000036
 21
-302.99999999999818
 31
0.0
1001
ACDBBLOCKREPETAG
1070
     1
1071
        3
1005
125C61
  0
ARC
  5
125C62
  8
OBJECT
 10
5941.0000000000036
 20
-302.99999999999818
 30
0.0
 40
3.0
 50
180.0
 51
270.0
1001
ACDBBLOCKREPETAG
1070
     1
1071
        4
1005
125C62
  0
LINE
  5
125C63
  8
OBJECT
 10
5941.0000000000036
 20
-305.99999999999818
 30
0.0
 11
6059.0000000000036
 21
-306.0
 31
0.0
1001
ACDBBLOCKREPETAG
1070
     1
1071
        5
1005
125C63
  0
LINE
  5
125C64
  8
SLIM
 10
5918.5743713244692
 20
-137.74153073842379
 30
0.0
 11
5937.7415307384244
 21
-118.5743713244679
 31
0.0
1001
GRADIENTCOLOR1ACI
1070
     5
1001
GRADIENTCOLOR2ACI
1070
     2
1001
ACAD
1010
0.0
1020
0.0
1030
0.0
1001
ACDBBLOCKREPETAG
1070
     1
1071
      301
1005
125C64
  0
LINE
  5
125C65
  8
SLIM
 10
5927.2961581839627
 20
-137.99999999999909
 30
0.0
 11
5959.4220169794125
 21
-105.8741412045496
 31
0.0
1001
GRADIENTCOLOR1ACI
1070
     5
1001
GRADIENTCOLOR2ACI
1070
     2
1001
ACAD
1010
0.0
1020
0.0
1030
0.0
1001
ACDBBLOCKREPETAG
1070
     1
1071
      302
1005
125C65
  0
LINE
  5
125C66
  8
SLIM
 10
5955.2080715681668
 20
-119.0683427368643
 30
0.0
 11
5973.2147923567727
 21
-101.06162194825821
 31
0.0
1001
GRADIENTCOLOR1ACI
1070
     5
1001
GRADIENTCOLOR2ACI
1070
     2
1001
ACAD
1010
0.0
1020
0.0
1030
0.0
1001
ACDBBLOCKREPETAG
1070
     1
1071
      303
1005
125C66
  0
LINE
  5
125C67
  8
SLIM
 10
5971.1389053532557
 20
-112.11776507284389
 30
0.0
 11
5984.5919680901698
 21
-98.664702335928993
 31
0.0
1001
GRADIENTCOLOR1ACI
1070
     5
1001
GRADIENTCOLOR2ACI
1070
     2
1001
ACAD
1010
0.0
1020
0.0
1030
0.0
1001
ACDBBLOCKREPETAG
1070
     1
1071
      304
1005
125C67
  0
LINE
  5
125C68
  8
SLIM
 10
5986.2342955596041
 20
-106.0026309875652
 30
0.0
 11
5994.5942819876618
 21
-97.642644559507801
 31
0.0
1001
GRADIENTCOLOR1ACI
1070
     5
1001
GRADIENTCOLOR2ACI
1070
     2
1001
ACAD
1010
0.0
1020
0.0
1030
0.0
1001
ACDBBLOCKREPETAG
1070
     1
1071
      278
1005
125C68
  0
LINE
  5
125C69
  8
SLIM
 10
5996.1386775409328
 20
-105.0785051273038
 30
0.0
 11
6000.0
 21
-101.21718266823839
 31
0.0
1001
GRADIENTCOLOR1ACI
1070
     5
1001
GRADIENTCOLOR2ACI
1070
     2
1001
ACAD
1010
0.0
1020
0.0
1030
0.0
1001
ACDBBLOCKREPETAG
1070
     1
1071
      305
1005
125C69
  0
LINE
  5
125C6A
  8
SLIM
 10
6000.0
 20
-101.21718266823839
 30
0.0
 11
6003.6520994194652
 21
-97.565083248774314
 31
0.0
1001
GRADIENTCOLOR1ACI
1070
     5
1001
GRADIENTCOLOR2ACI
1070
     2
1001
ACAD
1010
0.0
1020
0.0
1030
0.0
1001
ACDBBLOCKREPETAG
1070
     1
1071
      306
1005
125C6A
  0
LINE
  5
125C6B
  8
SLIM
 10
6005.0624562444937
 20
-105.13498254481389
 30
0.0
 11
6011.993358860951
 21
-98.204079928355625
 31
0.0
1001
GRADIENTCOLOR1ACI
1070
     5
1001
GRADIENTCOLOR2ACI
1070
     2
1001
ACAD
1010
0.0
1020
0.0
1030
0.0
1001
ACDBBLOCKREPETAG
1070
     1
1071
      307
1005
125C6B
  0
LINE
  5
125C6C
  8
SLIM
 10
6013.2492495222623
 20
-105.9284453881143
 30
0.0
 11
6019.7558130592479
 21
-99.421881851129058
 31
0.0
1001
GRADIENTCOLOR1ACI
1070
     5
1001
GRADIENTCOLOR2ACI
1070
     2
1001
ACAD
1010
0.0
1020
0.0
1030
0.0
1001
ACDBBLOCKREPETAG
1070
     1
1071
      282
1005
125C6C
  0
LINE
  5
125C6D
  8
SLIM
 10
6020.8432248281188
 20
-107.31472620332499
 30
0.0
 11
6027.0297896486654
 21
-101.1281613827821
 31
0.0
1001
GRADIENTCOLOR1ACI
1070
     5
1001
GRADIENTCOLOR2ACI
1070
     2
1001
ACAD
1010
0.0
1020
0.0
1030
0.0
1001
ACDBBLOCKREPETAG
1070
     1
1071
      283
1005
125C6D
  0
LINE
  5
125C6E
  8
SLIM
 10
6026.7444850762586
 20
-110.3937220762563
 30
0.0
 11
6033.8777840865841
 21
-103.2604230659298
 31
0.0
1001
GRADIENTCOLOR1ACI
1070
     5
1001
GRADIENTCOLOR2ACI
1070
     2
1001
ACAD
1010
0.0
1020
0.0
1030
0.0
1001
ACDBBLOCKREPETAG
1070
     1
1071
      284
1005
125C6E
  0
LINE
  5
125C6F
  8
SLIM
 10
6032.6605739035567
 20
-113.4578893700272
 30
0.0
 11
6040.3445940865859
 21
-105.7738691869987
 31
0.0
1001
GRADIENTCOLOR1ACI
1070
     5
1001
GRADIENTCOLOR2ACI
1070
     2
1001
ACAD
1010
0.0
1020
0.0
1030
0.0
1001
ACDBBLOCKREPETAG
1070
     1
1071
      285
1005
125C6F
  0
LINE
  5
125C70
  8
SLIM
 10
6038.9830129339689
 20
-116.115706460684
 30
0.0
 11
6046.4630285156381
 21
-108.63569087901411
 31
0.0
1001
GRADIENTCOLOR1ACI
1070
     5
1001
GRADIENTCOLOR2ACI
1070
     2
1001
ACAD
1010
0.0
1020
0.0
1030
0.0
1001
ACDBBLOCKREPETAG
1070
     1
1071
      286
1005
125C70
  0
LINE
  5
125C71
  8
SLIM
 10
6044.9326113883499
 20
-119.1463641273716
 30
0.0
 11
6052.2573273714534
 21
-111.8216481442697
 31
0.0
1001
GRADIENTCOLOR1ACI
1070
     5
1001
GRADIENTCOLOR2ACI
1070
     2
1001
ACAD
1010
0.0
1020
0.0
1030
0.0
1001
ACDBBLOCKREPETAG
1070
     1
1071
      287
1005
125C71
  0
LINE
  5
125C72
  8
SLIM
 10
6050.5348792738341
 20
-122.5243523629576
 30
0.0
 11
6057.7453005374236
 21
-115.3139310993673
 31
0.0
1001
GRADIENTCOLOR1ACI
1070
     5
1001
GRADIENTCOLOR2ACI
1070
     2
1001
ACAD
1010
0.0
1020
0.0
1030
0.0
1001
ACDBBLOCKREPETAG
1070
     1
1071
      288
1005
125C72
  0
LINE
  5
125C73
  8
SLIM
 10
5919.0997883728251
 20
-262.93969938503398
 30
0.0
 11
5920.039487757861
 21
-261.99999999999909
 31
0.0
1001
GRADIENTCOLOR1ACI
1070
     5
1001
GRADIENTCOLOR2ACI
1070
     2
1001
ACAD
1010
0.0
1020
0.0
1030
0.0
1001
ACDBBLOCKREPETAG
1070
     1
1071
      289
1005
125C73
  0
LINE
  5
125C74
  8
SLIM
 10
6055.807705723706
 20
-126.2317820341551
 30
0.0
 11
6062.9396993850351
 21
-119.0997883728258
 31
0.0
1001
GRADIENTCOLOR1ACI
1070
     5
1001
GRADIENTCOLOR2ACI
1070
     2
1001
ACAD
1010
0.0
1020
0.0
1030
0.0
1001
ACDBBLOCKREPETAG
1070
     1
1071
      290
1005
125C74
  0
LINE
  5
125C75
  8
SLIM
 10
5923.1706450290258
 20
-267.84909884990361
 30
0.0
 11
5929.0197438789319
 21
-261.99999999999909
 31
0.0
1001
GRADIENTCOLOR1ACI
1070
     5
1001
GRADIENTCOLOR2ACI
1070
     2
1001
ACAD
1010
0.0
1020
0.0
1030
0.0
1001
ACDBBLOCKREPETAG
1070
     1
1071
      291
1005
125C75
  0
LINE
  5
125C76
  8
SLIM
 10
6060.762946579669
 20
-130.25679729926071
 30
0.0
 11
6067.8490988499043
 21
-123.17064502902539
 31
0.0
1001
GRADIENTCOLOR1ACI
1070
     5
1001
GRADIENTCOLOR2ACI
1070
     2
1001
ACAD
1010
0.0
1020
0.0
1030
0.0
1001
ACDBBLOCKREPETAG
1070
     1
1071
      292
1005
125C76
  0
LINE
  5
125C77
  8
SLIM
 10
5927.5215549283794
 20
-272.47844507162011
 30
0.0
 11
5934.5926227402442
 21
-265.40737725975481
 31
0.0
1001
GRADIENTCOLOR1ACI
1070
     5
1001
GRADIENTCOLOR2ACI
1070
     2
1001
ACAD
1010
0.0
1020
0.0
1030
0.0
1001
ACDBBLOCKREPETAG
1070
     1
1071
      293
1005
125C77
  0
LINE
  5
125C78
  8
SLIM
 10
6065.4073772597558
 20
-134.5926227402434
 30
0.0
 11
6072.4784450716206
 21
-127.52155492837799
 31
0.0
1001
GRADIENTCOLOR1ACI
1070
     5
1001
GRADIENTCOLOR2ACI
1070
     2
1001
ACAD
1010
0.0
1020
0.0
1030
0.0
1001
ACDBBLOCKREPETAG
1070
     1
1071
      294
1005
125C78
  0
LINE
  5
125C79
  8
SLIM
 10
5932.1509011500948
 20
-276.82935497097282
 30
0.0
 11
5937.9999999999936
 21
-270.980256121075
 31
0.0
1001
GRADIENTCOLOR1ACI
1070
     5
1001
GRADIENTCOLOR2ACI
1070
     2
1001
ACAD
1010
0.0
1020
0.0
1030
0.0
1001
ACDBBLOCKREPETAG
1070
     1
1071
      295
1005
125C79
  0
LINE
  5
125C7A
  8
SLIM
 10
6070.980256121069
 20
-137.99999999999901
 30
0.0
 11
6076.8293549709733
 21
-132.15090115009451
 31
0.0
1001
GRADIENTCOLOR1ACI
1070
     5
1001
GRADIENTCOLOR2ACI
1070
     2
1001
ACAD
1010
0.0
1020
0.0
1030
0.0
1001
ACDBBLOCKREPETAG
1070
     1
1071
      296
1005
125C7A
  0
LINE
  5
125C7B
  8
SLIM
 10
5937.0603006149649
 20
-280.90021162717238
 30
0.0
 11
5937.9999999999973
 21
-279.9605122421421
 31
0.0
1001
GRADIENTCOLOR1ACI
1070
     5
1001
GRADIENTCOLOR2ACI
1070
     2
1001
ACAD
1010
0.0
1020
0.0
1030
0.0
1001
ACDBBLOCKREPETAG
1070
     1
1071
      297
1005
125C7B
  0
LINE
  5
125C7C
  8
SLIM
 10
6079.9605122421381
 20
-137.99999999999901
 30
0.0
 11
6080.900211627174
 21
-137.06030061496409
 31
0.0
1001
GRADIENTCOLOR1ACI
1070
     5
1001
GRADIENTCOLOR2ACI
1070
     2
1001
ACAD
1010
0.0
1020
0.0
1030
0.0
1001
ACDBBLOCKREPETAG
1070
     1
1071
      298
1005
125C7C
  0
LINE
  5
125C7D
  8
SLIM
 10
6062.0000000000009
 20
-272.70384181603538
 30
0.0
 11
6072.7038418160373
 21
-261.99999999999909
 31
0.0
1001
GRADIENTCOLOR1ACI
1070
     5
1001
GRADIENTCOLOR2ACI
1070
     2
1001
ACAD
1010
0.0
1020
0.0
1030
0.0
1001
ACDBBLOCKREPETAG
1070
     1
1071
      299
1005
125C7D
  0
LINE
  5
125C7E
  8
SLIM
 10
6062.2584692615746
 20
-281.4256286755305
 30
0.0
 11
6081.4256286755299
 21
-262.25846926157431
 31
0.0
1001
GRADIENTCOLOR1ACI
1070
     5
1001
GRADIENTCOLOR2ACI
1070
     2
1001
ACAD
1010
0.0
1020
0.0
1030
0.0
1001
ACDBBLOCKREPETAG
1070
     1
1071
      300
1005
125C7E
  0
LINE
  5
125C7F
  8
OBJECT
 10
6068.6458301719767
 20
-137.99999999999909
 30
0.0
 11
6100.0
 21
-137.99999999999909
 31
0.0
1001
ACDBBLOCKREPETAG
1070
     1
1071
      242
1005
125C7F
  0
LINE
  5
125C80
  8
OBJECT
 10
6068.6458301719767
 20
-261.99999999999909
 30
0.0
 11
6100.0000000000073
 21
-261.99999999999909
 31
0.0
1001
ACDBBLOCKREPETAG
1070
     1
1071
      243
1005
125C80
  0
LINE
  5
125C81
  8
OBJECT
 10
6062.0
 20
-268.64583017197862
 30
0.0
 11
6062.0000000000082
 21
-299.99999999999892
 31
0.0
1001
ACDBBLOCKREPETAG
1070
     1
1071
      244
1005
125C81
  0
LINE
  5
125C82
  8
OBJECT
 10
5937.9999999999927
 20
-268.64583017197492
 30
0.0
 11
5938.0
 21
-299.99999999999892
 31
0.0
1001
ACDBBLOCKREPETAG
1070
     1
1071
      245
1005
125C82
  0
LINE
  5
125C83
  8
OBJECT
 10
5931.3541698280223
 20
-261.99999999999909
 30
0.0
 11
5899.9999999999927
 21
-261.99999999999909
 31
0.0
1001
ACDBBLOCKREPETAG
1070
     1
1071
      246
1005
125C83
  0
LINE
  5
125C84
  8
OBJECT
 10
5931.3541698280223
 20
-137.99999999999909
 30
0.0
 11
5899.9999999999927
 21
-137.99999999999909
 31
0.0
1001
ACDBBLOCKREPETAG
1070
     1
1071
      247
1005
125C84
  0
LINE
  5
125C85
  8
CENTER
 10
5900.0
 20
-199.99999999999909
 30
0.0
 11
6100.0
 21
-199.99999999999909
 31
0.0
1001
ACDBBLOCKREPETAG
1070
     1
1071
      251
1005
125C85
  0
LINE
  5
125C86
  8
CENTER
 10
6000.0
 20
-82.499999999999091
 30
0.0
 11
6000.0
 21
-299.99999999999892
 31
0.0
1001
ACDBBLOCKREPETAG
1070
     1
1071
      252
1005
125C86
  0
ARC
  5
125C87
  8
OBJECT
 10
6000.0
 20
-199.99999999999909
 30
0.0
 40
102.5
 50
37.220066868561332
 51
142.77993313143861
1001
ACDBBLOCKREPETAG
1070
     1
1071
      256
1005
125C87
  0
ARC
  5
125C88
  8
OBJECT
 10
6000.0
 20
-199.99999999999909
 30
0.0
 40
102.5
 50
217.2200668685613
 51
232.7799331314061
1001
ACDBBLOCKREPETAG
1070
     1
1071
      257
1005
125C88
  0
ARC
  5
125C89
  8
OBJECT
 10
6000.0
 20
-199.99999999999909
 30
0.0
 40
102.5
 50
307.2200668685939
 51
322.77993313143872
1001
ACDBBLOCKREPETAG
1070
     1
1071
      258
1005
125C89
  0
ARC
  5
125C8A
  8
OBJECT
 10
5973.8931207053247
 20
-173.82438331578209
 30
0.0
 40
90.0
 50
274.21795726566182
 51
281.60300086768922
1001
ACDBBLOCKREPETAG
1070
     1
1071
      261
1005
125C8A
  0
LINE
  5
125C8B
  8
OBJECT
 10
5991.994750999992
 20
-261.98520799999727
 30
0.0
 11
5996.6424319999905
 21
-248.3387539999994
 31
0.0
1001
ACDBBLOCKREPETAG
1070
     1
1071
      262
1005
125C8B
  0
LINE
  5
125C8C
  8
OBJECT
 10
5955.2887960976786
 20
-207.0733020425842
 30
0.0
 11
5935.6054186421097
 21
-216.60084009147889
 31
0.0
1001
ACDBBLOCKREPETAG
1070
     1
1071
      263
1005
125C8C
  0
LINE
  5
125C8D
  8
OBJECT
 10
5937.3350639238643
 20
-222.25658973369261
 30
0.0
 11
5961.7560738851171
 21
-210.43584915155679
 31
0.0
1001
ACDBBLOCKREPETAG
1070
     1
1071
      264
1005
125C8D
  0
LINE
  5
125C8E
  8
OBJECT
 10
5996.6424319999905
 20
-248.3387539999994
 30
0.0
 11
5970.3289245926417
 21
-210.9660806555467
 31
0.0
1001
ACDBBLOCKREPETAG
1070
     1
1071
      265
1005
125C8E
  0
ARC
  5
125C8F
  8
OBJECT
 10
5960.51700480005
 20
-217.87449798398211
 30
0.0
 40
12.0
 50
35.148769561161963
 51
115.8288295732624
1001
ACDBBLOCKREPETAG
1070
     1
1071
      266
1005
125C8F
  0
ARC
  5
125C90
  8
OBJECT
 10
5965.2415463179786
 20
-217.63664646295089
 30
0.0
 40
8.0
 50
35.148769561161963
 51
115.8288292916689
1001
ACDBBLOCKREPETAG
1070
     1
1071
      267
1005
125C90
  0
ARC
  5
125C91
  8
OBJECT
 10
6000.0
 20
-199.99999999999909
 30
0.0
 40
90.0
 50
201.08359599996521
 51
248.91640400002939
1001
ACDBBLOCKREPETAG
1070
     1
1071
      273
1005
125C91
  0
ARC
  5
125C92
  8
OBJECT
 10
6000.0
 20
-199.99999999999909
 30
0.0
 40
90.0
 50
111.0835959999705
 51
158.91640347115251
1001
ACDBBLOCKREPETAG
1070
     1
1071
      274
1005
125C92
  0
LINE
  5
125C93
  8
OBJECT
 10
5916.0249094448682
 20
-167.62432755513231
 30
0.0
 11
5908.2370465822614
 21
-175.41219041773809
 31
0.0
1001
ACDBBLOCKREPETAG
1070
     1
1071
      275
1005
125C93
  0
LINE
  5
125C94
  8
OBJECT
 10
5916.0249089999998
 20
-232.37567199999921
 30
0.0
 11
5908.2370469998132
 21
-224.58781114059909
 31
0.0
1001
ACDBBLOCKREPETAG
1070
     1
1071
      276
1005
125C94
  0
ARC
  5
125C95
  8
OBJECT
 10
6000.0
 20
-199.99999999999909
 30
0.0
 40
95.0
 50
164.99999981411651
 51
195.00000115873701
1001
ACDBBLOCKREPETAG
1070
     1
1071
      277
1005
125C95
  0
ARC
  5
125C96
  8
OBJECT
 10
6000.0
 20
-199.99999999999909
 30
0.0
 40
92.5
 50
287.80189678391901
 51
342.1981035993042
1001
ACDBBLOCKREPETAG
1070
     1
1071
      209
1005
125C96
  0
ARC
  5
125C97
  8
OBJECT
 10
6000.0
 20
-199.99999999999909
 30
0.0
 40
90.0
 50
291.08359599997061
 51
338.91640400003479
1001
ACDBBLOCKREPETAG
1070
     1
1071
      211
1005
125C97
  0
CIRCLE
  5
125C98
  8
OBJECT
 10
6000.0
 20
-199.99999999999909
 30
0.0
 40
80.0
1001
ACDBBLOCKREPETAG
1070
     1
1071
      212
1005
125C98
  0
ARC
  5
125C99
  8
OBJECT
 10
6000.0
 20
-199.99999999999909
 30
0.0
 40
90.0
 50
21.08359652884743
 51
68.916404000029431
1001
ACDBBLOCKREPETAG
1070
     1
1071
      213
1005
125C99
  0
CIRCLE
  5
125C9A
  8
OBJECT
 10
6000.0
 20
-199.99999999999909
 30
0.0
 40
66.5
1001
ACDBBLOCKREPETAG
1070
     1
1071
      215
1005
125C9A
  0
LINE
  5
125C9B
  8
OBJECT
 10
6083.9750905551346
 20
-167.62432755513231
 30
0.0
 11
6091.7629534177377
 21
-175.4121904177382
 31
0.0
1001
ACDBBLOCKREPETAG
1070
     1
1071
      216
1005
125C9B
  0
LINE
  5
125C9C
  8
OBJECT
 10
6083.9750910000012
 20
-232.37567199999921
 30
0.0
 11
6091.7629530001859
 21
-224.58781114059909
 31
0.0
1001
ACDBBLOCKREPETAG
1070
     1
1071
      217
1005
125C9C
  0
ARC
  5
125C9D
  8
OBJECT
 10
6000.0
 20
-199.99999999999909
 30
0.0
 40
95.0
 50
344.99999884126299
 51
15.00000018588349
1001
ACDBBLOCKREPETAG
1070
     1
1071
      218
1005
125C9D
  0
LINE
  5
125C9E
  8
OBJECT
 10
6032.375672999995
 20
-283.9750909999994
 30
0.0
 11
6024.5878109482801
 21
-291.76295305171419
 31
0.0
1001
ACDBBLOCKREPETAG
1070
     1
1071
      219
1005
125C9E
  0
LINE
  5
125C9F
  8
OBJECT
 10
5967.6243279999971
 20
-283.9750909999994
 30
0.0
 11
5975.4121904177373
 21
-291.76295341774039
 31
0.0
1001
ACDBBLOCKREPETAG
1070
     1
1071
      220
1005
125C9F
  0
ARC
  5
125CA0
  8
OBJECT
 10
6000.0
 20
-199.99999999999909
 30
0.0
 40
95.0
 50
254.99999981420709
 51
285.00000103861061
1001
ACDBBLOCKREPETAG
1070
     1
1071
      221
1005
125CA0
  0
LINE
  5
125CA1
  8
OBJECT
 10
6032.375672999995
 20
-116.0249099999992
 30
0.0
 11
6024.5878095822618
 21
-108.2370465822578
 31
0.0
1001
ACDBBLOCKREPETAG
1070
     1
1071
      222
1005
125CA1
  0
ARC
  5
125CA2
  8
OBJECT
 10
6000.0
 20
-199.99999999999909
 30
0.0
 40
95.0
 50
74.999999814207143
 51
104.99999933254421
1001
ACDBBLOCKREPETAG
1070
     1
1071
      223
1005
125CA2
  0
LINE
  5
125CA3
  8
OBJECT
 10
5967.6243279999971
 20
-116.0249099999992
 30
0.0
 11
5975.4121917837692
 21
-108.2370462162316
 31
0.0
1001
ACDBBLOCKREPETAG
1070
     1
1071
      224
1005
125CA3
  0
LINE
  5
125CA4
  8
OBJECT
 10
6055.1784370000023
 20
-162.884098999998
 30
0.0
 11
6032.5345701092729
 21
-178.11554723457169
 31
0.0
1001
ACDBBLOCKREPETAG
1070
     1
1071
      225
1005
125CA4
  0
LINE
  5
125CA5
  8
OBJECT
 10
5944.804121000001
 20
-162.88106899999821
 30
0.0
 11
6032.5345701092729
 21
-178.11554723457169
 31
0.0
1001
ACDBBLOCKREPETAG
1070
     1
1071
      226
1005
125CA5
  0
ARC
  5
125CA6
  8
OBJECT
 10
6000.0
 20
-199.99999999999909
 30
0.0
 40
92.5
 50
197.8018954425261
 51
252.19810417408729
1001
ACDBBLOCKREPETAG
1070
     1
1071
      230
1005
125CA6
  0
ARC
  5
125CA7
  8
OBJECT
 10
6000.0
 20
-199.99999999999909
 30
0.0
 40
92.5
 50
107.80189486746769
 51
162.19810513270031
1001
ACDBBLOCKREPETAG
1070
     1
1071
      231
1005
125CA7
  0
ARC
  5
125CA8
  8
OBJECT
 10
6000.0
 20
-199.99999999999909
 30
0.0
 40
92.5
 50
17.801895825711568
 51
72.19810417408732
1001
ACDBBLOCKREPETAG
1070
     1
1071
      232
1005
125CA8
  0
ARC
  5
125CA9
  8
OBJECT
 10
6000.0
 20
-199.99999999999909
 30
0.0
 40
62.5
 50
144.42390307805491
 51
193.7174643726803
1001
ACDBBLOCKREPETAG
1070
     1
1071
      234
1005
125CA9
  0
ARC
  5
125CAA
  8
OBJECT
 10
6000.0
 20
-199.99999999999909
 30
0.0
 40
62.5
 50
262.64111297834887
 51
33.92683896333525
1001
ACDBBLOCKREPETAG
1070
     1
1071
      235
1005
125CAA
  0
POINT
  5
125CAB
  8
DOTS
 10
6000.0
 20
-199.99999999999909
 30
0.0
1001
ACDBBLOCKREPETAG
1070
     1
1071
      280
1005
125CAB
  0
LINE
  5
125CAC
  8
OBJECT
 10
6222.9999999999864
 20
-477.99999999999852
 30
0.0
 11
6229.9999999999864
 21
-477.99999999999852
 31
0.0
1001
ACDBBLOCKREPETAG
1070
     1
1071
       83
1005
125CAC
  0
LINE
  5
125CAD
  8
OBJECT
 10
6229.9999999999864
 20
-477.99999999999852
 30
0.0
 11
6229.9999999999864
 21
-601.99999999999852
 31
0.0
1001
ACDBBLOCKREPETAG
1070
     1
1071
       84
1005
125CAD
  0
LINE
  5
125CAE
  8
OBJECT
 10
6105.9999999999873
 20
-548.35026377572513
 30
0.0
 11
6105.9999999999873
 21
-649.99999999999852
 31
0.0
1001
ACDBBLOCKREPETAG
1070
     1
1071
       85
1005
125CAE
  0
LINE
  5
125CAF
  8
OBJECT
 10
6229.9999999999864
 20
-601.99999999999852
 30
0.0
 11
6222.9999999999864
 21
-601.99999999999852
 31
0.0
1001
ACDBBLOCKREPETAG
1070
     1
1071
       86
1005
125CAF
  0
LINE
  5
125CB0
  8
OBJECT
 10
6222.9999999999864
 20
-601.99999999999852
 30
0.0
 11
6222.9999999999864
 21
-477.99999999999852
 31
0.0
1001
ACDBBLOCKREPETAG
1070
     1
1071
       87
1005
125CB0
  0
LINE
  5
125CB1
  8
CENTER
 10
6154.9999999999864
 20
-539.99999999999852
 30
0.0
 11
6244.9999999999864
 21
-539.99999999999852
 31
0.0
1001
ACDBBLOCKREPETAG
1070
     1
1071
       88
1005
125CB1
  0
LINE
  5
125CB2
  8
OBJECT
 10
6099.9999999999818
 20
-652.99999999999761
 30
0.0
 11
6102.9999999999873
 21
-652.99999999999852
 31
0.0
1001
ACDBBLOCKREPETAG
1070
     1
1071
       89
1005
125CB2
  0
ARC
  5
125CB3
  8
OBJECT
 10
6102.9999999999873
 20
-649.99999999999852
 30
0.0
 40
3.0
 50
270.0
 51
0.0
1001
ACDBBLOCKREPETAG
1070
     1
1071
       90
1005
125CB3
  0
LINE
  5
125CB4
  8
OBJECT
 10
6222.9999999999864
 20
-480.99999999999841
 30
0.0
 11
6186.9999999999864
 21
-480.99999999999841
 31
0.0
1001
ACDBBLOCKREPETAG
1070
     1
1071
       91
1005
125CB4
  0
LINE
  5
125CB5
  8
OBJECT
 10
6186.9999999999864
 20
-480.99999999999841
 30
0.0
 11
6186.9999999999864
 21
-598.99999999999852
 31
0.0
1001
ACDBBLOCKREPETAG
1070
     1
1071
       92
1005
125CB5
  0
LINE
  5
125CB6
  8
OBJECT
 10
6182.9999999999864
 20
-485.49999999999841
 30
0.0
 11
6182.9999999999864
 21
-594.49999999999852
 31
0.0
1001
ACDBBLOCKREPETAG
1070
     1
1071
       93
1005
125CB6
  0
LINE
  5
125CB7
  8
OBJECT
 10
6182.9999999999864
 20
-485.49999999999841
 30
0.0
 11
6169.9999999999873
 21
-485.49999999999841
 31
0.0
1001
ACDBBLOCKREPETAG
1070
     1
1071
       94
1005
125CB7
  0
LINE
  5
125CB8
  8
OBJECT
 10
6186.9999999999864
 20
-598.99999999999852
 30
0.0
 11
6222.9999999999864
 21
-598.99999999999852
 31
0.0
1001
ACDBBLOCKREPETAG
1070
     1
1071
       95
1005
125CB8
  0
LINE
  5
125CB9
  8
OBJECT
 10
6186.9999999999864
 20
-480.99999999999841
 30
0.0
 11
6182.9999999999864
 21
-485.49999999999841
 31
0.0
1001
ACDBBLOCKREPETAG
1070
     1
1071
       96
1005
125CB9
  0
LINE
  5
125CBA
  8
OBJECT
 10
6169.9999999999873
 20
-485.49999999999841
 30
0.0
 11
6169.9999999999873
 21
-570.74491827928557
 31
0.0
1001
ACDBBLOCKREPETAG
1070
     1
1071
       97
1005
125CBA
  0
ARC
  5
125CBB
  8
OBJECT
 10
6172.7999999999838
 20
-579.99999999999852
 30
0.0
 40
85.0
 50
91.887731891831123
 51
143.1301023540934
1001
ACDBBLOCKREPETAG
1070
     1
1071
       98
1005
125CBB
  0
LINE
  5
125CBC
  8
HIDDEN
 10
6177.9999999999864
 20
-495.49999999999841
 30
0.0
 11
6177.9999999999864
 21
-584.49999999999852
 31
0.0
1001
ACDBBLOCKREPETAG
1070
     1
1071
      100
1005
125CBC
  0
LINE
  5
125CBD
  8
OBJECT
 10
6105.9999999999873
 20
-646.07945073181554
 30
0.0
 11
6176.6313199210317
 21
-594.49999999999852
 31
0.0
1001
ACDBBLOCKREPETAG
1070
     1
1071
      101
1005
125CBD
  0
LINE
  5
125CBE
  8
OBJECT
 10
6099.9999999999818
 20
-528.99999999999761
 30
0.0
 11
6104.7999999999838
 21
-528.99999999999761
 31
0.0
1001
ACDBBLOCKREPETAG
1070
     1
1071
      102
1005
125CBE
  0
LINE
  5
125CBF
  8
OBJECT
 10
6105.9999999999873
 20
-548.35026377572785
 30
0.0
 11
6104.7999999999838
 21
-528.99999999999761
 31
0.0
1001
ACDBBLOCKREPETAG
1070
     1
1071
      103
1005
125CBF
  0
LINE
  5
125CC0
  8
OBJECT
 10
6182.9999999999864
 20
-594.49999999999852
 30
0.0
 11
6176.6313199210317
 21
-594.49999999999852
 31
0.0
1001
ACDBBLOCKREPETAG
1070
     1
1071
      104
1005
125CC0
  0
LINE
  5
125CC1
  8
OBJECT
 10
6186.9999999999864
 20
-598.99999999999852
 30
0.0
 11
6182.9999999999864
 21
-594.49999999999852
 31
0.0
1001
ACDBBLOCKREPETAG
1070
     1
1071
      105
1005
125CC1
  0
LINE
  5
125CC2
  8
OBJECT
 10
6222.9999999999864
 20
-137.99999999999909
 30
0.0
 11
6229.9999999999864
 21
-137.99999999999909
 31
0.0
1001
ACDBBLOCKREPETAG
1070
     1
1071
       85
1005
125CC2
  0
LINE
  5
125CC3
  8
OBJECT
 10
6229.9999999999864
 20
-137.99999999999909
 30
0.0
 11
6229.9999999999864
 21
-261.99999999999909
 31
0.0
1001
ACDBBLOCKREPETAG
1070
     1
1071
       86
1005
125CC3
  0
LINE
  5
125CC4
  8
OBJECT
 10
6229.9999999999864
 20
-261.99999999999909
 30
0.0
 11
6222.9999999999864
 21
-261.99999999999909
 31
0.0
1001
ACDBBLOCKREPETAG
1070
     1
1071
       87
1005
125CC4
  0
LINE
  5
125CC5
  8
OBJECT
 10
6222.9999999999864
 20
-261.99999999999909
 30
0.0
 11
6222.9999999999864
 21
-137.99999999999909
 31
0.0
1001
ACDBBLOCKREPETAG
1070
     1
1071
       88
1005
125CC5
  0
LINE
  5
125CC6
  8
CENTER
 10
6244.9999999999864
 20
-199.99999999999909
 30
0.0
 11
6100.0
 21
-199.99999999999909
 31
0.0
1001
ACDBBLOCKREPETAG
1070
     1
1071
       89
1005
125CC6
  0
LINE
  5
125CC7
  8
OBJECT
 10
6169.9999749641838
 20
-245.0000000000027
 30
0.0
 11
6106.0
 21
-244.99999999999909
 31
0.0
1001
ACDBBLOCKREPETAG
1070
     1
1071
       90
1005
125CC7
  0
LINE
  5
125CC8
  8
OBJECT
 10
6169.9999749641838
 20
-154.99999999999909
 30
0.0
 11
6106.0
 21
-154.99999999999909
 31
0.0
1001
ACDBBLOCKREPETAG
1070
     1
1071
       91
1005
125CC8
  0
LINE
  5
125CC9
  8
OBJECT
 10
6222.9999999999864
 20
-140.99999999999909
 30
0.0
 11
6186.9999999999864
 21
-140.99999999999909
 31
0.0
1001
ACDBBLOCKREPETAG
1070
     1
1071
       92
1005
125CC9
  0
LINE
  5
125CCA
  8
OBJECT
 10
6186.9999999999864
 20
-140.99999999999909
 30
0.0
 11
6186.9999999999864
 21
-258.99999999999909
 31
0.0
1001
ACDBBLOCKREPETAG
1070
     1
1071
       93
1005
125CCA
  0
LINE
  5
125CCB
  8
OBJECT
 10
6186.9999999999864
 20
-258.99999999999909
 30
0.0
 11
6222.9999999999864
 21
-258.99999999999909
 31
0.0
1001
ACDBBLOCKREPETAG
1070
     1
1071
       94
1005
125CCB
  0
LINE
  5
125CCC
  8
OBJECT
 10
6182.9999999999864
 20
-145.49999999999909
 30
0.0
 11
6169.9999999999873
 21
-145.49999999999909
 31
0.0
1001
ACDBBLOCKREPETAG
1070
     1
1071
       95
1005
125CCC
  0
LINE
  5
125CCD
  8
OBJECT
 10
6169.9999999999873
 20
-254.49999999999909
 30
0.0
 11
6182.9999999999864
 21
-254.49999999999909
 31
0.0
1001
ACDBBLOCKREPETAG
1070
     1
1071
       96
1005
125CCD
  0
LINE
  5
125CCE
  8
OBJECT
 10
6182.9999999999864
 20
-254.49999999999909
 30
0.0
 11
6182.9999999999864
 21
-145.49999999999909
 31
0.0
1001
ACDBBLOCKREPETAG
1070
     1
1071
       97
1005
125CCE
  0
LINE
  5
125CCF
  8
OBJECT
 10
6186.9999999999864
 20
-140.99999999999909
 30
0.0
 11
6182.9999999999864
 21
-145.49999999999909
 31
0.0
1001
ACDBBLOCKREPETAG
1070
     1
1071
       98
1005
125CCF
  0
LINE
  5
125CD0
  8
OBJECT
 10
6186.9999999999864
 20
-258.99999999999909
 30
0.0
 11
6182.9999999999864
 21
-254.49999999999909
 31
0.0
1001
ACDBBLOCKREPETAG
1070
     1
1071
       99
1005
125CD0
  0
LINE
  5
125CD1
  8
OBJECT
 10
6103.0
 20
-137.99999999999909
 30
0.0
 11
6100.0
 21
-137.99999999999909
 31
0.0
1001
ACDBBLOCKREPETAG
1070
     1
1071
      100
1005
125CD1
  0
ARC
  5
125CD2
  8
OBJECT
 10
6103.0
 20
-140.99999999999909
 30
0.0
 40
3.0
 50
0.0
 51
90.0
1001
ACDBBLOCKREPETAG
1070
     1
1071
      101
1005
125CD2
  0
LINE
  5
125CD3
  8
OBJECT
 10
6100.0
 20
-261.99999999999909
 30
0.0
 11
6103.0
 21
-261.99999999999909
 31
0.0
1001
ACDBBLOCKREPETAG
1070
     1
1071
      102
1005
125CD3
  0
ARC
  5
125CD4
  8
OBJECT
 10
6103.0
 20
-258.99999999999909
 30
0.0
 40
3.0
 50
270.0
 51
0.0
1001
ACDBBLOCKREPETAG
1070
     1
1071
      103
1005
125CD4
  0
LINE
  5
125CD5
  8
OBJECT
 10
6106.0
 20
-258.99999999999909
 30
0.0
 11
6106.0
 21
-210.3227903203578
 31
0.0
1001
ACDBBLOCKREPETAG
1070
     1
1071
      104
1005
125CD5
  0
LINE
  5
125CD6
  8
OBJECT
 10
6106.0
 20
-189.6772096796403
 30
0.0
 11
6106.0
 21
-140.99999999999909
 31
0.0
1001
ACDBBLOCKREPETAG
1070
     1
1071
      105
1005
125CD6
  0
LINE
  5
125CD7
  8
HIDDEN
 10
6177.9999999999864
 20
-155.49999999999909
 30
0.0
 11
6177.9999999999864
 21
-244.49999999999909
 31
0.0
1001
ACDBBLOCKREPETAG
1070
     1
1071
      106
1005
125CD7
  0
LINE
  5
125CD8
  8
OBJECT
 10
6169.9999749641838
 20
-254.4999509238105
 30
0.0
 11
6169.9999749641838
 21
-145.4999509238105
 31
0.0
1001
ACDBBLOCKREPETAG
1070
     1
1071
      108
1005
125CD8
  0
ARC
  5
125CD9
  8
OBJECT
 10
6149.8000000000238
 20
-199.99999999999909
 30
0.0
 40
45.000000000000547
 50
90.0
 51
270.0
1001
ACDBBLOCKREPETAG
1070
     1
1071
      109
1005
125CD9
  0
LINE
  5
125CDA
  8
OBJECT
 10
3897.0
 20
-528.99999999999761
 30
0.0
 11
3900.0
 21
-528.99999999999761
 31
0.0
1001
ACDBBLOCKREPETAG
1070
     1
1071
        1
1005
125CDA
  0
ARC
  5
125CDB
  8
OBJECT
 10
3897.0
 20
-531.99999999999773
 30
0.0
 40
3.0
 50
90.0
 51
180.0
1001
ACDBBLOCKREPETAG
1070
     1
1071
        2
1005
125CDB
  0
LINE
  5
125CDC
  8
OBJECT
 10
3900.0
 20
-652.99999999999761
 30
0.0
 11
3897.0
 21
-652.99999999999761
 31
0.0
1001
ACDBBLOCKREPETAG
1070
     1
1071
        3
1005
125CDC
  0
ARC
  5
125CDD
  8
OBJECT
 10
3897.0
 20
-649.99999999999761
 30
0.0
 40
3.0
 50
180.0
 51
270.0
1001
ACDBBLOCKREPETAG
1070
     1
1071
        4
1005
125CDD
  0
LINE
  5
125CDE
  8
OBJECT
 10
3894.0
 20
-649.99999999999761
 30
0.0
 11
3894.0
 21
-531.99999999999773
 31
0.0
1001
ACDBBLOCKREPETAG
1070
     1
1071
        5
1005
125CDE
  0
CIRCLE
  5
125CDF
  8
OBJECT
 10
4000.0
 20
-590.99999999999761
 30
0.0
 40
62.0
1001
ACDBBLOCKREPETAG
1070
     1
1071
        0
1005
125CDF
  0
LINE
  5
125CE0
  8
OBJECT
 10
4095.0
 20
-469.99999999999932
 30
0.0
 11
3905.0
 21
-469.99999999999932
 31
0.0
1001
ACDBBLOCKREPETAG
1070
     1
1071
        0
1005
125CE0
  0
LINE
  5
125CE1
  8
OBJECT
 10
4095.0
 20
-449.99999999999932
 30
0.0
 11
3905.0
 21
-449.99999999999932
 31
0.0
1001
ACDBBLOCKREPETAG
1070
     1
1071
        1
1005
125CE1
  0
LINE
  5
125CE2
  8
OBJECT
 10
3902.5
 20
-814.99999999999955
 30
0.0
 11
4097.5
 21
-814.99999999999955
 31
0.0
1001
ACDBBLOCKREPETAG
1070
     1
1071
        2
1005
125CE2
  0
LINE
  5
125CE3
  8
OBJECT
 10
3908.237046000002
 20
-449.99999999999932
 30
0.0
 11
3908.237046582261
 21
-469.99999999999932
 31
0.0
1001
ACDBBLOCKREPETAG
1070
     1
1071
        3
1005
125CE3
  0
LINE
  5
125CE4
  8
OBJECT
 10
3905.0
 20
-449.99999999999932
 30
0.0
 11
3905.0
 21
-469.99999999999932
 31
0.0
1001
ACDBBLOCKREPETAG
1070
     1
1071
        4
1005
125CE4
  0
LINE
  5
125CE5
  8
OBJECT
 10
3916.0249090000002
 20
-449.99999999999932
 30
0.0
 11
3916.0249090000002
 21
-469.99999999999932
 31
0.0
1001
ACDBBLOCKREPETAG
1070
     1
1071
        5
1005
125CE5
  0
LINE
  5
125CE6
  8
OBJECT
 10
3967.6243270000018
 20
-449.99999999999932
 30
0.0
 11
3967.6243270000018
 21
-469.99999999999932
 31
0.0
1001
ACDBBLOCKREPETAG
1070
     1
1071
        6
1005
125CE6
  0
LINE
  5
125CE7
  8
OBJECT
 10
3975.41219
 20
-449.99999999999932
 30
0.0
 11
3975.41219
 21
-469.99999999999932
 31
0.0
1001
ACDBBLOCKREPETAG
1070
     1
1071
        7
1005
125CE7
  0
LINE
  5
125CE8
  8
OBJECT
 10
4024.5878090000001
 20
-449.99999999999932
 30
0.0
 11
4024.5878090000001
 21
-469.99999999999932
 31
0.0
1001
ACDBBLOCKREPETAG
1070
     1
1071
        8
1005
125CE8
  0
LINE
  5
125CE9
  8
OBJECT
 10
4032.375672000001
 20
-449.99999999999932
 30
0.0
 11
4032.375672000001
 21
-469.99999999999932
 31
0.0
1001
ACDBBLOCKREPETAG
1070
     1
1071
        9
1005
125CE9
  0
LINE
  5
125CEA
  8
OBJECT
 10
4083.9750910000012
 20
-449.99999999999932
 30
0.0
 11
4083.9750910000012
 21
-469.99999999999932
 31
0.0
1001
ACDBBLOCKREPETAG
1070
     1
1071
       10
1005
125CEA
  0
LINE
  5
125CEB
  8
OBJECT
 10
4091.762953999998
 20
-449.99999999999932
 30
0.0
 11
4091.7629534177431
 21
-469.99999999999932
 31
0.0
1001
ACDBBLOCKREPETAG
1070
     1
1071
       11
1005
125CEB
  0
LINE
  5
125CEC
  8
OBJECT
 10
4095.0
 20
-449.99999999999932
 30
0.0
 11
4095.0
 21
-469.99999999999932
 31
0.0
1001
ACDBBLOCKREPETAG
1070
     1
1071
       12
1005
125CEC
  0
LINE
  5
125CED
  8
OBJECT
 10
4100.0
 20
-528.99999999999955
 30
0.0
 11
3900.0
 21
-528.99999999999955
 31
0.0
1001
ACDBBLOCKREPETAG
1070
     1
1071
       13
1005
125CED
  0
LINE
  5
125CEE
  8
OBJECT
 10
4100.0
 20
-652.99999999999761
 30
0.0
 11
4092.5
 21
-652.99999999999761
 31
0.0
1001
ACDBBLOCKREPETAG
1070
     1
1071
       14
1005
125CEE
  0
LINE
  5
125CEF
  8
OBJECT
 10
3902.5
 20
-814.99999999999955
 30
0.0
 11
3902.5
 21
-802.99999999999784
 31
0.0
1001
ACDBBLOCKREPETAG
1070
     1
1071
       15
1005
125CEF
  0
LINE
  5
125CF0
  8
OBJECT
 10
4097.5
 20
-814.99999999999955
 30
0.0
 11
4097.5
 21
-802.99999999999784
 31
0.0
1001
ACDBBLOCKREPETAG
1070
     1
1071
       16
1005
125CF0
  0
LINE
  5
125CF1
  8
OBJECT
 10
3902.5
 20
-802.99999999999784
 30
0.0
 11
4097.5
 21
-802.99999999999784
 31
0.0
1001
ACDBBLOCKREPETAG
1070
     1
1071
       17
1005
125CF1
  0
LINE
  5
125CF2
  8
HIDDEN
 10
3930.0
 20
-524.99999999999955
 30
0.0
 11
4070.0
 21
-524.99999999999955
 31
0.0
1001
ACDBBLOCKREPETAG
1070
     1
1071
       18
1005
125CF2
  0
LINE
  5
125CF3
  8
CENTER
 10
4000.0
 20
-434.99999999999949
 30
0.0
 11
4000.0
 21
-814.99999999999955
 31
0.0
1001
ACDBBLOCKREPETAG
1070
     1
1071
       19
1005
125CF3
  0
LINE
  5
125CF4
  8
OBJECT
 10
4092.5
 20
-652.99999999999761
 30
0.0
 11
4092.5
 21
-802.99999999999784
 31
0.0
1001
ACDBBLOCKREPETAG
1070
     1
1071
       20
1005
125CF4
  0
LINE
  5
125CF5
  8
OBJECT
 10
3914.5
 20
-469.99999999999932
 30
0.0
 11
3914.5
 21
-528.99999999999955
 31
0.0
1001
ACDBBLOCKREPETAG
1070
     1
1071
       21
1005
125CF5
  0
LINE
  5
125CF6
  8
OBJECT
 10
4085.5
 20
-469.99999999999932
 30
0.0
 11
4085.5
 21
-528.99999999999955
 31
0.0
1001
ACDBBLOCKREPETAG
1070
     1
1071
       22
1005
125CF6
  0
POINT
  5
125CF7
  8
DOTS
 10
4000.0
 20
-649.99999999999955
 30
0.0
1001
ACDBBLOCKREPETAG
1070
     1
1071
       24
1005
125CF7
  0
LINE
  5
125CF8
  8
OBJECT
 10
3900.0
 20
-652.99999999999761
 30
0.0
 11
3907.5
 21
-652.99999999999761
 31
0.0
1001
ACDBBLOCKREPETAG
1070
     1
1071
       25
1005
125CF8
  0
LINE
  5
125CF9
  8
OBJECT
 10
3907.5
 20
-652.99999999999761
 30
0.0
 11
3907.5
 21
-802.99999999999784
 31
0.0
1001
ACDBBLOCKREPETAG
1070
     1
1071
       26
1005
125CF9
  0
ARC
  5
125CFA
  8
OBJECT
 10
4214.4155190291494
 20
-615.62073879202455
 30
0.0
 40
149.554492306393
 50
144.60628028468801
 51
164.2211863995189
1001
ACDBBLOCKREPETAG
1070
     1
1071
       28
1005
125CFA
  0
ARC
  5
125CFB
  8
OBJECT
 10
4139.1422781245283
 20
-590.99999999999761
 30
0.0
 40
70.496447952551449
 50
166.8426918235858
 51
193.15730817641409
1001
ACDBBLOCKREPETAG
1070
     1
1071
       29
1005
125CFB
  0
ARC
  5
125CFC
  8
OBJECT
 10
4214.4155190291494
 20
-566.3792612079701
 30
0.0
 40
149.55449230639621
 50
195.7788136004809
 51
215.3937197153119
1001
ACDBBLOCKREPETAG
1070
     1
1071
       30
1005
125CFC
  0
ARC
  5
125CFD
  8
OBJECT
 10
3785.584480970851
 20
-615.62073879202455
 30
0.0
 40
149.554492306393
 50
15.778813600532009
 51
35.393719715228642
1001
ACDBBLOCKREPETAG
1070
     1
1071
       31
1005
125CFD
  0
ARC
  5
125CFE
  8
OBJECT
 10
3860.8577218754722
 20
-590.99999999999761
 30
0.0
 40
70.496447952551449
 50
346.84269182358582
 51
13.15730817641421
1001
ACDBBLOCKREPETAG
1070
     1
1071
       32
1005
125CFE
  0
ARC
  5
125CFF
  8
OBJECT
 10
3785.584480970851
 20
-566.3792612079701
 30
0.0
 40
149.55449230639621
 50
324.60628028477117
 51
344.22118639946802
1001
ACDBBLOCKREPETAG
1070
     1
1071
       33
1005
125CFF
  0
LINE
  5
125D00
  8
CENTER
 10
3878.9999999999959
 20
-199.99999999999909
 30
0.0
 11
3899.9999999999968
 21
-199.99999999999909
 31
0.0
1001
ACDBBLOCKREPETAG
1070
     1
1071
        0
1005
125D00
  0
LINE
  5
125D01
  8
OBJECT
 10
3896.9999999999968
 20
-261.99999999999909
 30
0.0
 11
3899.9999999999968
 21
-261.99999999999909
 31
0.0
1001
ACDBBLOCKREPETAG
1070
     1
1071
        1
1005
125D01
  0
ARC
  5
125D02
  8
OBJECT
 10
3896.9999999999968
 20
-258.99999999999909
 30
0.0
 40
3.0
 50
180.0
 51
270.0
1001
ACDBBLOCKREPETAG
1070
     1
1071
        2
1005
125D02
  0
LINE
  5
125D03
  8
OBJECT
 10
3899.9999999999968
 20
-137.99999999999909
 30
0.0
 11
3896.9999999999968
 21
-137.99999999999909
 31
0.0
1001
ACDBBLOCKREPETAG
1070
     1
1071
        3
1005
125D03
  0
ARC
  5
125D04
  8
OBJECT
 10
3896.9999999999968
 20
-140.99999999999909
 30
0.0
 40
3.0
 50
90.0
 51
180.0
1001
ACDBBLOCKREPETAG
1070
     1
1071
        4
1005
125D04
  0
LINE
  5
125D05
  8
OBJECT
 10
3893.9999999999959
 20
-140.99999999999909
 30
0.0
 11
3893.9999999999959
 21
-258.99999999999909
 31
0.0
1001
ACDBBLOCKREPETAG
1070
     1
1071
        5
1005
125D05
  0
LINE
  5
125D06
  8
CENTER
 10
4000.0000000000032
 20
-320.99999999999892
 30
0.0
 11
4000.0000000000032
 21
-299.99999999999892
 31
0.0
1001
ACDBBLOCKREPETAG
1070
     1
1071
        0
1005
125D06
  0
LINE
  5
125D07
  8
OBJECT
 10
4062.0000000000032
 20
-303.0
 30
0.0
 11
4062.0000000000032
 21
-299.99999999999892
 31
0.0
1001
ACDBBLOCKREPETAG
1070
     1
1071
        1
1005
125D07
  0
ARC
  5
125D08
  8
OBJECT
 10
4059.0000000000032
 20
-303.0
 30
0.0
 40
3.0
 50
270.0
 51
0.0
1001
ACDBBLOCKREPETAG
1070
     1
1071
        2
1005
125D08
  0
LINE
  5
125D09
  8
OBJECT
 10
3938.000000000005
 20
-299.99999999999892
 30
0.0
 11
3938.000000000005
 21
-302.99999999999818
 31
0.0
1001
ACDBBLOCKREPETAG
1070
     1
1071
        3
1005
125D09
  0
ARC
  5
125D0A
  8
OBJECT
 10
3941.0000000000041
 20
-302.99999999999818
 30
0.0
 40
3.0
 50
180.0
 51
270.0
1001
ACDBBLOCKREPETAG
1070
     1
1071
        4
1005
125D0A
  0
LINE
  5
125D0B
  8
OBJECT
 10
3941.0000000000041
 20
-305.99999999999818
 30
0.0
 11
4059.0000000000032
 21
-306.0
 31
0.0
1001
ACDBBLOCKREPETAG
1070
     1
1071
        5
1005
125D0B
  0
ARC
  5
125D0C
  8
OBJECT
 10
3973.8931207053251
 20
-173.82438331578209
 30
0.0
 40
90.0
 50
274.21795726566182
 51
281.60300086771468
1001
ACDBBLOCKREPETAG
1070
     1
1071
        0
1005
125D0C
  0
LINE
  5
125D0D
  8
OBJECT
 10
3991.994750999992
 20
-261.98520799999727
 30
0.0
 11
3996.6424319999928
 21
-248.3387539999994
 31
0.0
1001
ACDBBLOCKREPETAG
1070
     1
1071
       28
1005
125D0D
  0
LINE
  5
125D0E
  8
OBJECT
 10
3955.2887960976809
 20
-207.0733020425842
 30
0.0
 11
3935.6054186421102
 21
-216.60084009147889
 31
0.0
1001
ACDBBLOCKREPETAG
1070
     1
1071
       29
1005
125D0E
  0
LINE
  5
125D0F
  8
OBJECT
 10
3937.3350639238638
 20
-222.25658973369261
 30
0.0
 11
3961.756073885118
 21
-210.43584915155679
 31
0.0
1001
ACDBBLOCKREPETAG
1070
     1
1071
       30
1005
125D0F
  0
LINE
  5
125D10
  8
OBJECT
 10
3996.6424319999928
 20
-248.3387539999994
 30
0.0
 11
3970.3289245926439
 21
-210.9660806555467
 31
0.0
1001
ACDBBLOCKREPETAG
1070
     1
1071
       31
1005
125D10
  0
ARC
  5
125D11
  8
OBJECT
 10
3960.51700480005
 20
-217.87449798398211
 30
0.0
 40
12.0
 50
35.148769561176962
 51
115.8288295732624
1001
ACDBBLOCKREPETAG
1070
     1
1071
      259
1005
125D11
  0
ARC
  5
125D12
  8
OBJECT
 10
3965.2415463179791
 20
-217.63664646295089
 30
0.0
 40
8.0
 50
35.148769561176962
 51
115.8288292916689
1001
ACDBBLOCKREPETAG
1070
     1
1071
      260
1005
125D12
  0
ARC
  5
125D13
  8
OBJECT
 10
4000.0
 20
-199.99999999999909
 30
0.0
 40
90.0
 50
201.08359599996669
 51
248.9164040000301
1001
ACDBBLOCKREPETAG
1070
     1
1071
      268
1005
125D13
  0
ARC
  5
125D14
  8
OBJECT
 10
4000.0
 20
-199.99999999999909
 30
0.0
 40
90.0
 50
111.0835959999699
 51
158.9164034710258
1001
ACDBBLOCKREPETAG
1070
     1
1071
      269
1005
125D14
  0
LINE
  5
125D15
  8
OBJECT
 10
3916.0249094448668
 20
-167.62432755513231
 30
0.0
 11
3908.237046582261
 21
-175.4121904177382
 31
0.0
1001
ACDBBLOCKREPETAG
1070
     1
1071
      270
1005
125D15
  0
LINE
  5
125D16
  8
OBJECT
 10
3916.0249090000002
 20
-232.37567199999921
 30
0.0
 11
3908.2370469998132
 21
-224.58781114059909
 31
0.0
1001
ACDBBLOCKREPETAG
1070
     1
1071
      271
1005
125D16
  0
ARC
  5
125D17
  8
OBJECT
 10
4000.0
 20
-199.99999999999909
 30
0.0
 40
95.0
 50
164.99999981420299
 51
195.00000115869909
1001
ACDBBLOCKREPETAG
1070
     1
1071
      272
1005
125D17
  0
ARC
  5
125D18
  8
OBJECT
 10
4000.0
 20
-199.99999999999909
 30
0.0
 40
92.5
 50
287.80189678392043
 51
342.19810359941607
1001
ACDBBLOCKREPETAG
1070
     1
1071
        1
1005
125D18
  0
ARC
  5
125D19
  8
OBJECT
 10
4000.0
 20
-199.99999999999909
 30
0.0
 40
90.0
 50
291.08359599996987
 51
338.9164040000332
1001
ACDBBLOCKREPETAG
1070
     1
1071
        3
1005
125D19
  0
CIRCLE
  5
125D1A
  8
OBJECT
 10
4000.0
 20
-199.99999999999909
 30
0.0
 40
80.0
1001
ACDBBLOCKREPETAG
1070
     1
1071
        4
1005
125D1A
  0
ARC
  5
125D1B
  8
OBJECT
 10
4000.0
 20
-199.99999999999909
 30
0.0
 40
90.0
 50
21.083596528974049
 51
68.916404000030013
1001
ACDBBLOCKREPETAG
1070
     1
1071
        5
1005
125D1B
  0
CIRCLE
  5
125D1C
  8
OBJECT
 10
4000.0
 20
-199.99999999999909
 30
0.0
 40
66.5
1001
ACDBBLOCKREPETAG
1070
     1
1071
        7
1005
125D1C
  0
LINE
  5
125D1D
  8
OBJECT
 10
4083.9750905551332
 20
-167.62432755513231
 30
0.0
 11
4091.762953417739
 21
-175.4121904177382
 31
0.0
1001
ACDBBLOCKREPETAG
1070
     1
1071
        8
1005
125D1D
  0
LINE
  5
125D1E
  8
OBJECT
 10
4083.9750910000012
 20
-232.37567199999921
 30
0.0
 11
4091.7629530001868
 21
-224.58781114059909
 31
0.0
1001
ACDBBLOCKREPETAG
1070
     1
1071
        9
1005
125D1E
  0
ARC
  5
125D1F
  8
OBJECT
 10
4000.0
 20
-199.99999999999909
 30
0.0
 40
95.0
 50
344.99999884130068
 51
15.000000185796971
1001
ACDBBLOCKREPETAG
1070
     1
1071
       10
1005
125D1F
  0
LINE
  5
125D20
  8
OBJECT
 10
4032.3756729999982
 20
-283.9750909999994
 30
0.0
 11
4024.5878109482819
 21
-291.76295305171419
 31
0.0
1001
ACDBBLOCKREPETAG
1070
     1
1071
       11
1005
125D20
  0
LINE
  5
125D21
  8
OBJECT
 10
3967.624327999999
 20
-283.9750909999994
 30
0.0
 11
3975.4121904177409
 21
-291.76295341774039
 31
0.0
1001
ACDBBLOCKREPETAG
1070
     1
1071
       12
1005
125D21
  0
ARC
  5
125D22
  8
OBJECT
 10
4000.0
 20
-199.99999999999909
 30
0.0
 40
95.0
 50
254.999999814208
 51
285.0000010386097
1001
ACDBBLOCKREPETAG
1070
     1
1071
       13
1005
125D22
  0
LINE
  5
125D23
  8
OBJECT
 10
4032.3756729999982
 20
-116.0249099999992
 30
0.0
 11
4024.5878095822591
 21
-108.2370465822578
 31
0.0
1001
ACDBBLOCKREPETAG
1070
     1
1071
       14
1005
125D23
  0
ARC
  5
125D24
  8
OBJECT
 10
4000.0
 20
-199.99999999999909
 30
0.0
 40
95.0
 50
74.999999814207953
 51
104.9999993327599
1001
ACDBBLOCKREPETAG
1070
     1
1071
       15
1005
125D24
  0
LINE
  5
125D25
  8
OBJECT
 10
3967.624327999999
 20
-116.0249099999992
 30
0.0
 11
3975.412191783766
 21
-108.2370462162316
 31
0.0
1001
ACDBBLOCKREPETAG
1070
     1
1071
       16
1005
125D25
  0
LINE
  5
125D26
  8
OBJECT
 10
4055.1784370000009
 20
-162.884098999998
 30
0.0
 11
4032.534570109272
 21
-178.11554723457169
 31
0.0
1001
ACDBBLOCKREPETAG
1070
     1
1071
       17
1005
125D26
  0
LINE
  5
125D27
  8
OBJECT
 10
3944.8041210000019
 20
-162.88106899999821
 30
0.0
 11
4032.534570109272
 21
-178.11554723457169
 31
0.0
1001
ACDBBLOCKREPETAG
1070
     1
1071
       18
1005
125D27
  0
ARC
  5
125D28
  8
OBJECT
 10
4000.0
 20
-199.99999999999909
 30
0.0
 40
92.5
 50
197.80189544246551
 51
252.19810417430571
1001
ACDBBLOCKREPETAG
1070
     1
1071
       22
1005
125D28
  0
ARC
  5
125D29
  8
OBJECT
 10
4000.0
 20
-199.99999999999909
 30
0.0
 40
92.5
 50
107.80189486746769
 51
162.1981051326415
1001
ACDBBLOCKREPETAG
1070
     1
1071
       23
1005
125D29
  0
ARC
  5
125D2A
  8
OBJECT
 10
4000.0
 20
-199.99999999999909
 30
0.0
 40
92.5
 50
17.80189582568811
 51
72.198104174305684
1001
ACDBBLOCKREPETAG
1070
     1
1071
       24
1005
125D2A
  0
ARC
  5
125D2B
  8
OBJECT
 10
4000.0
 20
-199.99999999999909
 30
0.0
 40
62.5
 50
144.42390307809791
 51
193.7174643727642
1001
ACDBBLOCKREPETAG
1070
     1
1071
       26
1005
125D2B
  0
ARC
  5
125D2C
  8
OBJECT
 10
4000.0
 20
-199.99999999999909
 30
0.0
 40
62.5
 50
262.64111297834887
 51
33.92683896333525
1001
ACDBBLOCKREPETAG
1070
     1
1071
       27
1005
125D2C
  0
LINE
  5
125D2D
  8
OBJECT
 10
4068.6458301719758
 20
-137.99999999999909
 30
0.0
 11
4100.0
 21
-137.99999999999909
 31
0.0
1001
ACDBBLOCKREPETAG
1070
     1
1071
       33
1005
125D2D
  0
LINE
  5
125D2E
  8
OBJECT
 10
4068.6458301719758
 20
-261.99999999999909
 30
0.0
 11
4100.0000000000036
 21
-261.99999999999909
 31
0.0
1001
ACDBBLOCKREPETAG
1070
     1
1071
       34
1005
125D2E
  0
LINE
  5
125D2F
  8
OBJECT
 10
4062.0
 20
-268.64583017197862
 30
0.0
 11
4062.0000000000032
 21
-299.99999999999892
 31
0.0
1001
ACDBBLOCKREPETAG
1070
     1
1071
       35
1005
125D2F
  0
LINE
  5
125D30
  8
OBJECT
 10
3937.9999999999968
 20
-268.64583017197492
 30
0.0
 11
3938.0
 21
-299.99999999999892
 31
0.0
1001
ACDBBLOCKREPETAG
1070
     1
1071
       36
1005
125D30
  0
LINE
  5
125D31
  8
OBJECT
 10
3931.3541698280242
 20
-261.99999999999909
 30
0.0
 11
3899.9999999999968
 21
-261.99999999999909
 31
0.0
1001
ACDBBLOCKREPETAG
1070
     1
1071
       37
1005
125D31
  0
LINE
  5
125D32
  8
OBJECT
 10
3931.3541698280219
 20
-137.99999999999909
 30
0.0
 11
3899.9999999999968
 21
-137.99999999999909
 31
0.0
1001
ACDBBLOCKREPETAG
1070
     1
1071
       38
1005
125D32
  0
ARC
  5
125D33
  8
OBJECT
 10
4000.0
 20
-199.99999999999909
 30
0.0
 40
97.5
 50
39.48657743384517
 51
140.51342256615479
1001
ACDBBLOCKREPETAG
1070
     1
1071
       39
1005
125D33
  0
ARC
  5
125D34
  8
OBJECT
 10
4000.0
 20
-199.99999999999909
 30
0.0
 40
97.5
 50
219.48657743384521
 51
230.51342256616741
1001
ACDBBLOCKREPETAG
1070
     1
1071
       40
1005
125D34
  0
ARC
  5
125D35
  8
OBJECT
 10
4000.0
 20
-199.99999999999909
 30
0.0
 40
97.5
 50
309.48657743383143
 51
320.51342256615482
1001
ACDBBLOCKREPETAG
1070
     1
1071
       41
1005
125D35
  0
LINE
  5
125D36
  8
CENTER
 10
3900.0
 20
-199.99999999999909
 30
0.0
 11
4100.0
 21
-199.99999999999909
 31
0.0
1001
ACDBBLOCKREPETAG
1070
     1
1071
       42
1005
125D36
  0
LINE
  5
125D37
  8
CENTER
 10
4000.0
 20
-86.499999999999091
 30
0.0
 11
4000.0
 21
-299.99999999999892
 31
0.0
1001
ACDBBLOCKREPETAG
1070
     1
1071
       43
1005
125D37
  0
POINT
  5
125D38
  8
DOTS
 10
4000.0
 20
-199.99999999999909
 30
0.0
1001
ACDBBLOCKREPETAG
1070
     1
1071
      281
1005
125D38
  0
LINE
  5
125D39
  8
OBJECT
 10
4222.9999999999854
 20
-477.99999999999852
 30
0.0
 11
4229.9999999999854
 21
-477.99999999999852
 31
0.0
1001
ACDBBLOCKREPETAG
1070
     1
1071
       83
1005
125D39
  0
LINE
  5
125D3A
  8
OBJECT
 10
4229.9999999999854
 20
-477.99999999999852
 30
0.0
 11
4229.9999999999854
 21
-601.99999999999852
 31
0.0
1001
ACDBBLOCKREPETAG
1070
     1
1071
       84
1005
125D3A
  0
LINE
  5
125D3B
  8
OBJECT
 10
4105.9999999999854
 20
-548.35026377572513
 30
0.0
 11
4105.9999999999854
 21
-649.99999999999852
 31
0.0
1001
ACDBBLOCKREPETAG
1070
     1
1071
       85
1005
125D3B
  0
LINE
  5
125D3C
  8
OBJECT
 10
4229.9999999999854
 20
-601.99999999999852
 30
0.0
 11
4222.9999999999854
 21
-601.99999999999852
 31
0.0
1001
ACDBBLOCKREPETAG
1070
     1
1071
       86
1005
125D3C
  0
LINE
  5
125D3D
  8
OBJECT
 10
4222.9999999999854
 20
-601.99999999999852
 30
0.0
 11
4222.9999999999854
 21
-477.99999999999852
 31
0.0
1001
ACDBBLOCKREPETAG
1070
     1
1071
       87
1005
125D3D
  0
LINE
  5
125D3E
  8
CENTER
 10
4154.9999999999864
 20
-539.99999999999852
 30
0.0
 11
4244.9999999999854
 21
-539.99999999999852
 31
0.0
1001
ACDBBLOCKREPETAG
1070
     1
1071
       88
1005
125D3E
  0
LINE
  5
125D3F
  8
OBJECT
 10
4099.9999999999818
 20
-652.99999999999761
 30
0.0
 11
4102.9999999999854
 21
-652.99999999999852
 31
0.0
1001
ACDBBLOCKREPETAG
1070
     1
1071
       89
1005
125D3F
  0
ARC
  5
125D40
  8
OBJECT
 10
4102.9999999999854
 20
-649.99999999999852
 30
0.0
 40
3.0
 50
270.0
 51
0.0
1001
ACDBBLOCKREPETAG
1070
     1
1071
       90
1005
125D40
  0
LINE
  5
125D41
  8
OBJECT
 10
4222.9999999999854
 20
-480.99999999999841
 30
0.0
 11
4186.9999999999864
 21
-480.99999999999841
 31
0.0
1001
ACDBBLOCKREPETAG
1070
     1
1071
       91
1005
125D41
  0
LINE
  5
125D42
  8
OBJECT
 10
4186.9999999999864
 20
-480.99999999999841
 30
0.0
 11
4186.9999999999864
 21
-598.99999999999852
 31
0.0
1001
ACDBBLOCKREPETAG
1070
     1
1071
       92
1005
125D42
  0
LINE
  5
125D43
  8
OBJECT
 10
4182.9999999999854
 20
-485.49999999999841
 30
0.0
 11
4182.9999999999854
 21
-594.49999999999852
 31
0.0
1001
ACDBBLOCKREPETAG
1070
     1
1071
       93
1005
125D43
  0
LINE
  5
125D44
  8
OBJECT
 10
4182.9999999999854
 20
-485.49999999999841
 30
0.0
 11
4169.9999999999854
 21
-485.49999999999841
 31
0.0
1001
ACDBBLOCKREPETAG
1070
     1
1071
       94
1005
125D44
  0
LINE
  5
125D45
  8
OBJECT
 10
4186.9999999999864
 20
-598.99999999999852
 30
0.0
 11
4222.9999999999854
 21
-598.99999999999852
 31
0.0
1001
ACDBBLOCKREPETAG
1070
     1
1071
       95
1005
125D45
  0
LINE
  5
125D46
  8
OBJECT
 10
4186.9999999999864
 20
-480.99999999999841
 30
0.0
 11
4182.9999999999854
 21
-485.49999999999841
 31
0.0
1001
ACDBBLOCKREPETAG
1070
     1
1071
       96
1005
125D46
  0
LINE
  5
125D47
  8
OBJECT
 10
4169.9999999999854
 20
-485.49999999999841
 30
0.0
 11
4169.9999999999854
 21
-570.74491827928557
 31
0.0
1001
ACDBBLOCKREPETAG
1070
     1
1071
       97
1005
125D47
  0
ARC
  5
125D48
  8
OBJECT
 10
4172.7999999999829
 20
-579.99999999999852
 30
0.0
 40
85.0
 50
91.887731891831123
 51
143.1301023540934
1001
ACDBBLOCKREPETAG
1070
     1
1071
       98
1005
125D48
  0
LINE
  5
125D49
  8
HIDDEN
 10
4177.9999999999854
 20
-495.49999999999841
 30
0.0
 11
4177.9999999999854
 21
-584.49999999999852
 31
0.0
1001
ACDBBLOCKREPETAG
1070
     1
1071
      100
1005
125D49
  0
LINE
  5
125D4A
  8
OBJECT
 10
4105.9999999999854
 20
-646.07945073181554
 30
0.0
 11
4176.6313199210308
 21
-594.49999999999852
 31
0.0
1001
ACDBBLOCKREPETAG
1070
     1
1071
      101
1005
125D4A
  0
LINE
  5
125D4B
  8
OBJECT
 10
4099.9999999999818
 20
-528.99999999999761
 30
0.0
 11
4104.7999999999838
 21
-528.99999999999761
 31
0.0
1001
ACDBBLOCKREPETAG
1070
     1
1071
      102
1005
125D4B
  0
LINE
  5
125D4C
  8
OBJECT
 10
4105.9999999999854
 20
-548.35026377572785
 30
0.0
 11
4104.7999999999838
 21
-528.99999999999761
 31
0.0
1001
ACDBBLOCKREPETAG
1070
     1
1071
      103
1005
125D4C
  0
LINE
  5
125D4D
  8
OBJECT
 10
4182.9999999999854
 20
-594.49999999999852
 30
0.0
 11
4176.6313199210308
 21
-594.49999999999852
 31
0.0
1001
ACDBBLOCKREPETAG
1070
     1
1071
      104
1005
125D4D
  0
LINE
  5
125D4E
  8
OBJECT
 10
4186.9999999999864
 20
-598.99999999999852
 30
0.0
 11
4182.9999999999854
 21
-594.49999999999852
 31
0.0
1001
ACDBBLOCKREPETAG
1070
     1
1071
      105
1005
125D4E
  0
LINE
  5
125D4F
  8
OBJECT
 10
4222.9999999999854
 20
-137.99999999999909
 30
0.0
 11
4229.9999999999854
 21
-137.99999999999909
 31
0.0
1001
ACDBBLOCKREPETAG
1070
     1
1071
       85
1005
125D4F
  0
LINE
  5
125D50
  8
OBJECT
 10
4229.9999999999854
 20
-137.99999999999909
 30
0.0
 11
4229.9999999999854
 21
-261.99999999999909
 31
0.0
1001
ACDBBLOCKREPETAG
1070
     1
1071
       86
1005
125D50
  0
LINE
  5
125D51
  8
OBJECT
 10
4229.9999999999854
 20
-261.99999999999909
 30
0.0
 11
4222.9999999999854
 21
-261.99999999999909
 31
0.0
1001
ACDBBLOCKREPETAG
1070
     1
1071
       87
1005
125D51
  0
LINE
  5
125D52
  8
OBJECT
 10
4222.9999999999854
 20
-261.99999999999909
 30
0.0
 11
4222.9999999999854
 21
-137.99999999999909
 31
0.0
1001
ACDBBLOCKREPETAG
1070
     1
1071
       88
1005
125D52
  0
LINE
  5
125D53
  8
CENTER
 10
4244.9999999999854
 20
-199.99999999999909
 30
0.0
 11
4100.0
 21
-199.99999999999909
 31
0.0
1001
ACDBBLOCKREPETAG
1070
     1
1071
       89
1005
125D53
  0
LINE
  5
125D54
  8
OBJECT
 10
4169.9999749641865
 20
-245.0000000000027
 30
0.0
 11
4106.0
 21
-244.99999999999909
 31
0.0
1001
ACDBBLOCKREPETAG
1070
     1
1071
       90
1005
125D54
  0
LINE
  5
125D55
  8
OBJECT
 10
4169.9999749641865
 20
-154.99999999999909
 30
0.0
 11
4106.0
 21
-154.99999999999909
 31
0.0
1001
ACDBBLOCKREPETAG
1070
     1
1071
       91
1005
125D55
  0
LINE
  5
125D56
  8
OBJECT
 10
4222.9999999999854
 20
-140.99999999999909
 30
0.0
 11
4186.9999999999864
 21
-140.99999999999909
 31
0.0
1001
ACDBBLOCKREPETAG
1070
     1
1071
       92
1005
125D56
  0
LINE
  5
125D57
  8
OBJECT
 10
4186.9999999999864
 20
-140.99999999999909
 30
0.0
 11
4186.9999999999864
 21
-258.99999999999909
 31
0.0
1001
ACDBBLOCKREPETAG
1070
     1
1071
       93
1005
125D57
  0
LINE
  5
125D58
  8
OBJECT
 10
4186.9999999999864
 20
-258.99999999999909
 30
0.0
 11
4222.9999999999854
 21
-258.99999999999909
 31
0.0
1001
ACDBBLOCKREPETAG
1070
     1
1071
       94
1005
125D58
  0
LINE
  5
125D59
  8
OBJECT
 10
4182.9999999999854
 20
-145.49999999999909
 30
0.0
 11
4169.9999999999854
 21
-145.49999999999909
 31
0.0
1001
ACDBBLOCKREPETAG
1070
     1
1071
       95
1005
125D59
  0
LINE
  5
125D5A
  8
OBJECT
 10
4169.9999999999854
 20
-254.49999999999909
 30
0.0
 11
4182.9999999999854
 21
-254.49999999999909
 31
0.0
1001
ACDBBLOCKREPETAG
1070
     1
1071
       96
1005
125D5A
  0
LINE
  5
125D5B
  8
OBJECT
 10
4182.9999999999854
 20
-254.49999999999909
 30
0.0
 11
4182.9999999999854
 21
-145.49999999999909
 31
0.0
1001
ACDBBLOCKREPETAG
1070
     1
1071
       97
1005
125D5B
  0
LINE
  5
125D5C
  8
OBJECT
 10
4186.9999999999864
 20
-140.99999999999909
 30
0.0
 11
4182.9999999999854
 21
-145.49999999999909
 31
0.0
1001
ACDBBLOCKREPETAG
1070
     1
1071
       98
1005
125D5C
  0
LINE
  5
125D5D
  8
OBJECT
 10
4186.9999999999864
 20
-258.99999999999909
 30
0.0
 11
4182.9999999999854
 21
-254.49999999999909
 31
0.0
1001
ACDBBLOCKREPETAG
1070
     1
1071
       99
1005
125D5D
  0
LINE
  5
125D5E
  8
OBJECT
 10
4103.0
 20
-137.99999999999909
 30
0.0
 11
4100.0
 21
-137.99999999999909
 31
0.0
1001
ACDBBLOCKREPETAG
1070
     1
1071
      100
1005
125D5E
  0
ARC
  5
125D5F
  8
OBJECT
 10
4103.0
 20
-140.99999999999909
 30
0.0
 40
3.0
 50
0.0
 51
90.0
1001
ACDBBLOCKREPETAG
1070
     1
1071
      101
1005
125D5F
  0
LINE
  5
125D60
  8
OBJECT
 10
4100.0
 20
-261.99999999999909
 30
0.0
 11
4103.0
 21
-261.99999999999909
 31
0.0
1001
ACDBBLOCKREPETAG
1070
     1
1071
      102
1005
125D60
  0
ARC
  5
125D61
  8
OBJECT
 10
4103.0
 20
-258.99999999999909
 30
0.0
 40
3.0
 50
270.0
 51
0.0
1001
ACDBBLOCKREPETAG
1070
     1
1071
      103
1005
125D61
  0
LINE
  5
125D62
  8
OBJECT
 10
4106.0
 20
-258.99999999999909
 30
0.0
 11
4106.0
 21
-210.3227903203578
 31
0.0
1001
ACDBBLOCKREPETAG
1070
     1
1071
      104
1005
125D62
  0
LINE
  5
125D63
  8
OBJECT
 10
4106.0
 20
-189.6772096796403
 30
0.0
 11
4106.0
 21
-140.99999999999909
 31
0.0
1001
ACDBBLOCKREPETAG
1070
     1
1071
      105
1005
125D63
  0
LINE
  5
125D64
  8
HIDDEN
 10
4177.9999999999854
 20
-155.49999999999909
 30
0.0
 11
4177.9999999999854
 21
-244.49999999999909
 31
0.0
1001
ACDBBLOCKREPETAG
1070
     1
1071
      106
1005
125D64
  0
LINE
  5
125D65
  8
OBJECT
 10
4169.9999749641865
 20
-254.4999509238105
 30
0.0
 11
4169.9999749641865
 21
-145.4999509238105
 31
0.0
1001
ACDBBLOCKREPETAG
1070
     1
1071
      108
1005
125D65
  0
ARC
  5
125D66
  8
OBJECT
 10
4149.8000000000229
 20
-199.99999999999909
 30
0.0
 40
45.000000000000547
 50
90.0
 51
270.0
1001
ACDBBLOCKREPETAG
1070
     1
1071
      109
1005
125D66
  0
TEXT
  5
125D67
  8
SLIM
 10
5824.6000000000004
 20
-1489.0
 30
0.0
 40
28.0
  1
※ 対応スラブ厚　180～405
 41
0.75
  0
TEXT
  5
125D68
  8
SLIM
 10
5611.5
 20
-1582.3333333333339
 30
0.0
 40
28.0
  1
国土交通大臣認定・（財）日本消防設備安全センター性能評定取得品
 41
0.75
  0
TEXT
  5
125D69
  8
SLIM
 10
5631.1000000000004
 20
-1629.0
 30
0.0
 40
28.0
  1
注）ご採用にあたり、認定書及び評定書の内容をご確認ください。
 41
0.75
  0
LINE
  5
125D6A
  8
SLIM
 10
7897.5000000000928
 20
-666.05282860997045
 30
0.0
 11
7913.5528286100662
 21
-649.99999999999761
 31
0.0
1001
ACAD
1010
0.0
1020
0.0
1030
0.0
  0
LINE
  5
125D6B
  8
SLIM
 10
7897.5000000000928
 20
-684.01334085210885
 30
0.0
 11
7931.5133408522042
 21
-649.99999999999761
 31
0.0
1001
ACAD
1010
0.0
1020
0.0
1030
0.0
  0
LINE
  5
125D6C
  8
SLIM
 10
7897.5000000000928
 20
-701.97385309424715
 30
0.0
 11
7949.4738530943423
 21
-649.99999999999761
 31
0.0
1001
ACAD
1010
0.0
1020
0.0
1030
0.0
  0
LINE
  5
125D6D
  8
SLIM
 10
7897.5000000000928
 20
-719.93436533638567
 30
0.0
 11
7967.4343653364804
 21
-649.99999999999761
 31
0.0
1001
ACAD
1010
0.0
1020
0.0
1030
0.0
  0
LINE
  5
125D6E
  8
SLIM
 10
7897.5000000000928
 20
-737.89487757852351
 30
0.0
 11
7985.3948775786184
 21
-649.99999999999761
 31
0.0
1001
ACAD
1010
0.0
1020
0.0
1030
0.0
  0
LINE
  5
125D6F
  8
SLIM
 10
7897.5000000000928
 20
-755.85538982066203
 30
0.0
 11
8003.3553898207574
 21
-649.99999999999761
 31
0.0
1001
ACAD
1010
0.0
1020
0.0
1030
0.0
  0
LINE
  5
125D70
  8
SLIM
 10
7897.5000000000928
 20
-773.81590206280043
 30
0.0
 11
8021.3159020628946
 21
-649.99999999999761
 31
0.0
1001
ACAD
1010
0.0
1020
0.0
1030
0.0
  0
LINE
  5
125D71
  8
SLIM
 10
7897.5000000000928
 20
-791.77641430493816
 30
0.0
 11
8039.2764143050317
 21
-649.99999999999761
 31
0.0
1001
ACAD
1010
0.0
1020
0.0
1030
0.0
  0
LINE
  5
125D72
  8
SLIM
 10
7897.5000000000928
 20
-809.73692654707713
 30
0.0
 11
8057.2369265471707
 21
-649.99999999999761
 31
0.0
1001
ACAD
1010
0.0
1020
0.0
1030
0.0
  0
LINE
  5
125D73
  8
SLIM
 10
7897.5000000000928
 20
-827.69743878921543
 30
0.0
 11
8075.1974387893106
 21
-649.99999999999761
 31
0.0
1001
ACAD
1010
0.0
1020
0.0
1030
0.0
  0
LINE
  5
125D74
  8
SLIM
 10
7897.5000000000928
 20
-845.6579510313536
 30
0.0
 11
8093.1579510314468
 21
-649.99999999999761
 31
0.0
1001
ACAD
1010
0.0
1020
0.0
1030
0.0
  0
LINE
  5
125D75
  8
SLIM
 10
7897.5000000000928
 20
-863.61846327349178
 30
0.0
 11
8102.4999999999063
 21
-658.61846327367755
 31
0.0
1001
ACAD
1010
0.0
1020
0.0
1030
0.0
  0
LINE
  5
125D76
  8
SLIM
 10
7897.5000000000928
 20
-881.57897551563019
 30
0.0
 11
8102.4999999999063
 21
-676.57897551581561
 31
0.0
1001
ACAD
1010
0.0
1020
0.0
1030
0.0
  0
LINE
  5
125D77
  8
SLIM
 10
7898.589838966278
 20
-898.44964879158101
 30
0.0
 11
8102.4999999999063
 21
-694.53948775795391
 31
0.0
1001
ACAD
1010
0.0
1020
0.0
1030
0.0
  0
LINE
  5
125D78
  8
SLIM
 10
7900.8041486947632
 20
-914.19585130523694
 30
0.0
 11
8102.4999999999063
 21
-712.50000000009231
 31
0.0
1001
ACAD
1010
0.0
1020
0.0
1030
0.0
  0
LINE
  5
125D79
  8
SLIM
 10
7903.0184584232438
 20
-929.94205381889253
 30
0.0
 11
8102.4999999999063
 21
-730.46051224223027
 31
0.0
1001
ACAD
1010
0.0
1020
0.0
1030
0.0
  0
LINE
  5
125D7A
  8
SLIM
 10
7905.2327681517281
 20
-945.68825633254755
 30
0.0
 11
8102.4999999999063
 21
-748.4210244843689
 31
0.0
1001
ACAD
1010
0.0
1020
0.0
1030
0.0
  0
LINE
  5
125D7B
  8
SLIM
 10
7907.4470778802124
 20
-961.43445884620314
 30
0.0
 11
8102.4999999999063
 21
-766.38153672650731
 31
0.0
1001
ACAD
1010
0.0
1020
0.0
1030
0.0
  0
LINE
  5
125D7C
  8
SLIM
 10
7909.6613876086949
 20
-977.18066135985828
 30
0.0
 11
8102.4999999999063
 21
-784.34204896864549
 31
0.0
1001
ACAD
1010
0.0
1020
0.0
1030
0.0
  0
LINE
  5
125D7D
  8
SLIM
 10
7911.8756973371728
 20
-992.92686387351455
 30
0.0
 11
8102.4999999999063
 21
-802.30256121078355
 31
0.0
1001
ACAD
1010
0.0
1020
0.0
1030
0.0
  0
LINE
  5
125D7E
  8
SLIM
 10
7914.0900070656589
 20
-1008.67306638717
 30
0.0
 11
8102.4999999999063
 21
-820.26307345292219
 31
0.0
1001
ACAD
1010
0.0
1020
0.0
1030
0.0
  0
LINE
  5
125D7F
  8
SLIM
 10
7916.3043167941414
 20
-1024.419268900825
 30
0.0
 11
8102.4999999999063
 21
-838.22358569506036
 31
0.0
1001
ACAD
1010
0.0
1020
0.0
1030
0.0
  0
LINE
  5
125D80
  8
SLIM
 10
7918.5186265226248
 20
-1040.1654714144811
 30
0.0
 11
8102.4999999999063
 21
-856.18409793719877
 31
0.0
1001
ACAD
1010
0.0
1020
0.0
1030
0.0
  0
LINE
  5
125D81
  8
SLIM
 10
7920.0
 20
-1056.644610179244
 30
0.0
 11
8102.4999999999063
 21
-874.14461017933695
 31
0.0
1001
ACAD
1010
0.0
1020
0.0
1030
0.0
  0
LINE
  5
125D82
  8
SLIM
 10
7929.6051224213852
 20
-1064.999999999997
 30
0.0
 11
8102.2700189725447
 21
-892.33510344883962
 31
0.0
1001
ACAD
1010
0.0
1020
0.0
1030
0.0
  0
LINE
  5
125D83
  8
SLIM
 10
7930.0
 20
-1082.565634663521
 30
0.0
 11
7947.5656346635233
 21
-1064.999999999997
 31
0.0
1001
ACAD
1010
0.0
1020
0.0
1030
0.0
  0
LINE
  5
125D84
  8
SLIM
 10
7947.5656346635233
 20
-1064.999999999997
 30
0.0
 11
8099.3310260601947
 21
-913.23460860332796
 31
0.0
1001
ACAD
1010
0.0
1020
0.0
1030
0.0
  0
LINE
  5
125D85
  8
SLIM
 10
7940.5261469056613
 20
-1089.999999999998
 30
0.0
 11
7965.5261469056613
 21
-1064.999999999997
 31
0.0
1001
ACAD
1010
0.0
1020
0.0
1030
0.0
  0
LINE
  5
125D86
  8
SLIM
 10
7965.5261469056613
 20
-1064.999999999997
 30
0.0
 11
8096.392033147843
 21
-934.13411375781595
 31
0.0
1001
ACAD
1010
0.0
1020
0.0
1030
0.0
  0
LINE
  5
125D87
  8
SLIM
 10
7958.4866591477958
 20
-1089.999999999998
 30
0.0
 11
7983.4866591477958
 21
-1064.999999999997
 31
0.0
1001
ACAD
1010
0.0
1020
0.0
1030
0.0
  0
LINE
  5
125D88
  8
SLIM
 10
7983.4866591477958
 20
-1064.999999999997
 30
0.0
 11
8093.4530402354931
 21
-955.03361891230395
 31
0.0
1001
ACAD
1010
0.0
1020
0.0
1030
0.0
  0
LINE
  5
125D89
  8
SLIM
 10
7976.4471713899384
 20
-1089.999999999998
 30
0.0
 11
8001.4471713899393
 21
-1064.999999999997
 31
0.0
1001
ACAD
1010
0.0
1020
0.0
1030
0.0
  0
LINE
  5
125D8A
  8
SLIM
 10
8001.4471713899393
 20
-1064.999999999997
 30
0.0
 11
8090.5140473231431
 21
-975.93312406679183
 31
0.0
1001
ACAD
1010
0.0
1020
0.0
1030
0.0
  0
LINE
  5
125D8B
  8
SLIM
 10
7994.4076836320764
 20
-1089.999999999998
 30
0.0
 11
8019.4076836320764
 21
-1064.999999999997
 31
0.0
1001
ACAD
1010
0.0
1020
0.0
1030
0.0
  0
LINE
  5
125D8C
  8
SLIM
 10
8019.4076836320764
 20
-1064.999999999997
 30
0.0
 11
8087.5750544107932
 21
-996.83262922128063
 31
0.0
1001
ACAD
1010
0.0
1020
0.0
1030
0.0
  0
LINE
  5
125D8D
  8
SLIM
 10
8012.3681958742154
 20
-1089.999999999998
 30
0.0
 11
8037.3681958742127
 21
-1064.999999999997
 31
0.0
1001
ACAD
1010
0.0
1020
0.0
1030
0.0
  0
LINE
  5
125D8E
  8
SLIM
 10
8037.3681958742127
 20
-1064.999999999997
 30
0.0
 11
8084.6360614984433
 21
-1017.732134375769
 31
0.0
1001
ACAD
1010
0.0
1020
0.0
1030
0.0
  0
LINE
  5
125D8F
  8
SLIM
 10
8030.3287081163526
 20
-1089.999999999998
 30
0.0
 11
8055.3287081163544
 21
-1064.999999999997
 31
0.0
1001
ACAD
1010
0.0
1020
0.0
1030
0.0
  0
LINE
  5
125D90
  8
SLIM
 10
8055.3287081163544
 20
-1064.999999999997
 30
0.0
 11
8081.6970685860933
 21
-1038.631639530257
 31
0.0
1001
ACAD
1010
0.0
1020
0.0
1030
0.0
  0
LINE
  5
125D91
  8
SLIM
 10
8048.2892203584888
 20
-1089.999999999998
 30
0.0
 11
8070.0
 21
-1068.289220358489
 31
0.0
1001
ACAD
1010
0.0
1020
0.0
1030
0.0
  0
LINE
  5
125D92
  8
SLIM
 10
8073.2892203584888
 20
-1064.999999999997
 30
0.0
 11
8080.0
 21
-1058.289220358489
 31
0.0
1001
ACAD
1010
0.0
1020
0.0
1030
0.0
  0
LINE
  5
125D93
  8
SLIM
 10
8066.2497326006278
 20
-1089.999999999998
 30
0.0
 11
8070.0
 21
-1086.2497326006271
 31
0.0
1001
ACAD
1010
0.0
1020
0.0
1030
0.0
  0
LINE
  5
125D94
  8
OBJECT
 10
7897.5000000000928
 20
-649.99999999999761
 30
0.0
 11
8102.4999999999063
 21
-649.99999999999761
 31
0.0
  0
LINE
  5
125D95
  8
OBJECT
 10
8102.4999999999063
 20
-649.99999999999761
 30
0.0
 11
8102.4999999999063
 21
-890.69968280980572
 31
0.0
  0
LINE
  5
125D96
  8
OBJECT
 10
8102.4999999999063
 20
-890.69968280980572
 30
0.0
 11
8080.0
 21
-1050.699682809146
 31
0.0
  0
LINE
  5
125D97
  8
OBJECT
 10
8080.0
 20
-1050.699682809146
 30
0.0
 11
8080.0
 21
-1064.999999999997
 31
0.0
  0
LINE
  5
125D98
  8
OBJECT
 10
8080.0
 20
-1064.999999999997
 30
0.0
 11
7920.0
 21
-1064.999999999997
 31
0.0
  0
LINE
  5
125D99
  8
OBJECT
 10
7920.0
 20
-1064.999999999997
 30
0.0
 11
7920.0
 21
-1050.699682809146
 31
0.0
  0
LINE
  5
125D9A
  8
OBJECT
 10
7920.0
 20
-1050.699682809146
 30
0.0
 11
7897.5000000000928
 21
-890.69968280980572
 31
0.0
  0
LINE
  5
125D9B
  8
OBJECT
 10
7897.5000000000928
 20
-890.69968280980572
 30
0.0
 11
7897.5000000000928
 21
-649.99999999999761
 31
0.0
  0
LINE
  5
125D9C
  8
OBJECT
 10
7930.0
 20
-1064.999999999997
 30
0.0
 11
7930.0
 21
-1089.999999999998
 31
0.0
  0
LINE
  5
125D9D
  8
OBJECT
 10
7930.0
 20
-1089.999999999998
 30
0.0
 11
8070.0
 21
-1089.999999999998
 31
0.0
  0
LINE
  5
125D9E
  8
OBJECT
 10
8070.0
 20
-1089.999999999998
 30
0.0
 11
8070.0
 21
-1064.999999999997
 31
0.0
  0
LINE
  5
125D9F
  8
SLIM
 10
5897.5000000000928
 20
-666.05282860997045
 30
0.0
 11
5913.5528286100653
 21
-649.99999999999761
 31
0.0
1001
ACAD
1010
0.0
1020
0.0
1030
0.0
  0
LINE
  5
125DA0
  8
SLIM
 10
5897.5000000000928
 20
-684.01334085210885
 30
0.0
 11
5931.5133408522042
 21
-649.99999999999761
 31
0.0
1001
ACAD
1010
0.0
1020
0.0
1030
0.0
  0
LINE
  5
125DA1
  8
SLIM
 10
5897.5000000000928
 20
-701.97385309424715
 30
0.0
 11
5949.4738530943423
 21
-649.99999999999761
 31
0.0
1001
ACAD
1010
0.0
1020
0.0
1030
0.0
  0
LINE
  5
125DA2
  8
SLIM
 10
5897.5000000000928
 20
-719.93436533638567
 30
0.0
 11
5967.4343653364804
 21
-649.99999999999761
 31
0.0
1001
ACAD
1010
0.0
1020
0.0
1030
0.0
  0
LINE
  5
125DA3
  8
SLIM
 10
5897.5000000000928
 20
-737.89487757852351
 30
0.0
 11
5985.3948775786184
 21
-649.99999999999761
 31
0.0
1001
ACAD
1010
0.0
1020
0.0
1030
0.0
  0
LINE
  5
125DA4
  8
SLIM
 10
5897.5000000000928
 20
-755.85538982066203
 30
0.0
 11
6003.3553898207574
 21
-649.99999999999761
 31
0.0
1001
ACAD
1010
0.0
1020
0.0
1030
0.0
  0
LINE
  5
125DA5
  8
SLIM
 10
5897.5000000000928
 20
-773.81590206280043
 30
0.0
 11
6021.3159020628946
 21
-649.99999999999761
 31
0.0
1001
ACAD
1010
0.0
1020
0.0
1030
0.0
  0
LINE
  5
125DA6
  8
SLIM
 10
5897.5000000000928
 20
-791.77641430493816
 30
0.0
 11
6039.2764143050326
 21
-649.99999999999761
 31
0.0
1001
ACAD
1010
0.0
1020
0.0
1030
0.0
  0
LINE
  5
125DA7
  8
SLIM
 10
5897.5000000000928
 20
-809.73692654707713
 30
0.0
 11
6057.2369265471707
 21
-649.99999999999761
 31
0.0
1001
ACAD
1010
0.0
1020
0.0
1030
0.0
  0
LINE
  5
125DA8
  8
SLIM
 10
5897.5000000000928
 20
-827.69743878921543
 30
0.0
 11
6075.1974387893097
 21
-649.99999999999761
 31
0.0
1001
ACAD
1010
0.0
1020
0.0
1030
0.0
  0
LINE
  5
125DA9
  8
SLIM
 10
5897.5000000000928
 20
-845.6579510313536
 30
0.0
 11
6093.1579510314468
 21
-649.99999999999761
 31
0.0
1001
ACAD
1010
0.0
1020
0.0
1030
0.0
  0
LINE
  5
125DAA
  8
SLIM
 10
5897.5000000000928
 20
-863.61846327349178
 30
0.0
 11
6102.4999999999072
 21
-658.61846327367755
 31
0.0
1001
ACAD
1010
0.0
1020
0.0
1030
0.0
  0
LINE
  5
125DAB
  8
SLIM
 10
5897.5000000000928
 20
-881.57897551563019
 30
0.0
 11
6102.4999999999072
 21
-676.57897551581561
 31
0.0
1001
ACAD
1010
0.0
1020
0.0
1030
0.0
  0
LINE
  5
125DAC
  8
SLIM
 10
5898.5898389662798
 20
-898.44964879158101
 30
0.0
 11
6102.4999999999072
 21
-694.53948775795391
 31
0.0
1001
ACAD
1010
0.0
1020
0.0
1030
0.0
  0
LINE
  5
125DAD
  8
SLIM
 10
5900.8041486947632
 20
-914.19585130523694
 30
0.0
 11
6102.4999999999072
 21
-712.50000000009231
 31
0.0
1001
ACAD
1010
0.0
1020
0.0
1030
0.0
  0
LINE
  5
125DAE
  8
SLIM
 10
5903.0184584232456
 20
-929.94205381889253
 30
0.0
 11
6102.4999999999072
 21
-730.46051224223027
 31
0.0
1001
ACAD
1010
0.0
1020
0.0
1030
0.0
  0
LINE
  5
125DAF
  8
SLIM
 10
5905.2327681517281
 20
-945.68825633254755
 30
0.0
 11
6102.4999999999072
 21
-748.4210244843689
 31
0.0
1001
ACAD
1010
0.0
1020
0.0
1030
0.0
  0
LINE
  5
125DB0
  8
SLIM
 10
5907.4470778802097
 20
-961.43445884620314
 30
0.0
 11
6102.4999999999072
 21
-766.38153672650731
 31
0.0
1001
ACAD
1010
0.0
1020
0.0
1030
0.0
  0
LINE
  5
125DB1
  8
SLIM
 10
5909.661387608694
 20
-977.18066135985828
 30
0.0
 11
6102.4999999999072
 21
-784.34204896864549
 31
0.0
1001
ACAD
1010
0.0
1020
0.0
1030
0.0
  0
LINE
  5
125DB2
  8
SLIM
 10
5911.8756973371756
 20
-992.92686387351455
 30
0.0
 11
6102.4999999999072
 21
-802.30256121078355
 31
0.0
1001
ACAD
1010
0.0
1020
0.0
1030
0.0
  0
LINE
  5
125DB3
  8
SLIM
 10
5914.0900070656589
 20
-1008.67306638717
 30
0.0
 11
6102.4999999999072
 21
-820.26307345292219
 31
0.0
1001
ACAD
1010
0.0
1020
0.0
1030
0.0
  0
LINE
  5
125DB4
  8
SLIM
 10
5916.3043167941432
 20
-1024.419268900825
 30
0.0
 11
6102.4999999999072
 21
-838.22358569506036
 31
0.0
1001
ACAD
1010
0.0
1020
0.0
1030
0.0
  0
LINE
  5
125DB5
  8
SLIM
 10
5918.5186265226248
 20
-1040.1654714144811
 30
0.0
 11
6102.4999999999072
 21
-856.18409793719877
 31
0.0
1001
ACAD
1010
0.0
1020
0.0
1030
0.0
  0
LINE
  5
125DB6
  8
SLIM
 10
5920.0
 20
-1056.644610179244
 30
0.0
 11
6102.4999999999072
 21
-874.14461017933695
 31
0.0
1001
ACAD
1010
0.0
1020
0.0
1030
0.0
  0
LINE
  5
125DB7
  8
SLIM
 10
5929.6051224213852
 20
-1064.999999999997
 30
0.0
 11
6102.2700189725429
 21
-892.33510344883962
 31
0.0
1001
ACAD
1010
0.0
1020
0.0
1030
0.0
  0
LINE
  5
125DB8
  8
SLIM
 10
5930.0
 20
-1082.565634663521
 30
0.0
 11
5947.5656346635233
 21
-1064.999999999997
 31
0.0
1001
ACAD
1010
0.0
1020
0.0
1030
0.0
  0
LINE
  5
125DB9
  8
SLIM
 10
5947.5656346635233
 20
-1064.999999999997
 30
0.0
 11
6099.3310260601929
 21
-913.23460860332796
 31
0.0
1001
ACAD
1010
0.0
1020
0.0
1030
0.0
  0
LINE
  5
125DBA
  8
SLIM
 10
5940.5261469056613
 20
-1089.999999999998
 30
0.0
 11
5965.5261469056604
 21
-1064.999999999997
 31
0.0
1001
ACAD
1010
0.0
1020
0.0
1030
0.0
  0
LINE
  5
125DBB
  8
SLIM
 10
5965.5261469056604
 20
-1064.999999999997
 30
0.0
 11
6096.392033147843
 21
-934.13411375781595
 31
0.0
1001
ACAD
1010
0.0
1020
0.0
1030
0.0
  0
LINE
  5
125DBC
  8
SLIM
 10
5958.4866591478003
 20
-1089.999999999998
 30
0.0
 11
5983.4866591478003
 21
-1064.999999999997
 31
0.0
1001
ACAD
1010
0.0
1020
0.0
1030
0.0
  0
LINE
  5
125DBD
  8
SLIM
 10
5983.4866591478003
 20
-1064.999999999997
 30
0.0
 11
6093.4530402354931
 21
-955.03361891230395
 31
0.0
1001
ACAD
1010
0.0
1020
0.0
1030
0.0
  0
LINE
  5
125DBE
  8
SLIM
 10
5976.4471713899384
 20
-1089.999999999998
 30
0.0
 11
6001.4471713899366
 21
-1064.999999999997
 31
0.0
1001
ACAD
1010
0.0
1020
0.0
1030
0.0
  0
LINE
  5
125DBF
  8
SLIM
 10
6001.4471713899366
 20
-1064.999999999997
 30
0.0
 11
6090.5140473231431
 21
-975.93312406679183
 31
0.0
1001
ACAD
1010
0.0
1020
0.0
1030
0.0
  0
LINE
  5
125DC0
  8
SLIM
 10
5994.4076836320764
 20
-1089.999999999998
 30
0.0
 11
6019.4076836320774
 21
-1064.999999999997
 31
0.0
1001
ACAD
1010
0.0
1020
0.0
1030
0.0
  0
LINE
  5
125DC1
  8
SLIM
 10
6019.4076836320774
 20
-1064.999999999997
 30
0.0
 11
6087.5750544107932
 21
-996.83262922128063
 31
0.0
1001
ACAD
1010
0.0
1020
0.0
1030
0.0
  0
LINE
  5
125DC2
  8
SLIM
 10
6012.3681958742163
 20
-1089.999999999998
 30
0.0
 11
6037.3681958742181
 21
-1064.999999999997
 31
0.0
1001
ACAD
1010
0.0
1020
0.0
1030
0.0
  0
LINE
  5
125DC3
  8
SLIM
 10
6037.3681958742181
 20
-1064.999999999997
 30
0.0
 11
6084.6360614984433
 21
-1017.732134375769
 31
0.0
1001
ACAD
1010
0.0
1020
0.0
1030
0.0
  0
LINE
  5
125DC4
  8
SLIM
 10
6030.3287081163526
 20
-1089.999999999998
 30
0.0
 11
6055.3287081163517
 21
-1064.999999999997
 31
0.0
1001
ACAD
1010
0.0
1020
0.0
1030
0.0
  0
LINE
  5
125DC5
  8
SLIM
 10
6055.3287081163517
 20
-1064.999999999997
 30
0.0
 11
6081.6970685860952
 21
-1038.631639530257
 31
0.0
1001
ACAD
1010
0.0
1020
0.0
1030
0.0
  0
LINE
  5
125DC6
  8
SLIM
 10
6048.2892203584897
 20
-1089.999999999998
 30
0.0
 11
6070.0
 21
-1068.289220358489
 31
0.0
1001
ACAD
1010
0.0
1020
0.0
1030
0.0
  0
LINE
  5
125DC7
  8
SLIM
 10
6073.2892203584934
 20
-1064.999999999997
 30
0.0
 11
6080.0
 21
-1058.289220358489
 31
0.0
1001
ACAD
1010
0.0
1020
0.0
1030
0.0
  0
LINE
  5
125DC8
  8
SLIM
 10
6066.2497326006287
 20
-1089.999999999998
 30
0.0
 11
6070.0
 21
-1086.2497326006271
 31
0.0
1001
ACAD
1010
0.0
1020
0.0
1030
0.0
  0
LINE
  5
125DC9
  8
OBJECT
 10
5897.5000000000928
 20
-649.99999999999761
 30
0.0
 11
6102.4999999999072
 21
-649.99999999999761
 31
0.0
  0
LINE
  5
125DCA
  8
OBJECT
 10
6102.4999999999072
 20
-649.99999999999761
 30
0.0
 11
6102.4999999999072
 21
-890.69968280980572
 31
0.0
  0
LINE
  5
125DCB
  8
OBJECT
 10
6102.4999999999072
 20
-890.69968280980572
 30
0.0
 11
6080.0
 21
-1050.699682809146
 31
0.0
  0
LINE
  5
125DCC
  8
OBJECT
 10
6080.0
 20
-1050.699682809146
 30
0.0
 11
6080.0
 21
-1064.999999999997
 31
0.0
  0
LINE
  5
125DCD
  8
OBJECT
 10
6080.0
 20
-1064.999999999997
 30
0.0
 11
5920.0
 21
-1064.999999999997
 31
0.0
  0
LINE
  5
125DCE
  8
OBJECT
 10
5920.0
 20
-1064.999999999997
 30
0.0
 11
5920.0
 21
-1050.699682809146
 31
0.0
  0
LINE
  5
125DCF
  8
OBJECT
 10
5920.0
 20
-1050.699682809146
 30
0.0
 11
5897.5000000000928
 21
-890.69968280980572
 31
0.0
  0
LINE
  5
125DD0
  8
OBJECT
 10
5897.5000000000928
 20
-890.69968280980572
 30
0.0
 11
5897.5000000000928
 21
-649.99999999999761
 31
0.0
  0
LINE
  5
125DD1
  8
OBJECT
 10
5930.0
 20
-1064.999999999997
 30
0.0
 11
5930.0
 21
-1089.999999999998
 31
0.0
  0
LINE
  5
125DD2
  8
OBJECT
 10
5930.0
 20
-1089.999999999998
 30
0.0
 11
6070.0
 21
-1089.999999999998
 31
0.0
  0
LINE
  5
125DD3
  8
OBJECT
 10
6070.0
 20
-1089.999999999998
 30
0.0
 11
6070.0
 21
-1064.999999999997
 31
0.0
  0
LINE
  5
125DD4
  8
CENTER
 10
8000.0
 20
-1543.9999999999991
 30
0.0
 11
8000.0
 21
-1317.9999999999991
 31
0.0
1001
ACDBBLOCKREPETAG
1070
     1
1071
        0
1005
125DD4
  0
LINE
  5
125DD5
  8
CENTER
 10
7894.7678858541567
 20
-1438.9999999999991
 30
0.0
 11
8105.2321141458424
 21
-1438.9999999999991
 31
0.0
1001
ACDBBLOCKREPETAG
1070
     1
1071
        1
1005
125DD5
  0
CIRCLE
  5
125DD6
  8
OBJECT
 10
8000.0
 20
-1438.9999999999991
 30
0.0
 40
62.5
1001
ACDBBLOCKREPETAG
1070
     1
1071
        2
1005
125DD6
  0
CIRCLE
  5
125DD7
  8
OBJECT
 10
8000.0
 20
-1438.9999999999991
 30
0.0
 40
75.0
1001
ACDBBLOCKREPETAG
1070
     1
1071
        3
1005
125DD7
  0
ARC
  5
125DD8
  8
OBJECT
 10
8000.0
 20
-1438.9999999999991
 30
0.0
 40
90.0
 50
124.11056017877129
 51
175.8894398211431
1001
ACDBBLOCKREPETAG
1070
     1
1071
        4
1005
125DD8
  0
ARC
  5
125DD9
  8
OBJECT
 10
8000.0
 20
-1438.9999999999991
 30
0.0
 40
90.0
 50
244.1105601790079
 51
295.88943982099198
1001
ACDBBLOCKREPETAG
1070
     1
1071
        5
1005
125DD9
  0
ARC
  5
125DDA
  8
OBJECT
 10
8000.0
 20
-1438.9999999999991
 30
0.0
 40
90.0
 50
4.1105601788568462
 51
55.889439821228699
1001
ACDBBLOCKREPETAG
1070
     1
1071
        6
1005
125DDA
  0
CIRCLE
  5
125DDB
  8
SLIM
 10
8000.0
 20
-1345.9999999999991
 30
0.0
 40
6.0
1001
ACDBBLOCKREPETAG
1070
     1
1071
        7
1005
125DDB
  0
ARC
  5
125DDC
  8
OBJECT
 10
8000.0
 20
-1345.9999999999991
 30
0.0
 40
13.0
 50
55.889439821228699
 51
124.11056017877129
1001
ACDBBLOCKREPETAG
1070
     1
1071
        8
1005
125DDC
  0
LINE
  5
125DDD
  8
OBJECT
 10
7949.5287555726281
 20
-1364.483870967742
 30
0.0
 11
7992.7097091382657
 21
-1335.2365591397861
 31
0.0
1001
ACDBBLOCKREPETAG
1070
     1
1071
        9
1005
125DDD
  0
LINE
  5
125DDE
  8
OBJECT
 10
8050.4712444273764
 20
-1364.483870967742
 30
0.0
 11
8007.2902908617298
 21
-1335.2365591397861
 31
0.0
1001
ACDBBLOCKREPETAG
1070
     1
1071
       10
1005
125DDE
  0
POLYLINE
  5
125DDF
  8
SLIM
 66
     1
 10
0.0
 20
0.0
 30
0.0
 70
     1
1001
ACDBBLOCKREPETAG
1070
     1
1071
       11
1005
125DDF
  0
VERTEX
  5
1263F8
  8
SLIM
 10
7990.5
 20
-1351.484827557302
 30
0.0
  0
VERTEX
  5
1263F9
  8
SLIM
 10
8000.0
 20
-1356.9696551146039
 30
0.0
  0
VERTEX
  5
1263FA
  8
SLIM
 10
8009.5
 20
-1351.484827557302
 30
0.0
  0
VERTEX
  5
1263FB
  8
SLIM
 10
8009.5
 20
-1340.515172442696
 30
0.0
  0
VERTEX
  5
1263FC
  8
SLIM
 10
8000.0
 20
-1335.0303448853949
 30
0.0
  0
VERTEX
  5
1263FD
  8
SLIM
 10
7990.5
 20
-1340.515172442696
 30
0.0
  0
SEQEND
  5
1263FE
  8
SLIM
  0
CIRCLE
  5
125DE0
  8
SLIM
 10
7919.4596374480507
 20
-1485.4999999999991
 30
0.0
 40
5.9999999999999991
1001
ACDBBLOCKREPETAG
1070
     1
1071
       12
1005
125DE0
  0
ARC
  5
125DE1
  8
OBJECT
 10
7919.4596374480507
 20
-1485.4999999999991
 30
0.0
 40
13.0
 50
175.8894398211431
 51
244.1105601790079
1001
ACDBBLOCKREPETAG
1070
     1
1071
       13
1005
125DE1
  0
LINE
  5
125DE2
  8
OBJECT
 10
7960.7027614800709
 20
-1519.9674443508479
 30
0.0
 11
7913.7833696618336
 21
-1497.195297517344
 31
0.0
1001
ACDBBLOCKREPETAG
1070
     1
1071
       14
1005
125DE2
  0
LINE
  5
125DE3
  8
OBJECT
 10
7910.2315170527017
 20
-1432.548684681409
 30
0.0
 11
7906.4930788001029
 21
-1484.5681433428681
 31
0.0
1001
ACDBBLOCKREPETAG
1070
     1
1071
       15
1005
125DE3
  0
POLYLINE
  5
125DE4
  8
SLIM
 66
     1
 10
0.0
 20
0.0
 30
0.0
 70
     1
1001
ACDBBLOCKREPETAG
1070
     1
1071
       16
1005
125DE4
  0
VERTEX
  5
1263FF
  8
SLIM
 10
7928.9596374480507
 20
-1490.984827557302
 30
0.0
  0
VERTEX
  5
126400
  8
SLIM
 10
7928.9596374480507
 20
-1480.0151724426969
 30
0.0
  0
VERTEX
  5
126401
  8
SLIM
 10
7919.4596374480507
 20
-1474.5303448853949
 30
0.0
  0
VERTEX
  5
126402
  8
SLIM
 10
7909.9596374480461
 20
-1480.0151724426969
 30
0.0
  0
VERTEX
  5
126403
  8
SLIM
 10
7909.9596374480461
 20
-1490.984827557302
 30
0.0
  0
VERTEX
  5
126404
  8
SLIM
 10
7919.459637448047
 20
-1496.4696551146039
 30
0.0
  0
SEQEND
  5
126405
  8
SLIM
  0
CIRCLE
  5
125DE5
  8
SLIM
 10
8080.5403625519548
 20
-1485.4999999999991
 30
0.0
 40
6.0
1001
ACDBBLOCKREPETAG
1070
     1
1071
       17
1005
125DE5
  0
ARC
  5
125DE6
  8
OBJECT
 10
8080.5403625519548
 20
-1485.4999999999991
 30
0.0
 40
13.0
 50
295.88943982099198
 51
4.1105601788568462
1001
ACDBBLOCKREPETAG
1070
     1
1071
       18
1005
125DE6
  0
LINE
  5
125DE7
  8
OBJECT
 10
8089.7684829473019
 20
-1432.548684681409
 30
0.0
 11
8093.5069211998962
 21
-1484.5681433428681
 31
0.0
1001
ACDBBLOCKREPETAG
1070
     1
1071
       19
1005
125DE7
  0
LINE
  5
125DE8
  8
OBJECT
 10
8039.2972385199282
 20
-1519.9674443508479
 30
0.0
 11
8086.2166303381618
 21
-1497.195297517344
 31
0.0
1001
ACDBBLOCKREPETAG
1070
     1
1071
       20
1005
125DE8
  0
POLYLINE
  5
125DE9
  8
SLIM
 66
     1
 10
0.0
 20
0.0
 30
0.0
 70
     1
1001
ACDBBLOCKREPETAG
1070
     1
1071
       21
1005
125DE9
  0
VERTEX
  5
126406
  8
SLIM
 10
8080.5403625519548
 20
-1474.5303448853949
 30
0.0
  0
VERTEX
  5
126407
  8
SLIM
 10
8071.0403625519557
 20
-1480.0151724426969
 30
0.0
  0
VERTEX
  5
126408
  8
SLIM
 10
8071.0403625519557
 20
-1490.984827557302
 30
0.0
  0
VERTEX
  5
126409
  8
SLIM
 10
8080.5403625519548
 20
-1496.4696551146039
 30
0.0
  0
VERTEX
  5
12640A
  8
SLIM
 10
8090.0403625519557
 20
-1490.984827557302
 30
0.0
  0
VERTEX
  5
12640B
  8
SLIM
 10
8090.0403625519557
 20
-1480.0151724426969
 30
0.0
  0
SEQEND
  5
12640C
  8
SLIM
  0
LINE
  5
125DEA
  8
CENTER
 10
4000.0
 20
-1543.9999999999991
 30
0.0
 11
4000.0
 21
-1317.9999999999991
 31
0.0
1001
ACDBBLOCKREPETAG
1070
     1
1071
        0
1005
125DEA
  0
LINE
  5
125DEB
  8
CENTER
 10
3894.7678858541608
 20
-1438.9999999999991
 30
0.0
 11
4105.2321141458406
 21
-1438.9999999999991
 31
0.0
1001
ACDBBLOCKREPETAG
1070
     1
1071
        1
1005
125DEB
  0
CIRCLE
  5
125DEC
  8
OBJECT
 10
4000.0
 20
-1438.9999999999991
 30
0.0
 40
62.5
1001
ACDBBLOCKREPETAG
1070
     1
1071
        2
1005
125DEC
  0
CIRCLE
  5
125DED
  8
OBJECT
 10
4000.0
 20
-1438.9999999999991
 30
0.0
 40
75.0
1001
ACDBBLOCKREPETAG
1070
     1
1071
        3
1005
125DED
  0
ARC
  5
125DEE
  8
OBJECT
 10
4000.0
 20
-1438.9999999999991
 30
0.0
 40
90.0
 50
124.11056017877129
 51
175.8894398211431
1001
ACDBBLOCKREPETAG
1070
     1
1071
        4
1005
125DEE
  0
ARC
  5
125DEF
  8
OBJECT
 10
4000.0
 20
-1438.9999999999991
 30
0.0
 40
90.0
 50
244.11056017898451
 51
295.88943982101551
1001
ACDBBLOCKREPETAG
1070
     1
1071
        5
1005
125DEF
  0
ARC
  5
125DF0
  8
OBJECT
 10
4000.0
 20
-1438.9999999999991
 30
0.0
 40
90.0
 50
4.1105601788568462
 51
55.889439821228699
1001
ACDBBLOCKREPETAG
1070
     1
1071
        6
1005
125DF0
  0
CIRCLE
  5
125DF1
  8
SLIM
 10
4000.0
 20
-1345.9999999999991
 30
0.0
 40
6.0
1001
ACDBBLOCKREPETAG
1070
     1
1071
        7
1005
125DF1
  0
ARC
  5
125DF2
  8
OBJECT
 10
4000.0
 20
-1345.9999999999991
 30
0.0
 40
13.0
 50
55.889439821228699
 51
124.11056017877129
1001
ACDBBLOCKREPETAG
1070
     1
1071
        8
1005
125DF2
  0
LINE
  5
125DF3
  8
OBJECT
 10
3949.5287555726291
 20
-1364.483870967742
 30
0.0
 11
3992.709709138268
 21
-1335.2365591397861
 31
0.0
1001
ACDBBLOCKREPETAG
1070
     1
1071
        9
1005
125DF3
  0
LINE
  5
125DF4
  8
OBJECT
 10
4050.471244427376
 20
-1364.483870967742
 30
0.0
 11
4007.290290861732
 21
-1335.2365591397861
 31
0.0
1001
ACDBBLOCKREPETAG
1070
     1
1071
       10
1005
125DF4
  0
POLYLINE
  5
125DF5
  8
SLIM
 66
     1
 10
0.0
 20
0.0
 30
0.0
 70
     1
1001
ACDBBLOCKREPETAG
1070
     1
1071
       11
1005
125DF5
  0
VERTEX
  5
12640D
  8
SLIM
 10
3990.5
 20
-1351.484827557302
 30
0.0
  0
VERTEX
  5
12640E
  8
SLIM
 10
4000.0
 20
-1356.9696551146039
 30
0.0
  0
VERTEX
  5
12640F
  8
SLIM
 10
4009.5
 20
-1351.484827557302
 30
0.0
  0
VERTEX
  5
126410
  8
SLIM
 10
4009.5
 20
-1340.515172442696
 30
0.0
  0
VERTEX
  5
126411
  8
SLIM
 10
4000.0
 20
-1335.0303448853949
 30
0.0
  0
VERTEX
  5
126412
  8
SLIM
 10
3990.5
 20
-1340.515172442696
 30
0.0
  0
SEQEND
  5
126413
  8
SLIM
  0
CIRCLE
  5
125DF6
  8
SLIM
 10
3919.4596374480502
 20
-1485.4999999999991
 30
0.0
 40
5.9999999999999991
1001
ACDBBLOCKREPETAG
1070
     1
1071
       12
1005
125DF6
  0
ARC
  5
125DF7
  8
OBJECT
 10
3919.4596374480502
 20
-1485.4999999999991
 30
0.0
 40
13.0
 50
175.8894398211431
 51
244.11056017898451
1001
ACDBBLOCKREPETAG
1070
     1
1071
       13
1005
125DF7
  0
LINE
  5
125DF8
  8
OBJECT
 10
3960.7027614800718
 20
-1519.9674443508479
 30
0.0
 11
3913.7833696618368
 21
-1497.195297517344
 31
0.0
1001
ACDBBLOCKREPETAG
1070
     1
1071
       14
1005
125DF8
  0
LINE
  5
125DF9
  8
OBJECT
 10
3910.2315170527008
 20
-1432.548684681409
 30
0.0
 11
3906.4930788001038
 21
-1484.5681433428681
 31
0.0
1001
ACDBBLOCKREPETAG
1070
     1
1071
       15
1005
125DF9
  0
POLYLINE
  5
125DFA
  8
SLIM
 66
     1
 10
0.0
 20
0.0
 30
0.0
 70
     1
1001
ACDBBLOCKREPETAG
1070
     1
1071
       16
1005
125DFA
  0
VERTEX
  5
126414
  8
SLIM
 10
3928.9596374480502
 20
-1490.984827557302
 30
0.0
  0
VERTEX
  5
126415
  8
SLIM
 10
3928.9596374480502
 20
-1480.0151724426969
 30
0.0
  0
VERTEX
  5
126416
  8
SLIM
 10
3919.4596374480502
 20
-1474.5303448853949
 30
0.0
  0
VERTEX
  5
126417
  8
SLIM
 10
3909.9596374480461
 20
-1480.0151724426969
 30
0.0
  0
VERTEX
  5
126418
  8
SLIM
 10
3909.9596374480461
 20
-1490.984827557302
 30
0.0
  0
VERTEX
  5
126419
  8
SLIM
 10
3919.4596374480461
 20
-1496.4696551146039
 30
0.0
  0
SEQEND
  5
12641A
  8
SLIM
  0
CIRCLE
  5
125DFB
  8
SLIM
 10
4080.5403625519521
 20
-1485.4999999999991
 30
0.0
 40
6.0
1001
ACDBBLOCKREPETAG
1070
     1
1071
       17
1005
125DFB
  0
ARC
  5
125DFC
  8
OBJECT
 10
4080.5403625519521
 20
-1485.4999999999991
 30
0.0
 40
13.0
 50
295.88943982101551
 51
4.1105601788568462
1001
ACDBBLOCKREPETAG
1070
     1
1071
       18
1005
125DFC
  0
LINE
  5
125DFD
  8
OBJECT
 10
4089.768482947301
 20
-1432.548684681409
 30
0.0
 11
4093.5069211998962
 21
-1484.5681433428681
 31
0.0
1001
ACDBBLOCKREPETAG
1070
     1
1071
       19
1005
125DFD
  0
LINE
  5
125DFE
  8
OBJECT
 10
4039.2972385199269
 20
-1519.9674443508479
 30
0.0
 11
4086.2166303381632
 21
-1497.195297517344
 31
0.0
1001
ACDBBLOCKREPETAG
1070
     1
1071
       20
1005
125DFE
  0
POLYLINE
  5
125DFF
  8
SLIM
 66
     1
 10
0.0
 20
0.0
 30
0.0
 70
     1
1001
ACDBBLOCKREPETAG
1070
     1
1071
       21
1005
125DFF
  0
VERTEX
  5
12641B
  8
SLIM
 10
4080.5403625519521
 20
-1474.5303448853949
 30
0.0
  0
VERTEX
  5
12641C
  8
SLIM
 10
4071.040362551953
 20
-1480.0151724426969
 30
0.0
  0
VERTEX
  5
12641D
  8
SLIM
 10
4071.040362551953
 20
-1490.984827557302
 30
0.0
  0
VERTEX
  5
12641E
  8
SLIM
 10
4080.5403625519521
 20
-1496.4696551146039
 30
0.0
  0
VERTEX
  5
12641F
  8
SLIM
 10
4090.040362551953
 20
-1490.984827557302
 30
0.0
  0
VERTEX
  5
126420
  8
SLIM
 10
4090.040362551953
 20
-1480.0151724426969
 30
0.0
  0
SEQEND
  5
126421
  8
SLIM
  0
LINE
  5
125E00
  8
OBJECT
 10
8092.4999999999973
 20
-889.99999999999955
 30
0.0
 11
8092.4999999999973
 21
-814.99999999999955
 31
0.0
1001
ACDBBLOCKREPETAG
1070
     1
1071
       12
1005
125E00
  0
LINE
  5
125E01
  8
OBJECT
 10
8093.5403615519499
 20
-1164.9999999999991
 30
0.0
 11
7906.4596374480461
 21
-1164.9999999999991
 31
0.0
1001
ACDBBLOCKREPETAG
1070
     1
1071
       13
1005
125E01
  0
LINE
  5
125E02
  8
OBJECT
 10
7906.4596374480498
 20
-1191.5
 30
0.0
 11
8093.5403625519502
 21
-1191.5
 31
0.0
1001
ACDBBLOCKREPETAG
1070
     1
1071
       14
1005
125E02
  0
LINE
  5
125E03
  8
OBJECT
 10
8093.5403625519502
 20
-1175.5000000000009
 30
0.0
 11
7906.4596374480498
 21
-1175.5000000000009
 31
0.0
1001
ACDBBLOCKREPETAG
1070
     1
1071
       15
1005
125E03
  0
LINE
  5
125E04
  8
OBJECT
 10
8005.9999999999982
 20
-1206.999999999998
 30
0.0
 11
8005.9999999999982
 21
-1201.5000000000009
 31
0.0
1001
ACDBBLOCKREPETAG
1070
     1
1071
       16
1005
125E04
  0
LINE
  5
125E05
  8
OBJECT
 10
7993.9999999999973
 20
-1206.999999999998
 30
0.0
 11
7993.9999999999973
 21
-1201.5000000000009
 31
0.0
1001
ACDBBLOCKREPETAG
1070
     1
1071
       17
1005
125E05
  0
LINE
  5
125E06
  8
OBJECT
 10
7993.9999999999973
 20
-1206.999999999998
 30
0.0
 11
8005.9999999999982
 21
-1206.999999999998
 31
0.0
1001
ACDBBLOCKREPETAG
1070
     1
1071
       18
1005
125E06
  0
LINE
  5
125E07
  8
OBJECT
 10
7993.9999999999973
 20
-1175.5000000000009
 30
0.0
 11
7993.9999999999973
 21
-1164.9999999999991
 31
0.0
1001
ACDBBLOCKREPETAG
1070
     1
1071
       19
1005
125E07
  0
LINE
  5
125E08
  8
OBJECT
 10
8005.9999999999982
 20
-1175.5000000000009
 30
0.0
 11
8005.9999999999982
 21
-1164.9999999999991
 31
0.0
1001
ACDBBLOCKREPETAG
1070
     1
1071
       20
1005
125E08
  0
LINE
  5
125E09
  8
OBJECT
 10
8016.4999999999982
 20
-1144.499999999998
 30
0.0
 11
8016.4999999999982
 21
-1146.999999999998
 31
0.0
1001
ACDBBLOCKREPETAG
1070
     1
1071
       21
1005
125E09
  0
LINE
  5
125E0A
  8
OBJECT
 10
7989.9999999999982
 20
-1141.0
 30
0.0
 11
7989.9999999999982
 21
-1146.999999999998
 31
0.0
1001
ACDBBLOCKREPETAG
1070
     1
1071
       22
1005
125E0A
  0
LINE
  5
125E0B
  8
OBJECT
 10
8008.4999999999973
 20
-1141.0
 30
0.0
 11
7989.9999999999982
 21
-1141.0
 31
0.0
1001
ACDBBLOCKREPETAG
1070
     1
1071
       23
1005
125E0B
  0
LINE
  5
125E0C
  8
OBJECT
 10
8093.5403615519499
 20
-1146.999999999998
 30
0.0
 11
7906.4596374480461
 21
-1146.999999999998
 31
0.0
1001
ACDBBLOCKREPETAG
1070
     1
1071
       24
1005
125E0C
  0
LINE
  5
125E0D
  8
OBJECT
 10
8016.4999999999982
 20
-1144.499999999998
 30
0.0
 11
8008.4999999999973
 21
-1141.0
 31
0.0
1001
ACDBBLOCKREPETAG
1070
     1
1071
       25
1005
125E0D
  0
LINE
  5
125E0E
  8
HIDDEN
 10
7930.0
 20
-1125.0
 30
0.0
 11
8070.0
 21
-1125.0
 31
0.0
1001
ACDBBLOCKREPETAG
1070
     1
1071
       26
1005
125E0E
  0
LINE
  5
125E0F
  8
CENTER
 10
8000.0
 20
-814.99999999999955
 30
0.0
 11
8000.0
 21
-1221.999999999997
 31
0.0
1001
ACDBBLOCKREPETAG
1070
     1
1071
       27
1005
125E0F
  0
LINE
  5
125E10
  8
OBJECT
 10
7918.5
 20
-1164.9999999999991
 30
0.0
 11
7918.5
 21
-1175.5000000000009
 31
0.0
1001
ACDBBLOCKREPETAG
1070
     1
1071
       28
1005
125E10
  0
LINE
  5
125E11
  8
OBJECT
 10
8081.5
 20
-1164.9999999999991
 30
0.0
 11
8081.5
 21
-1175.5000000000009
 31
0.0
1001
ACDBBLOCKREPETAG
1070
     1
1071
       29
1005
125E11
  0
LINE
  5
125E12
  8
OBJECT
 10
7930.0
 20
-1049.9999999999991
 30
0.0
 11
7930.0
 21
-1113.9999999999991
 31
0.0
1001
ACDBBLOCKREPETAG
1070
     1
1071
       30
1005
125E12
  0
LINE
  5
125E13
  8
OBJECT
 10
8070.0
 20
-1049.9999999999991
 30
0.0
 11
8070.0
 21
-1113.9999999999991
 31
0.0
1001
ACDBBLOCKREPETAG
1070
     1
1071
       31
1005
125E13
  0
LINE
  5
125E14
  8
OBJECT
 10
7930.0
 20
-1049.9999999999991
 30
0.0
 11
8070.0
 21
-1049.9999999999991
 31
0.0
1001
ACDBBLOCKREPETAG
1070
     1
1071
       32
1005
125E14
  0
LINE
  5
125E15
  8
OBJECT
 10
7919.4999999999982
 20
-1113.9999999999991
 30
0.0
 11
8080.5000000000036
 21
-1113.9999999999991
 31
0.0
1001
ACDBBLOCKREPETAG
1070
     1
1071
       33
1005
125E15
  0
LINE
  5
125E16
  8
OBJECT
 10
7907.5
 20
-889.99999999999955
 30
0.0
 11
7907.5
 21
-814.99999999999955
 31
0.0
1001
ACDBBLOCKREPETAG
1070
     1
1071
       34
1005
125E16
  0
LINE
  5
125E17
  8
OBJECT
 10
8092.4999999999973
 20
-889.99999999999955
 30
0.0
 11
7907.5
 21
-889.99999999999955
 31
0.0
1001
ACDBBLOCKREPETAG
1070
     1
1071
       35
1005
125E17
  0
LINE
  5
125E18
  8
OBJECT
 10
7907.5
 20
-889.99999999999955
 30
0.0
 11
7930.0
 21
-1049.9999999999991
 31
0.0
1001
ACDBBLOCKREPETAG
1070
     1
1071
       36
1005
125E18
  0
LINE
  5
125E19
  8
OBJECT
 10
8070.0
 20
-1049.9999999999991
 30
0.0
 11
8092.4999999999973
 21
-889.99999999999955
 31
0.0
1001
ACDBBLOCKREPETAG
1070
     1
1071
       37
1005
125E19
  0
LINE
  5
125E1A
  8
OBJECT
 10
8080.5
 20
-1113.9999999999991
 30
0.0
 11
8080.5
 21
-1146.999999999998
 31
0.0
1001
ACDBBLOCKREPETAG
1070
     1
1071
       38
1005
125E1A
  0
LINE
  5
125E1B
  8
OBJECT
 10
7919.5000000000027
 20
-1113.9999999999991
 30
0.0
 11
7919.5000000000027
 21
-1146.999999999998
 31
0.0
1001
ACDBBLOCKREPETAG
1070
     1
1071
       39
1005
125E1B
  0
LINE
  5
125E1C
  8
OBJECT
 10
8010.9696549999944
 20
-1191.5
 30
0.0
 11
8010.9696549999944
 21
-1201.5000000000009
 31
0.0
1001
ACDBBLOCKREPETAG
1070
     1
1071
       40
1005
125E1C
  0
LINE
  5
125E1D
  8
OBJECT
 10
8005.4848269999939
 20
-1191.5
 30
0.0
 11
8005.4848269999939
 21
-1201.5000000000009
 31
0.0
1001
ACDBBLOCKREPETAG
1070
     1
1071
       41
1005
125E1D
  0
LINE
  5
125E1E
  8
OBJECT
 10
7994.5151719999976
 20
-1191.5
 30
0.0
 11
7994.5151719999976
 21
-1201.5000000000009
 31
0.0
1001
ACDBBLOCKREPETAG
1070
     1
1071
       42
1005
125E1E
  0
LINE
  5
125E1F
  8
OBJECT
 10
7989.0303449999928
 20
-1191.5
 30
0.0
 11
7989.0303449999928
 21
-1201.5000000000009
 31
0.0
1001
ACDBBLOCKREPETAG
1070
     1
1071
       43
1005
125E1F
  0
LINE
  5
125E20
  8
OBJECT
 10
7989.0303449999928
 20
-1201.5000000000009
 30
0.0
 11
8010.9696549999944
 21
-1201.5000000000009
 31
0.0
1001
ACDBBLOCKREPETAG
1070
     1
1071
       44
1005
125E20
  0
LINE
  5
125E21
  8
OBJECT
 10
7906.4596374480461
 20
-1146.999999999998
 30
0.0
 11
7906.4596374480461
 21
-1164.9999999999991
 31
0.0
1001
ACDBBLOCKREPETAG
1070
     1
1071
       45
1005
125E21
  0
LINE
  5
125E22
  8
OBJECT
 10
7906.4596374480498
 20
-1175.5000000000009
 30
0.0
 11
7906.4596374480498
 21
-1191.5
 31
0.0
1001
ACDBBLOCKREPETAG
1070
     1
1071
       46
1005
125E22
  0
LINE
  5
125E23
  8
OBJECT
 10
8093.540362551953
 20
-1146.999999999998
 30
0.0
 11
8093.540362551953
 21
-1164.9999999999991
 31
0.0
1001
ACDBBLOCKREPETAG
1070
     1
1071
       47
1005
125E23
  0
LINE
  5
125E24
  8
OBJECT
 10
8093.5403625519502
 20
-1175.5000000000009
 30
0.0
 11
8093.5403625519502
 21
-1191.5
 31
0.0
1001
ACDBBLOCKREPETAG
1070
     1
1071
       48
1005
125E24
  0
LINE
  5
125E25
  8
OBJECT
 10
7925.4596374480398
 20
-1206.999999999998
 30
0.0
 11
7925.4596374480398
 21
-1201.5000000000009
 31
0.0
1001
ACDBBLOCKREPETAG
1070
     1
1071
       49
1005
125E25
  0
LINE
  5
125E26
  8
OBJECT
 10
7913.4596374480416
 20
-1206.999999999998
 30
0.0
 11
7913.4596374480416
 21
-1201.5000000000009
 31
0.0
1001
ACDBBLOCKREPETAG
1070
     1
1071
       50
1005
125E26
  0
LINE
  5
125E27
  8
OBJECT
 10
7913.4596374480416
 20
-1206.999999999998
 30
0.0
 11
7925.4596374480398
 21
-1206.999999999998
 31
0.0
1001
ACDBBLOCKREPETAG
1070
     1
1071
       51
1005
125E27
  0
LINE
  5
125E28
  8
OBJECT
 10
7913.4596374480416
 20
-1175.5000000000009
 30
0.0
 11
7913.4596374480416
 21
-1164.9999999999991
 31
0.0
1001
ACDBBLOCKREPETAG
1070
     1
1071
       52
1005
125E28
  0
LINE
  5
125E29
  8
OBJECT
 10
7930.4292924480387
 20
-1191.5
 30
0.0
 11
7930.4292924480387
 21
-1201.5000000000009
 31
0.0
1001
ACDBBLOCKREPETAG
1070
     1
1071
       53
1005
125E29
  0
LINE
  5
125E2A
  8
OBJECT
 10
7924.9444644480382
 20
-1191.5
 30
0.0
 11
7924.9444644480382
 21
-1201.5000000000009
 31
0.0
1001
ACDBBLOCKREPETAG
1070
     1
1071
       54
1005
125E2A
  0
LINE
  5
125E2B
  8
OBJECT
 10
7913.9748094480419
 20
-1191.5
 30
0.0
 11
7913.9748094480419
 21
-1201.5000000000009
 31
0.0
1001
ACDBBLOCKREPETAG
1070
     1
1071
       55
1005
125E2B
  0
LINE
  5
125E2C
  8
OBJECT
 10
7908.4899824480417
 20
-1191.5
 30
0.0
 11
7908.4899824480417
 21
-1201.5000000000009
 31
0.0
1001
ACDBBLOCKREPETAG
1070
     1
1071
       56
1005
125E2C
  0
LINE
  5
125E2D
  8
OBJECT
 10
7908.4899824480417
 20
-1201.5000000000009
 30
0.0
 11
7930.4292924480387
 21
-1201.5000000000009
 31
0.0
1001
ACDBBLOCKREPETAG
1070
     1
1071
       57
1005
125E2D
  0
LINE
  5
125E2E
  8
OBJECT
 10
7911.4596374480443
 20
-1141.0
 30
0.0
 11
7911.4596374480443
 21
-1146.999999999998
 31
0.0
1001
ACDBBLOCKREPETAG
1070
     1
1071
       58
1005
125E2E
  0
LINE
  5
125E2F
  8
OBJECT
 10
7919.5000000000027
 20
-1141.0
 30
0.0
 11
7911.4596374480443
 21
-1141.0
 31
0.0
1001
ACDBBLOCKREPETAG
1070
     1
1071
       59
1005
125E2F
  0
LINE
  5
125E30
  8
OBJECT
 10
8074.5403625519548
 20
-1206.999999999998
 30
0.0
 11
8074.5403625519548
 21
-1201.5000000000009
 31
0.0
1001
ACDBBLOCKREPETAG
1070
     1
1071
       60
1005
125E30
  0
LINE
  5
125E31
  8
OBJECT
 10
8086.5403625519548
 20
-1206.999999999998
 30
0.0
 11
8086.5403625519548
 21
-1201.5000000000009
 31
0.0
1001
ACDBBLOCKREPETAG
1070
     1
1071
       61
1005
125E31
  0
LINE
  5
125E32
  8
OBJECT
 10
8086.5403625519548
 20
-1206.999999999998
 30
0.0
 11
8074.5403625519548
 21
-1206.999999999998
 31
0.0
1001
ACDBBLOCKREPETAG
1070
     1
1071
       62
1005
125E32
  0
LINE
  5
125E33
  8
OBJECT
 10
8086.5403625519548
 20
-1175.5000000000009
 30
0.0
 11
8086.5403625519548
 21
-1164.9999999999991
 31
0.0
1001
ACDBBLOCKREPETAG
1070
     1
1071
       63
1005
125E33
  0
LINE
  5
125E34
  8
OBJECT
 10
8069.5707075519604
 20
-1191.5
 30
0.0
 11
8069.5707075519604
 21
-1201.5000000000009
 31
0.0
1001
ACDBBLOCKREPETAG
1070
     1
1071
       64
1005
125E34
  0
LINE
  5
125E35
  8
OBJECT
 10
8075.0555355519591
 20
-1191.5
 30
0.0
 11
8075.0555355519591
 21
-1201.5000000000009
 31
0.0
1001
ACDBBLOCKREPETAG
1070
     1
1071
       65
1005
125E35
  0
LINE
  5
125E36
  8
OBJECT
 10
8086.0251905519572
 20
-1191.5
 30
0.0
 11
8086.0251905519572
 21
-1201.5000000000009
 31
0.0
1001
ACDBBLOCKREPETAG
1070
     1
1071
       66
1005
125E36
  0
LINE
  5
125E37
  8
OBJECT
 10
8091.5100175519592
 20
-1191.5
 30
0.0
 11
8091.5100175519592
 21
-1201.5000000000009
 31
0.0
1001
ACDBBLOCKREPETAG
1070
     1
1071
       67
1005
125E37
  0
LINE
  5
125E38
  8
OBJECT
 10
8091.5100175519592
 20
-1201.5000000000009
 30
0.0
 11
8069.5707075519604
 21
-1201.5000000000009
 31
0.0
1001
ACDBBLOCKREPETAG
1070
     1
1071
       68
1005
125E38
  0
LINE
  5
125E39
  8
OBJECT
 10
8088.5403625519584
 20
-1141.0
 30
0.0
 11
8088.5403625519584
 21
-1146.999999999998
 31
0.0
1001
ACDBBLOCKREPETAG
1070
     1
1071
       69
1005
125E39
  0
LINE
  5
125E3A
  8
OBJECT
 10
8080.5
 20
-1141.0
 30
0.0
 11
8088.5403625519584
 21
-1141.0
 31
0.0
1001
ACDBBLOCKREPETAG
1070
     1
1071
       70
1005
125E3A
  0
LINE
  5
125E3B
  8
OBJECT
 10
5930.0
 20
-1049.9999999999991
 30
0.0
 11
5930.0
 21
-1164.9999999999991
 31
0.0
1001
ACDBBLOCKREPETAG
1070
     1
1071
        0
1005
125E3B
  0
LINE
  5
125E3C
  8
OBJECT
 10
5930.0
 20
-1049.9999999999991
 30
0.0
 11
6070.0
 21
-1049.9999999999991
 31
0.0
1001
ACDBBLOCKREPETAG
1070
     1
1071
        1
1005
125E3C
  0
LINE
  5
125E3D
  8
OBJECT
 10
6092.5000000000009
 20
-889.99999999999955
 30
0.0
 11
5907.5
 21
-889.99999999999955
 31
0.0
1001
ACDBBLOCKREPETAG
1070
     1
1071
        2
1005
125E3D
  0
LINE
  5
125E3E
  8
OBJECT
 10
6092.5000000000009
 20
-889.99999999999955
 30
0.0
 11
6092.5000000000009
 21
-814.99999999999955
 31
0.0
1001
ACDBBLOCKREPETAG
1070
     1
1071
        3
1005
125E3E
  0
LINE
  5
125E3F
  8
OBJECT
 10
5907.5
 20
-889.99999999999955
 30
0.0
 11
5907.5
 21
-814.99999999999955
 31
0.0
1001
ACDBBLOCKREPETAG
1070
     1
1071
        4
1005
125E3F
  0
LINE
  5
125E40
  8
OBJECT
 10
5930.0
 20
-1164.9999999999991
 30
0.0
 11
6070.0
 21
-1164.9999999999991
 31
0.0
1001
ACDBBLOCKREPETAG
1070
     1
1071
        5
1005
125E40
  0
LINE
  5
125E41
  8
OBJECT
 10
6070.0
 20
-1049.9999999999991
 30
0.0
 11
6070.0
 21
-1164.9999999999991
 31
0.0
1001
ACDBBLOCKREPETAG
1070
     1
1071
        6
1005
125E41
  0
LINE
  5
125E42
  8
OBJECT
 10
5907.5
 20
-889.99999999999955
 30
0.0
 11
5930.0
 21
-1049.9999999999991
 31
0.0
1001
ACDBBLOCKREPETAG
1070
     1
1071
        7
1005
125E42
  0
LINE
  5
125E43
  8
OBJECT
 10
6070.0
 20
-1049.9999999999991
 30
0.0
 11
6092.5000000000009
 21
-889.99999999999955
 31
0.0
1001
ACDBBLOCKREPETAG
1070
     1
1071
        8
1005
125E43
  0
LINE
  5
125E44
  8
HIDDEN
 10
5937.5
 20
-1049.9999999999991
 30
0.0
 11
5937.5
 21
-1164.9999999999991
 31
0.0
1001
ACDBBLOCKREPETAG
1070
     1
1071
        9
1005
125E44
  0
LINE
  5
125E45
  8
HIDDEN
 10
6062.5
 20
-1049.9999999999991
 30
0.0
 11
6062.5
 21
-1164.9999999999991
 31
0.0
1001
ACDBBLOCKREPETAG
1070
     1
1071
       10
1005
125E45
  0
LINE
  5
125E46
  8
CENTER
 10
6000.0
 20
-814.99999999999955
 30
0.0
 11
6000.0
 21
-1179.9999999999991
 31
0.0
1001
ACDBBLOCKREPETAG
1070
     1
1071
       11
1005
125E46
  0
LINE
  5
125E47
  8
OBJECT
 10
4092.5
 20
-889.99999999999955
 30
0.0
 11
4092.5
 21
-814.99999999999955
 31
0.0
1001
ACDBBLOCKREPETAG
1070
     1
1071
       12
1005
125E47
  0
LINE
  5
125E48
  8
OBJECT
 10
4093.5403615519499
 20
-1164.9999999999991
 30
0.0
 11
3906.4596374480461
 21
-1164.9999999999991
 31
0.0
1001
ACDBBLOCKREPETAG
1070
     1
1071
       13
1005
125E48
  0
LINE
  5
125E49
  8
OBJECT
 10
3906.4596374480502
 20
-1191.5
 30
0.0
 11
4093.5403625519511
 21
-1191.5
 31
0.0
1001
ACDBBLOCKREPETAG
1070
     1
1071
       14
1005
125E49
  0
LINE
  5
125E4A
  8
OBJECT
 10
4093.5403625519511
 20
-1175.5000000000009
 30
0.0
 11
3906.4596374480502
 21
-1175.5000000000009
 31
0.0
1001
ACDBBLOCKREPETAG
1070
     1
1071
       15
1005
125E4A
  0
LINE
  5
125E4B
  8
OBJECT
 10
4005.999999999995
 20
-1206.999999999998
 30
0.0
 11
4005.999999999995
 21
-1201.5000000000009
 31
0.0
1001
ACDBBLOCKREPETAG
1070
     1
1071
       16
1005
125E4B
  0
LINE
  5
125E4C
  8
OBJECT
 10
3993.9999999999959
 20
-1206.999999999998
 30
0.0
 11
3993.9999999999959
 21
-1201.5000000000009
 31
0.0
1001
ACDBBLOCKREPETAG
1070
     1
1071
       17
1005
125E4C
  0
LINE
  5
125E4D
  8
OBJECT
 10
3993.9999999999959
 20
-1206.999999999998
 30
0.0
 11
4005.999999999995
 21
-1206.999999999998
 31
0.0
1001
ACDBBLOCKREPETAG
1070
     1
1071
       18
1005
125E4D
  0
LINE
  5
125E4E
  8
OBJECT
 10
3993.9999999999959
 20
-1175.5000000000009
 30
0.0
 11
3993.9999999999959
 21
-1164.9999999999991
 31
0.0
1001
ACDBBLOCKREPETAG
1070
     1
1071
       19
1005
125E4E
  0
LINE
  5
125E4F
  8
OBJECT
 10
4005.999999999995
 20
-1175.5000000000009
 30
0.0
 11
4005.999999999995
 21
-1164.9999999999991
 31
0.0
1001
ACDBBLOCKREPETAG
1070
     1
1071
       20
1005
125E4F
  0
LINE
  5
125E50
  8
OBJECT
 10
4016.4999999999959
 20
-1144.499999999998
 30
0.0
 11
4016.4999999999959
 21
-1146.999999999998
 31
0.0
1001
ACDBBLOCKREPETAG
1070
     1
1071
       21
1005
125E50
  0
LINE
  5
125E51
  8
OBJECT
 10
3989.9999999999968
 20
-1141.0
 30
0.0
 11
3989.9999999999968
 21
-1146.999999999998
 31
0.0
1001
ACDBBLOCKREPETAG
1070
     1
1071
       22
1005
125E51
  0
LINE
  5
125E52
  8
OBJECT
 10
4008.4999999999968
 20
-1141.0
 30
0.0
 11
3989.9999999999968
 21
-1141.0
 31
0.0
1001
ACDBBLOCKREPETAG
1070
     1
1071
       23
1005
125E52
  0
LINE
  5
125E53
  8
OBJECT
 10
4093.5403615519499
 20
-1146.999999999998
 30
0.0
 11
3906.4596374480461
 21
-1146.999999999998
 31
0.0
1001
ACDBBLOCKREPETAG
1070
     1
1071
       24
1005
125E53
  0
LINE
  5
125E54
  8
OBJECT
 10
4016.4999999999959
 20
-1144.499999999998
 30
0.0
 11
4008.4999999999968
 21
-1141.0
 31
0.0
1001
ACDBBLOCKREPETAG
1070
     1
1071
       25
1005
125E54
  0
LINE
  5
125E55
  8
HIDDEN
 10
3930.0
 20
-1125.0
 30
0.0
 11
4070.0
 21
-1125.0
 31
0.0
1001
ACDBBLOCKREPETAG
1070
     1
1071
       26
1005
125E55
  0
LINE
  5
125E56
  8
CENTER
 10
4000.0
 20
-814.99999999999955
 30
0.0
 11
4000.0
 21
-1221.999999999997
 31
0.0
1001
ACDBBLOCKREPETAG
1070
     1
1071
       27
1005
125E56
  0
LINE
  5
125E57
  8
OBJECT
 10
3918.5
 20
-1164.9999999999991
 30
0.0
 11
3918.5
 21
-1175.5000000000009
 31
0.0
1001
ACDBBLOCKREPETAG
1070
     1
1071
       28
1005
125E57
  0
LINE
  5
125E58
  8
OBJECT
 10
4081.5
 20
-1164.9999999999991
 30
0.0
 11
4081.5
 21
-1175.5000000000009
 31
0.0
1001
ACDBBLOCKREPETAG
1070
     1
1071
       29
1005
125E58
  0
LINE
  5
125E59
  8
OBJECT
 10
3930.0
 20
-1049.9999999999991
 30
0.0
 11
3930.0
 21
-1113.9999999999991
 31
0.0
1001
ACDBBLOCKREPETAG
1070
     1
1071
       30
1005
125E59
  0
LINE
  5
125E5A
  8
OBJECT
 10
4070.0
 20
-1049.9999999999991
 30
0.0
 11
4070.0
 21
-1113.9999999999991
 31
0.0
1001
ACDBBLOCKREPETAG
1070
     1
1071
       31
1005
125E5A
  0
LINE
  5
125E5B
  8
OBJECT
 10
3930.0
 20
-1049.9999999999991
 30
0.0
 11
4070.0
 21
-1049.9999999999991
 31
0.0
1001
ACDBBLOCKREPETAG
1070
     1
1071
       32
1005
125E5B
  0
LINE
  5
125E5C
  8
OBJECT
 10
3919.4999999999968
 20
-1113.9999999999991
 30
0.0
 11
4080.5000000000032
 21
-1113.9999999999991
 31
0.0
1001
ACDBBLOCKREPETAG
1070
     1
1071
       33
1005
125E5C
  0
LINE
  5
125E5D
  8
OBJECT
 10
3907.5
 20
-889.99999999999955
 30
0.0
 11
3907.5
 21
-814.99999999999955
 31
0.0
1001
ACDBBLOCKREPETAG
1070
     1
1071
       34
1005
125E5D
  0
LINE
  5
125E5E
  8
OBJECT
 10
4092.5
 20
-889.99999999999955
 30
0.0
 11
3907.5
 21
-889.99999999999955
 31
0.0
1001
ACDBBLOCKREPETAG
1070
     1
1071
       35
1005
125E5E
  0
LINE
  5
125E5F
  8
OBJECT
 10
3907.5
 20
-889.99999999999955
 30
0.0
 11
3930.0
 21
-1049.9999999999991
 31
0.0
1001
ACDBBLOCKREPETAG
1070
     1
1071
       36
1005
125E5F
  0
LINE
  5
125E60
  8
OBJECT
 10
4070.0
 20
-1049.9999999999991
 30
0.0
 11
4092.5
 21
-889.99999999999955
 31
0.0
1001
ACDBBLOCKREPETAG
1070
     1
1071
       37
1005
125E60
  0
LINE
  5
125E61
  8
OBJECT
 10
4080.4999999999982
 20
-1113.9999999999991
 30
0.0
 11
4080.4999999999982
 21
-1146.999999999998
 31
0.0
1001
ACDBBLOCKREPETAG
1070
     1
1071
       38
1005
125E61
  0
LINE
  5
125E62
  8
OBJECT
 10
3919.5
 20
-1113.9999999999991
 30
0.0
 11
3919.5
 21
-1146.999999999998
 31
0.0
1001
ACDBBLOCKREPETAG
1070
     1
1071
       39
1005
125E62
  0
LINE
  5
125E63
  8
OBJECT
 10
4010.969654999994
 20
-1191.5
 30
0.0
 11
4010.969654999994
 21
-1201.5000000000009
 31
0.0
1001
ACDBBLOCKREPETAG
1070
     1
1071
       40
1005
125E63
  0
LINE
  5
125E64
  8
OBJECT
 10
4005.484826999992
 20
-1191.5
 30
0.0
 11
4005.484826999992
 21
-1201.5000000000009
 31
0.0
1001
ACDBBLOCKREPETAG
1070
     1
1071
       41
1005
125E64
  0
LINE
  5
125E65
  8
OBJECT
 10
3994.5151719999958
 20
-1191.5
 30
0.0
 11
3994.5151719999958
 21
-1201.5000000000009
 31
0.0
1001
ACDBBLOCKREPETAG
1070
     1
1071
       42
1005
125E65
  0
LINE
  5
125E66
  8
OBJECT
 10
3989.030344999996
 20
-1191.5
 30
0.0
 11
3989.030344999996
 21
-1201.5000000000009
 31
0.0
1001
ACDBBLOCKREPETAG
1070
     1
1071
       43
1005
125E66
  0
LINE
  5
125E67
  8
OBJECT
 10
3989.030344999996
 20
-1201.5000000000009
 30
0.0
 11
4010.969654999994
 21
-1201.5000000000009
 31
0.0
1001
ACDBBLOCKREPETAG
1070
     1
1071
       44
1005
125E67
  0
LINE
  5
125E68
  8
OBJECT
 10
3906.4596374480461
 20
-1146.999999999998
 30
0.0
 11
3906.4596374480461
 21
-1164.9999999999991
 31
0.0
1001
ACDBBLOCKREPETAG
1070
     1
1071
       45
1005
125E68
  0
LINE
  5
125E69
  8
OBJECT
 10
3906.4596374480502
 20
-1175.5000000000009
 30
0.0
 11
3906.4596374480502
 21
-1191.5
 31
0.0
1001
ACDBBLOCKREPETAG
1070
     1
1071
       46
1005
125E69
  0
LINE
  5
125E6A
  8
OBJECT
 10
4093.5403625519539
 20
-1146.999999999998
 30
0.0
 11
4093.5403625519539
 21
-1164.9999999999991
 31
0.0
1001
ACDBBLOCKREPETAG
1070
     1
1071
       47
1005
125E6A
  0
LINE
  5
125E6B
  8
OBJECT
 10
4093.5403625519511
 20
-1175.5000000000009
 30
0.0
 11
4093.5403625519511
 21
-1191.5
 31
0.0
1001
ACDBBLOCKREPETAG
1070
     1
1071
       48
1005
125E6B
  0
LINE
  5
125E6C
  8
OBJECT
 10
3925.4596374480429
 20
-1206.999999999998
 30
0.0
 11
3925.4596374480429
 21
-1201.5000000000009
 31
0.0
1001
ACDBBLOCKREPETAG
1070
     1
1071
       49
1005
125E6C
  0
LINE
  5
125E6D
  8
OBJECT
 10
3913.459637448042
 20
-1206.999999999998
 30
0.0
 11
3913.459637448042
 21
-1201.5000000000009
 31
0.0
1001
ACDBBLOCKREPETAG
1070
     1
1071
       50
1005
125E6D
  0
LINE
  5
125E6E
  8
OBJECT
 10
3913.459637448042
 20
-1206.999999999998
 30
0.0
 11
3925.4596374480429
 21
-1206.999999999998
 31
0.0
1001
ACDBBLOCKREPETAG
1070
     1
1071
       51
1005
125E6E
  0
LINE
  5
125E6F
  8
OBJECT
 10
3913.459637448042
 20
-1175.5000000000009
 30
0.0
 11
3913.459637448042
 21
-1164.9999999999991
 31
0.0
1001
ACDBBLOCKREPETAG
1070
     1
1071
       52
1005
125E6F
  0
LINE
  5
125E70
  8
OBJECT
 10
3930.4292924480401
 20
-1191.5
 30
0.0
 11
3930.4292924480401
 21
-1201.5000000000009
 31
0.0
1001
ACDBBLOCKREPETAG
1070
     1
1071
       53
1005
125E70
  0
LINE
  5
125E71
  8
OBJECT
 10
3924.9444644480391
 20
-1191.5
 30
0.0
 11
3924.9444644480391
 21
-1201.5000000000009
 31
0.0
1001
ACDBBLOCKREPETAG
1070
     1
1071
       54
1005
125E71
  0
LINE
  5
125E72
  8
OBJECT
 10
3913.9748094480419
 20
-1191.5
 30
0.0
 11
3913.9748094480419
 21
-1201.5000000000009
 31
0.0
1001
ACDBBLOCKREPETAG
1070
     1
1071
       55
1005
125E72
  0
LINE
  5
125E73
  8
OBJECT
 10
3908.4899824480422
 20
-1191.5
 30
0.0
 11
3908.4899824480422
 21
-1201.5000000000009
 31
0.0
1001
ACDBBLOCKREPETAG
1070
     1
1071
       56
1005
125E73
  0
LINE
  5
125E74
  8
OBJECT
 10
3908.4899824480422
 20
-1201.5000000000009
 30
0.0
 11
3930.4292924480401
 21
-1201.5000000000009
 31
0.0
1001
ACDBBLOCKREPETAG
1070
     1
1071
       57
1005
125E74
  0
LINE
  5
125E75
  8
OBJECT
 10
3911.4596374480429
 20
-1141.0
 30
0.0
 11
3911.4596374480429
 21
-1146.999999999998
 31
0.0
1001
ACDBBLOCKREPETAG
1070
     1
1071
       58
1005
125E75
  0
LINE
  5
125E76
  8
OBJECT
 10
3919.5
 20
-1141.0
 30
0.0
 11
3911.4596374480429
 21
-1141.0
 31
0.0
1001
ACDBBLOCKREPETAG
1070
     1
1071
       59
1005
125E76
  0
LINE
  5
125E77
  8
OBJECT
 10
4074.540362551958
 20
-1206.999999999998
 30
0.0
 11
4074.540362551958
 21
-1201.5000000000009
 31
0.0
1001
ACDBBLOCKREPETAG
1070
     1
1071
       60
1005
125E77
  0
LINE
  5
125E78
  8
OBJECT
 10
4086.5403625519562
 20
-1206.999999999998
 30
0.0
 11
4086.5403625519562
 21
-1201.5000000000009
 31
0.0
1001
ACDBBLOCKREPETAG
1070
     1
1071
       61
1005
125E78
  0
LINE
  5
125E79
  8
OBJECT
 10
4086.5403625519562
 20
-1206.999999999998
 30
0.0
 11
4074.540362551958
 21
-1206.999999999998
 31
0.0
1001
ACDBBLOCKREPETAG
1070
     1
1071
       62
1005
125E79
  0
LINE
  5
125E7A
  8
OBJECT
 10
4086.5403625519562
 20
-1175.5000000000009
 30
0.0
 11
4086.5403625519562
 21
-1164.9999999999991
 31
0.0
1001
ACDBBLOCKREPETAG
1070
     1
1071
       63
1005
125E7A
  0
LINE
  5
125E7B
  8
OBJECT
 10
4069.570707551959
 20
-1191.5
 30
0.0
 11
4069.570707551959
 21
-1201.5000000000009
 31
0.0
1001
ACDBBLOCKREPETAG
1070
     1
1071
       64
1005
125E7B
  0
LINE
  5
125E7C
  8
OBJECT
 10
4075.05553555196
 20
-1191.5
 30
0.0
 11
4075.05553555196
 21
-1201.5000000000009
 31
0.0
1001
ACDBBLOCKREPETAG
1070
     1
1071
       65
1005
125E7C
  0
LINE
  5
125E7D
  8
OBJECT
 10
4086.0251905519581
 20
-1191.5
 30
0.0
 11
4086.0251905519581
 21
-1201.5000000000009
 31
0.0
1001
ACDBBLOCKREPETAG
1070
     1
1071
       66
1005
125E7D
  0
LINE
  5
125E7E
  8
OBJECT
 10
4091.510017551956
 20
-1191.5
 30
0.0
 11
4091.510017551956
 21
-1201.5000000000009
 31
0.0
1001
ACDBBLOCKREPETAG
1070
     1
1071
       67
1005
125E7E
  0
LINE
  5
125E7F
  8
OBJECT
 10
4091.510017551956
 20
-1201.5000000000009
 30
0.0
 11
4069.570707551959
 21
-1201.5000000000009
 31
0.0
1001
ACDBBLOCKREPETAG
1070
     1
1071
       68
1005
125E7F
  0
LINE
  5
125E80
  8
OBJECT
 10
4088.540362551958
 20
-1141.0
 30
0.0
 11
4088.540362551958
 21
-1146.999999999998
 31
0.0
1001
ACDBBLOCKREPETAG
1070
     1
1071
       69
1005
125E80
  0
LINE
  5
125E81
  8
OBJECT
 10
4080.4999999999982
 20
-1141.0
 30
0.0
 11
4088.540362551958
 21
-1141.0
 31
0.0
1001
ACDBBLOCKREPETAG
1070
     1
1071
       70
1005
125E81
  0
LINE
  5
125E82
  8
OBJECT
 10
1930.0
 20
-1049.9999999999991
 30
0.0
 11
1930.0
 21
-1164.9999999999991
 31
0.0
1001
ACDBBLOCKREPETAG
1070
     1
1071
        0
1005
125E82
  0
LINE
  5
125E83
  8
OBJECT
 10
1930.0
 20
-1049.9999999999991
 30
0.0
 11
2070.0
 21
-1049.9999999999991
 31
0.0
1001
ACDBBLOCKREPETAG
1070
     1
1071
        1
1005
125E83
  0
LINE
  5
125E84
  8
OBJECT
 10
2092.5
 20
-889.99999999999955
 30
0.0
 11
1907.5
 21
-889.99999999999955
 31
0.0
1001
ACDBBLOCKREPETAG
1070
     1
1071
        2
1005
125E84
  0
LINE
  5
125E85
  8
OBJECT
 10
2092.5
 20
-889.99999999999955
 30
0.0
 11
2092.5
 21
-814.99999999999955
 31
0.0
1001
ACDBBLOCKREPETAG
1070
     1
1071
        3
1005
125E85
  0
LINE
  5
125E86
  8
OBJECT
 10
1907.5
 20
-889.99999999999955
 30
0.0
 11
1907.5
 21
-814.99999999999955
 31
0.0
1001
ACDBBLOCKREPETAG
1070
     1
1071
        4
1005
125E86
  0
LINE
  5
125E87
  8
OBJECT
 10
1930.0
 20
-1164.9999999999991
 30
0.0
 11
2070.0
 21
-1164.9999999999991
 31
0.0
1001
ACDBBLOCKREPETAG
1070
     1
1071
        5
1005
125E87
  0
LINE
  5
125E88
  8
OBJECT
 10
2070.0
 20
-1049.9999999999991
 30
0.0
 11
2070.0
 21
-1164.9999999999991
 31
0.0
1001
ACDBBLOCKREPETAG
1070
     1
1071
        6
1005
125E88
  0
LINE
  5
125E89
  8
OBJECT
 10
1907.5
 20
-889.99999999999955
 30
0.0
 11
1930.0
 21
-1049.9999999999991
 31
0.0
1001
ACDBBLOCKREPETAG
1070
     1
1071
        7
1005
125E89
  0
LINE
  5
125E8A
  8
OBJECT
 10
2070.0
 20
-1049.9999999999991
 30
0.0
 11
2092.5
 21
-889.99999999999955
 31
0.0
1001
ACDBBLOCKREPETAG
1070
     1
1071
        8
1005
125E8A
  0
LINE
  5
125E8B
  8
HIDDEN
 10
1937.5
 20
-1049.9999999999991
 30
0.0
 11
1937.5
 21
-1164.9999999999991
 31
0.0
1001
ACDBBLOCKREPETAG
1070
     1
1071
        9
1005
125E8B
  0
LINE
  5
125E8C
  8
HIDDEN
 10
2062.5
 20
-1049.9999999999991
 30
0.0
 11
2062.5
 21
-1164.9999999999991
 31
0.0
1001
ACDBBLOCKREPETAG
1070
     1
1071
       10
1005
125E8C
  0
LINE
  5
125E8D
  8
CENTER
 10
2000.0
 20
-814.99999999999955
 30
0.0
 11
2000.0
 21
-1179.9999999999991
 31
0.0
1001
ACDBBLOCKREPETAG
1070
     1
1071
       11
1005
125E8D
  0
LINE
  5
125E8E
  8
OBJECT
 10
1897.0
 20
-528.99999999999761
 30
0.0
 11
1900.0
 21
-528.99999999999761
 31
0.0
1001
ACDBBLOCKREPETAG
1070
     1
1071
        1
1005
125E8E
  0
ARC
  5
125E8F
  8
OBJECT
 10
1897.0
 20
-531.99999999999773
 30
0.0
 40
3.0
 50
90.0
 51
180.0
1001
ACDBBLOCKREPETAG
1070
     1
1071
        2
1005
125E8F
  0
LINE
  5
125E90
  8
OBJECT
 10
1900.0
 20
-652.99999999999761
 30
0.0
 11
1897.0
 21
-652.99999999999761
 31
0.0
1001
ACDBBLOCKREPETAG
1070
     1
1071
        3
1005
125E90
  0
ARC
  5
125E91
  8
OBJECT
 10
1897.0
 20
-649.99999999999761
 30
0.0
 40
3.0
 50
180.0
 51
270.0
1001
ACDBBLOCKREPETAG
1070
     1
1071
        4
1005
125E91
  0
LINE
  5
125E92
  8
OBJECT
 10
1894.0
 20
-649.99999999999761
 30
0.0
 11
1894.0
 21
-531.99999999999773
 31
0.0
1001
ACDBBLOCKREPETAG
1070
     1
1071
        5
1005
125E92
  0
CIRCLE
  5
125E93
  8
OBJECT
 10
2000.0
 20
-590.99999999999761
 30
0.0
 40
62.0
1001
ACDBBLOCKREPETAG
1070
     1
1071
        0
1005
125E93
  0
LINE
  5
125E94
  8
OBJECT
 10
2095.0
 20
-469.99999999999932
 30
0.0
 11
1905.0
 21
-469.99999999999932
 31
0.0
1001
ACDBBLOCKREPETAG
1070
     1
1071
        0
1005
125E94
  0
LINE
  5
125E95
  8
OBJECT
 10
2095.0
 20
-449.99999999999932
 30
0.0
 11
1905.0
 21
-449.99999999999932
 31
0.0
1001
ACDBBLOCKREPETAG
1070
     1
1071
        1
1005
125E95
  0
LINE
  5
125E96
  8
OBJECT
 10
1902.5
 20
-814.99999999999955
 30
0.0
 11
2097.5
 21
-814.99999999999955
 31
0.0
1001
ACDBBLOCKREPETAG
1070
     1
1071
        2
1005
125E96
  0
LINE
  5
125E97
  8
OBJECT
 10
1908.237046000002
 20
-449.99999999999932
 30
0.0
 11
1908.2370465822601
 21
-469.99999999999932
 31
0.0
1001
ACDBBLOCKREPETAG
1070
     1
1071
        3
1005
125E97
  0
LINE
  5
125E98
  8
OBJECT
 10
1905.0
 20
-449.99999999999932
 30
0.0
 11
1905.0
 21
-469.99999999999932
 31
0.0
1001
ACDBBLOCKREPETAG
1070
     1
1071
        4
1005
125E98
  0
LINE
  5
125E99
  8
OBJECT
 10
1916.024909
 20
-449.99999999999932
 30
0.0
 11
1916.024909
 21
-469.99999999999932
 31
0.0
1001
ACDBBLOCKREPETAG
1070
     1
1071
        5
1005
125E99
  0
LINE
  5
125E9A
  8
OBJECT
 10
1967.6243270000009
 20
-449.99999999999932
 30
0.0
 11
1967.6243270000009
 21
-469.99999999999932
 31
0.0
1001
ACDBBLOCKREPETAG
1070
     1
1071
        6
1005
125E9A
  0
LINE
  5
125E9B
  8
OBJECT
 10
1975.4121899999991
 20
-449.99999999999932
 30
0.0
 11
1975.4121899999991
 21
-469.99999999999932
 31
0.0
1001
ACDBBLOCKREPETAG
1070
     1
1071
        7
1005
125E9B
  0
LINE
  5
125E9C
  8
OBJECT
 10
2024.587809000001
 20
-449.99999999999932
 30
0.0
 11
2024.587809000001
 21
-469.99999999999932
 31
0.0
1001
ACDBBLOCKREPETAG
1070
     1
1071
        8
1005
125E9C
  0
LINE
  5
125E9D
  8
OBJECT
 10
2032.3756720000019
 20
-449.99999999999932
 30
0.0
 11
2032.3756720000019
 21
-469.99999999999932
 31
0.0
1001
ACDBBLOCKREPETAG
1070
     1
1071
        9
1005
125E9D
  0
LINE
  5
125E9E
  8
OBJECT
 10
2083.9750910000012
 20
-449.99999999999932
 30
0.0
 11
2083.9750910000012
 21
-469.99999999999932
 31
0.0
1001
ACDBBLOCKREPETAG
1070
     1
1071
       10
1005
125E9E
  0
LINE
  5
125E9F
  8
OBJECT
 10
2091.762953999998
 20
-449.99999999999932
 30
0.0
 11
2091.7629534177431
 21
-469.99999999999932
 31
0.0
1001
ACDBBLOCKREPETAG
1070
     1
1071
       11
1005
125E9F
  0
LINE
  5
125EA0
  8
OBJECT
 10
2095.0
 20
-449.99999999999932
 30
0.0
 11
2095.0
 21
-469.99999999999932
 31
0.0
1001
ACDBBLOCKREPETAG
1070
     1
1071
       12
1005
125EA0
  0
LINE
  5
125EA1
  8
OBJECT
 10
2100.0
 20
-528.99999999999955
 30
0.0
 11
1900.0
 21
-528.99999999999955
 31
0.0
1001
ACDBBLOCKREPETAG
1070
     1
1071
       13
1005
125EA1
  0
LINE
  5
125EA2
  8
OBJECT
 10
2100.0
 20
-652.99999999999761
 30
0.0
 11
2092.5
 21
-652.99999999999761
 31
0.0
1001
ACDBBLOCKREPETAG
1070
     1
1071
       14
1005
125EA2
  0
LINE
  5
125EA3
  8
OBJECT
 10
1902.5
 20
-814.99999999999955
 30
0.0
 11
1902.5
 21
-802.99999999999784
 31
0.0
1001
ACDBBLOCKREPETAG
1070
     1
1071
       15
1005
125EA3
  0
LINE
  5
125EA4
  8
OBJECT
 10
2097.5
 20
-814.99999999999955
 30
0.0
 11
2097.5
 21
-802.99999999999784
 31
0.0
1001
ACDBBLOCKREPETAG
1070
     1
1071
       16
1005
125EA4
  0
LINE
  5
125EA5
  8
OBJECT
 10
1902.5
 20
-802.99999999999784
 30
0.0
 11
2097.5
 21
-802.99999999999784
 31
0.0
1001
ACDBBLOCKREPETAG
1070
     1
1071
       17
1005
125EA5
  0
LINE
  5
125EA6
  8
HIDDEN
 10
1930.0
 20
-524.99999999999955
 30
0.0
 11
2070.0
 21
-524.99999999999955
 31
0.0
1001
ACDBBLOCKREPETAG
1070
     1
1071
       18
1005
125EA6
  0
LINE
  5
125EA7
  8
CENTER
 10
2000.0
 20
-434.99999999999949
 30
0.0
 11
2000.0
 21
-814.99999999999955
 31
0.0
1001
ACDBBLOCKREPETAG
1070
     1
1071
       19
1005
125EA7
  0
LINE
  5
125EA8
  8
OBJECT
 10
2092.5
 20
-652.99999999999761
 30
0.0
 11
2092.5
 21
-802.99999999999784
 31
0.0
1001
ACDBBLOCKREPETAG
1070
     1
1071
       20
1005
125EA8
  0
LINE
  5
125EA9
  8
OBJECT
 10
1914.5
 20
-469.99999999999932
 30
0.0
 11
1914.5
 21
-528.99999999999955
 31
0.0
1001
ACDBBLOCKREPETAG
1070
     1
1071
       21
1005
125EA9
  0
LINE
  5
125EAA
  8
OBJECT
 10
2085.5
 20
-469.99999999999932
 30
0.0
 11
2085.5
 21
-528.99999999999955
 31
0.0
1001
ACDBBLOCKREPETAG
1070
     1
1071
       22
1005
125EAA
  0
POINT
  5
125EAB
  8
DOTS
 10
2000.0
 20
-649.99999999999955
 30
0.0
1001
ACDBBLOCKREPETAG
1070
     1
1071
       24
1005
125EAB
  0
LINE
  5
125EAC
  8
OBJECT
 10
1900.0
 20
-652.99999999999761
 30
0.0
 11
1907.5
 21
-652.99999999999761
 31
0.0
1001
ACDBBLOCKREPETAG
1070
     1
1071
       25
1005
125EAC
  0
LINE
  5
125EAD
  8
OBJECT
 10
1907.5
 20
-652.99999999999761
 30
0.0
 11
1907.5
 21
-802.99999999999784
 31
0.0
1001
ACDBBLOCKREPETAG
1070
     1
1071
       26
1005
125EAD
  0
ARC
  5
125EAE
  8
OBJECT
 10
2214.4155190291499
 20
-615.62073879202455
 30
0.0
 40
149.554492306393
 50
144.60628028468801
 51
164.2211863995189
1001
ACDBBLOCKREPETAG
1070
     1
1071
       28
1005
125EAE
  0
ARC
  5
125EAF
  8
OBJECT
 10
2139.1422781245269
 20
-590.99999999999761
 30
0.0
 40
70.496447952551449
 50
166.84269182358281
 51
193.15730817641699
1001
ACDBBLOCKREPETAG
1070
     1
1071
       29
1005
125EAF
  0
ARC
  5
125EB0
  8
OBJECT
 10
2214.4155190291499
 20
-566.3792612079701
 30
0.0
 40
149.55449230639621
 50
195.7788136004809
 51
215.3937197153119
1001
ACDBBLOCKREPETAG
1070
     1
1071
       30
1005
125EB0
  0
ARC
  5
125EB1
  8
OBJECT
 10
1785.5844809708501
 20
-615.62073879202455
 30
0.0
 40
149.554492306393
 50
15.77881360052846
 51
35.393719715228642
1001
ACDBBLOCKREPETAG
1070
     1
1071
       31
1005
125EB1
  0
ARC
  5
125EB2
  8
OBJECT
 10
1860.8577218754731
 20
-590.99999999999761
 30
0.0
 40
70.496447952551449
 50
346.84269182358292
 51
13.15730817641716
1001
ACDBBLOCKREPETAG
1070
     1
1071
       32
1005
125EB2
  0
ARC
  5
125EB3
  8
OBJECT
 10
1785.5844809708501
 20
-566.3792612079701
 30
0.0
 40
149.55449230639621
 50
324.60628028477117
 51
344.22118639947161
1001
ACDBBLOCKREPETAG
1070
     1
1071
       33
1005
125EB3
  0
LINE
  5
125EB4
  8
CENTER
 10
1878.9999999999959
 20
-199.99999999999909
 30
0.0
 11
1899.9999999999959
 21
-199.99999999999909
 31
0.0
1001
ACDBBLOCKREPETAG
1070
     1
1071
        0
1005
125EB4
  0
LINE
  5
125EB5
  8
OBJECT
 10
1896.9999999999959
 20
-261.99999999999909
 30
0.0
 11
1899.9999999999959
 21
-261.99999999999909
 31
0.0
1001
ACDBBLOCKREPETAG
1070
     1
1071
        1
1005
125EB5
  0
ARC
  5
125EB6
  8
OBJECT
 10
1896.9999999999959
 20
-258.99999999999909
 30
0.0
 40
3.0
 50
180.0
 51
270.0
1001
ACDBBLOCKREPETAG
1070
     1
1071
        2
1005
125EB6
  0
LINE
  5
125EB7
  8
OBJECT
 10
1899.9999999999959
 20
-137.99999999999909
 30
0.0
 11
1896.9999999999959
 21
-137.99999999999909
 31
0.0
1001
ACDBBLOCKREPETAG
1070
     1
1071
        3
1005
125EB7
  0
ARC
  5
125EB8
  8
OBJECT
 10
1896.9999999999959
 20
-140.99999999999909
 30
0.0
 40
3.0
 50
90.0
 51
180.0
1001
ACDBBLOCKREPETAG
1070
     1
1071
        4
1005
125EB8
  0
LINE
  5
125EB9
  8
OBJECT
 10
1893.9999999999959
 20
-140.99999999999909
 30
0.0
 11
1893.9999999999959
 21
-258.99999999999909
 31
0.0
1001
ACDBBLOCKREPETAG
1070
     1
1071
        5
1005
125EB9
  0
LINE
  5
125EBA
  8
CENTER
 10
2000.000000000003
 20
-320.99999999999892
 30
0.0
 11
2000.000000000003
 21
-299.99999999999892
 31
0.0
1001
ACDBBLOCKREPETAG
1070
     1
1071
        0
1005
125EBA
  0
LINE
  5
125EBB
  8
OBJECT
 10
2062.0000000000041
 20
-303.0
 30
0.0
 11
2062.0000000000041
 21
-299.99999999999892
 31
0.0
1001
ACDBBLOCKREPETAG
1070
     1
1071
        1
1005
125EBB
  0
ARC
  5
125EBC
  8
OBJECT
 10
2059.0000000000041
 20
-303.0
 30
0.0
 40
3.0
 50
270.0
 51
0.0
1001
ACDBBLOCKREPETAG
1070
     1
1071
        2
1005
125EBC
  0
LINE
  5
125EBD
  8
OBJECT
 10
1938.0000000000041
 20
-299.99999999999892
 30
0.0
 11
1938.0000000000041
 21
-302.99999999999818
 31
0.0
1001
ACDBBLOCKREPETAG
1070
     1
1071
        3
1005
125EBD
  0
ARC
  5
125EBE
  8
OBJECT
 10
1941.000000000003
 20
-302.99999999999818
 30
0.0
 40
3.0
 50
180.0
 51
270.0
1001
ACDBBLOCKREPETAG
1070
     1
1071
        4
1005
125EBE
  0
LINE
  5
125EBF
  8
OBJECT
 10
1941.000000000003
 20
-305.99999999999818
 30
0.0
 11
2059.0000000000041
 21
-306.0
 31
0.0
1001
ACDBBLOCKREPETAG
1070
     1
1071
        5
1005
125EBF
  0
ARC
  5
125EC0
  8
OBJECT
 10
1973.8931207053249
 20
-173.82438331578209
 30
0.0
 40
90.0
 50
274.21795726566182
 51
281.60300086770189
1001
ACDBBLOCKREPETAG
1070
     1
1071
        0
1005
125EC0
  0
LINE
  5
125EC1
  8
OBJECT
 10
1991.9947509999911
 20
-261.98520799999727
 30
0.0
 11
1996.6424319999919
 21
-248.3387539999994
 31
0.0
1001
ACDBBLOCKREPETAG
1070
     1
1071
       28
1005
125EC1
  0
LINE
  5
125EC2
  8
OBJECT
 10
1955.28879609768
 20
-207.0733020425842
 30
0.0
 11
1935.60541864211
 21
-216.60084009147889
 31
0.0
1001
ACDBBLOCKREPETAG
1070
     1
1071
       29
1005
125EC2
  0
LINE
  5
125EC3
  8
OBJECT
 10
1937.335063923862
 20
-222.25658973369261
 30
0.0
 11
1961.7560738851171
 21
-210.43584915155679
 31
0.0
1001
ACDBBLOCKREPETAG
1070
     1
1071
       30
1005
125EC3
  0
LINE
  5
125EC4
  8
OBJECT
 10
1996.6424319999919
 20
-248.3387539999994
 30
0.0
 11
1970.3289245926419
 21
-210.9660806555467
 31
0.0
1001
ACDBBLOCKREPETAG
1070
     1
1071
       31
1005
125EC4
  0
ARC
  5
125EC5
  8
OBJECT
 10
1960.51700480005
 20
-217.87449798398211
 30
0.0
 40
12.0
 50
35.148769561169452
 51
115.8288295732507
1001
ACDBBLOCKREPETAG
1070
     1
1071
      259
1005
125EC5
  0
ARC
  5
125EC6
  8
OBJECT
 10
1965.241546317978
 20
-217.63664646295089
 30
0.0
 40
8.0
 50
35.148769561169452
 51
115.8288292916689
1001
ACDBBLOCKREPETAG
1070
     1
1071
      260
1005
125EC6
  0
ARC
  5
125EC7
  8
OBJECT
 10
2000.0
 20
-199.99999999999909
 30
0.0
 40
90.0
 50
201.08359599996669
 51
248.9164040000301
1001
ACDBBLOCKREPETAG
1070
     1
1071
      268
1005
125EC7
  0
ARC
  5
125EC8
  8
OBJECT
 10
2000.0
 20
-199.99999999999909
 30
0.0
 40
90.0
 50
111.0835959999699
 51
158.9164034710258
1001
ACDBBLOCKREPETAG
1070
     1
1071
      269
1005
125EC8
  0
LINE
  5
125EC9
  8
OBJECT
 10
1916.024909444865
 20
-167.62432755513231
 30
0.0
 11
1908.2370465822601
 21
-175.4121904177382
 31
0.0
1001
ACDBBLOCKREPETAG
1070
     1
1071
      270
1005
125EC9
  0
LINE
  5
125ECA
  8
OBJECT
 10
1916.024909
 20
-232.37567199999921
 30
0.0
 11
1908.2370469998129
 21
-224.58781114059909
 31
0.0
1001
ACDBBLOCKREPETAG
1070
     1
1071
      271
1005
125ECA
  0
ARC
  5
125ECB
  8
OBJECT
 10
2000.0
 20
-199.99999999999909
 30
0.0
 40
95.0
 50
164.9999998142064
 51
195.00000115869909
1001
ACDBBLOCKREPETAG
1070
     1
1071
      272
1005
125ECB
  0
ARC
  5
125ECC
  8
OBJECT
 10
2000.0
 20
-199.99999999999909
 30
0.0
 40
92.5
 50
287.80189678393282
 51
342.19810359942011
1001
ACDBBLOCKREPETAG
1070
     1
1071
        1
1005
125ECC
  0
ARC
  5
125ECD
  8
OBJECT
 10
2000.0
 20
-199.99999999999909
 30
0.0
 40
90.0
 50
291.08359599996987
 51
338.9164040000332
1001
ACDBBLOCKREPETAG
1070
     1
1071
        3
1005
125ECD
  0
CIRCLE
  5
125ECE
  8
OBJECT
 10
2000.0
 20
-199.99999999999909
 30
0.0
 40
80.0
1001
ACDBBLOCKREPETAG
1070
     1
1071
        4
1005
125ECE
  0
ARC
  5
125ECF
  8
OBJECT
 10
2000.0
 20
-199.99999999999909
 30
0.0
 40
90.0
 50
21.083596528974049
 51
68.916404000030013
1001
ACDBBLOCKREPETAG
1070
     1
1071
        5
1005
125ECF
  0
CIRCLE
  5
125ED0
  8
OBJECT
 10
2000.0
 20
-199.99999999999909
 30
0.0
 40
66.5
1001
ACDBBLOCKREPETAG
1070
     1
1071
        7
1005
125ED0
  0
LINE
  5
125ED1
  8
OBJECT
 10
2083.9750905551341
 20
-167.62432755513231
 30
0.0
 11
2091.762953417739
 21
-175.4121904177382
 31
0.0
1001
ACDBBLOCKREPETAG
1070
     1
1071
        8
1005
125ED1
  0
LINE
  5
125ED2
  8
OBJECT
 10
2083.9750910000012
 20
-232.37567199999921
 30
0.0
 11
2091.7629530001868
 21
-224.58781114059909
 31
0.0
1001
ACDBBLOCKREPETAG
1070
     1
1071
        9
1005
125ED2
  0
ARC
  5
125ED3
  8
OBJECT
 10
2000.0
 20
-199.99999999999909
 30
0.0
 40
95.0
 50
344.99999884130068
 51
15.000000185793599
1001
ACDBBLOCKREPETAG
1070
     1
1071
       10
1005
125ED3
  0
LINE
  5
125ED4
  8
OBJECT
 10
2032.375672999998
 20
-283.9750909999994
 30
0.0
 11
2024.587810948284
 21
-291.76295305171419
 31
0.0
1001
ACDBBLOCKREPETAG
1070
     1
1071
       11
1005
125ED4
  0
LINE
  5
125ED5
  8
OBJECT
 10
1967.6243279999981
 20
-283.9750909999994
 30
0.0
 11
1975.41219041774
 21
-291.76295341774039
 31
0.0
1001
ACDBBLOCKREPETAG
1070
     1
1071
       12
1005
125ED5
  0
ARC
  5
125ED6
  8
OBJECT
 10
2000.0
 20
-199.99999999999909
 30
0.0
 40
95.0
 50
254.9999998142205
 51
285.00000103859719
1001
ACDBBLOCKREPETAG
1070
     1
1071
       13
1005
125ED6
  0
LINE
  5
125ED7
  8
OBJECT
 10
2032.375672999998
 20
-116.0249099999992
 30
0.0
 11
2024.5878095822591
 21
-108.2370465822578
 31
0.0
1001
ACDBBLOCKREPETAG
1070
     1
1071
       14
1005
125ED7
  0
ARC
  5
125ED8
  8
OBJECT
 10
2000.0
 20
-199.99999999999909
 30
0.0
 40
95.0
 50
74.999999814220544
 51
104.9999993327599
1001
ACDBBLOCKREPETAG
1070
     1
1071
       15
1005
125ED8
  0
LINE
  5
125ED9
  8
OBJECT
 10
1967.6243279999981
 20
-116.0249099999992
 30
0.0
 11
1975.412191783766
 21
-108.2370462162316
 31
0.0
1001
ACDBBLOCKREPETAG
1070
     1
1071
       16
1005
125ED9
  0
LINE
  5
125EDA
  8
OBJECT
 10
2055.1784370000032
 20
-162.884098999998
 30
0.0
 11
2032.534570109274
 21
-178.11554723457169
 31
0.0
1001
ACDBBLOCKREPETAG
1070
     1
1071
       17
1005
125EDA
  0
LINE
  5
125EDB
  8
OBJECT
 10
1944.804121000001
 20
-162.88106899999821
 30
0.0
 11
2032.534570109274
 21
-178.11554723457169
 31
0.0
1001
ACDBBLOCKREPETAG
1070
     1
1071
       18
1005
125EDB
  0
ARC
  5
125EDC
  8
OBJECT
 10
2000.0
 20
-199.99999999999909
 30
0.0
 40
92.5
 50
197.80189544246551
 51
252.19810417429329
1001
ACDBBLOCKREPETAG
1070
     1
1071
       22
1005
125EDC
  0
ARC
  5
125EDD
  8
OBJECT
 10
2000.0
 20
-199.99999999999909
 30
0.0
 40
92.5
 50
107.80189486746769
 51
162.1981051326415
1001
ACDBBLOCKREPETAG
1070
     1
1071
       23
1005
125EDD
  0
ARC
  5
125EDE
  8
OBJECT
 10
2000.0
 20
-199.99999999999909
 30
0.0
 40
92.5
 50
17.80189582568811
 51
72.198104174293292
1001
ACDBBLOCKREPETAG
1070
     1
1071
       24
1005
125EDE
  0
ARC
  5
125EDF
  8
OBJECT
 10
2000.0
 20
-199.99999999999909
 30
0.0
 40
62.5
 50
144.42390307809791
 51
193.7174643727671
1001
ACDBBLOCKREPETAG
1070
     1
1071
       26
1005
125EDF
  0
ARC
  5
125EE0
  8
OBJECT
 10
2000.0
 20
-199.99999999999909
 30
0.0
 40
62.5
 50
262.64111297834887
 51
33.92683896333525
1001
ACDBBLOCKREPETAG
1070
     1
1071
       27
1005
125EE0
  0
LINE
  5
125EE1
  8
OBJECT
 10
2068.6458301719758
 20
-137.99999999999909
 30
0.0
 11
2100.0
 21
-137.99999999999909
 31
0.0
1001
ACDBBLOCKREPETAG
1070
     1
1071
       33
1005
125EE1
  0
LINE
  5
125EE2
  8
OBJECT
 10
2068.6458301719758
 20
-261.99999999999909
 30
0.0
 11
2100.0000000000041
 21
-261.99999999999909
 31
0.0
1001
ACDBBLOCKREPETAG
1070
     1
1071
       34
1005
125EE2
  0
LINE
  5
125EE3
  8
OBJECT
 10
2062.0
 20
-268.64583017197862
 30
0.0
 11
2062.0000000000041
 21
-299.99999999999892
 31
0.0
1001
ACDBBLOCKREPETAG
1070
     1
1071
       35
1005
125EE3
  0
LINE
  5
125EE4
  8
OBJECT
 10
1937.9999999999959
 20
-268.64583017197492
 30
0.0
 11
1938.0
 21
-299.99999999999892
 31
0.0
1001
ACDBBLOCKREPETAG
1070
     1
1071
       36
1005
125EE4
  0
LINE
  5
125EE5
  8
OBJECT
 10
1931.3541698280239
 20
-261.99999999999909
 30
0.0
 11
1899.9999999999959
 21
-261.99999999999909
 31
0.0
1001
ACDBBLOCKREPETAG
1070
     1
1071
       37
1005
125EE5
  0
LINE
  5
125EE6
  8
OBJECT
 10
1931.3541698280201
 20
-137.99999999999909
 30
0.0
 11
1899.9999999999959
 21
-137.99999999999909
 31
0.0
1001
ACDBBLOCKREPETAG
1070
     1
1071
       38
1005
125EE6
  0
ARC
  5
125EE7
  8
OBJECT
 10
2000.0
 20
-199.99999999999909
 30
0.0
 40
97.5
 50
39.486577433836892
 51
140.51342256616309
1001
ACDBBLOCKREPETAG
1070
     1
1071
       39
1005
125EE7
  0
ARC
  5
125EE8
  8
OBJECT
 10
2000.0
 20
-199.99999999999909
 30
0.0
 40
97.5
 50
219.48657743383691
 51
230.5134225661574
1001
ACDBBLOCKREPETAG
1070
     1
1071
       40
1005
125EE8
  0
ARC
  5
125EE9
  8
OBJECT
 10
2000.0
 20
-199.99999999999909
 30
0.0
 40
97.5
 50
309.48657743384149
 51
320.51342256616311
1001
ACDBBLOCKREPETAG
1070
     1
1071
       41
1005
125EE9
  0
LINE
  5
125EEA
  8
CENTER
 10
1900.0
 20
-199.99999999999909
 30
0.0
 11
2100.0
 21
-199.99999999999909
 31
0.0
1001
ACDBBLOCKREPETAG
1070
     1
1071
       42
1005
125EEA
  0
LINE
  5
125EEB
  8
CENTER
 10
2000.0
 20
-86.499999999999091
 30
0.0
 11
2000.0
 21
-299.99999999999892
 31
0.0
1001
ACDBBLOCKREPETAG
1070
     1
1071
       43
1005
125EEB
  0
POINT
  5
125EEC
  8
DOTS
 10
2000.0
 20
-199.99999999999909
 30
0.0
1001
ACDBBLOCKREPETAG
1070
     1
1071
      281
1005
125EEC
  0
LINE
  5
125EED
  8
OBJECT
 10
2222.9999999999859
 20
-477.99999999999852
 30
0.0
 11
2229.9999999999859
 21
-477.99999999999852
 31
0.0
1001
ACDBBLOCKREPETAG
1070
     1
1071
       83
1005
125EED
  0
LINE
  5
125EEE
  8
OBJECT
 10
2229.9999999999859
 20
-477.99999999999852
 30
0.0
 11
2229.9999999999859
 21
-601.99999999999852
 31
0.0
1001
ACDBBLOCKREPETAG
1070
     1
1071
       84
1005
125EEE
  0
LINE
  5
125EEF
  8
OBJECT
 10
2105.9999999999859
 20
-548.35026377572513
 30
0.0
 11
2105.9999999999859
 21
-649.99999999999852
 31
0.0
1001
ACDBBLOCKREPETAG
1070
     1
1071
       85
1005
125EEF
  0
LINE
  5
125EF0
  8
OBJECT
 10
2229.9999999999859
 20
-601.99999999999852
 30
0.0
 11
2222.9999999999859
 21
-601.99999999999852
 31
0.0
1001
ACDBBLOCKREPETAG
1070
     1
1071
       86
1005
125EF0
  0
LINE
  5
125EF1
  8
OBJECT
 10
2222.9999999999859
 20
-601.99999999999852
 30
0.0
 11
2222.9999999999859
 21
-477.99999999999852
 31
0.0
1001
ACDBBLOCKREPETAG
1070
     1
1071
       87
1005
125EF1
  0
LINE
  5
125EF2
  8
CENTER
 10
2154.9999999999859
 20
-539.99999999999852
 30
0.0
 11
2244.999999999985
 21
-539.99999999999852
 31
0.0
1001
ACDBBLOCKREPETAG
1070
     1
1071
       88
1005
125EF2
  0
LINE
  5
125EF3
  8
OBJECT
 10
2099.9999999999809
 20
-652.99999999999761
 30
0.0
 11
2102.999999999985
 21
-652.99999999999852
 31
0.0
1001
ACDBBLOCKREPETAG
1070
     1
1071
       89
1005
125EF3
  0
ARC
  5
125EF4
  8
OBJECT
 10
2102.999999999985
 20
-649.99999999999852
 30
0.0
 40
3.0
 50
270.0
 51
0.0
1001
ACDBBLOCKREPETAG
1070
     1
1071
       90
1005
125EF4
  0
LINE
  5
125EF5
  8
OBJECT
 10
2222.9999999999859
 20
-480.99999999999841
 30
0.0
 11
2186.9999999999859
 21
-480.99999999999841
 31
0.0
1001
ACDBBLOCKREPETAG
1070
     1
1071
       91
1005
125EF5
  0
LINE
  5
125EF6
  8
OBJECT
 10
2186.9999999999859
 20
-480.99999999999841
 30
0.0
 11
2186.9999999999859
 21
-598.99999999999852
 31
0.0
1001
ACDBBLOCKREPETAG
1070
     1
1071
       92
1005
125EF6
  0
LINE
  5
125EF7
  8
OBJECT
 10
2182.9999999999859
 20
-485.49999999999841
 30
0.0
 11
2182.9999999999859
 21
-594.49999999999852
 31
0.0
1001
ACDBBLOCKREPETAG
1070
     1
1071
       93
1005
125EF7
  0
LINE
  5
125EF8
  8
OBJECT
 10
2182.9999999999859
 20
-485.49999999999841
 30
0.0
 11
2169.999999999985
 21
-485.49999999999841
 31
0.0
1001
ACDBBLOCKREPETAG
1070
     1
1071
       94
1005
125EF8
  0
LINE
  5
125EF9
  8
OBJECT
 10
2186.9999999999859
 20
-598.99999999999852
 30
0.0
 11
2222.9999999999859
 21
-598.99999999999852
 31
0.0
1001
ACDBBLOCKREPETAG
1070
     1
1071
       95
1005
125EF9
  0
LINE
  5
125EFA
  8
OBJECT
 10
2186.9999999999859
 20
-480.99999999999841
 30
0.0
 11
2182.9999999999859
 21
-485.49999999999841
 31
0.0
1001
ACDBBLOCKREPETAG
1070
     1
1071
       96
1005
125EFA
  0
LINE
  5
125EFB
  8
OBJECT
 10
2169.999999999985
 20
-485.49999999999841
 30
0.0
 11
2169.999999999985
 21
-570.74491827928557
 31
0.0
1001
ACDBBLOCKREPETAG
1070
     1
1071
       97
1005
125EFB
  0
ARC
  5
125EFC
  8
OBJECT
 10
2172.7999999999852
 20
-579.99999999999852
 30
0.0
 40
85.0
 50
91.887731891831123
 51
143.1301023540934
1001
ACDBBLOCKREPETAG
1070
     1
1071
       98
1005
125EFC
  0
LINE
  5
125EFD
  8
HIDDEN
 10
2177.9999999999859
 20
-495.49999999999841
 30
0.0
 11
2177.9999999999859
 21
-584.49999999999852
 31
0.0
1001
ACDBBLOCKREPETAG
1070
     1
1071
      100
1005
125EFD
  0
LINE
  5
125EFE
  8
OBJECT
 10
2105.9999999999859
 20
-646.07945073181554
 30
0.0
 11
2176.6313199210308
 21
-594.49999999999852
 31
0.0
1001
ACDBBLOCKREPETAG
1070
     1
1071
      101
1005
125EFE
  0
LINE
  5
125EFF
  8
OBJECT
 10
2099.9999999999809
 20
-528.99999999999761
 30
0.0
 11
2104.7999999999852
 21
-528.99999999999761
 31
0.0
1001
ACDBBLOCKREPETAG
1070
     1
1071
      102
1005
125EFF
  0
LINE
  5
125F00
  8
OBJECT
 10
2105.9999999999859
 20
-548.35026377572785
 30
0.0
 11
2104.7999999999852
 21
-528.99999999999761
 31
0.0
1001
ACDBBLOCKREPETAG
1070
     1
1071
      103
1005
125F00
  0
LINE
  5
125F01
  8
OBJECT
 10
2182.9999999999859
 20
-594.49999999999852
 30
0.0
 11
2176.6313199210308
 21
-594.49999999999852
 31
0.0
1001
ACDBBLOCKREPETAG
1070
     1
1071
      104
1005
125F01
  0
LINE
  5
125F02
  8
OBJECT
 10
2186.9999999999859
 20
-598.99999999999852
 30
0.0
 11
2182.9999999999859
 21
-594.49999999999852
 31
0.0
1001
ACDBBLOCKREPETAG
1070
     1
1071
      105
1005
125F02
  0
LINE
  5
125F03
  8
OBJECT
 10
2222.9999999999859
 20
-137.99999999999909
 30
0.0
 11
2229.9999999999859
 21
-137.99999999999909
 31
0.0
1001
ACDBBLOCKREPETAG
1070
     1
1071
       85
1005
125F03
  0
LINE
  5
125F04
  8
OBJECT
 10
2229.9999999999859
 20
-137.99999999999909
 30
0.0
 11
2229.9999999999859
 21
-261.99999999999909
 31
0.0
1001
ACDBBLOCKREPETAG
1070
     1
1071
       86
1005
125F04
  0
LINE
  5
125F05
  8
OBJECT
 10
2229.9999999999859
 20
-261.99999999999909
 30
0.0
 11
2222.9999999999859
 21
-261.99999999999909
 31
0.0
1001
ACDBBLOCKREPETAG
1070
     1
1071
       87
1005
125F05
  0
LINE
  5
125F06
  8
OBJECT
 10
2222.9999999999859
 20
-261.99999999999909
 30
0.0
 11
2222.9999999999859
 21
-137.99999999999909
 31
0.0
1001
ACDBBLOCKREPETAG
1070
     1
1071
       88
1005
125F06
  0
LINE
  5
125F07
  8
CENTER
 10
2244.999999999985
 20
-199.99999999999909
 30
0.0
 11
2100.0
 21
-199.99999999999909
 31
0.0
1001
ACDBBLOCKREPETAG
1070
     1
1071
       89
1005
125F07
  0
LINE
  5
125F08
  8
OBJECT
 10
2169.9999749641861
 20
-245.0000000000027
 30
0.0
 11
2106.0
 21
-244.99999999999909
 31
0.0
1001
ACDBBLOCKREPETAG
1070
     1
1071
       90
1005
125F08
  0
LINE
  5
125F09
  8
OBJECT
 10
2169.9999749641861
 20
-154.99999999999909
 30
0.0
 11
2106.0
 21
-154.99999999999909
 31
0.0
1001
ACDBBLOCKREPETAG
1070
     1
1071
       91
1005
125F09
  0
LINE
  5
125F0A
  8
OBJECT
 10
2222.9999999999859
 20
-140.99999999999909
 30
0.0
 11
2186.9999999999859
 21
-140.99999999999909
 31
0.0
1001
ACDBBLOCKREPETAG
1070
     1
1071
       92
1005
125F0A
  0
LINE
  5
125F0B
  8
OBJECT
 10
2186.9999999999859
 20
-140.99999999999909
 30
0.0
 11
2186.9999999999859
 21
-258.99999999999909
 31
0.0
1001
ACDBBLOCKREPETAG
1070
     1
1071
       93
1005
125F0B
  0
LINE
  5
125F0C
  8
OBJECT
 10
2186.9999999999859
 20
-258.99999999999909
 30
0.0
 11
2222.9999999999859
 21
-258.99999999999909
 31
0.0
1001
ACDBBLOCKREPETAG
1070
     1
1071
       94
1005
125F0C
  0
LINE
  5
125F0D
  8
OBJECT
 10
2182.9999999999859
 20
-145.49999999999909
 30
0.0
 11
2169.999999999985
 21
-145.49999999999909
 31
0.0
1001
ACDBBLOCKREPETAG
1070
     1
1071
       95
1005
125F0D
  0
LINE
  5
125F0E
  8
OBJECT
 10
2169.999999999985
 20
-254.49999999999909
 30
0.0
 11
2182.9999999999859
 21
-254.49999999999909
 31
0.0
1001
ACDBBLOCKREPETAG
1070
     1
1071
       96
1005
125F0E
  0
LINE
  5
125F0F
  8
OBJECT
 10
2182.9999999999859
 20
-254.49999999999909
 30
0.0
 11
2182.9999999999859
 21
-145.49999999999909
 31
0.0
1001
ACDBBLOCKREPETAG
1070
     1
1071
       97
1005
125F0F
  0
LINE
  5
125F10
  8
OBJECT
 10
2186.9999999999859
 20
-140.99999999999909
 30
0.0
 11
2182.9999999999859
 21
-145.49999999999909
 31
0.0
1001
ACDBBLOCKREPETAG
1070
     1
1071
       98
1005
125F10
  0
LINE
  5
125F11
  8
OBJECT
 10
2186.9999999999859
 20
-258.99999999999909
 30
0.0
 11
2182.9999999999859
 21
-254.49999999999909
 31
0.0
1001
ACDBBLOCKREPETAG
1070
     1
1071
       99
1005
125F11
  0
LINE
  5
125F12
  8
OBJECT
 10
2103.0
 20
-137.99999999999909
 30
0.0
 11
2100.0
 21
-137.99999999999909
 31
0.0
1001
ACDBBLOCKREPETAG
1070
     1
1071
      100
1005
125F12
  0
ARC
  5
125F13
  8
OBJECT
 10
2103.0
 20
-140.99999999999909
 30
0.0
 40
3.0
 50
0.0
 51
90.0
1001
ACDBBLOCKREPETAG
1070
     1
1071
      101
1005
125F13
  0
LINE
  5
125F14
  8
OBJECT
 10
2100.0
 20
-261.99999999999909
 30
0.0
 11
2103.0
 21
-261.99999999999909
 31
0.0
1001
ACDBBLOCKREPETAG
1070
     1
1071
      102
1005
125F14
  0
ARC
  5
125F15
  8
OBJECT
 10
2103.0
 20
-258.99999999999909
 30
0.0
 40
3.0
 50
270.0
 51
0.0
1001
ACDBBLOCKREPETAG
1070
     1
1071
      103
1005
125F15
  0
LINE
  5
125F16
  8
OBJECT
 10
2106.0
 20
-258.99999999999909
 30
0.0
 11
2106.0
 21
-210.3227903203578
 31
0.0
1001
ACDBBLOCKREPETAG
1070
     1
1071
      104
1005
125F16
  0
LINE
  5
125F17
  8
OBJECT
 10
2106.0
 20
-189.6772096796403
 30
0.0
 11
2106.0
 21
-140.99999999999909
 31
0.0
1001
ACDBBLOCKREPETAG
1070
     1
1071
      105
1005
125F17
  0
LINE
  5
125F18
  8
HIDDEN
 10
2177.9999999999859
 20
-155.49999999999909
 30
0.0
 11
2177.9999999999859
 21
-244.49999999999909
 31
0.0
1001
ACDBBLOCKREPETAG
1070
     1
1071
      106
1005
125F18
  0
LINE
  5
125F19
  8
OBJECT
 10
2169.9999749641861
 20
-254.4999509238105
 30
0.0
 11
2169.9999749641861
 21
-145.4999509238105
 31
0.0
1001
ACDBBLOCKREPETAG
1070
     1
1071
      108
1005
125F19
  0
ARC
  5
125F1A
  8
OBJECT
 10
2149.8000000000252
 20
-199.99999999999909
 30
0.0
 40
45.000000000000547
 50
90.0
 51
270.0
1001
ACDBBLOCKREPETAG
1070
     1
1071
      109
1005
125F1A
  0
TEXT
  5
125F1B
  8
SLIM
 10
-0.0000000000000053
 20
520.0
 30
0.0
 40
100.0
  1
5HF-Z6-P110-S
 41
0.75
  0
TEXT
  5
125F1C
  8
SLIM
 10
-0.0000000000000053
 20
370.0
 30
0.0
 40
100.0
  1
5HF-Z6-P110-W
 41
0.75
  0
TEXT
  5
125F1D
  8
SLIM
 10
3853.75
 20
-1706.4999999999991
 30
0.0
 40
35.0
  1
両受けスタイル（W）
 41
0.75
  0
TEXT
  5
125F1E
  8
SLIM
 10
7824.6000000000022
 20
-1762.9999999999991
 30
0.0
 40
28.0
  1
※ 対応スラブ厚　180～405
 41
0.75
  0
TEXT
  5
125F1F
  8
SLIM
 10
7611.4999999999982
 20
-1856.333333333333
 30
0.0
 40
28.0
  1
国土交通大臣認定・（財）日本消防設備安全センター性能評定取得品
 41
0.75
  0
TEXT
  5
125F20
  8
SLIM
 10
7631.1000000000004
 20
-1903.0
 30
0.0
 40
28.0
  1
注）ご採用にあたり、認定書及び評定書の内容をご確認ください。
 41
0.75
  0
TEXT
  5
125F21
  8
SLIM
 10
7739.125
 20
-1706.4999999999991
 30
0.0
 40
35.0
  1
両受けスタイル（W）＋シンドカット
 41
0.75
  0
TEXT
  5
125F22
  8
SLIM
 10
5741.6249999999991
 20
-1432.5
 30
0.0
 40
35.0
  1
片受けスタイル（S）＋シンドカット
 41
0.75
  0
TEXT
  5
125F23
  8
SLIM
 10
1856.25
 20
-1432.5
 30
0.0
 40
35.0
  1
片受けスタイル（S）
 41
0.75
  0
VIEWPORT
  5
F6BA7
 67
     1
  8
0
 10
145.33033752441401
 20
101.8328354358673
 30
0.0
 40
334.0025019414623
 41
222.19657968139651
 68
     1
 69
     1
1001
ACAD
1000
MVIEW
1002
{
1070
    16
1010
0.0
1020
0.0
1030
0.0
1010
0.0
1020
0.0
1030
1.0
1040
0.0
1040
222.19657968139651
1040
145.33033752441401
1040
101.8328354358673
1040
50.0
1040
0.0
1040
0.0
1070
     0
1070
     0
1070
     1
1070
     1
1070
     0
1070
     0
1070
     0
1070
     0
1040
0.0
1040
0.0
1040
0.0
1040
10.0
1040
10.0
1040
10.0
1040
10.0
1070
     0
1002
{
1002
}
1002
}
  0
VIEWPORT
  5
F6BA9
 67
     1
  8
OBJECT
 10
145.3303314447403
 20
101.8328338861465
 30
0.0
 40
232.5285303115844
 41
162.93253421783439
 68
     2
 69
     2
1001
ACAD
1000
MVIEW
1002
{
1070
    16
1010
0.0
1020
0.0
1030
0.0
1010
0.0
1020
0.0
1030
1.0
1040
0.0
1040
25942.55904403147
1040
2377.604457077377
1040
-7591.5176687056619
1040
50.0
1040
0.0
1040
0.0
1070
     0
1070
   600
1070
     1
1070
     1
1070
     0
1070
     0
1070
     0
1070
     0
1040
0.0
1040
0.0
1040
0.0
1040
1.0
1040
1.0
1040
0.0
1040
0.0
1070
     0
1002
{
1002
}
1002
}
  0
ENDSEC
  0
EOF
