  0
SECTION
  2
HEADER
  9
$EXTMIN
 10
0
 20
0
  9
$EXTMAX
 10
891
 20
630
  0
ENDSEC
  0
SECTION
  2
TABLES
  0
TABLE
  2
LTYPE
 70
     9
  0
LTYPE
  2
CONTINUOUS
 70
    64
  3
実線
 72
    65
 73
     0
 40
0.0
  0
LTYPE
  2
DASHED1
 70
    64
  3
--  --  --  --  --  --  --  --  
 72
    65
 73
     2
 40
2.5
 49
1.25
 49
-1.25
  0
LTYPE
  2
DASHED2
 70
    64
  3
----    ----    ----    ----    
 72
    65
 73
     2
 40
5.0
 49
2.5
 49
-2.5
  0
LTYPE
  2
DASHED3
 70
    64
  3
------  ------  ------  ------  
 72
    65
 73
     2
 40
5.0
 49
3.75
 49
-1.25
  0
LTYPE
  2
CENTER1
 70
    64
  3
----- - ----- - ----- - ----- - 
 72
    65
 73
     4
 40
10.0
 49
6.25
 49
-1.25
 49
1.25
 49
-1.25
  0
LTYPE
  2
CENTER2
 70
    64
  3
----------  --  ----------  --  
 72
    65
 73
     4
 40
20.0
 49
12.5
 49
-2.5
 49
2.5
 49
-2.5
  0
LTYPE
  2
PHANTOM1
 70
    64
  3
--- - - --- - - --- - - --- - - 
 72
    65
 73
     6
 40
10.0
 49
3.25
 49
-1.25
 49
1.25
 49
-1.25
 49
1.25
 49
-1.25
  0
LTYPE
  2
PHANTOM2
 70
    64
  3
--------  -  -  --------  -  -  
 72
    65
 73
     6
 40
20.0
 49
10.0
 49
-2.5
 49
1.25
 49
-2.5
 49
1.25
 49
-2.5
  0
LTYPE
  2
DOT
 70
    64
  3
-   -   -   -   -   -   -   -   
 72
    65
 73
     2
 40
2.5
 49
0.625
 49
-1.875
  0
ENDTAB
  0
TABLE
  2
STYLE
 70
    1
  0
STYLE
  2
STANDARD
 70
    64
 40
0.0
 41
1.0
 42
0.0
 50
0.0
 71
     0
  3
TXT
  4
BIGFONT
  0
ENDTAB
  0
TABLE
  2
LAYER
 70
    4
  0
LAYER
  2
0
 70
   64
 62
    7
  6
CONTINUOUS
  0
LAYER
  2
2
 70
   64
 62
    7
  6
CONTINUOUS
  0
LAYER
  2
3
 70
   64
 62
    7
  6
CONTINUOUS
  0
LAYER
  2
ADD_LINE
 70
   64
 62
    7
  6
CONTINUOUS
  0
ENDTAB
  0
ENDSEC
  0
SECTION
  2
ENTITIES
  0
LINE
  8
3
  6
CONTINUOUS
 62
    7
 10
210.12219
 20
81.928516
 11
638.77679
 21
81.928516
  0
LINE
  8
3
  6
CONTINUOUS
 62
    7
 10
638.77679
 20
117.56487
 11
424.9585
 21
117.56487
  0
LINE
  8
3
  6
CONTINUOUS
 62
    7
 10
600.5951
 20
153.20128
 11
600.5951
 21
117.56487
  0
LINE
  8
3
  6
CONTINUOUS
 62
    7
 10
394.41309
 20
117.56487
 11
394.41309
 21
132.83771
  0
LINE
  8
3
  6
CONTINUOUS
 62
    7
 10
363.86762
 20
153.20128
 11
363.86762
 21
81.928516
  0
LINE
  8
3
  6
CONTINUOUS
 62
    7
 10
302.77677
 20
153.20128
 11
302.77677
 21
81.928516
  0
LINE
  8
3
  6
CONTINUOUS
 62
    7
 10
210.12219
 20
132.83771
 11
424.9585
 21
132.83771
  0
LINE
  8
3
  6
CONTINUOUS
 62
    7
 10
272.2313
 20
81.928516
 11
272.2313
 21
83.710409
  0
LINE
  8
3
  6
CONTINUOUS
 62
    7
 10
241.68584
 20
83.710409
 11
241.68584
 21
81.928516
  0
LINE
  8
3
  6
CONTINUOUS
 62
    7
 10
424.9585
 20
97.201216
 11
423.17672
 21
97.201216
  0
LINE
  8
3
  6
CONTINUOUS
 62
    7
 10
210.12219
 20
153.20128
 11
638.77679
 21
153.20128
  0
LINE
  8
3
  6
CONTINUOUS
 62
    7
 10
635.72225
 20
55.964872
 11
620.44953
 21
55.964872
  0
LINE
  8
3
  6
CONTINUOUS
 62
    7
 10
620.44953
 20
55.964872
 11
628.08615
 21
77.601308
  0
LINE
  8
3
  6
CONTINUOUS
 62
    7
 10
628.08615
 20
77.601308
 11
635.72225
 21
55.964872
  0
LINE
  8
3
  6
CONTINUOUS
 62
    7
 10
621.85937
 20
52.146791
 11
621.85937
 21
53.41948
  0
LINE
  8
3
  6
CONTINUOUS
 62
    7
 10
605.45092
 20
52.146791
 11
605.45092
 21
53.41948
  0
LINE
  8
3
  6
CONTINUOUS
 62
    7
 10
589.04279
 20
52.146791
 11
589.04279
 21
53.41948
  0
LINE
  8
3
  6
CONTINUOUS
 62
    7
 10
572.63444
 20
52.146791
 11
572.63444
 21
53.41948
  0
LINE
  8
3
  6
CONTINUOUS
 62
    7
 10
556.22589
 20
52.146791
 11
556.22589
 21
53.41948
  0
LINE
  8
3
  6
CONTINUOUS
 62
    7
 10
539.81749
 20
52.146791
 11
539.81749
 21
53.41948
  0
LINE
  8
3
  6
CONTINUOUS
 62
    7
 10
523.4092
 20
52.146791
 11
523.4092
 21
53.41948
  0
LINE
  8
3
  6
CONTINUOUS
 62
    7
 10
507.00065
 20
52.146791
 11
507.00065
 21
53.41948
  0
LINE
  8
3
  6
CONTINUOUS
 62
    7
 10
490.5923
 20
52.146791
 11
490.5923
 21
53.41948
  0
LINE
  8
3
  6
CONTINUOUS
 62
    7
 10
474.18385
 20
52.146791
 11
474.18385
 21
53.41948
  0
LINE
  8
3
  6
CONTINUOUS
 62
    7
 10
457.77535
 20
52.146791
 11
457.77535
 21
53.41948
  0
LINE
  8
3
  6
CONTINUOUS
 62
    7
 10
441.36706
 20
52.146791
 11
441.36706
 21
53.41948
  0
LINE
  8
3
  6
CONTINUOUS
 62
    7
 10
210.12219
 20
214.29212
 11
638.77679
 21
214.29212
  0
LINE
  8
3
  6
CONTINUOUS
 62
    7
 10
210.12219
 20
183.74677
 11
637.76326
 21
183.74677
  0
LINE
  8
3
  6
CONTINUOUS
 62
    7
 10
414.77672
 20
51.637553
 11
414.77672
 21
38.910199
  0
LINE
  8
3
  6
CONTINUOUS
 62
    7
 10
303.2502
 20
60.302125
 11
303.2502
 21
57.018195
  0
LINE
  8
3
  6
CONTINUOUS
 62
    7
 10
298.0928
 20
62.175684
 11
301.37671
 21
62.175684
  0
LINE
  8
3
  6
CONTINUOUS
 62
    7
 10
307.54079
 20
56.920907
 11
310.7226
 21
56.920907
  0
LINE
  8
3
  6
CONTINUOUS
 62
    7
 10
307.54079
 20
57.773426
 11
307.54079
 21
56.920907
  0
LINE
  8
3
  6
CONTINUOUS
 62
    7
 10
310.7226
 20
63.284485
 11
310.7226
 21
56.920907
  0
LINE
  8
3
  6
CONTINUOUS
 62
    7
 10
293.60828
 20
71.239036
 11
293.60828
 21
76.493898
  0
LINE
  8
3
  6
CONTINUOUS
 62
    7
 10
296.7901
 20
71.239036
 11
296.7901
 21
68.05721
  0
LINE
  8
3
  6
CONTINUOUS
 62
    7
 10
293.60828
 20
68.05721
 11
296.7901
 21
68.05721
  0
LINE
  8
3
  6
CONTINUOUS
 62
    7
 10
293.60828
 20
71.239036
 11
296.7901
 21
71.239036
  0
LINE
  8
3
  6
CONTINUOUS
 62
    7
 10
290.42647
 20
76.493898
 11
293.60828
 21
76.493898
  0
LINE
  8
3
  6
CONTINUOUS
 62
    7
 10
293.60828
 20
56.920907
 11
293.60828
 21
68.05721
  0
LINE
  8
3
  6
CONTINUOUS
 62
    7
 10
290.42647
 20
56.920907
 11
290.42647
 21
76.493898
  0
LINE
  8
3
  6
CONTINUOUS
 62
    7
 10
290.42647
 20
56.920907
 11
293.60828
 21
56.920907
  0
LINE
  8
3
  6
CONTINUOUS
 62
    7
 10
280.49537
 20
60.302125
 11
280.49537
 21
57.018195
  0
LINE
  8
3
  6
CONTINUOUS
 62
    7
 10
278.62186
 20
62.175684
 11
275.33797
 21
62.175684
  0
LINE
  8
3
  6
CONTINUOUS
 62
    7
 10
265.69503
 20
60.302125
 11
265.69503
 21
57.018195
  0
LINE
  8
3
  6
CONTINUOUS
 62
    7
 10
263.82162
 20
62.175684
 11
260.44026
 21
62.175684
  0
LINE
  8
3
  6
CONTINUOUS
 62
    7
 10
263.62533
 20
68.7967
 11
263.62205
 21
76.493898
  0
LINE
  8
3
  6
CONTINUOUS
 62
    7
 10
260.44026
 20
76.493898
 11
260.44026
 21
62.175684
  0
LINE
  8
3
  6
CONTINUOUS
 62
    7
 10
260.44026
 20
76.493898
 11
263.62205
 21
76.493898
  0
LINE
  8
3
  6
CONTINUOUS
 62
    7
 10
249.78594
 20
60.402845
 11
249.78594
 21
57.05723
  0
LINE
  8
3
  6
CONTINUOUS
 62
    7
 10
245.06563
 20
62.175684
 11
248.30754
 21
62.175684
  0
LINE
  8
3
  6
CONTINUOUS
 62
    7
 10
257.11381
 20
71.239036
 11
257.11381
 21
62.971111
  0
LINE
  8
3
  6
CONTINUOUS
 62
    7
 10
253.93202
 20
71.239036
 11
253.93202
 21
62.971111
  0
LINE
  8
3
  6
CONTINUOUS
 62
    7
 10
248.19503
 20
71.239036
 11
248.19503
 21
62.971111
  0
LINE
  8
3
  6
CONTINUOUS
 62
    7
 10
245.01321
 20
71.239036
 11
245.01321
 21
62.971111
  0
LINE
  8
3
  6
CONTINUOUS
 62
    7
 10
253.93202
 20
71.239036
 11
257.11381
 21
71.239036
  0
LINE
  8
3
  6
CONTINUOUS
 62
    7
 10
245.01321
 20
71.239036
 11
248.19503
 21
71.239036
  0
LINE
  8
3
  6
CONTINUOUS
 62
    7
 10
233.03558
 20
65.911877
 11
240.99018
 21
76.493898
  0
LINE
  8
3
  6
CONTINUOUS
 62
    7
 10
233.03558
 20
65.911877
 11
240.99018
 21
56.920907
  0
LINE
  8
3
  6
CONTINUOUS
 62
    7
 10
237.0587
 20
65.911877
 11
245.01321
 21
76.493898
  0
LINE
  8
3
  6
CONTINUOUS
 62
    7
 10
237.0587
 20
65.911877
 11
245.01321
 21
56.920907
  0
LINE
  8
3
  6
CONTINUOUS
 62
    7
 10
245.01321
 20
76.493898
 11
240.99018
 21
76.493898
  0
LINE
  8
3
  6
CONTINUOUS
 62
    7
 10
245.01321
 20
56.920907
 11
240.99018
 21
56.920907
  0
LINE
  8
3
  6
CONTINUOUS
 62
    7
 10
229.10413
 20
76.493898
 11
232.28591
 21
76.493898
  0
LINE
  8
3
  6
CONTINUOUS
 62
    7
 10
229.10413
 20
62.175684
 11
232.28591
 21
62.175684
  0
LINE
  8
3
  6
CONTINUOUS
 62
    7
 10
232.28591
 20
76.493898
 11
232.28591
 21
62.175684
  0
LINE
  8
3
  6
CONTINUOUS
 62
    7
 10
229.10413
 20
76.493898
 11
229.10413
 21
62.175684
  0
LINE
  8
2
  6
CONTINUOUS
 62
    3
 10
396.67195
 20
142.93431
 11
404.84177
 21
142.93431
  0
LINE
  8
0
  6
CENTER2
 62
    5
 10
296.72981
 20
255.24066
 11
296.72981
 21
602.60987
  0
LINE
  8
0
  6
CONTINUOUS
 62
    7
 10
400.91606
 20
489.68785
 11
436.44575
 21
490.40107
  0
LINE
  8
0
  6
CONTINUOUS
 62
    7
 10
431.68543
 20
621.84714
 11
432.86546
 21
617.77225
  0
LINE
  8
0
  6
CONTINUOUS
 62
    7
 10
431.68543
 20
621.84714
 11
430.66991
 21
617.72815
  0
LINE
  8
0
  6
CONTINUOUS
 62
    7
 10
434.32497
 20
490.3585
 11
433.14488
 21
494.4335
  0
LINE
  8
0
  6
CONTINUOUS
 62
    7
 10
434.32497
 20
490.3585
 11
435.34049
 21
494.47759
  0
LINE
  8
0
  6
CONTINUOUS
 62
    7
 10
257.22981
 20
265.72338
 11
257.22981
 21
253.12048
  0
LINE
  8
0
  6
CONTINUOUS
 62
    7
 10
336.2298
 20
265.72338
 11
336.2298
 21
253.12048
  0
LINE
  8
0
  6
CONTINUOUS
 62
    7
 10
257.22981
 20
255.24166
 11
261.3277
 21
256.3397
  0
LINE
  8
0
  6
CONTINUOUS
 62
    7
 10
257.22981
 20
255.24166
 11
261.3277
 21
254.14367
  0
LINE
  8
0
  6
CONTINUOUS
 62
    7
 10
336.2298
 20
255.24166
 11
332.13194
 21
254.14367
  0
LINE
  8
0
  6
CONTINUOUS
 62
    7
 10
251.9268
 20
265.72338
 11
251.9268
 21
241.38697
  0
LINE
  8
0
  6
CONTINUOUS
 62
    7
 10
341.53281
 20
265.72338
 11
341.53281
 21
241.38697
  0
LINE
  8
0
  6
CONTINUOUS
 62
    7
 10
251.9268
 20
243.50815
 11
256.02464
 21
244.60621
  0
LINE
  8
0
  6
CONTINUOUS
 62
    7
 10
251.9268
 20
243.50815
 11
256.02464
 21
242.41013
  0
LINE
  8
0
  6
CONTINUOUS
 62
    7
 10
341.53281
 20
243.50815
 11
337.43498
 21
242.41013
  0
LINE
  8
0
  6
CONTINUOUS
 62
    7
 10
247.41165
 20
267.84458
 11
222.30109
 21
267.84458
  0
LINE
  8
0
  6
CONTINUOUS
 62
    7
 10
224.42231
 20
554.20818
 11
224.42231
 21
267.84458
  0
LINE
  8
0
  6
CONTINUOUS
 62
    7
 10
224.42231
 20
554.20818
 11
225.52035
 21
550.1104
  0
LINE
  8
0
  6
CONTINUOUS
 62
    7
 10
224.42231
 20
554.20818
 11
223.32427
 21
550.1104
  0
LINE
  8
0
  6
CONTINUOUS
 62
    7
 10
224.42231
 20
267.84458
 11
223.32427
 21
271.94244
  0
LINE
  8
0
  6
CONTINUOUS
 62
    7
 10
224.42231
 20
267.84458
 11
225.52035
 21
271.94244
  0
LINE
  8
0
  6
CONTINUOUS
 62
    7
 10
294.60866
 20
601.40521
 11
222.30109
 21
601.40521
  0
LINE
  8
0
  6
CONTINUOUS
 62
    7
 10
241.75841
 20
554.20818
 11
222.30109
 21
554.20818
  0
LINE
  8
0
  6
CONTINUOUS
 62
    7
 10
224.42231
 20
601.40521
 11
224.42231
 21
554.20818
  0
LINE
  8
0
  6
CONTINUOUS
 62
    7
 10
224.42231
 20
601.40521
 11
225.52035
 21
597.30733
  0
LINE
  8
0
  6
CONTINUOUS
 62
    7
 10
224.42231
 20
601.40521
 11
223.32427
 21
597.30733
  0
LINE
  8
0
  6
CONTINUOUS
 62
    7
 10
224.42231
 20
554.20818
 11
223.32427
 21
558.30607
  0
LINE
  8
0
  6
CONTINUOUS
 62
    7
 10
224.42231
 20
554.20818
 11
225.52035
 21
558.30607
  0
LINE
  8
0
  6
CONTINUOUS
 62
    7
 10
398.2766
 20
621.1765
 11
433.80629
 21
621.88977
  0
LINE
  8
0
  6
CONTINUOUS
 62
    7
 10
241.75841
 20
404.20818
 11
222.30109
 21
404.20818
  0
LINE
  8
0
  6
CONTINUOUS
 62
    7
 10
240.74446
 20
554.20828
 11
240.74446
 21
404.20818
  0
LINE
  8
0
  6
CONTINUOUS
 62
    7
 10
240.74446
 20
554.20828
 11
241.8424
 21
550.1105
  0
LINE
  8
0
  6
CONTINUOUS
 62
    7
 10
240.74446
 20
554.20828
 11
239.64637
 21
550.1105
  0
LINE
  8
0
  6
CONTINUOUS
 62
    7
 10
240.74446
 20
404.20818
 11
239.64637
 21
408.30612
  0
LINE
  8
0
  6
CONTINUOUS
 62
    7
 10
240.74446
 20
404.20818
 11
241.8424
 21
408.30612
  0
LINE
  8
0
  6
CENTER2
 62
    5
 10
479.90156
 20
555.58496
 11
632.98843
 21
555.58496
  0
LINE
  8
0
  6
CONTINUOUS
 62
    7
 10
431.68543
 20
621.84714
 11
434.32497
 21
490.3585
  0
LINE
  8
0
  6
CONTINUOUS
 62
    7
 10
296.72981
 20
650.45996
 11
300.82775
 21
651.55795
  0
LINE
  8
0
  6
CONTINUOUS
 62
    7
 10
296.72981
 20
650.45996
 11
300.82775
 21
649.36182
  0
LINE
  8
0
  6
CONTINUOUS
 62
    7
 10
339.72985
 20
650.45996
 11
343.82774
 21
651.55795
  0
LINE
  8
0
  6
CONTINUOUS
 62
    7
 10
339.72985
 20
650.45996
 11
343.82774
 21
649.36182
  0
LINE
  8
0
  6
CONTINUOUS
 62
    7
 10
339.72985
 20
650.45996
 11
335.63196
 21
649.36182
  0
LINE
  8
0
  6
CONTINUOUS
 62
    7
 10
339.72985
 20
650.45996
 11
335.63196
 21
651.55795
  0
LINE
  8
0
  6
CONTINUOUS
 62
    7
 10
391.72985
 20
650.45996
 11
387.63197
 21
649.36182
  0
LINE
  8
0
  6
CONTINUOUS
 62
    7
 10
391.72985
 20
650.45996
 11
387.63197
 21
651.55795
  0
LINE
  8
0
  6
CONTINUOUS
 62
    7
 10
296.72981
 20
650.45996
 11
391.72985
 21
650.45996
  0
LINE
  8
3
  6
CONTINUOUS
 62
    7
 10
210.12219
 20
214.29212
 11
210.12219
 21
51.637553
  0
LINE
  8
3
  6
CONTINUOUS
 62
    7
 10
237.18342
 20
183.74677
 11
237.18342
 21
214.29212
  0
LINE
  8
3
  6
CONTINUOUS
 62
    7
 10
424.9585
 20
214.29212
 11
424.9585
 21
51.637553
  0
LINE
  8
3
  6
CONTINUOUS
 62
    7
 10
486.04949
 20
183.74677
 11
486.04949
 21
214.29212
  0
LINE
  8
3
  6
CONTINUOUS
 62
    7
 10
526.77707
 20
183.74677
 11
526.77707
 21
214.29212
  0
LINE
  8
0
  6
CONTINUOUS
 62
    7
 10
638.77679
 20
214.29212
 11
638.77679
 21
52.115469
  0
LINE
  8
3
  6
CONTINUOUS
 62
    7
 10
210.12219
 20
51.637553
 11
641.58882
 21
51.637553
  0
LINE
  8
0
  6
CONTINUOUS
 62
    7
 10
198.65737
 20
606.8025
 11
198.65737
 21
476.58455
  0
LINE
  8
0
  6
CONTINUOUS
 62
    7
 10
198.65737
 20
476.58455
 11
229.40328
 21
476.58455
  0
LINE
  8
0
  6
CONTINUOUS
 62
    7
 10
229.40328
 20
476.58455
 11
225.30545
 21
475.48651
  0
LINE
  8
0
  6
CONTINUOUS
 62
    7
 10
229.40328
 20
476.58455
 11
225.30545
 21
477.68259
  0
LINE
  8
0
  6
CENTER2
 62
    5
 10
321.23288
 20
553.90719
 11
400.89264
 21
555.50622
  0
LINE
  8
0
  6
CONTINUOUS
 62
    5
 10
387.90293
 20
496.27704
 11
346.17311
 21
495.80361
  0
LINE
  8
0
  6
CONTINUOUS
 62
    5
 10
392.80243
 20
501.33297
 11
392.96301
 21
493.33451
  0
LINE
  8
0
  6
CONTINUOUS
 62
    5
 10
392.96301
 20
493.33451
 11
387.96398
 21
493.2342
  0
LINE
  8
0
  6
CONTINUOUS
 62
    5
 10
347.05089
 20
613.05773
 11
385.53641
 21
614.16637
  0
LINE
  8
0
  6
CONTINUOUS
 62
    5
 10
390.63486
 20
609.31123
 11
390.47428
 21
617.30953
  0
LINE
  8
0
  6
CONTINUOUS
 62
    5
 10
343.133
 20
608.92777
 11
332.11968
 21
608.61056
  0
LINE
  8
0
  6
CONTINUOUS
 62
    5
 10
390.47428
 20
617.30953
 11
385.47531
 21
617.20926
  0
LINE
  8
0
  6
CONTINUOUS
 62
    5
 10
343.133
 20
608.92777
 11
347.05089
 21
613.05773
  0
LINE
  8
0
  6
CONTINUOUS
 62
    5
 10
385.47531
 20
617.20926
 11
385.53641
 21
614.16637
  0
LINE
  8
0
  6
CONTINUOUS
 62
    5
 10
387.90293
 20
496.27704
 11
387.96398
 21
493.2342
  0
LINE
  8
0
  6
CONTINUOUS
 62
    5
 10
330.17767
 20
606.57122
 11
330.23315
 21
603.80854
  0
LINE
  8
0
  6
CONTINUOUS
 62
    5
 10
296.72981
 20
598.70815
 11
325.23413
 21
598.70815
  0
LINE
  8
0
  6
CONTINUOUS
 62
    5
 10
390.47428
 20
617.30953
 11
392.80243
 21
501.33297
  0
LINE
  8
0
  6
CONTINUOUS
 62
    5
 10
252.22982
 20
267.84458
 11
252.22982
 21
554.20818
  0
LINE
  8
0
  6
CONTINUOUS
 62
    5
 10
341.2298
 20
267.84458
 11
341.2298
 21
490.80395
  0
LINE
  8
0
  6
CONTINUOUS
 62
    5
 10
341.2298
 20
267.84458
 11
252.22982
 21
267.84458
  0
LINE
  8
0
  6
CONTINUOUS
 62
    7
 10
296.72981
 20
608.44395
 11
296.72981
 21
659.82727
  0
LINE
  8
0
  6
CONTINUOUS
 62
    7
 10
391.72985
 20
569.43507
 11
391.72985
 21
659.82727
  0
LINE
  8
0
  6
CONTINUOUS
 62
    7
 10
339.72985
 20
557.43233
 11
339.72985
 21
659.82727
  0
LINE
  8
0
  6
CONTINUOUS
 62
    5
 10
337.39511
 20
496.15867
 11
335.13601
 21
608.69743
  0
LINE
  8
0
  6
CENTER2
 62
    5
 10
257.34745
 20
554.20818
 11
243.87964
 21
554.20818
  0
LINE
  8
0
  6
DASHED1
 62
    5
 10
257.22981
 20
267.84458
 11
257.22981
 21
305.68562
  0
LINE
  8
0
  6
DASHED1
 62
    5
 10
336.2298
 20
267.84458
 11
336.2298
 21
305.68562
  0
LINE
  8
0
  6
CONTINUOUS
 62
    7
 10
336.2298
 20
255.24166
 11
332.13194
 21
256.3397
  0
LINE
  8
0
  6
CONTINUOUS
 62
    7
 10
257.22981
 20
255.24166
 11
336.2298
 21
255.24166
  0
LINE
  8
0
  6
CONTINUOUS
 62
    7
 10
341.53281
 20
243.50815
 11
337.43498
 21
244.60621
  0
LINE
  8
0
  6
CONTINUOUS
 62
    7
 10
251.9268
 20
243.50815
 11
341.53281
 21
243.50815
  0
LINE
  8
0
  6
CENTER2
 62
    5
 10
557.30503
 20
630.44569
 11
557.30503
 21
267.84458
  0
LINE
  8
0
  6
CONTINUOUS
 62
    5
 10
512.80501
 20
507.17209
 11
512.80501
 21
267.84458
  0
LINE
  8
0
  6
CONTINUOUS
 62
    5
 10
601.80505
 20
507.17209
 11
601.80505
 21
267.84458
  0
LINE
  8
0
  6
CONTINUOUS
 62
    5
 10
512.80501
 20
267.84458
 11
601.80505
 21
267.84458
  0
LINE
  8
0
  6
CONTINUOUS
 62
    5
 10
385.53641
 20
614.16637
 11
387.90293
 21
496.27704
  0
LINE
  8
0
  6
CENTER2
 62
    5
 10
356.44808
 20
554.20818
 11
257.34745
 21
554.20818
  0
CIRCLE
  8
3
  6
CONTINUOUS
 62
    7
 10
618.69811
 20
136.80797
 40
5.1095567
  0
ARC
  8
3
  6
CONTINUOUS
 62
    7
 10
304.35898
 20
63.284485
 40
6.3636368
 50
360
 51
190.03448
  0
ARC
  8
3
  6
CONTINUOUS
 62
    7
 10
304.35898
 20
63.284485
 40
6.3636368
 50
259.96539
 51
300
  0
ARC
  8
3
  6
CONTINUOUS
 62
    7
 10
304.35898
 20
63.284485
 40
3.1818184
 50
249.60528
 51
200.39469
  0
ARC
  8
3
  6
CONTINUOUS
 62
    7
 10
281.60412
 20
63.284485
 40
3.1818184
 50
249.60528
 51
200.39469
  0
ARC
  8
3
  6
CONTINUOUS
 62
    7
 10
281.60412
 20
63.284485
 40
6.3636368
 50
259.96539
 51
190.03459
  0
ARC
  8
3
  6
CONTINUOUS
 62
    7
 10
266.80386
 20
63.284485
 40
3.1818184
 50
249.60528
 51
200.39469
  0
ARC
  8
3
  6
CONTINUOUS
 62
    7
 10
266.80386
 20
63.284485
 40
6.3636368
 50
259.96539
 51
119.96998
  0
ARC
  8
3
  6
CONTINUOUS
 62
    7
 10
251.06351
 20
62.971111
 40
2.8684575
 50
180
 51
196.09979
  0
ARC
  8
3
  6
CONTINUOUS
 62
    7
 10
251.06351
 20
62.971111
 40
6.0502761
 50
180
 51
187.55468
  0
ARC
  8
3
  6
CONTINUOUS
 62
    7
 10
251.06351
 20
62.971111
 40
2.8684575
 50
243.55239
 51
360
  0
ARC
  8
3
  6
CONTINUOUS
 62
    7
 10
251.06351
 20
62.971111
 40
6.0502761
 50
257.80989
 51
360
  0
CIRCLE
  8
0
  6
CONTINUOUS
 62
    5
 10
557.30503
 20
555.58496
 40
57.272738
  0
CIRCLE
  8
0
  6
CONTINUOUS
 62
    5
 10
557.30503
 20
555.58496
 40
65.757575
  0
CIRCLE
  8
0
  6
CONTINUOUS
 62
    5
 10
557.30503
 20
555.58496
 40
41.893937
  0
ARC
  8
0
  6
CONTINUOUS
 62
    5
 10
332.17727
 20
606.61132
 40
1.9999997
 50
91.649993
 51
181.14999
  0
ARC
  8
0
  6
CONTINUOUS
 62
    5
 10
346.22985
 20
490.80395
 40
4.9999998
 50
90.649993
 51
180
  0
ARC
  8
0
  6
CONTINUOUS
 62
    5
 10
296.72981
 20
554.20818
 40
44.499998
 50
90
 51
180
  0
ARC
  8
0
  6
CONTINUOUS
 62
    5
 10
325.23413
 20
603.70817
 40
4.9999998
 50
270
 51
1.1499939
  0
ARC
  8
0
  6
CONTINUOUS
 62
    5
 10
341.26321
 20
496.44454
 40
3.8142881
 50
184.2268
 51
274.77209
  0
TEXT
  8
3
 10
429.18862
 20
193.3802
 40
6
 41
1
 50
0
  1
ＭＡＴＥＲＩＡＬ
  0
TEXT
  8
3
 10
544.2928
 20
202.39931
 40
6
 41
1
 50
0
  1
個　　数
  0
TEXT
  8
3
 10
560.74849
 20
159.87115
 40
6
 41
1
 50
0
  1
ＲＥＭＡＲＫＳ
  0
TEXT
  8
3
 10
439.38851
 20
202.39931
 40
6
 41
1
 50
0
  1
材　　　　料
  0
TEXT
  8
3
 10
275.31084
 20
203.22614
 40
6
 41
1
 50
0
  1
部　　　　品　　　　名　　　　称
  0
TEXT
  8
3
 10
215.4117
 20
203.69364
 40
6
 41
1
 50
0
  1
品番
  0
TEXT
  8
3
 10
482.47973
 20
133.74565
 40
6
 41
1
 50
0
  1
納入先
  0
TEXT
  8
3
 10
435.49629
 20
142.3316
 40
6
 41
1
 50
0
  1
形　式
  0
TEXT
  8
3
 10
447.44323
 20
104.39781
 40
6
 41
1
 50
0
  1
図　名
  0
TEXT
  8
3
 10
490.05357
 20
71.217126
 40
6
 41
1
 50
0
  1
図　番
  0
TEXT
  8
3
 10
431.20916
 20
59.886239
 40
6
 41
1
 50
0
  1
ＤＷＧ．ＮＯ．
  0
TEXT
  8
3
 10
470.68386
 20
104.30528
 40
6
 41
1
 50
0
  1
ＴＩＴＬＥ
  0
TEXT
  8
3
 10
458.94882
 20
142.5549
 40
6
 41
1
 50
0
  1
ＴＹＰＥ
  0
TEXT
  8
3
 10
506.25851
 20
133.92175
 40
6
 41
1
 50
0
  1
ＣＵＳＴＯＭＥＲ
  0
TEXT
  8
3
 10
215.24784
 20
118.27877
 40
6
 41
1
 50
0
  1
承　　　　認
  0
TEXT
  8
3
 10
321.56361
 20
118.53106
 40
6
 41
1
 50
0
  1
検　　　　図
  0
TEXT
  8
3
 10
372.69515
 20
122.51246
 40
6
 41
1
 50
0
  1
担　当
  0
TEXT
  8
3
 10
403.1993
 20
125.87294
 40
6
 41
1
 50
0
  1
製　図
  0
TEXT
  8
3
 10
223.15259
 20
140.15921
 40
6
 41
1
 50
0
  1
第　　三　　角　　法
  0
TEXT
  8
3
 10
305.56221
 20
145.74605
 40
6
 41
1
 50
0
  1
日　　付
  0
TEXT
  8
3
 10
372.47336
 20
140.8174
 40
6
 41
1
 50
0
  1
尺　度
  0
TEXT
  8
3
 10
213.52991
 20
107.19121
 40
6
 41
1
 50
0
  1
ＡＰＰＲＯＶＥＤ　ＢＹ
  0
TEXT
  8
3
 10
364.58239
 20
112.81734
 40
6
 41
1
 50
0
  1
ＤＥＳＩＧＮＥＤ
  0
TEXT
  8
3
 10
305.67914
 20
108.83762
 40
6
 41
1
 50
0
  1
ＣＨＥＣＫＥＤ　ＢＹ
  0
TEXT
  8
3
 10
394.66377
 20
100.29367
 40
6
 41
1
 50
0
  1
ＤＲＡＷＮ
  0
TEXT
  8
3
 10
404.99885
 20
89.22872
 40
6
 41
1
 50
0
  1
ＢＹ
  0
TEXT
  8
3
 10
373.22858
 20
103.27991
 40
6
 41
1
 50
0
  1
ＢＹ
  0
TEXT
  8
3
 10
233.19829
 20
127.43427
 40
6
 41
1
 50
0
  1
ＴＨＩＲＤ　ＡＮＧＬＥ　ＰＲＯＪＥＣＴＩＯＮ
  0
TEXT
  8
3
 10
337.0922
 20
144.60415
 40
6
 41
1
 50
0
  1
ＤＡＴＥ
  0
TEXT
  8
3
 10
366.79256
 20
134.24924
 40
6
 41
1
 50
0
  1
ＳＣＡＬＥ
  0
TEXT
  8
3
 10
333.51006
 20
135.33455
 40
6
 41
1
 50
0
  1
．
  0
TEXT
  8
3
 10
320.78281
 20
135.33455
 40
6
 41
1
 50
0
  1
．
  0
TEXT
  8
3
 10
285.2364
 20
192.61824
 40
6
 41
1
 50
0
  1
ＮＡＭＥ　ＯＦ　ＰＡＲＴＳ
  0
TEXT
  8
3
 10
211.76152
 20
196.26757
 40
6
 41
1
 50
0
  1
ＰＡＲＴＳ
  0
TEXT
  8
3
 10
214.9433
 20
188.84334
 40
6
 41
1
 50
0
  1
ＮＯ．
  0
TEXT
  8
3
 10
538.89819
 20
190.84878
 40
6
 41
1
 50
0
  1
ＮＯ．ＲＥＱＤ
  0
TEXT
  8
3
 10
434.79745
 20
164.49576
 40
6
 41
1
 50
0
  1
製　番
  0
TEXT
  8
3
 10
456.892
 20
163.86149
 40
6
 41
1
 50
0
  1
ＯＲＤＥＲ　ＮＯ．
  0
TEXT
  8
3
 10
235.69221
 20
159.72429
 40
6
 41
1
 50
0
  1
客先図番
  0
TEXT
  8
3
 10
260.31669
 20
159.72254
 40
6
 41
1
 50
0
  1
ＲＥＦ．　ＤＷＧ．　ＮＯ．
  0
TEXT
  8
3
 10
615.68477
 20
134.06955
 40
6
 41
1
 50
0
  1
恩
  0
TEXT
  8
3
 10
604.50112
 20
124.31933
 40
6
 41
1
 50
0
  1
素形材技術部
  0
TEXT
  8
3
 10
302.35297
 20
45.722347
 40
6
 41
1
 50
0
  1
２
  0
TEXT
  8
3
 10
489.01968
 20
45.722347
 40
6
 41
1
 50
0
  1
１
  0
TEXT
  8
3
 10
526.87901
 20
39.990812
 40
6
 41
1
 50
0
  1
４０２－３－０１０
  0
TEXT
  8
3
 10
319.3506
 20
66.010655
 40
6
 41
1
 50
0
  1
　　　　　　　　　　　ｏ
  0
TEXT
  8
3
 10
319.88093
 20
66.010655
 40
6
 41
1
 50
0
  1
　　　　　　　　　　ｐ
  0
TEXT
  8
3
 10
320.41121
 20
66.010655
 40
6
 41
1
 50
0
  1
　　　　　　　　　ｒ
  0
TEXT
  8
3
 10
320.94154
 20
66.010655
 40
6
 41
1
 50
0
  1
　　　　　　　　ｏ
  0
TEXT
  8
3
 10
321.47182
 20
66.010655
 40
6
 41
1
 50
0
  1
　　　　　　　Ｃ
  0
TEXT
  8
3
 10
321.47182
 20
66.010655
 40
6
 41
1
 50
0
  1
ＫＵＢＯＴＡ　
  0
TEXT
  8
3
 10
612.72871
 20
143.96727
 40
6
 41
1
 50
0
  1
所　属
  0
TEXT
  8
2
 10
400.44433
 20
144.51344
 40
6
 41
1
 50
0
  1
1
  0
TEXT
  8
2
 10
376.50369
 20
90.711215
 40
6
 41
1
 50
0
  1
八木
  0
TEXT
  8
2
 10
478.57706
 20
59.128128
 40
6
 41
1
 50
0
  1
ＰＬ－９９００９
  0
TEXT
  8
2
 10
457.51971
 20
88.066573
 40
7.5
 41
1
 50
0
  1
Ｐ型便器接続用　立ち下がりエルボ（Ｐ管）
  0
TEXT
  8
2
 10
575.90746
 20
62.726246
 40
6
 41
1
 50
0
  1
１
  0
TEXT
  8
0
 10
223.29099
 20
404.96581
 40
7.5
 41
1
 50
90
  1
270
  0
TEXT
  8
0
 10
223.29099
 20
569.56426
 40
7.5
 41
1
 50
90
  1
44.5
  0
TEXT
  8
0
 10
435.45185
 20
564.40287
 40
7.5
 41
1
 50
271.15002
  1
φ124
  0
TEXT
  8
0
 10
239.24443
 20
473.58323
 40
7.5
 41
1
 50
90
  1
150
  0
TEXT
  8
0
 10
288.34105
 20
244.10331
 40
7.5
 41
1
 50
0
  1
φ89
  0
TEXT
  8
0
 10
278.2542
 20
255.75918
 40
7.5
 41
1
 50
0
  1
φ79（内径）
  0
TEXT
  8
0
 10
312.82162
 20
652.15679
 40
7.5
 41
1
 50
0
  1
43
  0
TEXT
  8
0
 10
360.89085
 20
652.15679
 40
7.5
 41
1
 50
0
  1
52
  0
TEXT
  8
0
 10
357.82263
 20
667.49801
 40
7.5
 41
1
 50
0
  1
受け口深さ
  0
TEXT
  8
0
 10
482.26236
 20
647.166
 40
7.5
 41
1
 50
0
  1
Ｐ型便器接続用　立ち下がりエルボ（Ｐ管）
  0
TEXT
  8
3
 10
317.22945
 20
66.010655
 40
6
 41
1
 50
0
  1
　　　　　　　　　　　　　　　ｉ
  0
TEXT
  8
3
 10
317.75971
 20
66.010655
 40
6
 41
1
 50
0
  1
　　　　　　　　　　　　　　ｔ
  0
TEXT
  8
3
 10
318.29006
 20
66.010655
 40
6
 41
1
 50
0
  1
　　　　　　　　　　　　　ａ
  0
TEXT
  8
3
 10
318.82032
 20
66.010655
 40
6
 41
1
 50
0
  1
　　　　　　　　　　　　ｒ
  0
TEXT
  8
2
 10
305.46788
 20
135.63672
 40
6
 41
1
 50
0
  1
２０００　０１３１
  0
TEXT
  8
0
 10
626.10812
 20
516.02318
 40
7.5
 41
1
 50
0
  1
７５Ａ受け口
  0
TEXT
  8
0
 10
624.38805
 20
500.54248
 40
7.5
 41
1
 50
0
  1
ワンタッチゴム装着済
  0
TEXT
  8
0
 10
516.02318
 20
103.20463
 40
7.5
 41
1
 50
0
  1
アイボリー色
  0
TEXT
  8
0
 10
185.09301
 20
613.13248
 40
7.5
 41
1
 50
0
  1
切り管最小寸法
  0
TEXT
  8
2
 10
400.44433
 20
136.02859
 40
6
 41
1
 50
0
  1
3
  0
ENDSEC
  0
EOF
