  0
SECTION
  2
HEADER
  9
$ACADVER
  1
AC1009
  9
$INSBASE
 10
0.0
 20
0.0
 30
0.0
  9
$EXTMIN
 10
-91.0
 20
-338.0
 30
0.0
  9
$EXTMAX
 10
329.54998149518372
 20
91.274664429216486
 30
0.0
  9
$LIMMIN
 10
0.0
 20
0.0
  9
$LIMMAX
 10
210.0
 20
297.0
  9
$ORTHOMODE
 70
     0
  9
$REGENMODE
 70
     1
  9
$FILLMODE
 70
     1
  9
$QTEXTMODE
 70
     0
  9
$MIRRTEXT
 70
     0
  9
$DRAGMODE
 70
     2
  9
$LTSCALE
 40
1.0
  9
$OSMODE
 70
   125
  9
$ATTMODE
 70
     1
  9
$TEXTSIZE
 40
4.0
  9
$TRACEWID
 40
0.05
  9
$TEXTSTYLE
  7
STANDARD
  9
$CLAYER
  8
OBJECT
  9
$CELTYPE
  6
BYLAYER
  9
$CECOLOR
 62
   256
  9
$DIMSCALE
 40
10.0
  9
$DIMASZ
 40
2.0
  9
$DIMEXO
 40
1.0
  9
$DIMDLI
 40
10.0
  9
$DIMRND
 40
0.0
  9
$DIMDLE
 40
0.0
  9
$DIMEXE
 40
1.0
  9
$DIMTP
 40
0.0
  9
$DIMTM
 40
0.0
  9
$DIMTXT
 40
3.2000000000000002
  9
$DIMCEN
 40
0.0
  9
$DIMTSZ
 40
0.0
  9
$DIMTOL
 70
     0
  9
$DIMLIM
 70
     0
  9
$DIMTIH
 70
     0
  9
$DIMTOH
 70
     0
  9
$DIMSE1
 70
     0
  9
$DIMSE2
 70
     0
  9
$DIMTAD
 70
     1
  9
$DIMZIN
 70
     8
  9
$DIMBLK
  1
OPEN30
  9
$DIMASO
 70
     1
  9
$DIMSHO
 70
     1
  9
$DIMPOST
  1

  9
$DIMAPOST
  1

  9
$DIMALT
 70
     0
  9
$DIMALTD
 70
     2
  9
$DIMALTF
 40
25.399999999999999
  9
$DIMLFAC
 40
1.0
  9
$DIMTOFL
 70
     1
  9
$DIMTVP
 40
0.0
  9
$DIMTIX
 70
     0
  9
$DIMSOXD
 70
     0
  9
$DIMSAH
 70
     0
  9
$DIMBLK1
  1

  9
$DIMBLK2
  1

  9
$DIMSTYLE
  2
S10
  9
$DIMCLRD
 70
   256
  9
$DIMCLRE
 70
   256
  9
$DIMCLRT
 70
   256
  9
$DIMTFAC
 40
1.0
  9
$DIMGAP
 40
0.9
  9
$LUNITS
 70
     2
  9
$LUPREC
 70
     2
  9
$SKETCHINC
 40
0.1
  9
$FILLETRAD
 40
0.0
  9
$AUNITS
 70
     0
  9
$AUPREC
 70
     2
  9
$MENU
  1
ACAD
  9
$ELEVATION
 40
0.0
  9
$PELEVATION
 40
0.0
  9
$THICKNESS
 40
0.0
  9
$LIMCHECK
 70
     0
  9
$BLIPMODE
 70
     0
  9
$CHAMFERA
 40
2.0
  9
$CHAMFERB
 40
2.0
  9
$SKPOLY
 70
     0
  9
$TDCREATE
 40
2453095.4929404748
  9
$TDUPDATE
 40
2456727.72050096
  9
$TDINDWG
 40
18.453394143499999
  9
$TDUSRTIMER
 40
18.453393414400001
  9
$USRTIMER
 70
     1
  9
$ANGBASE
 50
0.0
  9
$ANGDIR
 70
     0
  9
$PDMODE
 70
    35
  9
$PDSIZE
 40
2.0
  9
$PLINEWID
 40
0.0
  9
$COORDS
 70
     1
  9
$SPLFRAME
 70
     0
  9
$SPLINETYPE
 70
     6
  9
$SPLINESEGS
 70
     8
  9
$ATTDIA
 70
     1
  9
$ATTREQ
 70
     1
  9
$HANDLING
 70
     1
  9
$HANDSEED
  5
124318
  9
$SURFTAB1
 70
     6
  9
$SURFTAB2
 70
     6
  9
$SURFTYPE
 70
     6
  9
$SURFU
 70
     6
  9
$SURFV
 70
     6
  9
$UCSNAME
  2

  9
$UCSORG
 10
0.0
 20
0.0
 30
0.0
  9
$UCSXDIR
 10
1.0
 20
0.0
 30
0.0
  9
$UCSYDIR
 10
0.0
 20
1.0
 30
0.0
  9
$PUCSNAME
  2

  9
$PUCSORG
 10
0.0
 20
0.0
 30
0.0
  9
$PUCSXDIR
 10
1.0
 20
0.0
 30
0.0
  9
$PUCSYDIR
 10
0.0
 20
1.0
 30
0.0
  9
$USERI1
 70
     0
  9
$USERI2
 70
     0
  9
$USERI3
 70
     0
  9
$USERI4
 70
     0
  9
$USERI5
 70
     0
  9
$USERR1
 40
0.0
  9
$USERR2
 40
0.0
  9
$USERR3
 40
0.0
  9
$USERR4
 40
0.0
  9
$USERR5
 40
0.0
  9
$WORLDVIEW
 70
     1
  9
$SHADEDGE
 70
     3
  9
$SHADEDIF
 70
    70
  9
$TILEMODE
 70
     1
  9
$MAXACTVP
 70
    64
  9
$PLIMCHECK
 70
     0
  9
$PEXTMIN
 10
29.066066288948051
 20
20.366566777229309
 30
0.0
  9
$PEXTMAX
 10
261.5945966005325
 20
183.29910099506381
 30
0.0
  9
$PLIMMIN
 10
-3.17498779296875
 20
-3.1749999523162842
  9
$PLIMMAX
 10
293.83566284179687
 20
206.8406708240509
  9
$UNITMODE
 70
     0
  9
$VISRETAIN
 70
     1
  9
$PLINEGEN
 70
     0
  9
$PSLTSCALE
 70
     1
  0
ENDSEC
  0
SECTION
  2
TABLES
  0
TABLE
  2
VPORT
 70
     1
  0
VPORT
  2
*ACTIVE
 70
     0
 10
0.0
 20
0.0
 11
1.0
 21
1.0
 12
145.37425032231329
 22
-49.789203596688822
 13
0.0
 23
0.0
 14
1.0
 24
1.0
 15
0.0
 25
0.0
 16
0.0
 26
0.0
 36
1.0
 17
0.0
 27
0.0
 37
0.0
 40
774.11575511177637
 41
1.628705148205928
 42
50.0
 43
0.0
 44
0.0
 50
0.0
 51
0.0
 71
     0
 72
   600
 73
     1
 74
     1
 75
     0
 76
     0
 77
     0
 78
     0
  0
ENDTAB
  0
TABLE
  2
LTYPE
 70
     3
  0
LTYPE
  2
CONTINUOUS
 70
     0
  3
Solid line
 72
    65
 73
     0
 40
0.0
  0
LTYPE
  2
ACAD_ISO08W100
 70
     0
  3
ISO long-dash short-dash ____ __ ____ __ ____ _
 72
    65
 73
     4
 40
36.0
 49
24.0
 49
-3.0
 49
6.0
 49
-3.0
  0
LTYPE
  2
ACAD_ISO02W100
 70
     0
  3
ISO dash __ __ __ __ __ __ __ __ __ __ __ __ __
 72
    65
 73
     2
 40
15.0
 49
12.0
 49
-3.0
  0
ENDTAB
  0
TABLE
  2
LAYER
 70
     7
  0
LAYER
  2
0
 70
     0
 62
     7
  6
CONTINUOUS
  0
LAYER
  2
OBJECT
 70
     0
 62
     4
  6
CONTINUOUS
  0
LAYER
  2
DEFPOINTS
 70
     0
 62
     7
  6
CONTINUOUS
  0
LAYER
  2
HIDDEN
 70
     0
 62
     2
  6
ACAD_ISO02W100
  0
LAYER
  2
CENTER
 70
     0
 62
     2
  6
ACAD_ISO08W100
  0
LAYER
  2
DOTS
 70
     0
 62
     1
  6
CONTINUOUS
  0
LAYER
  2
SLIM
 70
     0
 62
     2
  6
CONTINUOUS
  0
ENDTAB
  0
TABLE
  2
STYLE
 70
     2
  0
STYLE
  2
STANDARD
 70
     0
 40
0.0
 41
0.75
 50
0.0
 71
     0
 42
4.0
  3
simplex.shx
  4
bigfont.shx
  0
ENDTAB
  0
TABLE
  2
VIEW
 70
     0
  0
ENDTAB
  0
TABLE
  2
UCS
 70
     0
  0
ENDTAB
  0
TABLE
  2
APPID
 70
    18
  0
APPID
  2
ACAD
 70
     0
  0
APPID
  2
ACADANNOTATIVE
 70
     0
  0
APPID
  2
ACAD_PSEXT
 70
     0
  0
APPID
  2
ACAD_EXEMPT_FROM_CAD_STANDARDS
 70
     0
  0
APPID
  2
ACAECLAYERSTANDARD
 70
     0
  0
APPID
  2
ACAUTHENVIRON
 70
     0
  0
APPID
  2
ACDBDYNAMICBLOCKTRUENAME
 70
     0
  0
APPID
  2
ACDBDYNAMICBLOCKGUID
 70
     0
  0
APPID
  2
ACDBBLOCKREPETAG
 70
     0
  0
APPID
  2
ACDBBLOCKREPBTAG
 70
     0
  0
APPID
  2
ACAD_NAV_VCDISPLAY
 70
     0
  0
APPID
  2
ACAD_DSTYLE_DIMRADIAL_EXTENSION
 70
     0
  0
APPID
  2
ACAD_DSTYLE_DIMJAG
 70
     0
  0
APPID
  2
ACAD_DSTYLE_DIMTALN
 70
     0
  0
APPID
  2
ACADANNOPO
 70
     0
  0
APPID
  2
GRADIENTCOLOR1ACI
 70
     0
  0
APPID
  2
GRADIENTCOLOR2ACI
 70
     0
  0
APPID
  2
ACAD_MLEADERVER
 70
     0
  0
ENDTAB
  0
TABLE
  2
DIMSTYLE
 70
     3
  0
DIMSTYLE
  2
STANDARD
 70
     0
  3

  4

  5

  6

  7

 40
1.0
 41
0.18
 42
0.0625
 43
0.38
 44
0.18
 45
0.0
 46
0.0
 47
0.0
 48
0.0
140
0.18
141
0.09
142
0.0
143
25.399999999999999
144
1.0
145
0.0
146
1.0
147
0.09
 71
     0
 72
     0
 73
     1
 74
     1
 75
     0
 76
     0
 77
     0
 78
     0
170
     0
171
     2
172
     0
173
     0
174
     0
175
     0
176
     0
177
     0
178
     0
  0
DIMSTYLE
  2
S10
 70
     0
  3

  4

  5

  6

  7

 40
10.0
 41
2.0
 42
1.0
 43
10.0
 44
1.0
 45
0.0
 46
0.0
 47
0.0
 48
0.0
140
3.2000000000000002
141
0.0
142
0.0
143
25.399999999999999
144
1.0
145
0.0
146
1.0
147
0.9
 71
     0
 72
     0
 73
     0
 74
     0
 75
     0
 76
     0
 77
     1
 78
     8
170
     0
171
     2
172
     1
173
     0
174
     0
175
     0
176
   256
177
   256
178
   256
  0
ENDTAB
  0
ENDSEC
  0
SECTION
  2
BLOCKS
  0
BLOCK
  8
0
  2
$MODEL_SPACE
 70
     0
 10
0.0
 20
0.0
 30
0.0
  3
$MODEL_SPACE
  1

  0
ENDBLK
  5
1241B1
  8
0
  0
BLOCK
 67
     1
  8
0
  2
$PAPER_SPACE
 70
     0
 10
0.0
 20
0.0
 30
0.0
  3
$PAPER_SPACE
  1

  0
ENDBLK
  5
1241AD
 67
     1
  8
0
  0
BLOCK
  8
0
  2
_OPEN30
 70
     0
 10
0.0
 20
0.0
 30
0.0
  3
_OPEN30
  1

  0
LINE
  5
202
  8
0
  6
BYBLOCK
 62
     0
 10
-1.0
 20
0.26794919
 30
0.0
 11
0.0
 21
0.0
 31
0.0
  0
LINE
  5
203
  8
0
  6
BYBLOCK
 62
     0
 10
0.0
 20
0.0
 30
0.0
 11
-1.0
 21
-0.26794919
 31
0.0
  0
LINE
  5
204
  8
0
  6
BYBLOCK
 62
     0
 10
0.0
 20
0.0
 30
0.0
 11
-1.0
 21
0.0
 31
0.0
  0
ENDBLK
  5
206
  8
0
  0
ENDSEC
  0
SECTION
  2
ENTITIES
  0
LINE
  5
1232E6
  8
OBJECT
 10
90.0
 20
-280.0
 30
0.0
 11
-76.0
 21
-280.0
 31
0.0
1001
ACDBBLOCKREPETAG
1070
     1
1071
       12
1005
1232E6
  0
LINE
  5
1232E8
  8
OBJECT
 10
90.0
 20
-295.00000000000358
 30
0.0
 11
90.0
 21
-280.0
 31
0.0
1001
ACDBBLOCKREPETAG
1070
     1
1071
       14
1005
1232E8
  0
LINE
  5
1232E9
  8
OBJECT
 10
-76.0
 20
-295.00000000000358
 30
0.0
 11
90.0
 21
-295.00000000000358
 31
0.0
1001
ACDBBLOCKREPETAG
1070
     1
1071
       15
1005
1232E9
  0
LINE
  5
1232EA
  8
OBJECT
 10
67.499999999985462
 20
-295.00000000000358
 30
0.0
 11
67.499999999985462
 21
-302.00000000000358
 31
0.0
1001
ACDBBLOCKREPETAG
1070
     1
1071
       16
1005
1232EA
  0
LINE
  5
1232EB
  8
OBJECT
 10
-76.0
 20
-302.00000000000358
 30
0.0
 11
-76.0
 21
-316.0
 31
0.0
1001
ACDBBLOCKREPETAG
1070
     1
1071
       17
1005
1232EB
  0
LINE
  5
1232EC
  8
OBJECT
 10
90.0
 20
-302.00000000000358
 30
0.0
 11
90.0
 21
-316.0
 31
0.0
1001
ACDBBLOCKREPETAG
1070
     1
1071
       18
1005
1232EC
  0
LINE
  5
1232ED
  8
OBJECT
 10
-76.0
 20
-316.0
 30
0.0
 11
90.0
 21
-316.0
 31
0.0
1001
ACDBBLOCKREPETAG
1070
     1
1071
       19
1005
1232ED
  0
LINE
  5
1232EE
  8
OBJECT
 10
-76.0
 20
-302.00000000000358
 30
0.0
 11
90.0
 21
-302.00000000000358
 31
0.0
1001
ACDBBLOCKREPETAG
1070
     1
1071
       20
1005
1232EE
  0
LINE
  5
1232EF
  8
OBJECT
 10
-67.500000000014523
 20
-295.00000000000358
 30
0.0
 11
-67.500000000014523
 21
-302.00000000000358
 31
0.0
1001
ACDBBLOCKREPETAG
1070
     1
1071
       21
1005
1232EF
  0
LINE
  5
1232F0
  8
OBJECT
 10
-76.0
 20
-295.00000000000358
 30
0.0
 11
-76.0
 21
-280.0
 31
0.0
1001
ACDBBLOCKREPETAG
1070
     1
1071
       22
1005
1232F0
  0
LINE
  5
1232F1
  8
HIDDEN
 10
-57.0
 20
-250.00000000000361
 30
0.0
 11
57.0
 21
-250.00000000000361
 31
0.0
1001
ACDBBLOCKREPETAG
1070
     1
1071
       23
1005
1232F1
  0
LINE
  5
1232FB
  8
OBJECT
 10
-65.0
 20
-220.0000000000073
 30
0.0
 11
-65.0
 21
-280.0
 31
0.0
1001
ACDBBLOCKREPETAG
1070
     1
1071
       33
1005
1232FB
  0
LINE
  5
1232FC
  8
OBJECT
 10
65.0
 20
-220.0000000000073
 30
0.0
 11
65.0
 21
-280.0
 31
0.0
1001
ACDBBLOCKREPETAG
1070
     1
1071
       34
1005
1232FC
  0
LINE
  5
1232FD
  8
OBJECT
 10
82.999999999992724
 20
-302.0
 30
0.0
 11
82.999999999992724
 21
-295.0
 31
0.0
1001
ACDBBLOCKREPETAG
1070
     1
1071
       35
1005
1232FD
  0
LINE
  5
1232FE
  8
OBJECT
 10
72.999999999992724
 20
-302.0
 30
0.0
 11
72.999999999992724
 21
-295.0
 31
0.0
1001
ACDBBLOCKREPETAG
1070
     1
1071
       36
1005
1232FE
  0
LINE
  5
12330C
  8
OBJECT
 10
-34.0
 20
-302.0
 30
0.0
 11
-34.0
 21
-295.0
 31
0.0
1001
ACDBBLOCKREPETAG
1070
     1
1071
       50
1005
12330C
  0
LINE
  5
12330D
  8
OBJECT
 10
-44.0
 20
-302.0
 30
0.0
 11
-44.0
 21
-295.0
 31
0.0
1001
ACDBBLOCKREPETAG
1070
     1
1071
       51
1005
12330D
  0
LINE
  5
123311
  8
OBJECT
 10
-48.814964008706717
 20
-323.0
 30
0.0
 11
-29.185008447202559
 21
-323.0
 31
0.0
1001
ACDBBLOCKREPETAG
1070
     1
1071
       55
1005
123311
  0
LINE
  5
123314
  8
OBJECT
 10
-48.814964008706717
 20
-316.0
 30
0.0
 11
-48.814964008706717
 21
-323.0
 31
0.0
1001
ACDBBLOCKREPETAG
1070
     1
1071
       58
1005
123314
  0
LINE
  5
123315
  8
OBJECT
 10
-43.90749864080135
 20
-316.0
 30
0.0
 11
-43.90749864080135
 21
-323.0
 31
0.0
1001
ACDBBLOCKREPETAG
1070
     1
1071
       59
1005
123315
  0
LINE
  5
123316
  8
OBJECT
 10
-34.092567904976022
 20
-316.0
 30
0.0
 11
-34.092567904976022
 21
-323.0
 31
0.0
1001
ACDBBLOCKREPETAG
1070
     1
1071
       60
1005
123316
  0
LINE
  5
123317
  8
OBJECT
 10
-29.185008447202559
 20
-316.0
 30
0.0
 11
-29.185008447202559
 21
-323.0
 31
0.0
1001
ACDBBLOCKREPETAG
1070
     1
1071
       61
1005
123317
  0
LINE
  5
12332F
  8
CENTER
 10
-91.0
 20
0.0
 30
0.0
 11
105.0
 21
0.0
 31
0.0
1001
ACDBBLOCKREPETAG
1070
     1
1071
        0
1005
12332F
  0
LINE
  5
123330
  8
CENTER
 10
0.0
 20
91.274664429216486
 30
0.0
 11
0.0
 21
-91.274664429216486
 31
0.0
1001
ACDBBLOCKREPETAG
1070
     1
1071
        1
1005
123330
  0
CIRCLE
  5
123331
  8
OBJECT
 10
0.0
 20
0.0
 30
0.0
 40
58.5
1001
ACDBBLOCKREPETAG
1070
     1
1071
        2
1005
123331
  0
CIRCLE
  5
123332
  8
OBJECT
 10
0.0
 20
0.0
 30
0.0
 40
62.0
1001
ACDBBLOCKREPETAG
1070
     1
1071
        3
1005
123332
  0
CIRCLE
  5
123333
  8
SLIM
 10
78.0
 20
0.0
 30
0.0
 40
5.0
1001
ACDBBLOCKREPETAG
1070
     1
1071
        4
1005
123333
  0
CIRCLE
  5
123335
  8
SLIM
 10
-39.0
 20
67.549981495187239
 30
0.0
 40
4.9999999999999991
1001
ACDBBLOCKREPETAG
1070
     1
1071
        6
1005
123335
  0
CIRCLE
  5
123337
  8
SLIM
 10
-39.0
 20
-67.549981495187239
 30
0.0
 40
5.0
1001
ACDBBLOCKREPETAG
1070
     1
1071
        8
1005
123337
  0
ARC
  5
123339
  8
OBJECT
 10
0.0
 20
0.0
 30
0.0
 40
76.0
 50
34.863837954145609
 51
85.136162045733286
1001
ACDBBLOCKREPETAG
1070
     1
1071
       30
1005
123339
  0
ARC
  5
12333A
  8
OBJECT
 10
0.0
 20
0.0
 30
0.0
 40
76.0
 50
154.86383795429779
 51
205.13616204570209
1001
ACDBBLOCKREPETAG
1070
     1
1071
       31
1005
12333A
  0
ARC
  5
12333B
  8
OBJECT
 10
0.0
 20
0.0
 30
0.0
 40
76.0
 50
274.86383795426673
 51
325.13616204585441
1001
ACDBBLOCKREPETAG
1070
     1
1071
       32
1005
12333B
  0
ARC
  5
12333C
  8
OBJECT
 10
78.0
 20
0.0
 30
0.0
 40
12.0
 50
325.13616204585441
 51
34.863837954145609
1001
ACDBBLOCKREPETAG
1070
     1
1071
       33
1005
12333C
  0
LINE
  5
12333D
  8
OBJECT
 10
87.846153846166985
 20
6.8595374798624089
 30
0.0
 11
62.358974359049171
 21
43.443737372461321
 31
0.0
1001
ACDBBLOCKREPETAG
1070
     1
1071
       34
1005
12333D
  0
LINE
  5
12333E
  8
OBJECT
 10
87.846153846170623
 20
-6.8595374798605899
 30
0.0
 11
62.358974359049171
 21
-43.443737372463133
 31
0.0
1001
ACDBBLOCKREPETAG
1070
     1
1071
       35
1005
12333E
  0
ARC
  5
12333F
  8
OBJECT
 10
-39.0
 20
67.54998149518542
 30
0.0
 40
12.0
 50
85.136162045935933
 51
154.8638379541114
1001
ACDBBLOCKREPETAG
1070
     1
1071
       36
1005
12333F
  0
LINE
  5
123340
  8
OBJECT
 10
-49.863610638854887
 20
72.64723211560522
 30
0.0
 11
-68.802867379414238
 21
32.282587262649031
 31
0.0
1001
ACDBBLOCKREPETAG
1070
     1
1071
       37
1005
123340
  0
LINE
  5
123341
  8
OBJECT
 10
-37.982543207315757
 20
79.50676959546945
 30
0.0
 11
6.443893020368705
 21
75.726324635110373
 31
0.0
1001
ACDBBLOCKREPETAG
1070
     1
1071
       38
1005
123341
  0
ARC
  5
123342
  8
OBJECT
 10
-39.0
 20
-67.54998149518542
 30
0.0
 40
12.0
 50
205.1361620458886
 51
274.86383795406402
1001
ACDBBLOCKREPETAG
1070
     1
1071
       39
1005
123342
  0
LINE
  5
123343
  8
OBJECT
 10
-37.982543207312119
 20
-79.506769595467631
 30
0.0
 11
6.4438930203650671
 21
-75.726324635110373
 31
0.0
1001
ACDBBLOCKREPETAG
1070
     1
1071
       40
1005
123343
  0
LINE
  5
123344
  8
OBJECT
 10
-49.863610638854887
 20
-72.647232115608858
 30
0.0
 11
-68.80286737941789
 21
-32.282587262647212
 31
0.0
1001
ACDBBLOCKREPETAG
1070
     1
1071
       41
1005
123344
  0
LINE
  5
123345
  8
CENTER
 10
0.0
 20
-163.00000000000719
 30
0.0
 11
0.0
 21
-331.0
 31
0.0
1001
ACDBBLOCKREPETAG
1070
     1
1071
        1
1005
123330
  0
LINE
  5
12334E
  8
OBJECT
 10
90.0
 20
-220.0000000000073
 30
0.0
 11
-76.0
 21
-220.0000000000073
 31
0.0
1001
ACDBBLOCKREPETAG
1070
     1
1071
       12
1005
1232E6
  0
LINE
  5
12334F
  8
OBJECT
 10
90.0
 20
-205.00000000000361
 30
0.0
 11
90.0
 21
-220.0000000000073
 31
0.0
1001
ACDBBLOCKREPETAG
1070
     1
1071
       14
1005
1232E8
  0
LINE
  5
123350
  8
OBJECT
 10
-76.0
 20
-205.00000000000361
 30
0.0
 11
90.0
 21
-205.00000000000361
 31
0.0
1001
ACDBBLOCKREPETAG
1070
     1
1071
       15
1005
1232E9
  0
LINE
  5
123351
  8
OBJECT
 10
67.499999999985462
 20
-205.00000000000361
 30
0.0
 11
67.499999999985462
 21
-198.00000000000361
 31
0.0
1001
ACDBBLOCKREPETAG
1070
     1
1071
       16
1005
1232EA
  0
LINE
  5
123352
  8
OBJECT
 10
-76.0
 20
-198.00000000000361
 30
0.0
 11
-76.0
 21
-184.00000000000711
 31
0.0
1001
ACDBBLOCKREPETAG
1070
     1
1071
       17
1005
1232EB
  0
LINE
  5
123353
  8
OBJECT
 10
90.0
 20
-198.00000000000361
 30
0.0
 11
90.0
 21
-184.00000000000711
 31
0.0
1001
ACDBBLOCKREPETAG
1070
     1
1071
       18
1005
1232EC
  0
LINE
  5
123354
  8
OBJECT
 10
-76.0
 20
-184.00000000000711
 30
0.0
 11
90.0
 21
-184.00000000000711
 31
0.0
1001
ACDBBLOCKREPETAG
1070
     1
1071
       19
1005
1232ED
  0
LINE
  5
123355
  8
OBJECT
 10
-76.0
 20
-198.00000000000361
 30
0.0
 11
90.0
 21
-198.00000000000361
 31
0.0
1001
ACDBBLOCKREPETAG
1070
     1
1071
       20
1005
1232EE
  0
LINE
  5
123356
  8
OBJECT
 10
-67.500000000014523
 20
-205.00000000000361
 30
0.0
 11
-67.500000000014523
 21
-198.00000000000361
 31
0.0
1001
ACDBBLOCKREPETAG
1070
     1
1071
       21
1005
1232EF
  0
LINE
  5
123357
  8
OBJECT
 10
-76.0
 20
-205.00000000000361
 30
0.0
 11
-76.0
 21
-220.0000000000073
 31
0.0
1001
ACDBBLOCKREPETAG
1070
     1
1071
       22
1005
1232F0
  0
LINE
  5
123358
  8
OBJECT
 10
82.999999999992724
 20
-198.0000000000073
 30
0.0
 11
82.999999999992724
 21
-205.00000000000369
 31
0.0
1001
ACDBBLOCKREPETAG
1070
     1
1071
       35
1005
1232FD
  0
LINE
  5
123359
  8
OBJECT
 10
72.999999999992724
 20
-198.0000000000073
 30
0.0
 11
72.99999999999261
 21
-205.00000000000369
 31
0.0
1001
ACDBBLOCKREPETAG
1070
     1
1071
       36
1005
1232FE
  0
LINE
  5
123362
  8
OBJECT
 10
-34.0
 20
-198.0000000000073
 30
0.0
 11
-34.0
 21
-205.00000000000369
 31
0.0
1001
ACDBBLOCKREPETAG
1070
     1
1071
       50
1005
12330C
  0
LINE
  5
123363
  8
OBJECT
 10
-44.0
 20
-198.0000000000073
 30
0.0
 11
-44.000000000000107
 21
-205.00000000000369
 31
0.0
1001
ACDBBLOCKREPETAG
1070
     1
1071
       51
1005
12330D
  0
LINE
  5
123364
  8
OBJECT
 10
-44.0
 20
-174.20000000000721
 30
0.0
 11
-44.0
 21
-166.00000000000719
 31
0.0
1001
ACDBBLOCKREPETAG
1070
     1
1071
       53
1005
12330F
  0
LINE
  5
123365
  8
OBJECT
 10
-44.0
 20
-166.00000000000719
 30
0.0
 11
-34.0
 21
-166.00000000000719
 31
0.0
1001
ACDBBLOCKREPETAG
1070
     1
1071
       54
1005
123310
  0
LINE
  5
123366
  8
OBJECT
 10
-48.814964008706717
 20
-174.20000000000721
 30
0.0
 11
-29.18500844720257
 21
-174.20000000000721
 31
0.0
1001
ACDBBLOCKREPETAG
1070
     1
1071
       55
1005
123311
  0
LINE
  5
123367
  8
OBJECT
 10
-34.0
 20
-166.00000000000719
 30
0.0
 11
-34.0
 21
-174.20000000000721
 31
0.0
1001
ACDBBLOCKREPETAG
1070
     1
1071
       56
1005
123312
  0
LINE
  5
123368
  8
OBJECT
 10
-48.814964008706717
 20
-182.20000000000721
 30
0.0
 11
-48.814964008706717
 21
-174.20000000000721
 31
0.0
1001
ACDBBLOCKREPETAG
1070
     1
1071
       58
1005
123314
  0
LINE
  5
123369
  8
OBJECT
 10
-43.90749864080135
 20
-182.20000000000721
 30
0.0
 11
-43.90749864080135
 21
-174.20000000000721
 31
0.0
1001
ACDBBLOCKREPETAG
1070
     1
1071
       59
1005
123315
  0
LINE
  5
12336A
  8
OBJECT
 10
-34.092567904976022
 20
-182.20000000000721
 30
0.0
 11
-34.092567904976022
 21
-174.20000000000721
 31
0.0
1001
ACDBBLOCKREPETAG
1070
     1
1071
       60
1005
123316
  0
LINE
  5
12336B
  8
OBJECT
 10
-29.185008447202559
 20
-182.20000000000721
 30
0.0
 11
-29.18500844720257
 21
-174.20000000000721
 31
0.0
1001
ACDBBLOCKREPETAG
1070
     1
1071
       61
1005
123317
  0
LINE
  5
123372
  8
OBJECT
 10
-34.0
 20
-220.0000000000073
 30
0.0
 11
-34.0
 21
-280.0
 31
0.0
1001
ACDBBLOCKREPETAG
1070
     1
1071
       50
1005
12330C
  0
LINE
  5
123373
  8
OBJECT
 10
-44.000000000000107
 20
-220.0000000000073
 30
0.0
 11
-44.0
 21
-280.0
 31
0.0
1001
ACDBBLOCKREPETAG
1070
     1
1071
       51
1005
12330D
  0
LINE
  5
123374
  8
OBJECT
 10
82.999999999992724
 20
-220.0000000000073
 30
0.0
 11
82.999999999992724
 21
-280.0
 31
0.0
1001
ACDBBLOCKREPETAG
1070
     1
1071
       35
1005
1232FD
  0
LINE
  5
123375
  8
OBJECT
 10
72.99999999999261
 20
-220.0000000000073
 30
0.0
 11
72.999999999992724
 21
-280.0
 31
0.0
1001
ACDBBLOCKREPETAG
1070
     1
1071
       36
1005
1232FE
  0
LINE
  5
1233FC
  8
OBJECT
 10
-48.814964008706717
 20
-182.20000000000721
 30
0.0
 11
-29.185008447202559
 21
-182.20000000000721
 31
0.0
1001
ACDBBLOCKREPETAG
1070
     1
1071
       55
1005
123311
  0
LINE
  5
123405
  8
OBJECT
 10
-48.0
 20
-184.00000000000711
 30
0.0
 11
-48.0
 21
-182.20000000000721
 31
0.0
1001
ACDBBLOCKREPETAG
1070
     1
1071
       59
1005
0
  0
LINE
  5
123406
  8
OBJECT
 10
-30.0
 20
-184.00000000000711
 30
0.0
 11
-30.0
 21
-182.20000000000721
 31
0.0
1001
ACDBBLOCKREPETAG
1070
     1
1071
       59
1005
0
  0
LINE
  5
1234EA
  8
OBJECT
 10
329.54998149518372
 20
-280.0
 30
0.0
 11
170.45001850479809
 21
-280.0
 31
0.0
1001
ACDBBLOCKREPETAG
1070
     1
1071
       12
1005
1232E6
  0
LINE
  5
1234EB
  8
OBJECT
 10
329.54998149518372
 20
-295.00000000000358
 30
0.0
 11
329.54998149518372
 21
-280.0
 31
0.0
1001
ACDBBLOCKREPETAG
1070
     1
1071
       14
1005
1232E8
  0
LINE
  5
1234F3
  8
OBJECT
 10
170.45001850479809
 20
-295.00000000000358
 30
0.0
 11
170.45001850479809
 21
-280.0
 31
0.0
1001
ACDBBLOCKREPETAG
1070
     1
1071
       22
1005
1232F0
  0
LINE
  5
1234F4
  8
HIDDEN
 10
193.0
 20
-250.00000000000361
 30
0.0
 11
307.0
 21
-250.00000000000361
 31
0.0
1001
ACDBBLOCKREPETAG
1070
     1
1071
       23
1005
1232F1
  0
LINE
  5
1234F5
  8
OBJECT
 10
185.0
 20
-220.0000000000073
 30
0.0
 11
185.0
 21
-280.0
 31
0.0
1001
ACDBBLOCKREPETAG
1070
     1
1071
       33
1005
1232FB
  0
LINE
  5
1234F6
  8
OBJECT
 10
315.0
 20
-220.0000000000073
 30
0.0
 11
315.0
 21
-280.0
 31
0.0
1001
ACDBBLOCKREPETAG
1070
     1
1071
       34
1005
1232FC
  0
LINE
  5
123505
  8
CENTER
 10
250.0
 20
-151.00000000000361
 30
0.0
 11
250.0
 21
-338.0
 31
0.0
1001
ACDBBLOCKREPETAG
1070
     1
1071
        1
1005
123330
  0
LINE
  5
123535
  8
OBJECT
 10
170.45001850479809
 20
-295.00000000000358
 30
0.0
 11
329.54998149518372
 21
-295.00000000000358
 31
0.0
1001
ACDBBLOCKREPETAG
1070
     1
1071
       65
1005
1232AE
  0
LINE
  5
123536
  8
OBJECT
 10
317.4999999999855
 20
-295.00000000000358
 30
0.0
 11
317.4999999999855
 21
-302.00000000000358
 31
0.0
1001
ACDBBLOCKREPETAG
1070
     1
1071
       66
1005
1232AF
  0
LINE
  5
123537
  8
OBJECT
 10
329.54998149518372
 20
-302.00000000000358
 30
0.0
 11
329.54998149518372
 21
-316.0
 31
0.0
1001
ACDBBLOCKREPETAG
1070
     1
1071
       67
1005
1232B0
  0
LINE
  5
123538
  8
OBJECT
 10
170.45001850480551
 20
-316.0
 30
0.0
 11
329.54998149518372
 21
-316.0
 31
0.0
1001
ACDBBLOCKREPETAG
1070
     1
1071
       68
1005
1232B1
  0
LINE
  5
123539
  8
OBJECT
 10
170.45001850480551
 20
-302.00000000000358
 30
0.0
 11
329.54998149518372
 21
-302.00000000000358
 31
0.0
1001
ACDBBLOCKREPETAG
1070
     1
1071
       69
1005
1232B2
  0
LINE
  5
12353A
  8
OBJECT
 10
182.5
 20
-295.00000000000358
 30
0.0
 11
182.5
 21
-302.00000000000358
 31
0.0
1001
ACDBBLOCKREPETAG
1070
     1
1071
       83
1005
1232C0
  0
LINE
  5
12353B
  8
OBJECT
 10
170.45001850479809
 20
-302.00000000000358
 30
0.0
 11
170.45001850479809
 21
-316.0
 31
0.0
1001
ACDBBLOCKREPETAG
1070
     1
1071
       84
1005
1232C1
  0
LINE
  5
12353C
  8
OBJECT
 10
255.0
 20
-302.0
 30
0.0
 11
255.0
 21
-295.0
 31
0.0
1001
ACDBBLOCKREPETAG
1070
     1
1071
       87
1005
1232C4
  0
LINE
  5
12353D
  8
OBJECT
 10
245.0
 20
-302.0
 30
0.0
 11
245.0
 21
-295.0
 31
0.0
1001
ACDBBLOCKREPETAG
1070
     1
1071
       88
1005
1232C5
  0
LINE
  5
123546
  8
OBJECT
 10
177.45001850480909
 20
-302.0
 30
0.0
 11
177.45001850480909
 21
-295.0
 31
0.0
1001
ACDBBLOCKREPETAG
1070
     1
1071
       99
1005
1232D0
  0
LINE
  5
12354F
  8
OBJECT
 10
322.54998149519088
 20
-302.0
 30
0.0
 11
322.54998149519088
 21
-295.0
 31
0.0
1001
ACDBBLOCKREPETAG
1070
     1
1071
      110
1005
1232DB
  0
LINE
  5
123558
  8
OBJECT
 10
329.54998149518372
 20
-220.0000000000073
 30
0.0
 11
170.45001850479809
 21
-220.0000000000073
 31
0.0
1001
ACDBBLOCKREPETAG
1070
     1
1071
       12
1005
1232E6
  0
LINE
  5
123559
  8
OBJECT
 10
329.54998149518372
 20
-205.00000000000361
 30
0.0
 11
329.54998149518372
 21
-220.0000000000073
 31
0.0
1001
ACDBBLOCKREPETAG
1070
     1
1071
       14
1005
1232E8
  0
LINE
  5
12355A
  8
OBJECT
 10
170.45001850479809
 20
-205.00000000000361
 30
0.0
 11
170.45001850479809
 21
-220.0000000000073
 31
0.0
1001
ACDBBLOCKREPETAG
1070
     1
1071
       22
1005
1232F0
  0
LINE
  5
12355B
  8
OBJECT
 10
170.45001850479809
 20
-205.00000000000361
 30
0.0
 11
329.54998149518372
 21
-205.00000000000361
 31
0.0
1001
ACDBBLOCKREPETAG
1070
     1
1071
       65
1005
1232AE
  0
LINE
  5
12355C
  8
OBJECT
 10
317.4999999999855
 20
-205.00000000000361
 30
0.0
 11
317.4999999999855
 21
-198.00000000000361
 31
0.0
1001
ACDBBLOCKREPETAG
1070
     1
1071
       66
1005
1232AF
  0
LINE
  5
12355D
  8
OBJECT
 10
329.54998149518372
 20
-198.00000000000361
 30
0.0
 11
329.54998149518372
 21
-184.00000000000711
 31
0.0
1001
ACDBBLOCKREPETAG
1070
     1
1071
       67
1005
1232B0
  0
LINE
  5
12355E
  8
OBJECT
 10
170.45001850480551
 20
-184.00000000000711
 30
0.0
 11
329.54998149518372
 21
-184.00000000000711
 31
0.0
1001
ACDBBLOCKREPETAG
1070
     1
1071
       68
1005
1232B1
  0
LINE
  5
12355F
  8
OBJECT
 10
170.45001850480551
 20
-198.00000000000361
 30
0.0
 11
329.54998149518372
 21
-198.00000000000361
 31
0.0
1001
ACDBBLOCKREPETAG
1070
     1
1071
       69
1005
1232B2
  0
LINE
  5
123560
  8
OBJECT
 10
182.5
 20
-205.00000000000361
 30
0.0
 11
182.5
 21
-198.00000000000361
 31
0.0
1001
ACDBBLOCKREPETAG
1070
     1
1071
       83
1005
1232C0
  0
LINE
  5
123561
  8
OBJECT
 10
170.45001850479809
 20
-198.00000000000361
 30
0.0
 11
170.45001850479809
 21
-184.00000000000711
 31
0.0
1001
ACDBBLOCKREPETAG
1070
     1
1071
       84
1005
1232C1
  0
LINE
  5
123562
  8
OBJECT
 10
255.0
 20
-198.0000000000073
 30
0.0
 11
255.0
 21
-205.00000000000361
 31
0.0
1001
ACDBBLOCKREPETAG
1070
     1
1071
       87
1005
1232C4
  0
LINE
  5
123563
  8
OBJECT
 10
245.0
 20
-198.0000000000073
 30
0.0
 11
245.0
 21
-205.00000000000361
 31
0.0
1001
ACDBBLOCKREPETAG
1070
     1
1071
       88
1005
1232C5
  0
LINE
  5
12356C
  8
OBJECT
 10
177.45001850480909
 20
-198.0000000000073
 30
0.0
 11
177.45001850480909
 21
-205.00000000000361
 31
0.0
1001
ACDBBLOCKREPETAG
1070
     1
1071
       99
1005
1232D0
  0
LINE
  5
123575
  8
OBJECT
 10
322.54998149519088
 20
-198.0000000000073
 30
0.0
 11
322.54998149519099
 21
-205.00000000000361
 31
0.0
1001
ACDBBLOCKREPETAG
1070
     1
1071
      110
1005
1232DB
  0
LINE
  5
12359F
  8
OBJECT
 10
177.45001850480909
 20
-220.0000000000073
 30
0.0
 11
177.45001850480909
 21
-280.0
 31
0.0
1001
ACDBBLOCKREPETAG
1070
     1
1071
       99
1005
1232D0
  0
LINE
  5
1235A0
  8
OBJECT
 10
255.0
 20
-220.0000000000073
 30
0.0
 11
255.0
 21
-280.0
 31
0.0
1001
ACDBBLOCKREPETAG
1070
     1
1071
       87
1005
1232C4
  0
LINE
  5
1235A1
  8
OBJECT
 10
245.0
 20
-220.0000000000073
 30
0.0
 11
245.0
 21
-280.0
 31
0.0
1001
ACDBBLOCKREPETAG
1070
     1
1071
       88
1005
1232C5
  0
LINE
  5
1235A2
  8
OBJECT
 10
322.54998149519099
 20
-220.0000000000073
 30
0.0
 11
322.54998149519099
 21
-280.0
 31
0.0
1001
ACDBBLOCKREPETAG
1070
     1
1071
      110
1005
1232DB
  0
POINT
  5
1235A3
  8
DOTS
 10
0.0
 20
-250.00000000000361
 30
0.0
  0
POINT
  5
1235A4
  8
DOTS
 10
250.0
 20
-250.00000000000361
 30
0.0
  0
POINT
  5
1235A5
  8
DOTS
 10
0.0
 20
0.0
 30
0.0
  0
LINE
  5
12367C
  8
SLIM
 10
-29.185045423779229
 20
-67.549981495187239
 30
0.0
 11
-34.09252271189326
 21
-59.049981495183602
 31
0.0
1001
ACDBBLOCKREPETAG
1070
     1
1071
        9
1005
123338
  0
LINE
  5
12367D
  8
SLIM
 10
-34.09252271189326
 20
-59.049981495183602
 30
0.0
 11
-43.907477288114009
 21
-59.049981495187247
 31
0.0
1001
ACDBBLOCKREPETAG
1070
     1
1071
        9
1005
123338
  0
LINE
  5
12367E
  8
SLIM
 10
-43.907477288114009
 20
-59.049981495187247
 30
0.0
 11
-48.81495457622804
 21
-67.549981495183602
 31
0.0
1001
ACDBBLOCKREPETAG
1070
     1
1071
        9
1005
123338
  0
LINE
  5
12367F
  8
SLIM
 10
-48.81495457622804
 20
-67.549981495183602
 30
0.0
 11
-43.907477288114009
 21
-76.049981495187254
 31
0.0
1001
ACDBBLOCKREPETAG
1070
     1
1071
        9
1005
123338
  0
LINE
  5
123680
  8
SLIM
 10
-43.907477288114009
 20
-76.049981495187254
 30
0.0
 11
-34.092522711885977
 21
-76.049981495183573
 31
0.0
1001
ACDBBLOCKREPETAG
1070
     1
1071
        9
1005
123338
  0
LINE
  5
123681
  8
SLIM
 10
-34.092522711885977
 20
-76.049981495183573
 30
0.0
 11
-29.185045423779229
 21
-67.549981495187239
 31
0.0
1001
ACDBBLOCKREPETAG
1070
     1
1071
        9
1005
123338
  0
LINE
  5
123682
  8
SLIM
 10
-43.907477288114009
 20
59.049981495187247
 30
0.0
 11
-34.092522711885977
 21
59.049981495187247
 31
0.0
1001
ACDBBLOCKREPETAG
1070
     1
1071
        7
1005
123336
  0
LINE
  5
123683
  8
SLIM
 10
-34.092522711885977
 20
59.049981495187247
 30
0.0
 11
-29.185045423779229
 21
67.549981495187239
 31
0.0
1001
ACDBBLOCKREPETAG
1070
     1
1071
        7
1005
123336
  0
LINE
  5
123684
  8
SLIM
 10
-29.185045423779229
 20
67.549981495187239
 30
0.0
 11
-34.092522711885977
 21
76.049981495187254
 31
0.0
1001
ACDBBLOCKREPETAG
1070
     1
1071
        7
1005
123336
  0
LINE
  5
123685
  8
SLIM
 10
-34.092522711885977
 20
76.049981495187254
 30
0.0
 11
-43.907477288114009
 21
76.049981495187254
 31
0.0
1001
ACDBBLOCKREPETAG
1070
     1
1071
        7
1005
123336
  0
LINE
  5
123686
  8
SLIM
 10
-43.907477288114009
 20
76.049981495187254
 30
0.0
 11
-48.81495457622804
 21
67.549981495187239
 31
0.0
1001
ACDBBLOCKREPETAG
1070
     1
1071
        7
1005
123336
  0
LINE
  5
123687
  8
SLIM
 10
-48.81495457622804
 20
67.549981495187239
 30
0.0
 11
-43.907477288114009
 21
59.049981495187247
 31
0.0
1001
ACDBBLOCKREPETAG
1070
     1
1071
        7
1005
123336
  0
LINE
  5
123688
  8
SLIM
 10
73.092522711885962
 20
8.5
 30
0.0
 11
68.185045423771953
 21
0.0
 31
0.0
1001
ACDBBLOCKREPETAG
1070
     1
1071
        5
1005
123334
  0
LINE
  5
123689
  8
SLIM
 10
68.185045423771953
 20
0.0
 30
0.0
 11
73.092522711885962
 21
-8.5
 31
0.0
1001
ACDBBLOCKREPETAG
1070
     1
1071
        5
1005
123334
  0
LINE
  5
12368A
  8
SLIM
 10
73.092522711885962
 20
-8.5
 30
0.0
 11
82.907477288106733
 21
-8.5
 31
0.0
1001
ACDBBLOCKREPETAG
1070
     1
1071
        5
1005
123334
  0
LINE
  5
12368B
  8
SLIM
 10
82.907477288106733
 20
-8.5
 30
0.0
 11
87.814954576220742
 21
0.0
 31
0.0
1001
ACDBBLOCKREPETAG
1070
     1
1071
        5
1005
123334
  0
LINE
  5
12368C
  8
SLIM
 10
87.814954576220742
 20
0.0
 30
0.0
 11
82.907477288106733
 21
8.5
 31
0.0
1001
ACDBBLOCKREPETAG
1070
     1
1071
        5
1005
123334
  0
LINE
  5
12368D
  8
SLIM
 10
82.907477288106733
 20
8.5
 30
0.0
 11
73.092522711885962
 21
8.5
 31
0.0
1001
ACDBBLOCKREPETAG
1070
     1
1071
        5
1005
123334
  0
LINE
  5
1236FB
  8
OBJECT
 10
72.999999999992724
 20
-174.20000000000721
 30
0.0
 11
72.999999999992724
 21
-166.00000000000719
 31
0.0
1001
ACDBBLOCKREPETAG
1070
     1
1071
       53
1005
12330F
  0
LINE
  5
1236FC
  8
OBJECT
 10
72.999999999992724
 20
-166.00000000000719
 30
0.0
 11
82.999999999992724
 21
-166.00000000000719
 31
0.0
1001
ACDBBLOCKREPETAG
1070
     1
1071
       54
1005
123310
  0
LINE
  5
1236FD
  8
OBJECT
 10
68.185035991285986
 20
-174.20000000000721
 30
0.0
 11
87.814991552790161
 21
-174.20000000000721
 31
0.0
1001
ACDBBLOCKREPETAG
1070
     1
1071
       55
1005
123311
  0
LINE
  5
1236FE
  8
OBJECT
 10
82.999999999992724
 20
-166.00000000000719
 30
0.0
 11
82.999999999992724
 21
-174.20000000000721
 31
0.0
1001
ACDBBLOCKREPETAG
1070
     1
1071
       56
1005
123312
  0
LINE
  5
1236FF
  8
OBJECT
 10
68.185035991285986
 20
-182.20000000000721
 30
0.0
 11
68.185035991285986
 21
-174.20000000000721
 31
0.0
1001
ACDBBLOCKREPETAG
1070
     1
1071
       58
1005
123314
  0
LINE
  5
123700
  8
OBJECT
 10
73.092501359191374
 20
-182.20000000000721
 30
0.0
 11
73.092501359191374
 21
-174.20000000000721
 31
0.0
1001
ACDBBLOCKREPETAG
1070
     1
1071
       59
1005
123315
  0
LINE
  5
123701
  8
OBJECT
 10
82.907432095016702
 20
-182.20000000000721
 30
0.0
 11
82.907432095016702
 21
-174.20000000000721
 31
0.0
1001
ACDBBLOCKREPETAG
1070
     1
1071
       60
1005
123316
  0
LINE
  5
123702
  8
OBJECT
 10
87.814991552790161
 20
-182.20000000000721
 30
0.0
 11
87.814991552790161
 21
-174.20000000000721
 31
0.0
1001
ACDBBLOCKREPETAG
1070
     1
1071
       61
1005
123317
  0
LINE
  5
123703
  8
OBJECT
 10
68.185035991285986
 20
-182.20000000000721
 30
0.0
 11
87.814991552790161
 21
-182.20000000000721
 31
0.0
1001
ACDBBLOCKREPETAG
1070
     1
1071
       55
1005
123311
  0
LINE
  5
123704
  8
OBJECT
 10
68.999999999992724
 20
-184.00000000000711
 30
0.0
 11
68.999999999992724
 21
-182.20000000000721
 31
0.0
1001
ACDBBLOCKREPETAG
1070
     1
1071
       59
1005
0
  0
LINE
  5
123705
  8
OBJECT
 10
86.999999999992696
 20
-184.00000000000711
 30
0.0
 11
86.999999999992696
 21
-182.20000000000721
 31
0.0
1001
ACDBBLOCKREPETAG
1070
     1
1071
       59
1005
0
  0
LINE
  5
123706
  8
OBJECT
 10
177.45001850480909
 20
-174.20000000000721
 30
0.0
 11
177.45001850480909
 21
-166.00000000000719
 31
0.0
1001
ACDBBLOCKREPETAG
1070
     1
1071
       53
1005
12330F
  0
LINE
  5
123707
  8
OBJECT
 10
177.45001850480909
 20
-166.00000000000719
 30
0.0
 11
187.45001850480909
 21
-166.00000000000719
 31
0.0
1001
ACDBBLOCKREPETAG
1070
     1
1071
       54
1005
123310
  0
LINE
  5
123708
  8
OBJECT
 10
172.63505449610241
 20
-174.20000000000721
 30
0.0
 11
192.2650100576065
 21
-174.20000000000721
 31
0.0
1001
ACDBBLOCKREPETAG
1070
     1
1071
       55
1005
123311
  0
LINE
  5
123709
  8
OBJECT
 10
187.45001850480909
 20
-166.00000000000719
 30
0.0
 11
187.45001850480909
 21
-174.20000000000721
 31
0.0
1001
ACDBBLOCKREPETAG
1070
     1
1071
       56
1005
123312
  0
LINE
  5
12370A
  8
OBJECT
 10
172.63505449610241
 20
-182.20000000000721
 30
0.0
 11
172.63505449610241
 21
-174.20000000000721
 31
0.0
1001
ACDBBLOCKREPETAG
1070
     1
1071
       58
1005
123314
  0
LINE
  5
12370B
  8
OBJECT
 10
177.54251986400769
 20
-182.20000000000721
 30
0.0
 11
177.54251986400769
 21
-174.20000000000721
 31
0.0
1001
ACDBBLOCKREPETAG
1070
     1
1071
       59
1005
123315
  0
LINE
  5
12370C
  8
OBJECT
 10
187.3574505998331
 20
-182.20000000000721
 30
0.0
 11
187.3574505998331
 21
-174.20000000000721
 31
0.0
1001
ACDBBLOCKREPETAG
1070
     1
1071
       60
1005
123316
  0
LINE
  5
12370D
  8
OBJECT
 10
192.2650100576065
 20
-182.20000000000721
 30
0.0
 11
192.2650100576065
 21
-174.20000000000721
 31
0.0
1001
ACDBBLOCKREPETAG
1070
     1
1071
       61
1005
123317
  0
LINE
  5
12370E
  8
OBJECT
 10
172.63505449610241
 20
-182.20000000000721
 30
0.0
 11
192.2650100576065
 21
-182.20000000000721
 31
0.0
1001
ACDBBLOCKREPETAG
1070
     1
1071
       55
1005
123311
  0
LINE
  5
12370F
  8
OBJECT
 10
173.45001850480909
 20
-184.00000000000711
 30
0.0
 11
173.45001850480909
 21
-182.20000000000721
 31
0.0
1001
ACDBBLOCKREPETAG
1070
     1
1071
       59
1005
0
  0
LINE
  5
123710
  8
OBJECT
 10
191.45001850480909
 20
-184.00000000000711
 30
0.0
 11
191.45001850480909
 21
-182.20000000000721
 31
0.0
1001
ACDBBLOCKREPETAG
1070
     1
1071
       59
1005
0
  0
LINE
  5
123711
  8
OBJECT
 10
245.0
 20
-174.20000000000721
 30
0.0
 11
245.0
 21
-166.00000000000719
 31
0.0
1001
ACDBBLOCKREPETAG
1070
     1
1071
       53
1005
12330F
  0
LINE
  5
123712
  8
OBJECT
 10
245.0
 20
-166.00000000000719
 30
0.0
 11
255.0
 21
-166.00000000000719
 31
0.0
1001
ACDBBLOCKREPETAG
1070
     1
1071
       54
1005
123310
  0
LINE
  5
123713
  8
OBJECT
 10
240.18503599129329
 20
-174.20000000000721
 30
0.0
 11
259.81499155279749
 21
-174.20000000000721
 31
0.0
1001
ACDBBLOCKREPETAG
1070
     1
1071
       55
1005
123311
  0
LINE
  5
123714
  8
OBJECT
 10
255.0
 20
-166.00000000000719
 30
0.0
 11
255.0
 21
-174.20000000000721
 31
0.0
1001
ACDBBLOCKREPETAG
1070
     1
1071
       56
1005
123312
  0
LINE
  5
123715
  8
OBJECT
 10
240.18503599129329
 20
-182.20000000000721
 30
0.0
 11
240.18503599129329
 21
-174.20000000000721
 31
0.0
1001
ACDBBLOCKREPETAG
1070
     1
1071
       58
1005
123314
  0
LINE
  5
123716
  8
OBJECT
 10
245.09250135919859
 20
-182.20000000000721
 30
0.0
 11
245.09250135919859
 21
-174.20000000000721
 31
0.0
1001
ACDBBLOCKREPETAG
1070
     1
1071
       59
1005
123315
  0
LINE
  5
123717
  8
OBJECT
 10
254.90743209502401
 20
-182.20000000000721
 30
0.0
 11
254.90743209502401
 21
-174.20000000000721
 31
0.0
1001
ACDBBLOCKREPETAG
1070
     1
1071
       60
1005
123316
  0
LINE
  5
123718
  8
OBJECT
 10
259.81499155279749
 20
-182.20000000000721
 30
0.0
 11
259.81499155279749
 21
-174.20000000000721
 31
0.0
1001
ACDBBLOCKREPETAG
1070
     1
1071
       61
1005
123317
  0
LINE
  5
123719
  8
OBJECT
 10
240.18503599129329
 20
-182.20000000000721
 30
0.0
 11
259.81499155279749
 21
-182.20000000000721
 31
0.0
1001
ACDBBLOCKREPETAG
1070
     1
1071
       55
1005
123311
  0
LINE
  5
12371A
  8
OBJECT
 10
241.0
 20
-184.00000000000711
 30
0.0
 11
241.0
 21
-182.20000000000721
 31
0.0
1001
ACDBBLOCKREPETAG
1070
     1
1071
       59
1005
0
  0
LINE
  5
12371B
  8
OBJECT
 10
259.0
 20
-184.00000000000711
 30
0.0
 11
259.0
 21
-182.20000000000721
 31
0.0
1001
ACDBBLOCKREPETAG
1070
     1
1071
       59
1005
0
  0
LINE
  5
12371C
  8
OBJECT
 10
312.54998149519088
 20
-174.20000000000721
 30
0.0
 11
312.54998149519088
 21
-166.00000000000719
 31
0.0
1001
ACDBBLOCKREPETAG
1070
     1
1071
       53
1005
12330F
  0
LINE
  5
12371D
  8
OBJECT
 10
312.54998149519088
 20
-166.00000000000719
 30
0.0
 11
322.54998149519088
 21
-166.00000000000719
 31
0.0
1001
ACDBBLOCKREPETAG
1070
     1
1071
       54
1005
123310
  0
LINE
  5
12371E
  8
OBJECT
 10
307.73501748648408
 20
-174.20000000000721
 30
0.0
 11
327.36497304798831
 21
-174.20000000000721
 31
0.0
1001
ACDBBLOCKREPETAG
1070
     1
1071
       55
1005
123311
  0
LINE
  5
12371F
  8
OBJECT
 10
322.54998149519088
 20
-166.00000000000719
 30
0.0
 11
322.54998149519088
 21
-174.20000000000721
 31
0.0
1001
ACDBBLOCKREPETAG
1070
     1
1071
       56
1005
123312
  0
LINE
  5
123720
  8
OBJECT
 10
307.73501748648408
 20
-182.20000000000721
 30
0.0
 11
307.73501748648408
 21
-174.20000000000721
 31
0.0
1001
ACDBBLOCKREPETAG
1070
     1
1071
       58
1005
123314
  0
LINE
  5
123721
  8
OBJECT
 10
312.64248285438958
 20
-182.20000000000721
 30
0.0
 11
312.64248285438958
 21
-174.20000000000721
 31
0.0
1001
ACDBBLOCKREPETAG
1070
     1
1071
       59
1005
123315
  0
LINE
  5
123722
  8
OBJECT
 10
322.45741359021491
 20
-182.20000000000721
 30
0.0
 11
322.45741359021491
 21
-174.20000000000721
 31
0.0
1001
ACDBBLOCKREPETAG
1070
     1
1071
       60
1005
123316
  0
LINE
  5
123723
  8
OBJECT
 10
327.36497304798831
 20
-182.20000000000721
 30
0.0
 11
327.36497304798831
 21
-174.20000000000721
 31
0.0
1001
ACDBBLOCKREPETAG
1070
     1
1071
       61
1005
123317
  0
LINE
  5
123724
  8
OBJECT
 10
307.73501748648408
 20
-182.20000000000721
 30
0.0
 11
327.36497304798831
 21
-182.20000000000721
 31
0.0
1001
ACDBBLOCKREPETAG
1070
     1
1071
       55
1005
123311
  0
LINE
  5
123725
  8
OBJECT
 10
308.54998149519088
 20
-184.00000000000711
 30
0.0
 11
308.54998149519088
 21
-182.20000000000721
 31
0.0
1001
ACDBBLOCKREPETAG
1070
     1
1071
       59
1005
0
  0
LINE
  5
123726
  8
OBJECT
 10
326.54998149519088
 20
-184.00000000000711
 30
0.0
 11
326.54998149519088
 21
-182.20000000000721
 31
0.0
1001
ACDBBLOCKREPETAG
1070
     1
1071
       59
1005
0
  0
LINE
  5
123727
  8
OBJECT
 10
68.185035991285986
 20
-323.0
 30
0.0
 11
87.814991552790161
 21
-323.0
 31
0.0
1001
ACDBBLOCKREPETAG
1070
     1
1071
       55
1005
123311
  0
LINE
  5
123728
  8
OBJECT
 10
68.185035991285986
 20
-316.0
 30
0.0
 11
68.185035991285986
 21
-323.0
 31
0.0
1001
ACDBBLOCKREPETAG
1070
     1
1071
       58
1005
123314
  0
LINE
  5
123729
  8
OBJECT
 10
73.092501359191374
 20
-316.0
 30
0.0
 11
73.092501359191374
 21
-323.0
 31
0.0
1001
ACDBBLOCKREPETAG
1070
     1
1071
       59
1005
123315
  0
LINE
  5
12372A
  8
OBJECT
 10
82.907432095016702
 20
-316.0
 30
0.0
 11
82.907432095016702
 21
-323.0
 31
0.0
1001
ACDBBLOCKREPETAG
1070
     1
1071
       60
1005
123316
  0
LINE
  5
12372B
  8
OBJECT
 10
87.814991552790161
 20
-316.0
 30
0.0
 11
87.814991552790161
 21
-323.0
 31
0.0
1001
ACDBBLOCKREPETAG
1070
     1
1071
       61
1005
123317
  0
LINE
  5
12372C
  8
OBJECT
 10
240.18503599129329
 20
-323.0
 30
0.0
 11
259.81499155279749
 21
-323.0
 31
0.0
1001
ACDBBLOCKREPETAG
1070
     1
1071
       55
1005
123311
  0
LINE
  5
12372D
  8
OBJECT
 10
240.18503599129329
 20
-316.0
 30
0.0
 11
240.18503599129329
 21
-323.0
 31
0.0
1001
ACDBBLOCKREPETAG
1070
     1
1071
       58
1005
123314
  0
LINE
  5
12372E
  8
OBJECT
 10
245.09250135919859
 20
-316.0
 30
0.0
 11
245.09250135919859
 21
-323.0
 31
0.0
1001
ACDBBLOCKREPETAG
1070
     1
1071
       59
1005
123315
  0
LINE
  5
12372F
  8
OBJECT
 10
254.90743209502401
 20
-316.0
 30
0.0
 11
254.90743209502401
 21
-323.0
 31
0.0
1001
ACDBBLOCKREPETAG
1070
     1
1071
       60
1005
123316
  0
LINE
  5
123730
  8
OBJECT
 10
259.81499155279749
 20
-316.0
 30
0.0
 11
259.81499155279749
 21
-323.0
 31
0.0
1001
ACDBBLOCKREPETAG
1070
     1
1071
       61
1005
123317
  0
LINE
  5
123731
  8
OBJECT
 10
307.73501748648408
 20
-323.0
 30
0.0
 11
327.36497304798831
 21
-323.0
 31
0.0
1001
ACDBBLOCKREPETAG
1070
     1
1071
       55
1005
123311
  0
LINE
  5
123732
  8
OBJECT
 10
307.73501748648408
 20
-316.0
 30
0.0
 11
307.73501748648408
 21
-323.0
 31
0.0
1001
ACDBBLOCKREPETAG
1070
     1
1071
       58
1005
123314
  0
LINE
  5
123733
  8
OBJECT
 10
312.64248285438958
 20
-316.0
 30
0.0
 11
312.64248285438958
 21
-323.0
 31
0.0
1001
ACDBBLOCKREPETAG
1070
     1
1071
       59
1005
123315
  0
LINE
  5
123734
  8
OBJECT
 10
322.45741359021491
 20
-316.0
 30
0.0
 11
322.45741359021491
 21
-323.0
 31
0.0
1001
ACDBBLOCKREPETAG
1070
     1
1071
       60
1005
123316
  0
LINE
  5
123735
  8
OBJECT
 10
327.36497304798831
 20
-316.0
 30
0.0
 11
327.36497304798831
 21
-323.0
 31
0.0
1001
ACDBBLOCKREPETAG
1070
     1
1071
       61
1005
123317
  0
LINE
  5
123736
  8
OBJECT
 10
172.63505449610241
 20
-323.0
 30
0.0
 11
192.2650100576065
 21
-323.0
 31
0.0
1001
ACDBBLOCKREPETAG
1070
     1
1071
       55
1005
123311
  0
LINE
  5
123737
  8
OBJECT
 10
172.63505449610241
 20
-316.0
 30
0.0
 11
172.63505449610241
 21
-323.0
 31
0.0
1001
ACDBBLOCKREPETAG
1070
     1
1071
       58
1005
123314
  0
LINE
  5
123738
  8
OBJECT
 10
177.54251986400769
 20
-316.0
 30
0.0
 11
177.54251986400769
 21
-323.0
 31
0.0
1001
ACDBBLOCKREPETAG
1070
     1
1071
       59
1005
123315
  0
LINE
  5
123739
  8
OBJECT
 10
187.3574505998331
 20
-316.0
 30
0.0
 11
187.3574505998331
 21
-323.0
 31
0.0
1001
ACDBBLOCKREPETAG
1070
     1
1071
       60
1005
123316
  0
LINE
  5
12373A
  8
OBJECT
 10
192.2650100576065
 20
-316.0
 30
0.0
 11
192.2650100576065
 21
-323.0
 31
0.0
1001
ACDBBLOCKREPETAG
1070
     1
1071
       61
1005
123317
  0
VIEWPORT
  5
F6BA7
 67
     1
  8
0
 10
145.33033752441401
 20
101.8328354358673
 30
0.0
 40
334.0025019414623
 41
222.19657968139651
 68
     1
 69
     1
1001
ACAD
1000
MVIEW
1002
{
1070
    16
1010
0.0
1020
0.0
1030
0.0
1010
0.0
1020
0.0
1030
1.0
1040
0.0
1040
222.19657968139651
1040
145.33033752441401
1040
101.8328354358673
1040
50.0
1040
0.0
1040
0.0
1070
     0
1070
     0
1070
     1
1070
     1
1070
     0
1070
     0
1070
     0
1070
     0
1040
0.0
1040
0.0
1040
0.0
1040
10.0
1040
10.0
1040
10.0
1040
10.0
1070
     0
1002
{
1002
}
1002
}
  0
VIEWPORT
  5
F6BA9
 67
     1
  8
OBJECT
 10
145.3303314447403
 20
101.8328338861465
 30
0.0
 40
232.5285303115844
 41
162.93253421783439
 68
     2
 69
     2
1001
ACAD
1000
MVIEW
1002
{
1070
    16
1010
0.0
1020
0.0
1030
0.0
1010
0.0
1020
0.0
1030
1.0
1040
0.0
1040
25942.55904403147
1040
2377.604457077377
1040
-7591.5176687056619
1040
50.0
1040
0.0
1040
0.0
1070
     0
1070
   600
1070
     1
1070
     1
1070
     0
1070
     0
1070
     0
1070
     0
1040
0.0
1040
0.0
1040
0.0
1040
1.0
1040
1.0
1040
0.0
1040
0.0
1070
     0
1002
{
1002
}
1002
}
  0
ENDSEC
  0
EOF
