  0
SECTION
  2
HEADER
  9
$ACADVER
  1
AC1009
  9
$INSBASE
 10
0.0
 20
0.0
 30
0.0
  9
$EXTMIN
 10
-181.0000000000002
 20
-1507.700000000001
 30
0.0
  9
$EXTMAX
 10
4220.0
 20
81.699999999999804
 30
0.0
  9
$LIMMIN
 10
0.0
 20
0.0
  9
$LIMMAX
 10
210.0
 20
297.0
  9
$ORTHOMODE
 70
     0
  9
$REGENMODE
 70
     1
  9
$FILLMODE
 70
     1
  9
$QTEXTMODE
 70
     0
  9
$MIRRTEXT
 70
     0
  9
$DRAGMODE
 70
     2
  9
$LTSCALE
 40
1.0
  9
$OSMODE
 70
   125
  9
$ATTMODE
 70
     1
  9
$TEXTSIZE
 40
39.008254181735531
  9
$TRACEWID
 40
0.05
  9
$TEXTSTYLE
  7
STANDARD
  9
$CLAYER
  8
OBJECT
  9
$CELTYPE
  6
BYLAYER
  9
$CECOLOR
 62
   256
  9
$DIMSCALE
 40
10.0
  9
$DIMASZ
 40
1.0
  9
$DIMEXO
 40
0.5
  9
$DIMDLI
 40
5.0
  9
$DIMRND
 40
0.0
  9
$DIMDLE
 40
0.0
  9
$DIMEXE
 40
0.5
  9
$DIMTP
 40
0.0
  9
$DIMTM
 40
0.0
  9
$DIMTXT
 40
1.6000000000000001
  9
$DIMCEN
 40
0.0
  9
$DIMTSZ
 40
0.0
  9
$DIMTOL
 70
     0
  9
$DIMLIM
 70
     0
  9
$DIMTIH
 70
     0
  9
$DIMTOH
 70
     0
  9
$DIMSE1
 70
     0
  9
$DIMSE2
 70
     0
  9
$DIMTAD
 70
     1
  9
$DIMZIN
 70
     8
  9
$DIMBLK
  1
OPEN30
  9
$DIMASO
 70
     1
  9
$DIMSHO
 70
     1
  9
$DIMPOST
  1

  9
$DIMAPOST
  1

  9
$DIMALT
 70
     0
  9
$DIMALTD
 70
     2
  9
$DIMALTF
 40
25.399999999999999
  9
$DIMLFAC
 40
1.0
  9
$DIMTOFL
 70
     1
  9
$DIMTVP
 40
0.0
  9
$DIMTIX
 70
     0
  9
$DIMSOXD
 70
     0
  9
$DIMSAH
 70
     0
  9
$DIMBLK1
  1

  9
$DIMBLK2
  1

  9
$DIMSTYLE
  2
S10
  9
$DIMCLRD
 70
   256
  9
$DIMCLRE
 70
   256
  9
$DIMCLRT
 70
   256
  9
$DIMTFAC
 40
1.0
  9
$DIMGAP
 40
0.45
  9
$LUNITS
 70
     2
  9
$LUPREC
 70
     2
  9
$SKETCHINC
 40
0.1
  9
$FILLETRAD
 40
0.0
  9
$AUNITS
 70
     0
  9
$AUPREC
 70
     2
  9
$MENU
  1
ACAD
  9
$ELEVATION
 40
0.0
  9
$PELEVATION
 40
0.0
  9
$THICKNESS
 40
0.0
  9
$LIMCHECK
 70
     0
  9
$BLIPMODE
 70
     0
  9
$CHAMFERA
 40
2.0
  9
$CHAMFERB
 40
2.0
  9
$SKPOLY
 70
     0
  9
$TDCREATE
 40
2453095.4929404748
  9
$TDUPDATE
 40
2456919.7044005441
  9
$TDINDWG
 40
27.167750902800002
  9
$TDUSRTIMER
 40
27.167750312500001
  9
$USRTIMER
 70
     1
  9
$ANGBASE
 50
0.0
  9
$ANGDIR
 70
     0
  9
$PDMODE
 70
    35
  9
$PDSIZE
 40
2.0
  9
$PLINEWID
 40
0.0
  9
$COORDS
 70
     1
  9
$SPLFRAME
 70
     0
  9
$SPLINETYPE
 70
     6
  9
$SPLINESEGS
 70
     8
  9
$ATTDIA
 70
     1
  9
$ATTREQ
 70
     1
  9
$HANDLING
 70
     1
  9
$HANDSEED
  5
100368
  9
$SURFTAB1
 70
     6
  9
$SURFTAB2
 70
     6
  9
$SURFTYPE
 70
     6
  9
$SURFU
 70
     6
  9
$SURFV
 70
     6
  9
$UCSNAME
  2

  9
$UCSORG
 10
0.0
 20
0.0
 30
0.0
  9
$UCSXDIR
 10
1.0
 20
0.0
 30
0.0
  9
$UCSYDIR
 10
0.0
 20
1.0
 30
0.0
  9
$PUCSNAME
  2

  9
$PUCSORG
 10
0.0
 20
0.0
 30
0.0
  9
$PUCSXDIR
 10
1.0
 20
0.0
 30
0.0
  9
$PUCSYDIR
 10
0.0
 20
1.0
 30
0.0
  9
$USERI1
 70
     0
  9
$USERI2
 70
     0
  9
$USERI3
 70
     0
  9
$USERI4
 70
     0
  9
$USERI5
 70
     0
  9
$USERR1
 40
0.0
  9
$USERR2
 40
0.0
  9
$USERR3
 40
0.0
  9
$USERR4
 40
0.0
  9
$USERR5
 40
0.0
  9
$WORLDVIEW
 70
     1
  9
$SHADEDGE
 70
     3
  9
$SHADEDIF
 70
    70
  9
$TILEMODE
 70
     1
  9
$MAXACTVP
 70
    64
  9
$PLIMCHECK
 70
     0
  9
$PEXTMIN
 10
28.721050786972061
 20
20.021550226211559
 30
0.0
  9
$PEXTMAX
 10
258.4894570827484
 20
180.19395203590389
 30
0.0
  9
$PLIMMIN
 10
-4.90008544921875
 20
-4.9000830650329581
  9
$PLIMMAX
 10
292.11056518554688
 20
205.1155877113342
  9
$UNITMODE
 70
     0
  9
$VISRETAIN
 70
     1
  9
$PLINEGEN
 70
     0
  9
$PSLTSCALE
 70
     1
  0
ENDSEC
  0
SECTION
  2
TABLES
  0
TABLE
  2
VPORT
 70
     1
  0
VPORT
  2
*ACTIVE
 70
     0
 10
0.0
 20
0.0
 11
1.0
 21
1.0
 12
2784.1525095679749
 22
-436.5211200981629
 13
0.0
 23
0.0
 14
1.0
 24
1.0
 15
0.0
 25
0.0
 16
0.0
 26
0.0
 36
1.0
 17
0.0
 27
0.0
 37
0.0
 40
5525.9067368862161
 41
1.846266471449487
 42
50.0
 43
0.0
 44
0.0
 50
0.0
 51
0.0
 71
     0
 72
   600
 73
     1
 74
     1
 75
     0
 76
     0
 77
     0
 78
     1
  0
ENDTAB
  0
TABLE
  2
LTYPE
 70
     3
  0
LTYPE
  2
CONTINUOUS
 70
     0
  3
Solid line
 72
    65
 73
     0
 40
0.0
  0
LTYPE
  2
ACAD_ISO08W100
 70
     0
  3
ISO long-dash short-dash ____ __ ____ __ ____ _
 72
    65
 73
     4
 40
36.0
 49
24.0
 49
-3.0
 49
6.0
 49
-3.0
  0
LTYPE
  2
ACAD_ISO02W100
 70
     0
  3
ISO dash __ __ __ __ __ __ __ __ __ __ __ __ __
 72
    65
 73
     2
 40
15.0
 49
12.0
 49
-3.0
  0
ENDTAB
  0
TABLE
  2
LAYER
 70
     7
  0
LAYER
  2
0
 70
     0
 62
     7
  6
CONTINUOUS
  0
LAYER
  2
OBJECT
 70
     0
 62
     4
  6
CONTINUOUS
  0
LAYER
  2
DEFPOINTS
 70
     0
 62
     7
  6
CONTINUOUS
  0
LAYER
  2
HIDDEN
 70
     0
 62
     2
  6
ACAD_ISO02W100
  0
LAYER
  2
CENTER
 70
     0
 62
     2
  6
ACAD_ISO08W100
  0
LAYER
  2
DOTS
 70
     0
 62
     1
  6
CONTINUOUS
  0
LAYER
  2
SLIM
 70
     0
 62
     2
  6
CONTINUOUS
  0
ENDTAB
  0
TABLE
  2
STYLE
 70
     2
  0
STYLE
  2
STANDARD
 70
     0
 40
0.0
 41
0.75
 50
0.0
 71
     0
 42
39.008254181735531
  3
simplex.shx
  4
bigfont.shx
  0
ENDTAB
  0
TABLE
  2
VIEW
 70
     0
  0
ENDTAB
  0
TABLE
  2
UCS
 70
     0
  0
ENDTAB
  0
TABLE
  2
APPID
 70
    21
  0
APPID
  2
ACAD
 70
     0
  0
APPID
  2
ACADANNOTATIVE
 70
     0
  0
APPID
  2
ACAD_PSEXT
 70
     0
  0
APPID
  2
ACAD_EXEMPT_FROM_CAD_STANDARDS
 70
     0
  0
APPID
  2
ACAECLAYERSTANDARD
 70
     0
  0
APPID
  2
ACAUTHENVIRON
 70
     0
  0
APPID
  2
ACDBDYNAMICBLOCKTRUENAME
 70
     0
  0
APPID
  2
ACDBDYNAMICBLOCKGUID
 70
     0
  0
APPID
  2
ACDBBLOCKREPETAG
 70
     0
  0
APPID
  2
ACDBBLOCKREPBTAG
 70
     0
  0
APPID
  2
ACAD_NAV_VCDISPLAY
 70
     0
  0
APPID
  2
ACAD_DSTYLE_DIMRADIAL_EXTENSION
 70
     0
  0
APPID
  2
ACAD_DSTYLE_DIMJAG
 70
     0
  0
APPID
  2
ACAD_DSTYLE_DIMTALN
 70
     0
  0
APPID
  2
GRADIENTCOLOR1ACI
 70
     0
  0
APPID
  2
GRADIENTCOLOR2ACI
 70
     0
  0
APPID
  2
ACADANNOAV
 70
     0
  0
APPID
  2
SIGMA
 70
     0
  0
APPID
  2
ACAD_DSTYLE_DIMJOGGED_JOGA
 70
     0
  0
APPID
  2
ACAD_DSTYLE_DIMBREAK
 70
     0
  0
APPID
  2
ACAD_MLEADERVER
 70
     0
  0
ENDTAB
  0
TABLE
  2
DIMSTYLE
 70
     3
  0
DIMSTYLE
  2
STANDARD
 70
     0
  3

  4

  5

  6

  7

 40
1.0
 41
0.18
 42
0.0625
 43
0.38
 44
0.18
 45
0.0
 46
0.0
 47
0.0
 48
0.0
140
0.18
141
0.09
142
0.0
143
25.399999999999999
144
1.0
145
0.0
146
1.0
147
0.09
 71
     0
 72
     0
 73
     1
 74
     1
 75
     0
 76
     0
 77
     0
 78
     0
170
     0
171
     2
172
     0
173
     0
174
     0
175
     0
176
     0
177
     0
178
     0
  0
DIMSTYLE
  2
S10
 70
     0
  3

  4

  5

  6

  7

 40
10.0
 41
1.0
 42
0.5
 43
5.0
 44
0.5
 45
0.0
 46
0.0
 47
0.0
 48
0.0
140
1.6000000000000001
141
0.0
142
0.0
143
25.399999999999999
144
1.0
145
0.0
146
1.0
147
0.45
 71
     0
 72
     0
 73
     0
 74
     0
 75
     0
 76
     0
 77
     1
 78
     8
170
     0
171
     2
172
     1
173
     0
174
     0
175
     0
176
   256
177
   256
178
   256
  0
ENDTAB
  0
ENDSEC
  0
SECTION
  2
BLOCKS
  0
BLOCK
  8
0
  2
$MODEL_SPACE
 70
     0
 10
0.0
 20
0.0
 30
0.0
  3
$MODEL_SPACE
  1

  0
ENDBLK
  5
100164
  8
0
  0
BLOCK
 67
     1
  8
0
  2
$PAPER_SPACE
 70
     0
 10
0.0
 20
0.0
 30
0.0
  3
$PAPER_SPACE
  1

  0
ENDBLK
  5
100160
 67
     1
  8
0
  0
BLOCK
  8
0
  2
_OPEN30
 70
     0
 10
0.0
 20
0.0
 30
0.0
  3
_OPEN30
  1

  0
LINE
  5
202
  8
0
  6
BYBLOCK
 62
     0
 10
-1.0
 20
0.26794919
 30
0.0
 11
0.0
 21
0.0
 31
0.0
  0
LINE
  5
203
  8
0
  6
BYBLOCK
 62
     0
 10
0.0
 20
0.0
 30
0.0
 11
-1.0
 21
-0.26794919
 31
0.0
  0
LINE
  5
204
  8
0
  6
BYBLOCK
 62
     0
 10
0.0
 20
0.0
 30
0.0
 11
-1.0
 21
0.0
 31
0.0
  0
ENDBLK
  5
206
  8
0
  0
ENDSEC
  0
SECTION
  2
ENTITIES
  0
LINE
  5
F8858
  8
CENTER
 10
3784.0
 20
-1000.0
 30
0.0
 11
4220.0
 21
-999.99999999999955
 31
0.0
  0
LINE
  5
F8859
  8
OBJECT
 10
4079.460682101274
 20
-1002.500000000001
 30
0.0
 11
4169.0
 21
-1002.5
 31
0.0
  0
LINE
  5
F885A
  8
OBJECT
 10
4083.246621553069
 20
-1006.500000000001
 30
0.0
 11
4169.0
 21
-1006.500000000002
 31
0.0
  0
LINE
  5
F885B
  8
OBJECT
 10
4079.460682101274
 20
-997.50000000000034
 30
0.0
 11
4169.0
 21
-997.50000000000034
 31
0.0
  0
LINE
  5
F885C
  8
OBJECT
 10
4083.246621553069
 20
-993.50000000000045
 30
0.0
 11
4169.0
 21
-993.50000000000045
 31
0.0
  0
LINE
  5
F885D
  8
CENTER
 10
4000.0
 20
-899.50000000000023
 30
0.0
 11
4000.0
 21
-1100.4999999999991
 31
0.0
  0
ARC
  5
F885E
  8
OBJECT
 10
4000.0
 20
-1000.0
 30
0.0
 40
76.5
 50
6.9999999999797442
 51
173.00000000002021
  0
LINE
  5
F8876
  8
OBJECT
 10
4084.8626959653329
 20
-1234.0
 30
0.0
 11
4205.0
 21
-1234.0
 31
0.0
  0
LINE
  5
F8877
  8
OBJECT
 10
4205.0
 20
-1234.0
 30
0.0
 11
4205.0
 21
-1266.0
 31
0.0
  0
LINE
  5
F8878
  8
OBJECT
 10
4205.0
 20
-1266.0
 30
0.0
 11
4084.8626959653329
 21
-1266.0
 31
0.0
  0
LINE
  5
F887A
  8
CENTER
 10
3780.0
 20
-1250.0
 30
0.0
 11
4220.0
 21
-1250.0
 31
0.0
  0
LINE
  5
F887D
  8
CENTER
 10
4000.0
 20
-1216.0
 30
0.0
 11
4000.0
 21
-1284.0
 31
0.0
  0
LINE
  5
F887F
  8
OBJECT
 10
4083.246621553069
 20
-1236.0
 30
0.0
 11
4083.246621553069
 21
-1264.0
 31
0.0
  0
LINE
  5
F8881
  8
OBJECT
 10
3915.1373040346671
 20
-1269.0
 30
0.0
 11
4084.8626959653329
 21
-1269.0
 31
0.0
  0
LINE
  5
F8882
  8
OBJECT
 10
4084.8626959653329
 20
-1269.0
 30
0.0
 11
4084.8626959653329
 21
-1264.0
 31
0.0
  0
LINE
  5
F8883
  8
OBJECT
 10
4084.8626959653329
 20
-1264.0
 30
0.0
 11
3915.1373040346671
 21
-1263.9999999999991
 31
0.0
  0
LINE
  5
F8885
  8
OBJECT
 10
3915.1373040346671
 20
-1231.0
 30
0.0
 11
4084.8626959653329
 21
-1231.0
 31
0.0
  0
LINE
  5
F8886
  8
OBJECT
 10
4084.8626959653329
 20
-1231.0
 30
0.0
 11
4084.8626959653329
 21
-1236.0
 31
0.0
  0
LINE
  5
F8887
  8
OBJECT
 10
4084.8626959653329
 20
-1236.0
 30
0.0
 11
3915.1373040346671
 21
-1236.0
 31
0.0
  0
POLYLINE
  5
F889C
  8
SLIM
 66
     1
 10
0.0
 20
0.0
 30
0.0
 70
     1
  0
VERTEX
  5
1001AA
  8
SLIM
 10
4104.5151724426978
 20
-1240.5
 30
0.0
  0
VERTEX
  5
1001AB
  8
SLIM
 10
4099.0303448853956
 20
-1250.0
 30
0.0
  0
VERTEX
  5
1001AC
  8
SLIM
 10
4104.5151724426978
 20
-1259.5
 30
0.0
  0
VERTEX
  5
1001AD
  8
SLIM
 10
4115.4848275573022
 20
-1259.5
 30
0.0
  0
VERTEX
  5
1001AE
  8
SLIM
 10
4120.9696551146017
 20
-1250.0
 30
0.0
  0
VERTEX
  5
1001AF
  8
SLIM
 10
4115.4848275573022
 20
-1240.5
 30
0.0
  0
SEQEND
  5
1001B0
  8
SLIM
  0
LINE
  5
F88D8
  8
OBJECT
 10
4116.0
 20
-966.49999999999966
 30
0.0
 11
4116.0
 21
-983.49999999999841
 31
0.0
  0
LINE
  5
F88D9
  8
OBJECT
 10
4116.0
 20
-997.49999999999875
 30
0.0
 11
4116.0
 21
-1002.499999999999
 31
0.0
  0
LINE
  5
F88DA
  8
OBJECT
 10
4104.0
 20
-966.49999999999966
 30
0.0
 11
4104.0
 21
-983.49999999999841
 31
0.0
  0
LINE
  5
F88DB
  8
OBJECT
 10
4104.0
 20
-997.49999999999875
 30
0.0
 11
4104.0
 21
-1002.499999999999
 31
0.0
  0
LINE
  5
F88DC
  8
OBJECT
 10
4120.9696551146017
 20
-1006.499999999999
 30
0.0
 11
4120.9696551146017
 21
-1014.499999999999
 31
0.0
  0
LINE
  5
F88DD
  8
OBJECT
 10
4120.9696551146017
 20
-1014.499999999999
 30
0.0
 11
4099.0303448853956
 21
-1014.499999999999
 31
0.0
  0
LINE
  5
F88DE
  8
OBJECT
 10
4099.0303448853956
 20
-1014.499999999999
 30
0.0
 11
4099.0303448853956
 21
-1006.499999999999
 31
0.0
  0
LINE
  5
F88E0
  8
OBJECT
 10
4104.0
 20
-966.49999999999966
 30
0.0
 11
4116.0
 21
-966.49999999999966
 31
0.0
  0
LINE
  5
F88E1
  8
OBJECT
 10
4115.4848275573022
 20
-1006.499999999999
 30
0.0
 11
4115.4848275573022
 21
-1014.499999999999
 31
0.0
  0
LINE
  5
F88E2
  8
OBJECT
 10
4104.5151724426978
 20
-1006.499999999999
 30
0.0
 11
4104.5151724426978
 21
-1014.499999999999
 31
0.0
  0
LINE
  5
F88E5
  8
OBJECT
 10
4120.9696551146017
 20
-983.49999999999841
 30
0.0
 11
4120.9696551146017
 21
-993.49999999999864
 31
0.0
  0
LINE
  5
F88E7
  8
OBJECT
 10
4099.0303448853956
 20
-993.49999999999864
 30
0.0
 11
4099.0303448853956
 21
-983.49999999999841
 31
0.0
  0
LINE
  5
F88E8
  8
OBJECT
 10
4099.0303448853956
 20
-983.49999999999841
 30
0.0
 11
4120.9696551146017
 21
-983.49999999999841
 31
0.0
  0
LINE
  5
F88E9
  8
OBJECT
 10
4115.4848275573022
 20
-983.49999999999841
 30
0.0
 11
4115.4848275573022
 21
-993.49999999999864
 31
0.0
  0
LINE
  5
F88EA
  8
OBJECT
 10
4104.5151724426978
 20
-983.49999999999841
 30
0.0
 11
4104.5151724426978
 21
-993.49999999999864
 31
0.0
  0
ARC
  5
F88FA
  8
HIDDEN
 10
4000.0
 20
-1000.0
 30
0.0
 40
79.5
 50
6.9999999999797442
 51
173.00000000002021
  0
ARC
  5
F8902
  8
HIDDEN
 10
4000.0
 20
-1000.0
 30
0.0
 40
83.499999999999986
 50
6.9999999999797442
 51
173.00000000002021
  0
ARC
  5
F8904
  8
OBJECT
 10
4000.0
 20
-1000.0
 30
0.0
 40
85.5
 50
6.9999999999797442
 51
173.00000000002021
  0
ARC
  5
F8906
  8
OBJECT
 10
4000.0
 20
-1000.0
 30
0.0
 40
79.500000000000071
 50
1.80205115951329
 51
6.9999999999797442
  0
ARC
  5
F8907
  8
OBJECT
 10
4000.0
 20
-1000.0
 30
0.0
 40
83.500000000000057
 50
4.4646673852900172
 51
6.9999999999797442
  0
LINE
  5
F891E
  8
CENTER
 10
4185.0
 20
-961.49999999999943
 30
0.0
 11
4185.0
 21
-1021.499999999999
 31
0.0
  0
LINE
  5
F891F
  8
OBJECT
 10
4191.0
 20
-966.49999999999966
 30
0.0
 11
4191.0
 21
-983.49999999999841
 31
0.0
  0
LINE
  5
F8921
  8
OBJECT
 10
4179.0
 20
-966.49999999999966
 30
0.0
 11
4179.0
 21
-983.49999999999841
 31
0.0
  0
LINE
  5
F8927
  8
OBJECT
 10
4179.0
 20
-966.49999999999966
 30
0.0
 11
4191.0
 21
-966.49999999999966
 31
0.0
  0
LINE
  5
F8933
  8
OBJECT
 10
4205.0
 20
-993.50000000000045
 30
0.0
 11
4205.0
 21
-997.50000000000125
 31
0.0
  0
LINE
  5
F8934
  8
OBJECT
 10
4205.0
 20
-1002.500000000001
 30
0.0
 11
4205.0
 21
-1006.500000000002
 31
0.0
  0
POLYLINE
  5
F893D
  8
SLIM
 66
     1
 10
0.0
 20
0.0
 30
0.0
 70
     1
  0
VERTEX
  5
1001B1
  8
SLIM
 10
4179.5151724426969
 20
-1240.5
 30
0.0
  0
VERTEX
  5
1001B2
  8
SLIM
 10
4174.0303448853956
 20
-1250.0
 30
0.0
  0
VERTEX
  5
1001B3
  8
SLIM
 10
4179.5151724426969
 20
-1259.5
 30
0.0
  0
VERTEX
  5
1001B4
  8
SLIM
 10
4190.4848275573013
 20
-1259.5
 30
0.0
  0
VERTEX
  5
1001B5
  8
SLIM
 10
4195.9696551146008
 20
-1250.0
 30
0.0
  0
VERTEX
  5
1001B6
  8
SLIM
 10
4190.4848275573013
 20
-1240.5
 30
0.0
  0
SEQEND
  5
1001B7
  8
SLIM
  0
LINE
  5
F893F
  8
CENTER
 10
4185.0
 20
-1175.0
 30
0.0
 11
4185.0
 21
-1271.0
 31
0.0
  0
LINE
  5
F8B60
  8
OBJECT
 10
4169.0
 20
-1231.0
 30
0.0
 11
4201.0
 21
-1231.0
 31
0.0
  0
LINE
  5
F8B61
  8
OBJECT
 10
4169.0
 20
-1221.0000000000009
 30
0.0
 11
4180.5
 21
-1221.0000000000009
 31
0.0
  0
LINE
  5
F8B62
  8
OBJECT
 10
4169.0
 20
-1205.0
 30
0.0
 11
4201.0
 21
-1205.0
 31
0.0
  0
LINE
  5
F8B65
  8
OBJECT
 10
4189.5
 20
-1224.0
 30
0.0
 11
4189.5
 21
-1215.0
 31
0.0
  0
LINE
  5
F8B66
  8
OBJECT
 10
4189.5
 20
-1215.0
 30
0.0
 11
4180.5
 21
-1215.0
 31
0.0
  0
LINE
  5
F8B67
  8
OBJECT
 10
4180.5
 20
-1215.0
 30
0.0
 11
4180.5
 21
-1224.0
 31
0.0
  0
LINE
  5
F8B68
  8
OBJECT
 10
4180.5
 20
-1224.0
 30
0.0
 11
4189.5
 21
-1224.0
 31
0.0
  0
LINE
  5
F8B69
  8
OBJECT
 10
4189.5
 20
-1221.0000000000009
 30
0.0
 11
4201.0
 21
-1221.0000000000009
 31
0.0
  0
LINE
  5
F8B6F
  8
OBJECT
 10
4175.1850454237756
 20
-1205.0
 30
0.0
 11
4194.8149545762226
 21
-1205.0
 31
0.0
  0
LINE
  5
F8B70
  8
OBJECT
 10
4194.8149545762226
 20
-1205.0
 30
0.0
 11
4194.8149545762226
 21
-1190.0
 31
0.0
  0
LINE
  5
F8B71
  8
OBJECT
 10
4194.8149545762226
 20
-1190.0
 30
0.0
 11
4175.1850454237756
 21
-1190.0
 31
0.0
  0
LINE
  5
F8B72
  8
OBJECT
 10
4175.1850454237756
 20
-1190.0
 30
0.0
 11
4175.1850454237756
 21
-1205.0
 31
0.0
  0
LINE
  5
F8B73
  8
OBJECT
 10
4180.0925227118878
 20
-1190.0
 30
0.0
 11
4180.0925227118878
 21
-1205.0
 31
0.0
  0
LINE
  5
F8B74
  8
OBJECT
 10
4189.9074772881113
 20
-1190.0
 30
0.0
 11
4189.9074772881113
 21
-1205.0
 31
0.0
  0
LINE
  5
F8B75
  8
OBJECT
 10
4169.0
 20
-1205.0
 30
0.0
 11
4169.0
 21
-1234.0
 31
0.0
  0
LINE
  5
F8B76
  8
OBJECT
 10
4201.0
 20
-1205.0
 30
0.0
 11
4201.0
 21
-1234.0
 31
0.0
  0
LINE
  5
F8B85
  8
OBJECT
 10
3915.1373040346671
 20
-1234.0
 30
0.0
 11
3795.0
 21
-1234.0
 31
0.0
  0
LINE
  5
F8B86
  8
OBJECT
 10
3795.0
 20
-1234.0
 30
0.0
 11
3795.0
 21
-1266.0
 31
0.0
  0
LINE
  5
F8B87
  8
OBJECT
 10
3795.0
 20
-1266.0
 30
0.0
 11
3915.1373040346671
 21
-1266.0
 31
0.0
  0
LINE
  5
F8B88
  8
OBJECT
 10
3831.0
 20
-1205.0
 30
0.0
 11
3799.0
 21
-1205.0
 31
0.0
  0
LINE
  5
F8B8A
  8
OBJECT
 10
3831.0
 20
-1221.0000000000009
 30
0.0
 11
3819.5
 21
-1221.0000000000009
 31
0.0
  0
LINE
  5
F8B8B
  8
OBJECT
 10
3810.5000000000009
 20
-1221.0000000000009
 30
0.0
 11
3799.0
 21
-1221.0000000000009
 31
0.0
  0
LINE
  5
F8B8C
  8
OBJECT
 10
3831.0
 20
-1231.0
 30
0.0
 11
3799.0
 21
-1231.0
 31
0.0
  0
LINE
  5
F8B8D
  8
OBJECT
 10
3916.7533784469292
 20
-1236.0
 30
0.0
 11
3916.7533784469292
 21
-1264.0
 31
0.0
  0
LINE
  5
F8B8E
  8
OBJECT
 10
3915.1373040346671
 20
-1269.0
 30
0.0
 11
3915.1373040346671
 21
-1264.0
 31
0.0
  0
LINE
  5
F8B8F
  8
OBJECT
 10
3915.1373040346671
 20
-1231.0
 30
0.0
 11
3915.1373040346671
 21
-1236.0
 31
0.0
  0
POLYLINE
  5
F8B90
  8
SLIM
 66
     1
 10
0.0
 20
0.0
 30
0.0
 70
     1
  0
VERTEX
  5
1001B8
  8
SLIM
 10
3895.4848275573022
 20
-1240.5
 30
0.0
  0
VERTEX
  5
1001B9
  8
SLIM
 10
3900.9696551146039
 20
-1250.0
 30
0.0
  0
VERTEX
  5
1001BA
  8
SLIM
 10
3895.4848275573022
 20
-1259.5
 30
0.0
  0
VERTEX
  5
1001BB
  8
SLIM
 10
3884.5151724426992
 20
-1259.5
 30
0.0
  0
VERTEX
  5
1001BC
  8
SLIM
 10
3879.0303448853979
 20
-1250.0
 30
0.0
  0
VERTEX
  5
1001BD
  8
SLIM
 10
3884.5151724426992
 20
-1240.5
 30
0.0
  0
SEQEND
  5
1001BE
  8
SLIM
  0
POLYLINE
  5
F8B93
  8
SLIM
 66
     1
 10
0.0
 20
0.0
 30
0.0
 70
     1
  0
VERTEX
  5
1001BF
  8
SLIM
 10
3820.4848275573008
 20
-1240.5
 30
0.0
  0
VERTEX
  5
1001C0
  8
SLIM
 10
3825.9696551146039
 20
-1250.0
 30
0.0
  0
VERTEX
  5
1001C1
  8
SLIM
 10
3820.4848275573008
 20
-1259.5
 30
0.0
  0
VERTEX
  5
1001C2
  8
SLIM
 10
3809.5151724426992
 20
-1259.5
 30
0.0
  0
VERTEX
  5
1001C3
  8
SLIM
 10
3804.030344885397
 20
-1250.0
 30
0.0
  0
VERTEX
  5
1001C4
  8
SLIM
 10
3809.5151724426992
 20
-1240.5
 30
0.0
  0
SEQEND
  5
1001C5
  8
SLIM
  0
LINE
  5
F8B95
  8
CENTER
 10
3815.0
 20
-1175.0
 30
0.0
 11
3815.0
 21
-1271.0
 31
0.0
  0
LINE
  5
F8B99
  8
OBJECT
 10
3810.5000000000009
 20
-1224.0
 30
0.0
 11
3810.5000000000009
 21
-1215.0
 31
0.0
  0
LINE
  5
F8B9A
  8
OBJECT
 10
3810.5000000000009
 20
-1215.0
 30
0.0
 11
3819.5
 21
-1215.0
 31
0.0
  0
LINE
  5
F8B9B
  8
OBJECT
 10
3819.5
 20
-1215.0
 30
0.0
 11
3819.5
 21
-1224.0
 31
0.0
  0
LINE
  5
F8B9C
  8
OBJECT
 10
3819.5
 20
-1224.0
 30
0.0
 11
3810.5000000000009
 21
-1224.0
 31
0.0
  0
LINE
  5
F8B9D
  8
OBJECT
 10
3824.814954576224
 20
-1205.0
 30
0.0
 11
3805.185045423776
 21
-1205.0
 31
0.0
  0
LINE
  5
F8B9E
  8
OBJECT
 10
3805.185045423776
 20
-1205.0
 30
0.0
 11
3805.185045423776
 21
-1190.0
 31
0.0
  0
LINE
  5
F8B9F
  8
OBJECT
 10
3805.185045423776
 20
-1190.0
 30
0.0
 11
3824.814954576224
 21
-1190.0
 31
0.0
  0
LINE
  5
F8BA0
  8
OBJECT
 10
3824.814954576224
 20
-1190.0
 30
0.0
 11
3824.814954576224
 21
-1205.0
 31
0.0
  0
LINE
  5
F8BA1
  8
OBJECT
 10
3819.9074772881131
 20
-1190.0
 30
0.0
 11
3819.9074772881131
 21
-1205.0
 31
0.0
  0
LINE
  5
F8BA2
  8
OBJECT
 10
3810.0925227118878
 20
-1190.0
 30
0.0
 11
3810.0925227118878
 21
-1205.0
 31
0.0
  0
LINE
  5
F8BA3
  8
OBJECT
 10
3831.0
 20
-1205.0
 30
0.0
 11
3831.0
 21
-1234.0
 31
0.0
  0
LINE
  5
F8BA4
  8
OBJECT
 10
3799.0
 20
-1205.0
 30
0.0
 11
3799.0
 21
-1234.0
 31
0.0
  0
LINE
  5
F8BBB
  8
OBJECT
 10
4169.0
 20
-983.49999999999966
 30
0.0
 11
4169.0
 21
-1016.499999999999
 31
0.0
  0
LINE
  5
F8BBC
  8
OBJECT
 10
4169.0
 20
-1016.499999999999
 30
0.0
 11
4201.0
 21
-1016.499999999999
 31
0.0
  0
LINE
  5
F8BBD
  8
OBJECT
 10
4201.0
 20
-1016.499999999999
 30
0.0
 11
4201.0
 21
-983.49999999999966
 31
0.0
  0
LINE
  5
F8BBE
  8
OBJECT
 10
4201.0
 20
-983.49999999999966
 30
0.0
 11
4169.0
 21
-983.49999999999966
 31
0.0
  0
LINE
  5
F8BBF
  8
OBJECT
 10
4201.0
 20
-993.50000000000045
 30
0.0
 11
4205.0
 21
-993.50000000000045
 31
0.0
  0
LINE
  5
F8BC0
  8
OBJECT
 10
4201.0
 20
-997.50000000000034
 30
0.0
 11
4205.0
 21
-997.50000000000125
 31
0.0
  0
LINE
  5
F8BC1
  8
OBJECT
 10
4201.0
 20
-1002.5
 30
0.0
 11
4205.0
 21
-1002.500000000001
 31
0.0
  0
LINE
  5
F8BC2
  8
OBJECT
 10
4201.0
 20
-1006.500000000002
 30
0.0
 11
4205.0
 21
-1006.500000000002
 31
0.0
  0
POLYLINE
  5
F8BC5
  8
SLIM
 66
     1
 10
0.0
 20
0.0
 30
0.0
 70
     1
  0
VERTEX
  5
1001C6
  8
SLIM
 10
4180.0925227118878
 20
-991.49999999999966
 30
0.0
  0
VERTEX
  5
1001C7
  8
SLIM
 10
4175.1850454237756
 20
-999.99999999999955
 30
0.0
  0
VERTEX
  5
1001C8
  8
SLIM
 10
4180.0925227118878
 20
-1008.499999999999
 30
0.0
  0
VERTEX
  5
1001C9
  8
SLIM
 10
4189.9074772881113
 20
-1008.499999999999
 30
0.0
  0
VERTEX
  5
1001CA
  8
SLIM
 10
4194.8149545762226
 20
-999.99999999999955
 30
0.0
  0
VERTEX
  5
1001CB
  8
SLIM
 10
4189.9074772881113
 20
-991.49999999999966
 30
0.0
  0
SEQEND
  5
1001CC
  8
SLIM
  0
CIRCLE
  5
F8BC6
  8
SLIM
 10
4185.0
 20
-999.99999999999955
 30
0.0
 40
6.3499999999999979
  0
CIRCLE
  5
F8BC8
  8
OBJECT
 10
4185.0
 20
-999.99999999999955
 30
0.0
 40
10.5
  0
LINE
  5
F8BC9
  8
OBJECT
 10
3920.5393178987242
 20
-1002.500000000001
 30
0.0
 11
3831.0
 21
-1002.5
 31
0.0
  0
LINE
  5
F8BCA
  8
OBJECT
 10
3799.0
 20
-1002.5
 30
0.0
 11
3795.0
 21
-1002.500000000001
 31
0.0
  0
LINE
  5
F8BCB
  8
OBJECT
 10
3916.7533784469292
 20
-1006.500000000001
 30
0.0
 11
3831.0
 21
-1006.500000000002
 31
0.0
  0
LINE
  5
F8BCC
  8
OBJECT
 10
3799.0
 20
-1006.500000000002
 30
0.0
 11
3795.0
 21
-1006.500000000002
 31
0.0
  0
LINE
  5
F8BCD
  8
OBJECT
 10
3920.5393178987242
 20
-997.50000000000034
 30
0.0
 11
3831.0
 21
-997.50000000000034
 31
0.0
  0
LINE
  5
F8BCE
  8
OBJECT
 10
3799.0
 20
-997.50000000000034
 30
0.0
 11
3795.0
 21
-997.50000000000125
 31
0.0
  0
LINE
  5
F8BCF
  8
OBJECT
 10
3916.7533784469292
 20
-993.50000000000045
 30
0.0
 11
3831.0
 21
-993.50000000000045
 31
0.0
  0
LINE
  5
F8BD0
  8
OBJECT
 10
3799.0
 20
-993.50000000000045
 30
0.0
 11
3795.0
 21
-993.50000000000045
 31
0.0
  0
LINE
  5
F8BD4
  8
OBJECT
 10
3884.0
 20
-966.49999999999966
 30
0.0
 11
3884.0
 21
-983.49999999999841
 31
0.0
  0
LINE
  5
F8BD5
  8
OBJECT
 10
3884.0
 20
-997.49999999999875
 30
0.0
 11
3884.0
 21
-1002.499999999999
 31
0.0
  0
LINE
  5
F8BD6
  8
OBJECT
 10
3896.0
 20
-966.49999999999966
 30
0.0
 11
3896.0
 21
-983.49999999999841
 31
0.0
  0
LINE
  5
F8BD7
  8
OBJECT
 10
3896.0
 20
-997.49999999999875
 30
0.0
 11
3896.0
 21
-1002.499999999999
 31
0.0
  0
LINE
  5
F8BD8
  8
OBJECT
 10
3879.0303448853979
 20
-1006.499999999999
 30
0.0
 11
3879.0303448853979
 21
-1014.499999999999
 31
0.0
  0
LINE
  5
F8BD9
  8
OBJECT
 10
3879.0303448853979
 20
-1014.499999999999
 30
0.0
 11
3900.9696551146039
 21
-1014.499999999999
 31
0.0
  0
LINE
  5
F8BDA
  8
OBJECT
 10
3900.9696551146039
 20
-1014.499999999999
 30
0.0
 11
3900.9696551146039
 21
-1006.499999999999
 31
0.0
  0
LINE
  5
F8BDC
  8
OBJECT
 10
3896.0
 20
-966.49999999999966
 30
0.0
 11
3884.0
 21
-966.49999999999966
 31
0.0
  0
LINE
  5
F8BDD
  8
OBJECT
 10
3884.5151724426992
 20
-1006.499999999999
 30
0.0
 11
3884.5151724426992
 21
-1014.499999999999
 31
0.0
  0
LINE
  5
F8BDE
  8
OBJECT
 10
3895.4848275573022
 20
-1006.499999999999
 30
0.0
 11
3895.4848275573022
 21
-1014.499999999999
 31
0.0
  0
LINE
  5
F8BE1
  8
OBJECT
 10
3879.0303448853979
 20
-983.49999999999841
 30
0.0
 11
3879.0303448853979
 21
-993.49999999999864
 31
0.0
  0
LINE
  5
F8BE3
  8
OBJECT
 10
3900.9696551146039
 20
-993.49999999999864
 30
0.0
 11
3900.9696551146039
 21
-983.49999999999841
 31
0.0
  0
LINE
  5
F8BE4
  8
OBJECT
 10
3900.9696551146039
 20
-983.49999999999841
 30
0.0
 11
3879.0303448853979
 21
-983.49999999999841
 31
0.0
  0
LINE
  5
F8BE5
  8
OBJECT
 10
3884.5151724426992
 20
-983.49999999999841
 30
0.0
 11
3884.5151724426992
 21
-993.49999999999864
 31
0.0
  0
LINE
  5
F8BE6
  8
OBJECT
 10
3895.4848275573022
 20
-983.49999999999841
 30
0.0
 11
3895.4848275573022
 21
-993.49999999999864
 31
0.0
  0
ARC
  5
F8BE7
  8
OBJECT
 10
4000.0
 20
-1000.0
 30
0.0
 40
79.500000000000071
 50
173.00000000002021
 51
178.19794884048659
  0
ARC
  5
F8BE8
  8
OBJECT
 10
4000.0
 20
-1000.0
 30
0.0
 40
83.500000000000057
 50
173.00000000002021
 51
175.53533261476159
  0
LINE
  5
F8BEB
  8
CENTER
 10
3815.0
 20
-961.49999999999943
 30
0.0
 11
3815.0
 21
-1021.499999999999
 31
0.0
  0
LINE
  5
F8BEC
  8
OBJECT
 10
3809.0
 20
-966.49999999999966
 30
0.0
 11
3809.0
 21
-983.49999999999841
 31
0.0
  0
LINE
  5
F8BED
  8
OBJECT
 10
3821.0
 20
-966.49999999999966
 30
0.0
 11
3821.0
 21
-983.49999999999841
 31
0.0
  0
LINE
  5
F8BEE
  8
OBJECT
 10
3821.0
 20
-966.49999999999966
 30
0.0
 11
3809.0
 21
-966.49999999999966
 31
0.0
  0
LINE
  5
F8BEF
  8
OBJECT
 10
3795.0
 20
-993.50000000000045
 30
0.0
 11
3795.0
 21
-997.50000000000125
 31
0.0
  0
LINE
  5
F8BF0
  8
OBJECT
 10
3795.0
 20
-1002.500000000001
 30
0.0
 11
3795.0
 21
-1006.500000000002
 31
0.0
  0
LINE
  5
F8BF1
  8
OBJECT
 10
3831.0
 20
-983.49999999999966
 30
0.0
 11
3831.0
 21
-1016.499999999999
 31
0.0
  0
LINE
  5
F8BF2
  8
OBJECT
 10
3831.0
 20
-1016.499999999999
 30
0.0
 11
3799.0
 21
-1016.499999999999
 31
0.0
  0
LINE
  5
F8BF4
  8
OBJECT
 10
3799.0
 20
-1016.499999999999
 30
0.0
 11
3799.0
 21
-983.49999999999966
 31
0.0
  0
LINE
  5
F8BF5
  8
OBJECT
 10
3799.0
 20
-983.49999999999966
 30
0.0
 11
3831.0
 21
-983.49999999999966
 31
0.0
  0
POLYLINE
  5
F8BF7
  8
SLIM
 66
     1
 10
0.0
 20
0.0
 30
0.0
 70
     1
  0
VERTEX
  5
1001CD
  8
SLIM
 10
3819.9074772881131
 20
-991.49999999999966
 30
0.0
  0
VERTEX
  5
1001CE
  8
SLIM
 10
3824.814954576224
 20
-999.99999999999955
 30
0.0
  0
VERTEX
  5
1001CF
  8
SLIM
 10
3819.9074772881131
 20
-1008.499999999999
 30
0.0
  0
VERTEX
  5
1001D0
  8
SLIM
 10
3810.0925227118878
 20
-1008.499999999999
 30
0.0
  0
VERTEX
  5
1001D1
  8
SLIM
 10
3805.185045423776
 20
-999.99999999999955
 30
0.0
  0
VERTEX
  5
1001D2
  8
SLIM
 10
3810.0925227118878
 20
-991.49999999999966
 30
0.0
  0
SEQEND
  5
1001D3
  8
SLIM
  0
CIRCLE
  5
F8BF8
  8
SLIM
 10
3815.0
 20
-999.99999999999955
 30
0.0
 40
6.3499999999999979
  0
CIRCLE
  5
F8BFA
  8
OBJECT
 10
3815.0
 20
-999.99999999999955
 30
0.0
 40
10.5
  0
LINE
  5
F8C22
  8
CENTER
 10
3000.0
 20
-913.49999999999989
 30
0.0
 11
3000.0
 21
-1086.5
 31
0.0
  0
ARC
  5
F8C23
  8
OBJECT
 10
3000.0
 20
-1000.0
 30
0.0
 40
63.5
 50
6.9999999999797806
 51
173.0000000000199
  0
LINE
  5
F8C26
  8
OBJECT
 10
3070.9670498423579
 20
-1234.0
 30
0.0
 11
3186.0000000000018
 21
-1234.0
 31
0.0
  0
LINE
  5
F8C27
  8
OBJECT
 10
3186.0000000000018
 20
-1234.0
 30
0.0
 11
3186.0000000000018
 21
-1266.0
 31
0.0
  0
LINE
  5
F8C28
  8
OBJECT
 10
3186.0000000000018
 20
-1266.0
 30
0.0
 11
3070.9670498423579
 21
-1266.0
 31
0.0
  0
LINE
  5
F8C29
  8
CENTER
 10
2798.9999999999991
 20
-1250.0
 30
0.0
 11
3201.0
 21
-1250.0
 31
0.0
  0
LINE
  5
F8C2F
  8
CENTER
 10
3000.0
 20
-1216.0
 30
0.0
 11
3000.0
 21
-1284.0
 31
0.0
  0
LINE
  5
F8C30
  8
OBJECT
 10
3069.2820323027581
 20
-1236.0
 30
0.0
 11
3069.2820323027581
 21
-1264.0
 31
0.0
  0
LINE
  5
F8C31
  8
OBJECT
 10
2929.0329501576512
 20
-1269.0
 30
0.0
 11
3070.9670498423579
 21
-1269.0
 31
0.0
  0
LINE
  5
F8C32
  8
OBJECT
 10
3070.9670498423579
 20
-1269.0
 30
0.0
 11
3070.9670498423579
 21
-1264.0
 31
0.0
  0
LINE
  5
F8C33
  8
OBJECT
 10
3070.9670498423579
 20
-1264.0
 30
0.0
 11
2929.0329501576512
 21
-1263.9999999999991
 31
0.0
  0
LINE
  5
F8C34
  8
OBJECT
 10
2929.0329501576512
 20
-1230.9999999999991
 30
0.0
 11
3070.9670498423579
 21
-1231.0
 31
0.0
  0
LINE
  5
F8C35
  8
OBJECT
 10
3070.9670498423579
 20
-1231.0
 30
0.0
 11
3070.9670498423579
 21
-1236.0
 31
0.0
  0
LINE
  5
F8C36
  8
OBJECT
 10
3070.9670498423579
 20
-1236.0
 30
0.0
 11
2929.0329501576512
 21
-1236.0
 31
0.0
  0
ARC
  5
F8C53
  8
HIDDEN
 10
3000.0
 20
-1000.0
 30
0.0
 40
66.5
 50
6.9999999999797531
 51
173.00000000002001
  0
ARC
  5
F8C54
  8
HIDDEN
 10
3000.0
 20
-1000.0
 30
0.0
 40
69.5
 50
6.9999999999797531
 51
173.00000000002009
  0
ARC
  5
F8C55
  8
OBJECT
 10
3000.0
 20
-1000.0
 30
0.0
 40
71.5
 50
6.9999999999797309
 51
173.00000000002021
  0
ARC
  5
F8D16
  8
OBJECT
 10
3000.0
 20
-1000.0
 30
0.0
 40
66.499999999999929
 50
2.154484368370956
 51
6.9999999999797531
  0
ARC
  5
F8D17
  8
OBJECT
 10
3000.0
 20
-1000.0
 30
0.0
 40
69.499999999999972
 50
4.5389444232232146
 51
6.9999999999797531
  0
LINE
  5
F8D7D
  8
OBJECT
 10
3104.814954576224
 20
-1005.499999999998
 30
0.0
 11
3104.814954576224
 21
-1012.499999999998
 31
0.0
  0
LINE
  5
F8D7E
  8
OBJECT
 10
3104.814954576224
 20
-1012.499999999998
 30
0.0
 11
3085.185045423776
 21
-1012.499999999998
 31
0.0
  0
LINE
  5
F8D7F
  8
OBJECT
 10
3085.185045423776
 20
-1012.499999999998
 30
0.0
 11
3085.185045423776
 21
-1005.499999999998
 31
0.0
  0
LINE
  5
F8D81
  8
OBJECT
 10
3099.9074772881131
 20
-1005.499999999998
 30
0.0
 11
3099.9074772881131
 21
-1012.499999999998
 31
0.0
  0
LINE
  5
F8D82
  8
OBJECT
 10
3100.0
 20
-1002.499999999999
 30
0.0
 11
3100.0
 21
-997.49999999999989
 31
0.0
  0
LINE
  5
F8D83
  8
OBJECT
 10
3100.0
 20
-986.5
 30
0.0
 11
3100.0
 21
-975.49999999999807
 31
0.0
  0
LINE
  5
F8D84
  8
OBJECT
 10
3090.0
 20
-1002.499999999999
 30
0.0
 11
3090.0000000000018
 21
-997.49999999999989
 31
0.0
  0
LINE
  5
F8D85
  8
OBJECT
 10
3090.0
 20
-986.5
 30
0.0
 11
3090.0
 21
-975.49999999999807
 31
0.0
  0
LINE
  5
F8D86
  8
OBJECT
 10
3100.0
 20
-975.49999999999807
 30
0.0
 11
3090.0
 21
-975.49999999999807
 31
0.0
  0
LINE
  5
F8D87
  8
OBJECT
 10
3090.0925227118878
 20
-1005.499999999998
 30
0.0
 11
3090.0925227118878
 21
-1012.499999999998
 31
0.0
  0
LINE
  5
F8D88
  8
OBJECT
 10
3104.814954576224
 20
-986.5
 30
0.0
 11
3104.814954576224
 21
-994.5
 31
0.0
  0
LINE
  5
F8D8A
  8
OBJECT
 10
3085.185045423776
 20
-994.5
 30
0.0
 11
3085.185045423776
 21
-986.5
 31
0.0
  0
LINE
  5
F8D8B
  8
OBJECT
 10
3085.185045423776
 20
-986.5
 30
0.0
 11
3104.814954576224
 21
-986.5
 31
0.0
  0
LINE
  5
F8D8C
  8
OBJECT
 10
3099.9074772881131
 20
-986.5
 30
0.0
 11
3099.9074772881131
 21
-994.5
 31
0.0
  0
LINE
  5
F8D8D
  8
OBJECT
 10
3090.0925227118878
 20
-986.5
 30
0.0
 11
3090.0925227118878
 21
-994.5
 31
0.0
  0
LINE
  5
F8DA7
  8
OBJECT
 10
2895.185045423776
 20
-1005.499999999998
 30
0.0
 11
2895.185045423776
 21
-1012.499999999998
 31
0.0
  0
LINE
  5
F8DA8
  8
OBJECT
 10
2895.185045423776
 20
-1012.499999999998
 30
0.0
 11
2914.814954576224
 21
-1012.499999999998
 31
0.0
  0
LINE
  5
F8DA9
  8
OBJECT
 10
2914.814954576224
 20
-1012.499999999998
 30
0.0
 11
2914.814954576224
 21
-1005.499999999998
 31
0.0
  0
LINE
  5
F8DAB
  8
OBJECT
 10
2900.0925227118892
 20
-1005.499999999998
 30
0.0
 11
2900.0925227118892
 21
-1012.499999999998
 31
0.0
  0
LINE
  5
F8DAC
  8
OBJECT
 10
2900.0
 20
-1002.499999999999
 30
0.0
 11
2900.0
 21
-997.49999999999989
 31
0.0
  0
LINE
  5
F8DAD
  8
OBJECT
 10
2900.0
 20
-986.5
 30
0.0
 11
2900.0
 21
-975.49999999999807
 31
0.0
  0
LINE
  5
F8DAE
  8
OBJECT
 10
2910.0000000000018
 20
-1002.499999999999
 30
0.0
 11
2910.0
 21
-997.49999999999989
 31
0.0
  0
LINE
  5
F8DAF
  8
OBJECT
 10
2910.0
 20
-986.5
 30
0.0
 11
2910.0
 21
-975.49999999999807
 31
0.0
  0
LINE
  5
F8DB0
  8
OBJECT
 10
2900.0
 20
-975.49999999999807
 30
0.0
 11
2910.0
 21
-975.49999999999807
 31
0.0
  0
LINE
  5
F8DB1
  8
OBJECT
 10
2909.9074772881131
 20
-1005.499999999998
 30
0.0
 11
2909.9074772881131
 21
-1012.499999999998
 31
0.0
  0
LINE
  5
F8DB2
  8
OBJECT
 10
2895.185045423776
 20
-986.5
 30
0.0
 11
2895.185045423776
 21
-994.5
 31
0.0
  0
LINE
  5
F8DB4
  8
OBJECT
 10
2914.814954576224
 20
-994.5
 30
0.0
 11
2914.814954576224
 21
-986.5
 31
0.0
  0
LINE
  5
F8DB5
  8
OBJECT
 10
2914.814954576224
 20
-986.5
 30
0.0
 11
2895.185045423776
 21
-986.5
 31
0.0
  0
LINE
  5
F8DB6
  8
OBJECT
 10
2900.0925227118892
 20
-986.5
 30
0.0
 11
2900.0925227118892
 21
-994.5
 31
0.0
  0
LINE
  5
F8DB7
  8
OBJECT
 10
2909.9074772881131
 20
-986.5
 30
0.0
 11
2909.9074772881131
 21
-994.5
 31
0.0
  0
ARC
  5
F8DBF
  8
OBJECT
 10
3000.0
 20
-1000.0
 30
0.0
 40
66.499999999999929
 50
173.00000000002001
 51
177.8455156316289
  0
ARC
  5
F8DC0
  8
OBJECT
 10
3000.0
 20
-1000.0
 30
0.0
 40
69.499999999999972
 50
173.00000000002009
 51
175.4610555767768
  0
POLYLINE
  5
F8DC9
  8
SLIM
 66
     1
 10
0.0
 20
0.0
 30
0.0
 70
     1
  0
VERTEX
  5
1001D4
  8
SLIM
 10
3165.0925227118878
 20
-1241.5
 30
0.0
  0
VERTEX
  5
1001D5
  8
SLIM
 10
3160.185045423776
 20
-1250.0
 30
0.0
  0
VERTEX
  5
1001D6
  8
SLIM
 10
3165.0925227118878
 20
-1258.5
 30
0.0
  0
VERTEX
  5
1001D7
  8
SLIM
 10
3174.9074772881122
 20
-1258.5
 30
0.0
  0
VERTEX
  5
1001D8
  8
SLIM
 10
3179.814954576224
 20
-1250.0
 30
0.0
  0
VERTEX
  5
1001D9
  8
SLIM
 10
3174.9074772881122
 20
-1241.5
 30
0.0
  0
SEQEND
  5
1001DA
  8
SLIM
  0
LINE
  5
F8DCB
  8
CENTER
 10
3170.0
 20
-1186.5999999999999
 30
0.0
 11
3170.0
 21
-1270.9999999999991
 31
0.0
  0
POLYLINE
  5
F8DCC
  8
SLIM
 66
     1
 10
0.0
 20
0.0
 30
0.0
 70
     1
  0
VERTEX
  5
1001DB
  8
SLIM
 10
3090.0925227118878
 20
-1241.5
 30
0.0
  0
VERTEX
  5
1001DC
  8
SLIM
 10
3085.185045423776
 20
-1250.0
 30
0.0
  0
VERTEX
  5
1001DD
  8
SLIM
 10
3090.0925227118878
 20
-1258.5
 30
0.0
  0
VERTEX
  5
1001DE
  8
SLIM
 10
3099.9074772881131
 20
-1258.5
 30
0.0
  0
VERTEX
  5
1001DF
  8
SLIM
 10
3104.814954576224
 20
-1250.0
 30
0.0
  0
VERTEX
  5
1001E0
  8
SLIM
 10
3099.9074772881131
 20
-1241.5
 30
0.0
  0
SEQEND
  5
1001E1
  8
SLIM
  0
LINE
  5
F8DCF
  8
OBJECT
 10
2929.0329501576512
 20
-1234.0
 30
0.0
 11
2814.0
 21
-1234.0
 31
0.0
  0
LINE
  5
F8DD0
  8
OBJECT
 10
2814.0
 20
-1234.0
 30
0.0
 11
2814.0
 21
-1266.0
 31
0.0
  0
LINE
  5
F8DD1
  8
OBJECT
 10
2814.0
 20
-1266.0
 30
0.0
 11
2929.0329501576512
 21
-1266.0
 31
0.0
  0
LINE
  5
F8DD2
  8
OBJECT
 10
2930.717967697241
 20
-1236.0
 30
0.0
 11
2930.717967697241
 21
-1264.0
 31
0.0
  0
LINE
  5
F8DD3
  8
OBJECT
 10
2929.0329501576512
 20
-1269.0
 30
0.0
 11
2929.0329501576512
 21
-1264.0
 31
0.0
  0
LINE
  5
F8DD4
  8
OBJECT
 10
2929.0329501576512
 20
-1231.0
 30
0.0
 11
2929.0329501576512
 21
-1236.0
 31
0.0
  0
POLYLINE
  5
F8DD5
  8
SLIM
 66
     1
 10
0.0
 20
0.0
 30
0.0
 70
     1
  0
VERTEX
  5
1001E2
  8
SLIM
 10
2834.9074772881122
 20
-1241.5
 30
0.0
  0
VERTEX
  5
1001E3
  8
SLIM
 10
2839.814954576224
 20
-1250.0
 30
0.0
  0
VERTEX
  5
1001E4
  8
SLIM
 10
2834.9074772881122
 20
-1258.5
 30
0.0
  0
VERTEX
  5
1001E5
  8
SLIM
 10
2825.0925227118892
 20
-1258.5
 30
0.0
  0
VERTEX
  5
1001E6
  8
SLIM
 10
2820.185045423776
 20
-1250.0
 30
0.0
  0
VERTEX
  5
1001E7
  8
SLIM
 10
2825.0925227118892
 20
-1241.5
 30
0.0
  0
SEQEND
  5
1001E8
  8
SLIM
  0
LINE
  5
F8DD7
  8
CENTER
 10
2830.0
 20
-1186.5999999999999
 30
0.0
 11
2830.0
 21
-1270.9999999999991
 31
0.0
  0
POLYLINE
  5
F8DD8
  8
SLIM
 66
     1
 10
0.0
 20
0.0
 30
0.0
 70
     1
  0
VERTEX
  5
1001E9
  8
SLIM
 10
2909.9074772881131
 20
-1241.5
 30
0.0
  0
VERTEX
  5
1001EA
  8
SLIM
 10
2914.814954576224
 20
-1250.0
 30
0.0
  0
VERTEX
  5
1001EB
  8
SLIM
 10
2909.9074772881131
 20
-1258.5
 30
0.0
  0
VERTEX
  5
1001EC
  8
SLIM
 10
2900.0925227118892
 20
-1258.5
 30
0.0
  0
VERTEX
  5
1001ED
  8
SLIM
 10
2895.185045423776
 20
-1250.0
 30
0.0
  0
VERTEX
  5
1001EE
  8
SLIM
 10
2900.0925227118892
 20
-1241.5
 30
0.0
  0
SEQEND
  5
1001EF
  8
SLIM
  0
LINE
  5
F8DE4
  8
CENTER
 10
2000.0
 20
-913.29999999999995
 30
0.0
 11
2000.0
 21
-1086.7
 31
0.0
  0
ARC
  5
F8DE5
  8
OBJECT
 10
2000.0
 20
-1000.0
 30
0.0
 40
63.5
 50
6.9999999999797309
 51
173.00000000002021
  0
LINE
  5
F8DE8
  8
OBJECT
 10
2071.1655590726859
 20
-1234.0
 30
0.0
 11
2186.0000000000009
 21
-1234.0
 31
0.0
  0
LINE
  5
F8DE9
  8
OBJECT
 10
2186.0000000000009
 20
-1234.0
 30
0.0
 11
2186.0000000000009
 21
-1266.0
 31
0.0
  0
LINE
  5
F8DEA
  8
OBJECT
 10
2186.0000000000009
 20
-1266.0
 30
0.0
 11
2071.1655590726859
 21
-1266.0
 31
0.0
  0
LINE
  5
F8DEB
  8
CENTER
 10
1799.0
 20
-1250.0
 30
0.0
 11
2201.0
 21
-1250.0
 31
0.0
  0
LINE
  5
F8DEC
  8
CENTER
 10
2000.0
 20
-1216.0
 30
0.0
 11
2000.0
 21
-1284.0
 31
0.0
  0
LINE
  5
F8DED
  8
OBJECT
 10
2069.4665387074961
 20
-1236.0
 30
0.0
 11
2069.4665387074961
 21
-1264.0
 31
0.0
  0
LINE
  5
F8DEE
  8
OBJECT
 10
1928.834440927322
 20
-1269.0
 30
0.0
 11
2071.1655590726859
 21
-1269.0
 31
0.0
  0
LINE
  5
F8DEF
  8
OBJECT
 10
2071.1655590726859
 20
-1269.0
 30
0.0
 11
2071.1655590726859
 21
-1264.0
 31
0.0
  0
LINE
  5
F8DF0
  8
OBJECT
 10
2071.1655590726859
 20
-1264.0
 30
0.0
 11
1928.834440927322
 21
-1264.0
 31
0.0
  0
LINE
  5
F8DF1
  8
OBJECT
 10
1928.834440927322
 20
-1231.0
 30
0.0
 11
2071.1655590726859
 21
-1231.0
 31
0.0
  0
LINE
  5
F8DF2
  8
OBJECT
 10
2071.1655590726859
 20
-1231.0
 30
0.0
 11
2071.1655590726859
 21
-1236.0
 31
0.0
  0
LINE
  5
F8DF3
  8
OBJECT
 10
2071.1655590726859
 20
-1236.0
 30
0.0
 11
1928.834440927322
 21
-1236.0
 31
0.0
  0
ARC
  5
F8DF8
  8
HIDDEN
 10
2000.0
 20
-1000.0
 30
0.0
 40
66.5
 50
6.9999999999797309
 51
173.00000000002021
  0
ARC
  5
F8DF9
  8
HIDDEN
 10
2000.0
 20
-1000.0
 30
0.0
 40
69.700000000000003
 50
6.9999999999797309
 51
173.00000000002021
  0
ARC
  5
F8DFA
  8
OBJECT
 10
2000.0
 20
-1000.0
 30
0.0
 40
71.700000000000003
 50
6.9999999999797309
 51
173.00000000002021
  0
ARC
  5
F8DFE
  8
OBJECT
 10
2000.0
 20
-1000.0
 30
0.0
 40
66.499999999999929
 50
2.154484368370956
 51
6.9999999999797309
  0
ARC
  5
F8DFF
  8
OBJECT
 10
2000.0
 20
-1000.0
 30
0.0
 40
69.700000000000003
 50
4.6908331055526462
 51
6.9999999999797309
  0
LINE
  5
F8E1A
  8
OBJECT
 10
2104.814954576224
 20
-1005.699999999998
 30
0.0
 11
2104.814954576224
 21
-1012.699999999998
 31
0.0
  0
LINE
  5
F8E1B
  8
OBJECT
 10
2104.814954576224
 20
-1012.699999999998
 30
0.0
 11
2085.185045423777
 21
-1012.699999999998
 31
0.0
  0
LINE
  5
F8E1C
  8
OBJECT
 10
2085.185045423777
 20
-1012.699999999998
 30
0.0
 11
2085.185045423777
 21
-1005.699999999998
 31
0.0
  0
LINE
  5
F8E1E
  8
OBJECT
 10
2099.9074772881122
 20
-1005.699999999998
 30
0.0
 11
2099.9074772881122
 21
-1012.699999999998
 31
0.0
  0
LINE
  5
F8E1F
  8
OBJECT
 10
2100.0
 20
-1002.499999999999
 30
0.0
 11
2100.0
 21
-997.49999999999989
 31
0.0
  0
LINE
  5
F8E20
  8
OBJECT
 10
2100.0
 20
-986.29999999999995
 30
0.0
 11
2100.0
 21
-975.699999999998
 31
0.0
  0
LINE
  5
F8E21
  8
OBJECT
 10
2090.0
 20
-1002.499999999999
 30
0.0
 11
2090.0000000000009
 21
-997.49999999999989
 31
0.0
  0
LINE
  5
F8E22
  8
OBJECT
 10
2090.0000000000009
 20
-986.29999999999995
 30
0.0
 11
2090.0000000000009
 21
-975.699999999998
 31
0.0
  0
LINE
  5
F8E23
  8
OBJECT
 10
2100.0
 20
-975.699999999998
 30
0.0
 11
2090.0000000000009
 21
-975.699999999998
 31
0.0
  0
LINE
  5
F8E24
  8
OBJECT
 10
2090.0925227118878
 20
-1005.699999999998
 30
0.0
 11
2090.0925227118878
 21
-1012.699999999998
 31
0.0
  0
LINE
  5
F8E25
  8
OBJECT
 10
2104.814954576224
 20
-986.29999999999995
 30
0.0
 11
2104.814954576224
 21
-994.29999999999995
 31
0.0
  0
LINE
  5
F8E27
  8
OBJECT
 10
2085.185045423777
 20
-994.29999999999995
 30
0.0
 11
2085.185045423777
 21
-986.29999999999995
 31
0.0
  0
LINE
  5
F8E28
  8
OBJECT
 10
2085.185045423777
 20
-986.29999999999995
 30
0.0
 11
2104.814954576224
 21
-986.29999999999995
 31
0.0
  0
LINE
  5
F8E29
  8
OBJECT
 10
2099.9074772881122
 20
-986.29999999999995
 30
0.0
 11
2099.9074772881122
 21
-994.29999999999995
 31
0.0
  0
LINE
  5
F8E2A
  8
OBJECT
 10
2090.0925227118878
 20
-986.29999999999995
 30
0.0
 11
2090.0925227118878
 21
-994.29999999999995
 31
0.0
  0
ARC
  5
F8E5C
  8
OBJECT
 10
2000.0
 20
-1000.0
 30
0.0
 40
66.499999999999929
 50
173.00000000002021
 51
177.8455156316289
  0
ARC
  5
F8E5D
  8
OBJECT
 10
2000.0
 20
-1000.0
 30
0.0
 40
69.700000000000003
 50
173.00000000002021
 51
175.30916689444729
  0
POLYLINE
  5
F8E61
  8
SLIM
 66
     1
 10
0.0
 20
0.0
 30
0.0
 70
     1
  0
VERTEX
  5
1001F0
  8
SLIM
 10
2165.0925227118878
 20
-1241.5
 30
0.0
  0
VERTEX
  5
1001F1
  8
SLIM
 10
2160.185045423776
 20
-1250.0
 30
0.0
  0
VERTEX
  5
1001F2
  8
SLIM
 10
2165.0925227118878
 20
-1258.5
 30
0.0
  0
VERTEX
  5
1001F3
  8
SLIM
 10
2174.9074772881122
 20
-1258.5
 30
0.0
  0
VERTEX
  5
1001F4
  8
SLIM
 10
2179.814954576224
 20
-1250.0
 30
0.0
  0
VERTEX
  5
1001F5
  8
SLIM
 10
2174.9074772881122
 20
-1241.5
 30
0.0
  0
SEQEND
  5
1001F6
  8
SLIM
  0
LINE
  5
F8E63
  8
CENTER
 10
2170.0000000000009
 20
-1186.5999999999999
 30
0.0
 11
2170.0000000000009
 21
-1270.9999999999991
 31
0.0
  0
POLYLINE
  5
F8E64
  8
SLIM
 66
     1
 10
0.0
 20
0.0
 30
0.0
 70
     1
  0
VERTEX
  5
1001F7
  8
SLIM
 10
2090.0925227118878
 20
-1241.5
 30
0.0
  0
VERTEX
  5
1001F8
  8
SLIM
 10
2085.185045423777
 20
-1250.0
 30
0.0
  0
VERTEX
  5
1001F9
  8
SLIM
 10
2090.0925227118878
 20
-1258.5
 30
0.0
  0
VERTEX
  5
1001FA
  8
SLIM
 10
2099.9074772881122
 20
-1258.5
 30
0.0
  0
VERTEX
  5
1001FB
  8
SLIM
 10
2104.814954576224
 20
-1250.0
 30
0.0
  0
VERTEX
  5
1001FC
  8
SLIM
 10
2099.9074772881122
 20
-1241.5
 30
0.0
  0
SEQEND
  5
1001FD
  8
SLIM
  0
LINE
  5
F8E67
  8
OBJECT
 10
1928.834440927322
 20
-1234.0
 30
0.0
 11
1814.0
 21
-1234.0
 31
0.0
  0
LINE
  5
F8E68
  8
OBJECT
 10
1814.0
 20
-1234.0
 30
0.0
 11
1814.0
 21
-1266.0
 31
0.0
  0
LINE
  5
F8E69
  8
OBJECT
 10
1814.0
 20
-1266.0
 30
0.0
 11
1928.834440927322
 21
-1266.0
 31
0.0
  0
POLYLINE
  5
F8E6D
  8
SLIM
 66
     1
 10
0.0
 20
0.0
 30
0.0
 70
     1
  0
VERTEX
  5
1001FE
  8
SLIM
 10
1834.907477288112
 20
-1241.5
 30
0.0
  0
VERTEX
  5
1001FF
  8
SLIM
 10
1839.814954576224
 20
-1250.0
 30
0.0
  0
VERTEX
  5
100200
  8
SLIM
 10
1834.907477288112
 20
-1258.5
 30
0.0
  0
VERTEX
  5
100201
  8
SLIM
 10
1825.092522711888
 20
-1258.5
 30
0.0
  0
VERTEX
  5
100202
  8
SLIM
 10
1820.185045423776
 20
-1250.0
 30
0.0
  0
VERTEX
  5
100203
  8
SLIM
 10
1825.092522711888
 20
-1241.5
 30
0.0
  0
SEQEND
  5
100204
  8
SLIM
  0
LINE
  5
F8E6F
  8
CENTER
 10
1830.0
 20
-1186.5999999999999
 30
0.0
 11
1830.0
 21
-1270.9999999999991
 31
0.0
  0
POLYLINE
  5
F8E70
  8
SLIM
 66
     1
 10
0.0
 20
0.0
 30
0.0
 70
     1
  0
VERTEX
  5
100205
  8
SLIM
 10
1909.907477288112
 20
-1241.5
 30
0.0
  0
VERTEX
  5
100206
  8
SLIM
 10
1914.814954576224
 20
-1250.0
 30
0.0
  0
VERTEX
  5
100207
  8
SLIM
 10
1909.907477288112
 20
-1258.5
 30
0.0
  0
VERTEX
  5
100208
  8
SLIM
 10
1900.092522711888
 20
-1258.5
 30
0.0
  0
VERTEX
  5
100209
  8
SLIM
 10
1895.185045423776
 20
-1250.0
 30
0.0
  0
VERTEX
  5
10020A
  8
SLIM
 10
1900.092522711888
 20
-1241.5
 30
0.0
  0
SEQEND
  5
10020B
  8
SLIM
  0
LINE
  5
F8E8D
  8
OBJECT
 10
1895.185045423776
 20
-1005.699999999998
 30
0.0
 11
1895.185045423776
 21
-1012.699999999998
 31
0.0
  0
LINE
  5
F8E8E
  8
OBJECT
 10
1895.185045423776
 20
-1012.699999999998
 30
0.0
 11
1914.814954576224
 21
-1012.699999999998
 31
0.0
  0
LINE
  5
F8E8F
  8
OBJECT
 10
1914.814954576224
 20
-1012.699999999998
 30
0.0
 11
1914.814954576224
 21
-1005.699999999998
 31
0.0
  0
LINE
  5
F8E91
  8
OBJECT
 10
1900.092522711888
 20
-1005.699999999998
 30
0.0
 11
1900.092522711888
 21
-1012.699999999998
 31
0.0
  0
LINE
  5
F8E92
  8
OBJECT
 10
1900.0
 20
-1002.499999999999
 30
0.0
 11
1900.0
 21
-997.49999999999989
 31
0.0
  0
LINE
  5
F8E93
  8
OBJECT
 10
1900.0
 20
-986.29999999999995
 30
0.0
 11
1900.0
 21
-975.699999999998
 31
0.0
  0
LINE
  5
F8E94
  8
OBJECT
 10
1910.0
 20
-1002.499999999999
 30
0.0
 11
1910.0
 21
-997.49999999999989
 31
0.0
  0
LINE
  5
F8E95
  8
OBJECT
 10
1910.0
 20
-986.29999999999995
 30
0.0
 11
1910.0
 21
-975.699999999998
 31
0.0
  0
LINE
  5
F8E96
  8
OBJECT
 10
1900.0
 20
-975.699999999998
 30
0.0
 11
1910.0
 21
-975.699999999998
 31
0.0
  0
LINE
  5
F8E97
  8
OBJECT
 10
1909.907477288112
 20
-1005.699999999998
 30
0.0
 11
1909.907477288112
 21
-1012.699999999998
 31
0.0
  0
LINE
  5
F8E98
  8
OBJECT
 10
1895.185045423776
 20
-986.29999999999995
 30
0.0
 11
1895.185045423776
 21
-994.29999999999995
 31
0.0
  0
LINE
  5
F8E9A
  8
OBJECT
 10
1914.814954576224
 20
-994.29999999999995
 30
0.0
 11
1914.814954576224
 21
-986.29999999999995
 31
0.0
  0
LINE
  5
F8E9B
  8
OBJECT
 10
1914.814954576224
 20
-986.29999999999995
 30
0.0
 11
1895.185045423776
 21
-986.29999999999995
 31
0.0
  0
LINE
  5
F8E9C
  8
OBJECT
 10
1900.092522711888
 20
-986.29999999999995
 30
0.0
 11
1900.092522711888
 21
-994.29999999999995
 31
0.0
  0
LINE
  5
F8E9D
  8
OBJECT
 10
1909.907477288112
 20
-986.29999999999995
 30
0.0
 11
1909.907477288112
 21
-994.29999999999995
 31
0.0
  0
LINE
  5
F8EA6
  8
OBJECT
 10
1930.5334612925039
 20
-1236.0
 30
0.0
 11
1930.5334612925039
 21
-1264.0
 31
0.0
  0
LINE
  5
F8EA7
  8
OBJECT
 10
1928.834440927322
 20
-1269.0
 30
0.0
 11
1928.834440927322
 21
-1264.0
 31
0.0
  0
LINE
  5
F8EA8
  8
OBJECT
 10
1928.834440927322
 20
-1231.0
 30
0.0
 11
1928.834440927322
 21
-1236.0
 31
0.0
  0
LINE
  5
F8F3C
  8
CENTER
 10
1799.0
 20
0.0
 30
0.0
 11
2201.0
 21
0.0000000000009095
 31
0.0
  0
LINE
  5
F8F3F
  8
CENTER
 10
2000.0
 20
81.699999999999804
 30
0.0
 11
2000.0
 21
-81.699999999999804
 31
0.0
  0
ARC
  5
F8F40
  8
OBJECT
 10
2000.0
 20
0.0
 30
0.0
 40
63.5
 50
2.256322491559402
 51
177.74367750844061
  0
ARC
  5
F8F41
  8
OBJECT
 10
2000.0
 20
0.0
 30
0.0
 40
63.5
 50
182.25632249155939
 51
357.74367750844061
  0
LINE
  5
F8F44
  8
OBJECT
 10
2186.0000000000009
 20
-234.0
 30
0.0
 11
2186.0000000000009
 21
-266.0
 31
0.0
  0
LINE
  5
F8F46
  8
CENTER
 10
1799.0
 20
-250.0
 30
0.0
 11
2201.0
 21
-250.0
 31
0.0
  0
LINE
  5
F8F47
  8
CENTER
 10
2000.0
 20
-219.0
 30
0.0
 11
2000.0
 21
-281.0
 31
0.0
  0
LINE
  5
F8F74
  8
OBJECT
 10
2104.814954576224
 20
-5.6999999999979991
 30
0.0
 11
2104.814954576224
 21
-12.699999999998001
 31
0.0
  0
LINE
  5
F8F75
  8
OBJECT
 10
2104.814954576224
 20
-12.699999999998001
 30
0.0
 11
2085.185045423777
 21
-12.699999999998001
 31
0.0
  0
LINE
  5
F8F76
  8
OBJECT
 10
2085.185045423777
 20
-12.699999999998001
 30
0.0
 11
2085.185045423777
 21
-5.6999999999979991
 31
0.0
  0
LINE
  5
F8F78
  8
OBJECT
 10
2099.9074772881122
 20
-5.6999999999979991
 30
0.0
 11
2099.9074772881122
 21
-12.699999999998001
 31
0.0
  0
LINE
  5
F8F79
  8
OBJECT
 10
2100.0
 20
-2.4999999999990901
 30
0.0
 11
2100.0
 21
2.5
 31
0.0
  0
LINE
  5
F8F7A
  8
OBJECT
 10
2100.0
 20
13.69999999999982
 30
0.0
 11
2100.0
 21
24.300000000002001
 31
0.0
  0
LINE
  5
F8F7B
  8
OBJECT
 10
2090.0
 20
-2.4999999999990901
 30
0.0
 11
2090.0000000000009
 21
2.5
 31
0.0
  0
LINE
  5
F8F7C
  8
OBJECT
 10
2090.0000000000009
 20
13.69999999999982
 30
0.0
 11
2090.0000000000009
 21
24.300000000002001
 31
0.0
  0
LINE
  5
F8F7D
  8
OBJECT
 10
2100.0
 20
24.300000000002001
 30
0.0
 11
2090.0000000000009
 21
24.300000000002001
 31
0.0
  0
LINE
  5
F8F7E
  8
OBJECT
 10
2090.0925227118878
 20
-5.6999999999979991
 30
0.0
 11
2090.0925227118878
 21
-12.699999999998001
 31
0.0
  0
LINE
  5
F8F7F
  8
OBJECT
 10
2104.814954576224
 20
13.69999999999982
 30
0.0
 11
2104.814954576224
 21
5.6999999999998172
 31
0.0
  0
LINE
  5
F8F81
  8
OBJECT
 10
2085.185045423777
 20
5.6999999999998172
 30
0.0
 11
2085.185045423777
 21
13.69999999999982
 31
0.0
  0
LINE
  5
F8F82
  8
OBJECT
 10
2085.185045423777
 20
13.69999999999982
 30
0.0
 11
2104.814954576224
 21
13.69999999999982
 31
0.0
  0
LINE
  5
F8F83
  8
OBJECT
 10
2099.9074772881122
 20
13.69999999999982
 30
0.0
 11
2099.9074772881122
 21
5.6999999999998172
 31
0.0
  0
LINE
  5
F8F84
  8
OBJECT
 10
2090.0925227118878
 20
13.69999999999982
 30
0.0
 11
2090.0925227118878
 21
5.6999999999998172
 31
0.0
  0
LINE
  5
F8F87
  8
OBJECT
 10
1936.5492316831389
 20
-2.5000000000009082
 30
0.0
 11
1842.5
 21
-2.5
 31
0.0
  0
LINE
  5
F8F88
  8
OBJECT
 10
1936.5492316831389
 20
2.5
 30
0.0
 11
1842.5
 21
2.5
 31
0.0
  0
POLYLINE
  5
F8F8F
  8
SLIM
 66
     1
 10
0.0
 20
0.0
 30
0.0
 70
     1
  0
VERTEX
  5
10020C
  8
SLIM
 10
2165.0925227118878
 20
-241.5
 30
0.0
  0
VERTEX
  5
10020D
  8
SLIM
 10
2160.185045423776
 20
-250.0
 30
0.0
  0
VERTEX
  5
10020E
  8
SLIM
 10
2165.0925227118878
 20
-258.5
 30
0.0
  0
VERTEX
  5
10020F
  8
SLIM
 10
2174.9074772881122
 20
-258.5
 30
0.0
  0
VERTEX
  5
100210
  8
SLIM
 10
2179.814954576224
 20
-250.0
 30
0.0
  0
VERTEX
  5
100211
  8
SLIM
 10
2174.9074772881122
 20
-241.5
 30
0.0
  0
SEQEND
  5
100212
  8
SLIM
  0
LINE
  5
F8F91
  8
CENTER
 10
2170.0000000000009
 20
-186.60000000000031
 30
0.0
 11
2170.0000000000009
 21
-270.99999999999909
 31
0.0
  0
POLYLINE
  5
F8F92
  8
SLIM
 66
     1
 10
0.0
 20
0.0
 30
0.0
 70
     1
  0
VERTEX
  5
100213
  8
SLIM
 10
2090.0925227118878
 20
-241.5
 30
0.0
  0
VERTEX
  5
100214
  8
SLIM
 10
2085.185045423777
 20
-250.0
 30
0.0
  0
VERTEX
  5
100215
  8
SLIM
 10
2090.0925227118878
 20
-258.5
 30
0.0
  0
VERTEX
  5
100216
  8
SLIM
 10
2099.9074772881122
 20
-258.5
 30
0.0
  0
VERTEX
  5
100217
  8
SLIM
 10
2104.814954576224
 20
-250.0
 30
0.0
  0
VERTEX
  5
100218
  8
SLIM
 10
2099.9074772881122
 20
-241.5
 30
0.0
  0
SEQEND
  5
100219
  8
SLIM
  0
LINE
  5
F8F95
  8
OBJECT
 10
2186.0000000000009
 20
-234.0
 30
0.0
 11
1814.0
 21
-234.0
 31
0.0
  0
LINE
  5
F8F96
  8
OBJECT
 10
1814.0
 20
-234.0
 30
0.0
 11
1814.0
 21
-266.0
 31
0.0
  0
LINE
  5
F8F97
  8
OBJECT
 10
1814.0
 20
-266.0
 30
0.0
 11
2186.0000000000009
 21
-266.0
 31
0.0
  0
POLYLINE
  5
F8F98
  8
SLIM
 66
     1
 10
0.0
 20
0.0
 30
0.0
 70
     1
  0
VERTEX
  5
10021A
  8
SLIM
 10
1834.907477288112
 20
-241.5
 30
0.0
  0
VERTEX
  5
10021B
  8
SLIM
 10
1839.814954576224
 20
-250.0
 30
0.0
  0
VERTEX
  5
10021C
  8
SLIM
 10
1834.907477288112
 20
-258.5
 30
0.0
  0
VERTEX
  5
10021D
  8
SLIM
 10
1825.092522711888
 20
-258.5
 30
0.0
  0
VERTEX
  5
10021E
  8
SLIM
 10
1820.185045423776
 20
-250.0
 30
0.0
  0
VERTEX
  5
10021F
  8
SLIM
 10
1825.092522711888
 20
-241.5
 30
0.0
  0
SEQEND
  5
100220
  8
SLIM
  0
LINE
  5
F8F9A
  8
CENTER
 10
1830.0
 20
-186.60000000000031
 30
0.0
 11
1830.0
 21
-270.99999999999909
 31
0.0
  0
POLYLINE
  5
F8F9B
  8
SLIM
 66
     1
 10
0.0
 20
0.0
 30
0.0
 70
     1
  0
VERTEX
  5
100221
  8
SLIM
 10
1909.907477288112
 20
-241.5
 30
0.0
  0
VERTEX
  5
100222
  8
SLIM
 10
1914.814954576224
 20
-250.0
 30
0.0
  0
VERTEX
  5
100223
  8
SLIM
 10
1909.907477288112
 20
-258.5
 30
0.0
  0
VERTEX
  5
100224
  8
SLIM
 10
1900.092522711888
 20
-258.5
 30
0.0
  0
VERTEX
  5
100225
  8
SLIM
 10
1895.185045423776
 20
-250.0
 30
0.0
  0
VERTEX
  5
100226
  8
SLIM
 10
1900.092522711888
 20
-241.5
 30
0.0
  0
SEQEND
  5
100227
  8
SLIM
  0
LINE
  5
F8FA0
  8
CENTER
 10
1830.0
 20
29.300000000002001
 30
0.0
 11
1830.0
 21
-17.699999999997999
 31
0.0
  0
LINE
  5
F8FA7
  8
OBJECT
 10
1825.0
 20
13.69999999999982
 30
0.0
 11
1825.0
 21
24.300000000002001
 31
0.0
  0
LINE
  5
F8FA9
  8
OBJECT
 10
1835.0
 20
13.69999999999982
 30
0.0
 11
1835.0
 21
24.300000000002001
 31
0.0
  0
LINE
  5
F8FAA
  8
OBJECT
 10
1825.0
 20
24.300000000002001
 30
0.0
 11
1835.0
 21
24.300000000002001
 31
0.0
  0
LINE
  5
F8FB4
  8
OBJECT
 10
1814.0
 20
5.6999999999998172
 30
0.0
 11
1814.0
 21
2.5
 31
0.0
  0
LINE
  5
F8FB5
  8
OBJECT
 10
1814.0
 20
-2.4999999999990901
 30
0.0
 11
1814.0
 21
-5.6999999999979991
 31
0.0
  0
LINE
  5
F8FB7
  8
OBJECT
 10
1895.185045423776
 20
-5.6999999999979991
 30
0.0
 11
1895.185045423776
 21
-12.699999999998001
 31
0.0
  0
LINE
  5
F8FB8
  8
OBJECT
 10
1895.185045423776
 20
-12.699999999998001
 30
0.0
 11
1914.814954576224
 21
-12.699999999998001
 31
0.0
  0
LINE
  5
F8FB9
  8
OBJECT
 10
1914.814954576224
 20
-12.699999999998001
 30
0.0
 11
1914.814954576224
 21
-5.6999999999979991
 31
0.0
  0
LINE
  5
F8FBB
  8
OBJECT
 10
1900.092522711888
 20
-5.6999999999979991
 30
0.0
 11
1900.092522711888
 21
-12.699999999998001
 31
0.0
  0
LINE
  5
F8FBC
  8
OBJECT
 10
1900.0
 20
-2.4999999999990901
 30
0.0
 11
1900.0
 21
2.5
 31
0.0
  0
LINE
  5
F8FBD
  8
OBJECT
 10
1900.0
 20
13.69999999999982
 30
0.0
 11
1900.0
 21
24.300000000002001
 31
0.0
  0
LINE
  5
F8FBE
  8
OBJECT
 10
1910.0
 20
-2.4999999999990901
 30
0.0
 11
1910.0
 21
2.5
 31
0.0
  0
LINE
  5
F8FBF
  8
OBJECT
 10
1910.0
 20
13.69999999999982
 30
0.0
 11
1910.0
 21
24.300000000002001
 31
0.0
  0
LINE
  5
F8FC0
  8
OBJECT
 10
1900.0
 20
24.300000000002001
 30
0.0
 11
1910.0
 21
24.300000000002001
 31
0.0
  0
LINE
  5
F8FC1
  8
OBJECT
 10
1909.907477288112
 20
-5.6999999999979991
 30
0.0
 11
1909.907477288112
 21
-12.699999999998001
 31
0.0
  0
LINE
  5
F8FC2
  8
OBJECT
 10
1895.185045423776
 20
13.69999999999982
 30
0.0
 11
1895.185045423776
 21
5.6999999999998172
 31
0.0
  0
LINE
  5
F8FC4
  8
OBJECT
 10
1914.814954576224
 20
5.6999999999998172
 30
0.0
 11
1914.814954576224
 21
13.69999999999982
 31
0.0
  0
LINE
  5
F8FC5
  8
OBJECT
 10
1914.814954576224
 20
13.69999999999982
 30
0.0
 11
1895.185045423776
 21
13.69999999999982
 31
0.0
  0
LINE
  5
F8FC6
  8
OBJECT
 10
1900.092522711888
 20
13.69999999999982
 30
0.0
 11
1900.092522711888
 21
5.6999999999998172
 31
0.0
  0
LINE
  5
F8FC7
  8
OBJECT
 10
1909.907477288112
 20
13.69999999999982
 30
0.0
 11
1909.907477288112
 21
5.6999999999998172
 31
0.0
  0
LINE
  5
F8FCA
  8
OBJECT
 10
1814.0
 20
5.6999999999998172
 30
0.0
 11
1817.5
 21
5.7000000000007267
 31
0.0
  0
LINE
  5
F8FCB
  8
OBJECT
 10
1814.0
 20
-5.6999999999979991
 30
0.0
 11
1817.5
 21
-5.6999999999970878
 31
0.0
  0
LINE
  5
F8FCC
  8
OBJECT
 10
1933.543999518477
 20
-234.0
 30
0.0
 11
1933.543999518477
 21
-265.99999999999909
 31
0.0
  0
ARC
  5
F8FCF
  8
OBJECT
 10
2000.0
 20
0.0
 30
0.0
 40
66.700000000000003
 50
4.9023202670134358
 51
175.09767973298651
  0
ARC
  5
F8FD0
  8
OBJECT
 10
2000.0
 20
0.0
 30
0.0
 40
66.700000000000003
 50
184.90232026701341
 51
355.09767973298659
  0
LINE
  5
F8FD8
  8
OBJECT
 10
2066.4560004815221
 20
-234.0
 30
0.0
 11
2066.4560004815221
 21
-265.99999999999909
 31
0.0
  0
LINE
  5
F8FD9
  8
CENTER
 10
2799.0
 20
0.0
 30
0.0
 11
3201.0
 21
0.0000000000009095
 31
0.0
  0
LINE
  5
F8FDC
  8
CENTER
 10
3000.0
 20
81.699999999999804
 30
0.0
 11
3000.0
 21
-81.699999999999804
 31
0.0
  0
ARC
  5
F8FDD
  8
OBJECT
 10
3000.0
 20
0.0
 30
0.0
 40
63.5
 50
2.256322491559402
 51
177.74367750844061
  0
ARC
  5
F8FDF
  8
OBJECT
 10
3000.0
 20
0.0
 30
0.0
 40
63.5
 50
182.25632249155939
 51
357.74367750844061
  0
LINE
  5
F8FE1
  8
OBJECT
 10
3186.0000000000018
 20
-234.0
 30
0.0
 11
3186.0000000000018
 21
-266.0
 31
0.0
  0
LINE
  5
F8FE2
  8
CENTER
 10
2798.9999999999991
 20
-250.0
 30
0.0
 11
3201.0
 21
-250.0
 31
0.0
  0
LINE
  5
F8FE3
  8
CENTER
 10
3000.0
 20
-219.0
 30
0.0
 11
3000.0
 21
-281.0
 31
0.0
  0
LINE
  5
F8FFD
  8
OBJECT
 10
3104.814954576224
 20
-5.499999999998181
 30
0.0
 11
3104.814954576224
 21
-12.499999999998179
 31
0.0
  0
LINE
  5
F8FFE
  8
OBJECT
 10
3104.814954576224
 20
-12.499999999998179
 30
0.0
 11
3085.185045423776
 21
-12.499999999998179
 31
0.0
  0
LINE
  5
F8FFF
  8
OBJECT
 10
3085.185045423776
 20
-12.499999999998179
 30
0.0
 11
3085.185045423776
 21
-5.499999999998181
 31
0.0
  0
LINE
  5
F9001
  8
OBJECT
 10
3099.9074772881131
 20
-5.499999999998181
 30
0.0
 11
3099.9074772881131
 21
-12.499999999998179
 31
0.0
  0
LINE
  5
F9002
  8
OBJECT
 10
3100.0
 20
-2.4999999999990901
 30
0.0
 11
3100.0
 21
2.5
 31
0.0
  0
LINE
  5
F9003
  8
OBJECT
 10
3100.0
 20
13.5
 30
0.0
 11
3100.0
 21
24.500000000001819
 31
0.0
  0
LINE
  5
F9004
  8
OBJECT
 10
3090.0
 20
-2.4999999999990901
 30
0.0
 11
3090.0000000000018
 21
2.5
 31
0.0
  0
LINE
  5
F9005
  8
OBJECT
 10
3090.0
 20
13.5
 30
0.0
 11
3090.0
 21
24.500000000001819
 31
0.0
  0
LINE
  5
F9006
  8
OBJECT
 10
3100.0
 20
24.500000000001819
 30
0.0
 11
3090.0
 21
24.500000000001819
 31
0.0
  0
LINE
  5
F9007
  8
OBJECT
 10
3090.0925227118878
 20
-5.499999999998181
 30
0.0
 11
3090.0925227118878
 21
-12.499999999998179
 31
0.0
  0
LINE
  5
F9008
  8
OBJECT
 10
3104.814954576224
 20
13.5
 30
0.0
 11
3104.814954576224
 21
5.5
 31
0.0
  0
LINE
  5
F900A
  8
OBJECT
 10
3085.185045423776
 20
5.5
 30
0.0
 11
3085.185045423776
 21
13.5
 31
0.0
  0
LINE
  5
F900B
  8
OBJECT
 10
3085.185045423776
 20
13.5
 30
0.0
 11
3104.814954576224
 21
13.5
 31
0.0
  0
LINE
  5
F900C
  8
OBJECT
 10
3099.9074772881131
 20
13.5
 30
0.0
 11
3099.9074772881131
 21
5.5
 31
0.0
  0
LINE
  5
F900D
  8
OBJECT
 10
3090.0925227118878
 20
13.5
 30
0.0
 11
3090.0925227118878
 21
5.5
 31
0.0
  0
LINE
  5
F9010
  8
OBJECT
 10
2936.5492316831392
 20
-2.5000000000009082
 30
0.0
 11
2842.5
 21
-2.4999999999990901
 31
0.0
  0
LINE
  5
F9011
  8
OBJECT
 10
2936.5492316831392
 20
2.5
 30
0.0
 11
2842.5
 21
2.5
 31
0.0
  0
POLYLINE
  5
F9012
  8
SLIM
 66
     1
 10
0.0
 20
0.0
 30
0.0
 70
     1
  0
VERTEX
  5
100228
  8
SLIM
 10
3165.0925227118878
 20
-241.5
 30
0.0
  0
VERTEX
  5
100229
  8
SLIM
 10
3160.185045423776
 20
-250.0
 30
0.0
  0
VERTEX
  5
10022A
  8
SLIM
 10
3165.0925227118878
 20
-258.5
 30
0.0
  0
VERTEX
  5
10022B
  8
SLIM
 10
3174.9074772881122
 20
-258.5
 30
0.0
  0
VERTEX
  5
10022C
  8
SLIM
 10
3179.814954576224
 20
-250.0
 30
0.0
  0
VERTEX
  5
10022D
  8
SLIM
 10
3174.9074772881122
 20
-241.5
 30
0.0
  0
SEQEND
  5
10022E
  8
SLIM
  0
LINE
  5
F9014
  8
CENTER
 10
3170.0
 20
-186.60000000000031
 30
0.0
 11
3170.0
 21
-270.99999999999909
 31
0.0
  0
POLYLINE
  5
F9015
  8
SLIM
 66
     1
 10
0.0
 20
0.0
 30
0.0
 70
     1
  0
VERTEX
  5
10022F
  8
SLIM
 10
3090.0925227118878
 20
-241.5
 30
0.0
  0
VERTEX
  5
100230
  8
SLIM
 10
3085.185045423776
 20
-250.0
 30
0.0
  0
VERTEX
  5
100231
  8
SLIM
 10
3090.0925227118878
 20
-258.5
 30
0.0
  0
VERTEX
  5
100232
  8
SLIM
 10
3099.9074772881131
 20
-258.5
 30
0.0
  0
VERTEX
  5
100233
  8
SLIM
 10
3104.814954576224
 20
-250.0
 30
0.0
  0
VERTEX
  5
100234
  8
SLIM
 10
3099.9074772881131
 20
-241.5
 30
0.0
  0
SEQEND
  5
100235
  8
SLIM
  0
LINE
  5
F9018
  8
OBJECT
 10
3186.0000000000018
 20
-234.0
 30
0.0
 11
2814.0
 21
-234.0
 31
0.0
  0
LINE
  5
F9019
  8
OBJECT
 10
2814.0
 20
-234.0
 30
0.0
 11
2814.0
 21
-266.0
 31
0.0
  0
LINE
  5
F901A
  8
OBJECT
 10
2814.0
 20
-266.0
 30
0.0
 11
3186.0000000000018
 21
-266.0
 31
0.0
  0
POLYLINE
  5
F901B
  8
SLIM
 66
     1
 10
0.0
 20
0.0
 30
0.0
 70
     1
  0
VERTEX
  5
100236
  8
SLIM
 10
2834.9074772881122
 20
-241.5
 30
0.0
  0
VERTEX
  5
100237
  8
SLIM
 10
2839.814954576224
 20
-250.0
 30
0.0
  0
VERTEX
  5
100238
  8
SLIM
 10
2834.9074772881122
 20
-258.5
 30
0.0
  0
VERTEX
  5
100239
  8
SLIM
 10
2825.0925227118892
 20
-258.5
 30
0.0
  0
VERTEX
  5
10023A
  8
SLIM
 10
2820.185045423776
 20
-250.0
 30
0.0
  0
VERTEX
  5
10023B
  8
SLIM
 10
2825.0925227118892
 20
-241.5
 30
0.0
  0
SEQEND
  5
10023C
  8
SLIM
  0
LINE
  5
F901D
  8
CENTER
 10
2830.0
 20
-186.60000000000031
 30
0.0
 11
2830.0
 21
-270.99999999999909
 31
0.0
  0
POLYLINE
  5
F901E
  8
SLIM
 66
     1
 10
0.0
 20
0.0
 30
0.0
 70
     1
  0
VERTEX
  5
10023D
  8
SLIM
 10
2909.9074772881131
 20
-241.5
 30
0.0
  0
VERTEX
  5
10023E
  8
SLIM
 10
2914.814954576224
 20
-250.0
 30
0.0
  0
VERTEX
  5
10023F
  8
SLIM
 10
2909.9074772881131
 20
-258.5
 30
0.0
  0
VERTEX
  5
100240
  8
SLIM
 10
2900.0925227118892
 20
-258.5
 30
0.0
  0
VERTEX
  5
100241
  8
SLIM
 10
2895.185045423776
 20
-250.0
 30
0.0
  0
VERTEX
  5
100242
  8
SLIM
 10
2900.0925227118892
 20
-241.5
 30
0.0
  0
SEQEND
  5
100243
  8
SLIM
  0
ARC
  5
F9051
  8
OBJECT
 10
3000.0
 20
0.0
 30
0.0
 40
66.5
 50
4.7441678761783921
 51
175.25583212382159
  0
LINE
  5
F9053
  8
OBJECT
 10
2933.7278338968772
 20
5.5
 30
0.0
 11
2842.5
 21
5.5
 31
0.0
  0
LINE
  5
F9054
  8
OBJECT
 10
2933.7278338968772
 20
-5.5000000000009077
 30
0.0
 11
2842.5
 21
-5.4999999999990887
 31
0.0
  0
ARC
  5
F9057
  8
OBJECT
 10
3000.0
 20
0.0
 30
0.0
 40
66.5
 50
184.74416787617841
 51
355.25583212382162
  0
LINE
  5
F9070
  8
OBJECT
 10
2895.185045423776
 20
-5.499999999998181
 30
0.0
 11
2895.185045423776
 21
-12.499999999998179
 31
0.0
  0
LINE
  5
F9071
  8
OBJECT
 10
2895.185045423776
 20
-12.499999999998179
 30
0.0
 11
2914.814954576224
 21
-12.499999999998179
 31
0.0
  0
LINE
  5
F9072
  8
OBJECT
 10
2914.814954576224
 20
-12.499999999998179
 30
0.0
 11
2914.814954576224
 21
-5.499999999998181
 31
0.0
  0
LINE
  5
F9074
  8
OBJECT
 10
2900.0925227118892
 20
-5.499999999998181
 30
0.0
 11
2900.0925227118892
 21
-12.499999999998179
 31
0.0
  0
LINE
  5
F9075
  8
OBJECT
 10
2900.0
 20
-2.4999999999990901
 30
0.0
 11
2900.0
 21
2.5
 31
0.0
  0
LINE
  5
F9076
  8
OBJECT
 10
2900.0
 20
13.5
 30
0.0
 11
2900.0
 21
24.500000000001819
 31
0.0
  0
LINE
  5
F9077
  8
OBJECT
 10
2910.0000000000018
 20
-2.4999999999990901
 30
0.0
 11
2910.0
 21
2.5
 31
0.0
  0
LINE
  5
F9078
  8
OBJECT
 10
2910.0
 20
13.5
 30
0.0
 11
2910.0
 21
24.500000000001819
 31
0.0
  0
LINE
  5
F9079
  8
OBJECT
 10
2900.0
 20
24.500000000001819
 30
0.0
 11
2910.0
 21
24.500000000001819
 31
0.0
  0
LINE
  5
F907A
  8
OBJECT
 10
2909.9074772881131
 20
-5.499999999998181
 30
0.0
 11
2909.9074772881131
 21
-12.499999999998179
 31
0.0
  0
LINE
  5
F907B
  8
OBJECT
 10
2895.185045423776
 20
13.5
 30
0.0
 11
2895.185045423776
 21
5.5
 31
0.0
  0
LINE
  5
F907D
  8
OBJECT
 10
2914.814954576224
 20
5.5
 30
0.0
 11
2914.814954576224
 21
13.5
 31
0.0
  0
LINE
  5
F907E
  8
OBJECT
 10
2914.814954576224
 20
13.5
 30
0.0
 11
2895.185045423776
 21
13.5
 31
0.0
  0
LINE
  5
F907F
  8
OBJECT
 10
2900.0925227118892
 20
13.5
 30
0.0
 11
2900.0925227118892
 21
5.5
 31
0.0
  0
LINE
  5
F9080
  8
OBJECT
 10
2909.9074772881131
 20
13.5
 30
0.0
 11
2909.9074772881131
 21
5.5
 31
0.0
  0
LINE
  5
F90A6
  8
CENTER
 10
818.99999999999955
 20
0.0
 30
0.0
 11
1181.0
 21
0.0000000000009095
 31
0.0
  0
LINE
  5
F90AB
  8
CENTER
 10
999.99999999999955
 20
69.0
 30
0.0
 11
999.99999999999955
 21
-69.0
 31
0.0
  0
ARC
  5
F90AC
  8
OBJECT
 10
999.99999999999955
 20
0.0
 30
0.0
 40
51.0
 50
2.809742675274181
 51
177.19025732472579
  0
ARC
  5
F90AD
  8
OBJECT
 10
999.99999999999955
 20
0.0
 30
0.0
 40
54.0
 50
5.8458183385474278
 51
174.15418166145261
  0
ARC
  5
F90AE
  8
OBJECT
 10
999.99999999999955
 20
0.0
 30
0.0
 40
51.0
 50
182.80974267527421
 51
357.19025732472602
  0
ARC
  5
F90AF
  8
OBJECT
 10
999.99999999999955
 20
0.0
 30
0.0
 40
54.0
 50
185.8458183385473
 51
354.15418166145253
  0
LINE
  5
F90B0
  8
OBJECT
 10
1166.0
 20
-234.0
 30
0.0
 11
1166.0
 21
-266.0
 31
0.0
  0
LINE
  5
F90B1
  8
CENTER
 10
818.99999999999955
 20
-250.0
 30
0.0
 11
1181.0
 21
-250.0
 31
0.0
  0
LINE
  5
F90B2
  8
CENTER
 10
999.99999999999955
 20
-219.0
 30
0.0
 11
999.99999999999955
 21
-281.0
 31
0.0
  0
LINE
  5
F90B6
  8
OBJECT
 10
1084.814954576223
 20
-5.499999999998181
 30
0.0
 11
1084.814954576223
 21
-12.499999999998179
 31
0.0
  0
LINE
  5
F90B7
  8
OBJECT
 10
1084.814954576223
 20
-12.499999999998179
 30
0.0
 11
1065.185045423776
 21
-12.499999999998179
 31
0.0
  0
LINE
  5
F90B8
  8
OBJECT
 10
1065.185045423776
 20
-12.499999999998179
 30
0.0
 11
1065.185045423776
 21
-5.499999999998181
 31
0.0
  0
LINE
  5
F90BA
  8
OBJECT
 10
1079.907477288112
 20
-5.499999999998181
 30
0.0
 11
1079.907477288112
 21
-12.499999999998179
 31
0.0
  0
LINE
  5
F90BB
  8
OBJECT
 10
1080.0
 20
-2.4999999999990901
 30
0.0
 11
1080.0
 21
2.5
 31
0.0
  0
LINE
  5
F90BC
  8
OBJECT
 10
1080.0
 20
13.5
 30
0.0
 11
1080.0
 21
24.500000000001819
 31
0.0
  0
LINE
  5
F90BD
  8
OBJECT
 10
1069.9999999999991
 20
-2.4999999999990901
 30
0.0
 11
1070.0
 21
2.5
 31
0.0
  0
LINE
  5
F90BE
  8
OBJECT
 10
1070.0
 20
13.5
 30
0.0
 11
1070.0
 21
24.500000000001819
 31
0.0
  0
LINE
  5
F90BF
  8
OBJECT
 10
1080.0
 20
24.500000000001819
 30
0.0
 11
1070.0
 21
24.500000000001819
 31
0.0
  0
LINE
  5
F90C0
  8
OBJECT
 10
1070.092522711888
 20
-5.499999999998181
 30
0.0
 11
1070.092522711888
 21
-12.499999999998179
 31
0.0
  0
LINE
  5
F90C1
  8
OBJECT
 10
1084.814954576223
 20
13.5
 30
0.0
 11
1084.814954576223
 21
5.5
 31
0.0
  0
LINE
  5
F90C3
  8
OBJECT
 10
1065.185045423776
 20
5.5
 30
0.0
 11
1065.185045423776
 21
13.5
 31
0.0
  0
LINE
  5
F90C4
  8
OBJECT
 10
1065.185045423776
 20
13.5
 30
0.0
 11
1084.814954576223
 21
13.5
 31
0.0
  0
LINE
  5
F90C5
  8
OBJECT
 10
1079.907477288112
 20
13.5
 30
0.0
 11
1079.907477288112
 21
5.5
 31
0.0
  0
LINE
  5
F90C6
  8
OBJECT
 10
1070.092522711888
 20
13.5
 30
0.0
 11
1070.092522711888
 21
5.5
 31
0.0
  0
LINE
  5
F90C9
  8
OBJECT
 10
949.06131136356157
 20
-2.5000000000009082
 30
0.0
 11
862.49999999999955
 21
-2.4999999999990901
 31
0.0
  0
LINE
  5
F90CA
  8
OBJECT
 10
946.28082279111095
 20
-5.5000000000009077
 30
0.0
 11
862.49999999999955
 21
-5.5
 31
0.0
  0
LINE
  5
F90CB
  8
OBJECT
 10
949.06131136356157
 20
2.5
 30
0.0
 11
862.49999999999955
 21
2.5
 31
0.0
  0
LINE
  5
F90CC
  8
OBJECT
 10
946.28082279111072
 20
5.5
 30
0.0
 11
862.49999999999955
 21
5.5
 31
0.0
  0
POLYLINE
  5
F90CD
  8
SLIM
 66
     1
 10
0.0
 20
0.0
 30
0.0
 70
     1
  0
VERTEX
  5
100244
  8
SLIM
 10
1145.092522711888
 20
-241.5
 30
0.0
  0
VERTEX
  5
100245
  8
SLIM
 10
1140.185045423776
 20
-250.0
 30
0.0
  0
VERTEX
  5
100246
  8
SLIM
 10
1145.092522711888
 20
-258.5
 30
0.0
  0
VERTEX
  5
100247
  8
SLIM
 10
1154.907477288112
 20
-258.5
 30
0.0
  0
VERTEX
  5
100248
  8
SLIM
 10
1159.814954576223
 20
-250.0
 30
0.0
  0
VERTEX
  5
100249
  8
SLIM
 10
1154.907477288112
 20
-241.5
 30
0.0
  0
SEQEND
  5
10024A
  8
SLIM
  0
LINE
  5
F90CF
  8
CENTER
 10
1150.0
 20
-186.60000000000031
 30
0.0
 11
1150.0
 21
-270.99999999999909
 31
0.0
  0
POLYLINE
  5
F90D0
  8
SLIM
 66
     1
 10
0.0
 20
0.0
 30
0.0
 70
     1
  0
VERTEX
  5
10024B
  8
SLIM
 10
1070.092522711888
 20
-241.5
 30
0.0
  0
VERTEX
  5
10024C
  8
SLIM
 10
1065.185045423776
 20
-250.0
 30
0.0
  0
VERTEX
  5
10024D
  8
SLIM
 10
1070.092522711888
 20
-258.5
 30
0.0
  0
VERTEX
  5
10024E
  8
SLIM
 10
1079.907477288112
 20
-258.5
 30
0.0
  0
VERTEX
  5
10024F
  8
SLIM
 10
1084.814954576223
 20
-250.0
 30
0.0
  0
VERTEX
  5
100250
  8
SLIM
 10
1079.907477288112
 20
-241.5
 30
0.0
  0
SEQEND
  5
100251
  8
SLIM
  0
LINE
  5
F90D3
  8
OBJECT
 10
1166.0
 20
-234.0
 30
0.0
 11
833.99999999999955
 21
-234.0
 31
0.0
  0
LINE
  5
F90D4
  8
OBJECT
 10
833.99999999999955
 20
-234.0
 30
0.0
 11
833.99999999999955
 21
-266.0
 31
0.0
  0
LINE
  5
F90D5
  8
OBJECT
 10
833.99999999999955
 20
-266.0
 30
0.0
 11
1166.0
 21
-266.0
 31
0.0
  0
POLYLINE
  5
F90D6
  8
SLIM
 66
     1
 10
0.0
 20
0.0
 30
0.0
 70
     1
  0
VERTEX
  5
100252
  8
SLIM
 10
854.90747728811141
 20
-241.5
 30
0.0
  0
VERTEX
  5
100253
  8
SLIM
 10
859.81495457622339
 20
-250.0
 30
0.0
  0
VERTEX
  5
100254
  8
SLIM
 10
854.90747728811141
 20
-258.5
 30
0.0
  0
VERTEX
  5
100255
  8
SLIM
 10
845.0925227118878
 20
-258.5
 30
0.0
  0
VERTEX
  5
100256
  8
SLIM
 10
840.18504542377593
 20
-250.0
 30
0.0
  0
VERTEX
  5
100257
  8
SLIM
 10
845.0925227118878
 20
-241.5
 30
0.0
  0
SEQEND
  5
100258
  8
SLIM
  0
LINE
  5
F90D8
  8
CENTER
 10
849.99999999999955
 20
-186.60000000000031
 30
0.0
 11
849.99999999999955
 21
-270.99999999999909
 31
0.0
  0
POLYLINE
  5
F90D9
  8
SLIM
 66
     1
 10
0.0
 20
0.0
 30
0.0
 70
     1
  0
VERTEX
  5
100259
  8
SLIM
 10
929.90747728811141
 20
-241.5
 30
0.0
  0
VERTEX
  5
10025A
  8
SLIM
 10
934.81495457622339
 20
-250.0
 30
0.0
  0
VERTEX
  5
10025B
  8
SLIM
 10
929.90747728811141
 20
-258.5
 30
0.0
  0
VERTEX
  5
10025C
  8
SLIM
 10
920.09252271188791
 20
-258.5
 30
0.0
  0
VERTEX
  5
10025D
  8
SLIM
 10
915.18504542377593
 20
-250.0
 30
0.0
  0
VERTEX
  5
10025E
  8
SLIM
 10
920.09252271188791
 20
-241.5
 30
0.0
  0
SEQEND
  5
10025F
  8
SLIM
  0
LINE
  5
F90F3
  8
OBJECT
 10
915.18504542377593
 20
-5.499999999998181
 30
0.0
 11
915.18504542377593
 21
-12.499999999998179
 31
0.0
  0
LINE
  5
F90F4
  8
OBJECT
 10
915.18504542377593
 20
-12.499999999998179
 30
0.0
 11
934.81495457622339
 21
-12.499999999998179
 31
0.0
  0
LINE
  5
F90F5
  8
OBJECT
 10
934.81495457622339
 20
-12.499999999998179
 30
0.0
 11
934.81495457622339
 21
-5.499999999998181
 31
0.0
  0
LINE
  5
F90F7
  8
OBJECT
 10
920.09252271188791
 20
-5.499999999998181
 30
0.0
 11
920.09252271188791
 21
-12.499999999998179
 31
0.0
  0
LINE
  5
F90F8
  8
OBJECT
 10
919.99999999999966
 20
-2.4999999999990901
 30
0.0
 11
919.99999999999966
 21
2.5
 31
0.0
  0
LINE
  5
F90F9
  8
OBJECT
 10
919.99999999999966
 20
13.5
 30
0.0
 11
919.99999999999966
 21
24.500000000001819
 31
0.0
  0
LINE
  5
F90FA
  8
OBJECT
 10
930.0
 20
-2.4999999999990901
 30
0.0
 11
929.99999999999966
 21
2.5
 31
0.0
  0
LINE
  5
F90FB
  8
OBJECT
 10
929.99999999999966
 20
13.5
 30
0.0
 11
929.99999999999966
 21
24.500000000001819
 31
0.0
  0
LINE
  5
F90FC
  8
OBJECT
 10
919.99999999999966
 20
24.500000000001819
 30
0.0
 11
929.99999999999966
 21
24.500000000001819
 31
0.0
  0
LINE
  5
F90FD
  8
OBJECT
 10
929.90747728811141
 20
-5.499999999998181
 30
0.0
 11
929.90747728811141
 21
-12.499999999998179
 31
0.0
  0
LINE
  5
F90FE
  8
OBJECT
 10
915.18504542377593
 20
13.5
 30
0.0
 11
915.18504542377593
 21
5.5
 31
0.0
  0
LINE
  5
F9100
  8
OBJECT
 10
934.81495457622339
 20
5.5
 30
0.0
 11
934.81495457622339
 21
13.5
 31
0.0
  0
LINE
  5
F9101
  8
OBJECT
 10
934.81495457622339
 20
13.5
 30
0.0
 11
915.18504542377593
 21
13.5
 31
0.0
  0
LINE
  5
F9102
  8
OBJECT
 10
920.09252271188791
 20
13.5
 30
0.0
 11
920.09252271188791
 21
5.5
 31
0.0
  0
LINE
  5
F9103
  8
OBJECT
 10
929.90747728811141
 20
13.5
 30
0.0
 11
929.90747728811141
 21
5.5
 31
0.0
  0
LINE
  5
F9106
  8
CENTER
 10
849.99999999999955
 20
29.500000000001819
 30
0.0
 11
849.99999999999955
 21
-17.499999999998181
 31
0.0
  0
LINE
  5
F910D
  8
OBJECT
 10
844.99999999999966
 20
13.5
 30
0.0
 11
844.99999999999966
 21
24.500000000001819
 31
0.0
  0
LINE
  5
F910F
  8
OBJECT
 10
854.99999999999966
 20
13.5
 30
0.0
 11
854.99999999999966
 21
24.500000000001819
 31
0.0
  0
LINE
  5
F9110
  8
OBJECT
 10
844.99999999999966
 20
24.500000000001819
 30
0.0
 11
854.99999999999966
 21
24.500000000001819
 31
0.0
  0
LINE
  5
F9112
  8
OBJECT
 10
840.18504542377593
 20
13.5
 30
0.0
 11
840.18504542377593
 21
12.5
 31
0.0
  0
LINE
  5
F9114
  8
OBJECT
 10
859.81495457622339
 20
12.5
 30
0.0
 11
859.81495457622339
 21
13.5
 31
0.0
  0
LINE
  5
F9115
  8
OBJECT
 10
859.81495457622339
 20
13.5
 30
0.0
 11
840.18504542377593
 21
13.5
 31
0.0
  0
LINE
  5
F9116
  8
OBJECT
 10
845.0925227118878
 20
13.5
 30
0.0
 11
845.0925227118878
 21
12.5
 31
0.0
  0
LINE
  5
F9117
  8
OBJECT
 10
854.90747728811141
 20
13.5
 30
0.0
 11
854.90747728811141
 21
12.5
 31
0.0
  0
LINE
  5
F911A
  8
OBJECT
 10
833.99999999999955
 20
5.5
 30
0.0
 11
833.99999999999955
 21
2.5
 31
0.0
  0
LINE
  5
F911B
  8
OBJECT
 10
833.99999999999955
 20
-2.4999999999990901
 30
0.0
 11
833.99999999999955
 21
-5.4999999999990887
 31
0.0
  0
LINE
  5
F911E
  8
OBJECT
 10
2933.7278338968772
 20
-234.0
 30
0.0
 11
2933.7278338968772
 21
-266.0
 31
0.0
  0
LINE
  5
F911F
  8
OBJECT
 10
3066.2721661031242
 20
-234.0
 30
0.0
 11
3066.2721661031242
 21
-266.0
 31
0.0
  0
LINE
  5
F917F
  8
OBJECT
 10
946.28082279111095
 20
-234.0
 30
0.0
 11
946.28082279111095
 21
-266.0
 31
0.0
  0
LINE
  5
F9180
  8
OBJECT
 10
1053.7191772088879
 20
-234.0
 30
0.0
 11
1053.7191772088879
 21
-266.0
 31
0.0
  0
LINE
  5
F918D
  8
CENTER
 10
-181.0
 20
0.0
 30
0.0
 11
181.0
 21
0.0000000000009095
 31
0.0
  0
LINE
  5
F918E
  8
OBJECT
 10
50.938688636438172
 20
-2.5000000000009082
 30
0.0
 11
137.5
 21
-2.4999999999990901
 31
0.0
  0
LINE
  5
F918F
  8
OBJECT
 10
50.938688636438229
 20
2.5
 30
0.0
 11
137.5
 21
2.5
 31
0.0
  0
LINE
  5
F9190
  8
CENTER
 10
0.0000000000000074
 20
69.199999999999818
 30
0.0
 11
-0.0000000000000074
 21
-69.199999999999818
 31
0.0
  0
ARC
  5
F9191
  8
OBJECT
 10
0.0000000000000041
 20
0.0
 30
0.0
 40
51.0
 50
2.809742675274181
 51
177.19025732472579
  0
ARC
  5
F9192
  8
OBJECT
 10
0.0000000000000041
 20
0.0
 30
0.0
 40
54.200000000000003
 50
6.0367335877759842
 51
173.96326641222399
  0
ARC
  5
F9193
  8
OBJECT
 10
0.0000000000000041
 20
0.0
 30
0.0
 40
51.0
 50
182.80974267527421
 51
357.19025732472602
  0
ARC
  5
F9194
  8
OBJECT
 10
0.0000000000000041
 20
0.0
 30
0.0
 40
54.200000000000003
 50
186.0367335877759
 51
353.96326641222407
  0
LINE
  5
F9196
  8
OBJECT
 10
166.0000000000002
 20
-234.0
 30
0.0
 11
166.0000000000002
 21
-266.0
 31
0.0
  0
LINE
  5
F9197
  8
CENTER
 10
-181.0000000000002
 20
-250.0
 30
0.0
 11
181.0000000000002
 21
-250.0
 31
0.0
  0
LINE
  5
F9198
  8
CENTER
 10
0.0000000000000041
 20
-219.0
 30
0.0
 11
0.0000000000000041
 21
-281.0
 31
0.0
  0
LINE
  5
F9199
  8
CENTER
 10
150.0
 20
29.300000000002001
 30
0.0
 11
150.0
 21
-17.699999999997999
 31
0.0
  0
LINE
  5
F919C
  8
OBJECT
 10
159.8149545762237
 20
-12.499999999999091
 30
0.0
 11
159.8149545762237
 21
-12.699999999998001
 31
0.0
  0
LINE
  5
F919D
  8
OBJECT
 10
159.8149545762237
 20
-12.699999999998001
 30
0.0
 11
140.18504542377619
 21
-12.699999999998001
 31
0.0
  0
LINE
  5
F919E
  8
OBJECT
 10
140.18504542377619
 20
-12.699999999998001
 30
0.0
 11
140.18504542377619
 21
-12.499999999999091
 31
0.0
  0
LINE
  5
F91A0
  8
OBJECT
 10
154.90747728811169
 20
-12.499999999999091
 30
0.0
 11
154.90747728811169
 21
-12.699999999998001
 31
0.0
  0
LINE
  5
F91A2
  8
OBJECT
 10
155.0
 20
13.69999999999982
 30
0.0
 11
155.0
 21
24.300000000002001
 31
0.0
  0
LINE
  5
F91A4
  8
OBJECT
 10
145.0
 20
13.69999999999982
 30
0.0
 11
145.0
 21
24.300000000002001
 31
0.0
  0
LINE
  5
F91A5
  8
OBJECT
 10
155.0
 20
24.300000000002001
 30
0.0
 11
145.0
 21
24.300000000002001
 31
0.0
  0
LINE
  5
F91A6
  8
OBJECT
 10
145.09252271188819
 20
-12.499999999999091
 30
0.0
 11
145.09252271188819
 21
-12.699999999998001
 31
0.0
  0
LINE
  5
F91A7
  8
OBJECT
 10
159.8149545762237
 20
13.69999999999982
 30
0.0
 11
159.8149545762237
 21
12.500000000000909
 31
0.0
  0
LINE
  5
F91A9
  8
OBJECT
 10
140.18504542377619
 20
12.500000000000909
 30
0.0
 11
140.18504542377619
 21
13.69999999999982
 31
0.0
  0
LINE
  5
F91AA
  8
OBJECT
 10
140.18504542377619
 20
13.69999999999982
 30
0.0
 11
159.8149545762237
 21
13.69999999999982
 31
0.0
  0
LINE
  5
F91AB
  8
OBJECT
 10
154.90747728811169
 20
13.69999999999982
 30
0.0
 11
154.90747728811169
 21
12.500000000000909
 31
0.0
  0
LINE
  5
F91AC
  8
OBJECT
 10
145.09252271188819
 20
13.69999999999982
 30
0.0
 11
145.09252271188819
 21
12.500000000000909
 31
0.0
  0
LINE
  5
F91AF
  8
OBJECT
 10
166.0
 20
5.6999999999998172
 30
0.0
 11
166.0
 21
2.5
 31
0.0
  0
LINE
  5
F91B0
  8
OBJECT
 10
166.0000000000002
 20
-2.4999999999990901
 30
0.0
 11
166.0000000000002
 21
-5.6999999999979991
 31
0.0
  0
LINE
  5
F91B2
  8
OBJECT
 10
84.814954576223698
 20
-5.6999999999979991
 30
0.0
 11
84.814954576223698
 21
-12.699999999998001
 31
0.0
  0
LINE
  5
F91B3
  8
OBJECT
 10
84.814954576223698
 20
-12.699999999998001
 30
0.0
 11
65.185045423776273
 21
-12.699999999998001
 31
0.0
  0
LINE
  5
F91B4
  8
OBJECT
 10
65.185045423776273
 20
-12.699999999998001
 30
0.0
 11
65.185045423776273
 21
-5.6999999999979991
 31
0.0
  0
LINE
  5
F91B6
  8
OBJECT
 10
79.90747728811175
 20
-5.6999999999979991
 30
0.0
 11
79.90747728811175
 21
-12.699999999998001
 31
0.0
  0
LINE
  5
F91B7
  8
OBJECT
 10
80.0
 20
-2.4999999999990901
 30
0.0
 11
80.000000000000213
 21
2.5
 31
0.0
  0
LINE
  5
F91B8
  8
OBJECT
 10
80.0
 20
13.69999999999982
 30
0.0
 11
80.0
 21
24.300000000002001
 31
0.0
  0
LINE
  5
F91B9
  8
OBJECT
 10
69.999999999999773
 20
-2.4999999999990901
 30
0.0
 11
70.000000000000227
 21
2.5
 31
0.0
  0
LINE
  5
F91BA
  8
OBJECT
 10
70.0
 20
13.69999999999982
 30
0.0
 11
70.0
 21
24.300000000002001
 31
0.0
  0
LINE
  5
F91BB
  8
OBJECT
 10
80.0
 20
24.300000000002001
 30
0.0
 11
70.0
 21
24.300000000002001
 31
0.0
  0
LINE
  5
F91BC
  8
OBJECT
 10
70.09252271188825
 20
-5.6999999999979991
 30
0.0
 11
70.09252271188825
 21
-12.699999999998001
 31
0.0
  0
LINE
  5
F91BD
  8
OBJECT
 10
84.814954576223698
 20
13.69999999999982
 30
0.0
 11
84.814954576223698
 21
5.6999999999998172
 31
0.0
  0
LINE
  5
F91BF
  8
OBJECT
 10
65.185045423776273
 20
5.6999999999998172
 30
0.0
 11
65.185045423776273
 21
13.69999999999982
 31
0.0
  0
LINE
  5
F91C0
  8
OBJECT
 10
65.185045423776273
 20
13.69999999999982
 30
0.0
 11
84.814954576223698
 21
13.69999999999982
 31
0.0
  0
LINE
  5
F91C1
  8
OBJECT
 10
79.90747728811175
 20
13.69999999999982
 30
0.0
 11
79.90747728811175
 21
5.6999999999998172
 31
0.0
  0
LINE
  5
F91C2
  8
OBJECT
 10
70.09252271188825
 20
13.69999999999982
 30
0.0
 11
70.09252271188825
 21
5.6999999999998172
 31
0.0
  0
POLYLINE
  5
F91C7
  8
SLIM
 66
     1
 10
0.0
 20
0.0
 30
0.0
 70
     1
  0
VERTEX
  5
100260
  8
SLIM
 10
145.09252271188819
 20
-241.5
 30
0.0
  0
VERTEX
  5
100261
  8
SLIM
 10
140.18504542377619
 20
-250.0
 30
0.0
  0
VERTEX
  5
100262
  8
SLIM
 10
145.09252271188819
 20
-258.5
 30
0.0
  0
VERTEX
  5
100263
  8
SLIM
 10
154.90747728811169
 20
-258.5
 30
0.0
  0
VERTEX
  5
100264
  8
SLIM
 10
159.8149545762237
 20
-250.0
 30
0.0
  0
VERTEX
  5
100265
  8
SLIM
 10
154.90747728811169
 20
-241.5
 30
0.0
  0
SEQEND
  5
100266
  8
SLIM
  0
LINE
  5
F91C9
  8
CENTER
 10
150.0
 20
-186.60000000000031
 30
0.0
 11
150.0
 21
-270.99999999999909
 31
0.0
  0
POLYLINE
  5
F91CA
  8
SLIM
 66
     1
 10
0.0
 20
0.0
 30
0.0
 70
     1
  0
VERTEX
  5
100267
  8
SLIM
 10
70.09252271188825
 20
-241.5
 30
0.0
  0
VERTEX
  5
100268
  8
SLIM
 10
65.185045423776273
 20
-250.0
 30
0.0
  0
VERTEX
  5
100269
  8
SLIM
 10
70.09252271188825
 20
-258.5
 30
0.0
  0
VERTEX
  5
10026A
  8
SLIM
 10
79.90747728811175
 20
-258.5
 30
0.0
  0
VERTEX
  5
10026B
  8
SLIM
 10
84.814954576223698
 20
-250.0
 30
0.0
  0
VERTEX
  5
10026C
  8
SLIM
 10
79.90747728811175
 20
-241.5
 30
0.0
  0
SEQEND
  5
10026D
  8
SLIM
  0
LINE
  5
F91CD
  8
OBJECT
 10
166.0000000000002
 20
-234.0
 30
0.0
 11
-166.0000000000002
 21
-234.0
 31
0.0
  0
LINE
  5
F91CF
  8
OBJECT
 10
-166.0000000000002
 20
-266.0
 30
0.0
 11
166.0000000000002
 21
-266.0
 31
0.0
  0
POLYLINE
  5
F91D3
  8
SLIM
 66
     1
 10
0.0
 20
0.0
 30
0.0
 70
     1
  0
VERTEX
  5
10026E
  8
SLIM
 10
-70.09252271188825
 20
-241.5
 30
0.0
  0
VERTEX
  5
10026F
  8
SLIM
 10
-65.185045423776273
 20
-250.0
 30
0.0
  0
VERTEX
  5
100270
  8
SLIM
 10
-70.09252271188825
 20
-258.5
 30
0.0
  0
VERTEX
  5
100271
  8
SLIM
 10
-79.90747728811175
 20
-258.5
 30
0.0
  0
VERTEX
  5
100272
  8
SLIM
 10
-84.814954576223698
 20
-250.0
 30
0.0
  0
VERTEX
  5
100273
  8
SLIM
 10
-79.90747728811175
 20
-241.5
 30
0.0
  0
SEQEND
  5
100274
  8
SLIM
  0
LINE
  5
F91D6
  8
OBJECT
 10
166.0
 20
5.6999999999998172
 30
0.0
 11
162.5
 21
5.6999999999998172
 31
0.0
  0
LINE
  5
F91D7
  8
OBJECT
 10
166.0000000000002
 20
-5.6999999999979991
 30
0.0
 11
162.5
 21
-5.6999999999979991
 31
0.0
  0
LINE
  5
F91EF
  8
OBJECT
 10
-84.814954576223698
 20
-5.6999999999979991
 30
0.0
 11
-84.814954576223698
 21
-12.699999999998001
 31
0.0
  0
LINE
  5
F91F0
  8
OBJECT
 10
-84.814954576223698
 20
-12.699999999998001
 30
0.0
 11
-65.185045423776273
 21
-12.699999999998001
 31
0.0
  0
LINE
  5
F91F1
  8
OBJECT
 10
-65.185045423776273
 20
-12.699999999998001
 30
0.0
 11
-65.185045423776273
 21
-5.6999999999979991
 31
0.0
  0
LINE
  5
F91F3
  8
OBJECT
 10
-79.90747728811175
 20
-5.6999999999979991
 30
0.0
 11
-79.90747728811175
 21
-12.699999999998001
 31
0.0
  0
LINE
  5
F91F4
  8
OBJECT
 10
-80.0
 20
-2.4999999999990901
 30
0.0
 11
-80.000000000000213
 21
2.5
 31
0.0
  0
LINE
  5
F91F5
  8
OBJECT
 10
-80.0
 20
13.69999999999982
 30
0.0
 11
-80.0
 21
24.300000000002001
 31
0.0
  0
LINE
  5
F91F6
  8
OBJECT
 10
-69.999999999999773
 20
-2.4999999999990901
 30
0.0
 11
-70.000000000000227
 21
2.5
 31
0.0
  0
LINE
  5
F91F7
  8
OBJECT
 10
-70.0
 20
13.69999999999982
 30
0.0
 11
-70.0
 21
24.300000000002001
 31
0.0
  0
LINE
  5
F91F8
  8
OBJECT
 10
-80.0
 20
24.300000000002001
 30
0.0
 11
-70.0
 21
24.300000000002001
 31
0.0
  0
LINE
  5
F91F9
  8
OBJECT
 10
-70.09252271188825
 20
-5.6999999999979991
 30
0.0
 11
-70.09252271188825
 21
-12.699999999998001
 31
0.0
  0
LINE
  5
F91FA
  8
OBJECT
 10
-84.814954576223698
 20
13.69999999999982
 30
0.0
 11
-84.814954576223698
 21
5.6999999999998172
 31
0.0
  0
LINE
  5
F91FC
  8
OBJECT
 10
-65.185045423776273
 20
5.6999999999998172
 30
0.0
 11
-65.185045423776273
 21
13.69999999999982
 31
0.0
  0
LINE
  5
F91FD
  8
OBJECT
 10
-65.185045423776273
 20
13.69999999999982
 30
0.0
 11
-84.814954576223698
 21
13.69999999999982
 31
0.0
  0
LINE
  5
F91FE
  8
OBJECT
 10
-79.90747728811175
 20
13.69999999999982
 30
0.0
 11
-79.90747728811175
 21
5.6999999999998172
 31
0.0
  0
LINE
  5
F91FF
  8
OBJECT
 10
-70.09252271188825
 20
13.69999999999982
 30
0.0
 11
-70.09252271188825
 21
5.6999999999998172
 31
0.0
  0
LINE
  5
F9204
  8
OBJECT
 10
-53.899443410855589
 20
-234.0
 30
0.0
 11
-53.899443410855703
 21
-265.99999999999909
 31
0.0
  0
LINE
  5
F9205
  8
OBJECT
 10
53.899443410855483
 20
-234.0
 30
0.0
 11
53.899443410855483
 21
-265.99999999999909
 31
0.0
  0
LINE
  5
F9218
  8
CENTER
 10
999.99999999999955
 20
-926.0
 30
0.0
 11
999.99999999999955
 21
-1074.0
 31
0.0
  0
ARC
  5
F9219
  8
OBJECT
 10
999.99999999999955
 20
-1000.0
 30
0.0
 40
51.0
 50
9.0000000000179163
 51
170.99999999998201
  0
LINE
  5
F921C
  8
OBJECT
 10
1058.2736120951099
 20
-1234.0
 30
0.0
 11
1166.0
 21
-1234.0
 31
0.0
  0
LINE
  5
F921D
  8
OBJECT
 10
1166.0
 20
-1234.0
 30
0.0
 11
1166.0
 21
-1266.0
 31
0.0
  0
LINE
  5
F921E
  8
OBJECT
 10
1166.0
 20
-1266.0
 30
0.0
 11
1058.2736120951099
 21
-1266.0
 31
0.0
  0
LINE
  5
F921F
  8
CENTER
 10
818.99999999999955
 20
-1250.0
 30
0.0
 11
1181.0
 21
-1250.0
 31
0.0
  0
LINE
  5
F9220
  8
CENTER
 10
999.99999999999955
 20
-1216.0
 30
0.0
 11
999.99999999999955
 21
-1284.0
 31
0.0
  0
LINE
  5
F9221
  8
OBJECT
 10
1056.7340285895509
 20
-1236.0
 30
0.0
 11
1056.7340285895509
 21
-1264.0
 31
0.0
  0
LINE
  5
F9222
  8
OBJECT
 10
941.72638790488145
 20
-1269.0000000000009
 30
0.0
 11
1058.2736120951099
 21
-1269.0
 31
0.0
  0
LINE
  5
F9223
  8
OBJECT
 10
1058.2736120951099
 20
-1269.0
 30
0.0
 11
1058.2736120951099
 21
-1264.0
 31
0.0
  0
LINE
  5
F9224
  8
OBJECT
 10
1058.2736120951099
 20
-1264.0
 30
0.0
 11
941.72638790488145
 21
-1264.0
 31
0.0
  0
LINE
  5
F9225
  8
OBJECT
 10
941.72638790488145
 20
-1231.0
 30
0.0
 11
1058.2736120951099
 21
-1231.0
 31
0.0
  0
LINE
  5
F9226
  8
OBJECT
 10
1058.2736120951099
 20
-1231.0
 30
0.0
 11
1058.2736120951099
 21
-1236.0
 31
0.0
  0
LINE
  5
F9227
  8
OBJECT
 10
1058.2736120951099
 20
-1236.0
 30
0.0
 11
941.72638790488145
 21
-1236.0
 31
0.0
  0
ARC
  5
F922C
  8
HIDDEN
 10
999.99999999999955
 20
-1000.0
 30
0.0
 40
54.0
 50
9.0000000000180762
 51
170.99999999998201
  0
ARC
  5
F922D
  8
HIDDEN
 10
999.99999999999955
 20
-1000.0
 30
0.0
 40
57.0
 50
9.0000000000182379
 51
170.99999999998201
  0
ARC
  5
F922E
  8
OBJECT
 10
999.99999999999955
 20
-1000.0
 30
0.0
 40
59.0
 50
9.0000000000183178
 51
170.99999999998201
  0
LINE
  5
F924E
  8
OBJECT
 10
1084.814954576223
 20
-1005.499999999998
 30
0.0
 11
1084.814954576223
 21
-1012.499999999998
 31
0.0
  0
LINE
  5
F924F
  8
OBJECT
 10
1084.814954576223
 20
-1012.499999999998
 30
0.0
 11
1065.185045423776
 21
-1012.499999999998
 31
0.0
  0
LINE
  5
F9250
  8
OBJECT
 10
1065.185045423776
 20
-1012.499999999998
 30
0.0
 11
1065.185045423776
 21
-1005.499999999998
 31
0.0
  0
LINE
  5
F9252
  8
OBJECT
 10
1079.907477288112
 20
-1005.499999999998
 30
0.0
 11
1079.907477288112
 21
-1012.499999999998
 31
0.0
  0
LINE
  5
F9253
  8
OBJECT
 10
1080.0
 20
-1002.499999999999
 30
0.0
 11
1080.0
 21
-997.49999999999989
 31
0.0
  0
LINE
  5
F9254
  8
OBJECT
 10
1080.0
 20
-986.5
 30
0.0
 11
1080.0
 21
-975.49999999999807
 31
0.0
  0
LINE
  5
F9255
  8
OBJECT
 10
1069.9999999999991
 20
-1002.499999999999
 30
0.0
 11
1070.0
 21
-997.49999999999989
 31
0.0
  0
LINE
  5
F9256
  8
OBJECT
 10
1070.0
 20
-986.5
 30
0.0
 11
1070.0
 21
-975.49999999999807
 31
0.0
  0
LINE
  5
F9257
  8
OBJECT
 10
1080.0
 20
-975.49999999999807
 30
0.0
 11
1070.0
 21
-975.49999999999807
 31
0.0
  0
LINE
  5
F9258
  8
OBJECT
 10
1070.092522711888
 20
-1005.499999999998
 30
0.0
 11
1070.092522711888
 21
-1012.499999999998
 31
0.0
  0
LINE
  5
F9259
  8
OBJECT
 10
1084.814954576223
 20
-986.5
 30
0.0
 11
1084.814954576223
 21
-994.5
 31
0.0
  0
LINE
  5
F925B
  8
OBJECT
 10
1065.185045423776
 20
-994.5
 30
0.0
 11
1065.185045423776
 21
-986.5
 31
0.0
  0
LINE
  5
F925C
  8
OBJECT
 10
1065.185045423776
 20
-986.5
 30
0.0
 11
1084.814954576223
 21
-986.5
 31
0.0
  0
LINE
  5
F925D
  8
OBJECT
 10
1079.907477288112
 20
-986.5
 30
0.0
 11
1079.907477288112
 21
-994.5
 31
0.0
  0
LINE
  5
F925E
  8
OBJECT
 10
1070.092522711888
 20
-986.5
 30
0.0
 11
1070.092522711888
 21
-994.5
 31
0.0
  0
LINE
  5
F9278
  8
OBJECT
 10
915.18504542377593
 20
-1005.499999999998
 30
0.0
 11
915.18504542377593
 21
-1012.499999999998
 31
0.0
  0
LINE
  5
F9279
  8
OBJECT
 10
915.18504542377593
 20
-1012.499999999998
 30
0.0
 11
934.81495457622339
 21
-1012.499999999998
 31
0.0
  0
LINE
  5
F927A
  8
OBJECT
 10
934.81495457622339
 20
-1012.499999999998
 30
0.0
 11
934.81495457622339
 21
-1005.499999999998
 31
0.0
  0
LINE
  5
F927C
  8
OBJECT
 10
920.09252271188791
 20
-1005.499999999998
 30
0.0
 11
920.09252271188791
 21
-1012.499999999998
 31
0.0
  0
LINE
  5
F927D
  8
OBJECT
 10
919.99999999999966
 20
-1002.499999999999
 30
0.0
 11
919.99999999999966
 21
-997.49999999999989
 31
0.0
  0
LINE
  5
F927E
  8
OBJECT
 10
919.99999999999966
 20
-986.5
 30
0.0
 11
919.99999999999966
 21
-975.49999999999807
 31
0.0
  0
LINE
  5
F927F
  8
OBJECT
 10
930.0
 20
-1002.499999999999
 30
0.0
 11
929.99999999999966
 21
-997.49999999999989
 31
0.0
  0
LINE
  5
F9280
  8
OBJECT
 10
929.99999999999966
 20
-986.5
 30
0.0
 11
929.99999999999966
 21
-975.49999999999807
 31
0.0
  0
LINE
  5
F9281
  8
OBJECT
 10
919.99999999999966
 20
-975.49999999999807
 30
0.0
 11
929.99999999999966
 21
-975.49999999999807
 31
0.0
  0
LINE
  5
F9282
  8
OBJECT
 10
929.90747728811141
 20
-1005.499999999998
 30
0.0
 11
929.90747728811141
 21
-1012.499999999998
 31
0.0
  0
LINE
  5
F9283
  8
OBJECT
 10
915.18504542377593
 20
-986.5
 30
0.0
 11
915.18504542377593
 21
-994.5
 31
0.0
  0
LINE
  5
F9285
  8
OBJECT
 10
934.81495457622339
 20
-994.5
 30
0.0
 11
934.81495457622339
 21
-986.5
 31
0.0
  0
LINE
  5
F9286
  8
OBJECT
 10
934.81495457622339
 20
-986.5
 30
0.0
 11
915.18504542377593
 21
-986.5
 31
0.0
  0
LINE
  5
F9287
  8
OBJECT
 10
920.09252271188791
 20
-986.5
 30
0.0
 11
920.09252271188791
 21
-994.5
 31
0.0
  0
LINE
  5
F9288
  8
OBJECT
 10
929.90747728811141
 20
-986.5
 30
0.0
 11
929.90747728811141
 21
-994.5
 31
0.0
  0
ARC
  5
F9290
  8
OBJECT
 10
999.99999999999955
 20
-1000.0
 30
0.0
 40
54.0
 50
170.99999999998201
 51
177.34646913258061
  0
ARC
  5
F9291
  8
OBJECT
 10
999.99999999999955
 20
-1000.0
 30
0.0
 40
57.0
 50
170.99999999998201
 51
174.46284476257401
  0
POLYLINE
  5
F9295
  8
SLIM
 66
     1
 10
0.0
 20
0.0
 30
0.0
 70
     1
  0
VERTEX
  5
100275
  8
SLIM
 10
1145.092522711888
 20
-1241.5
 30
0.0
  0
VERTEX
  5
100276
  8
SLIM
 10
1140.185045423776
 20
-1250.0
 30
0.0
  0
VERTEX
  5
100277
  8
SLIM
 10
1145.092522711888
 20
-1258.5
 30
0.0
  0
VERTEX
  5
100278
  8
SLIM
 10
1154.907477288112
 20
-1258.5
 30
0.0
  0
VERTEX
  5
100279
  8
SLIM
 10
1159.814954576223
 20
-1250.0
 30
0.0
  0
VERTEX
  5
10027A
  8
SLIM
 10
1154.907477288112
 20
-1241.5
 30
0.0
  0
SEQEND
  5
10027B
  8
SLIM
  0
LINE
  5
F9297
  8
CENTER
 10
1150.0
 20
-1186.5999999999999
 30
0.0
 11
1150.0
 21
-1270.9999999999991
 31
0.0
  0
POLYLINE
  5
F9298
  8
SLIM
 66
     1
 10
0.0
 20
0.0
 30
0.0
 70
     1
  0
VERTEX
  5
10027C
  8
SLIM
 10
1070.092522711888
 20
-1241.5
 30
0.0
  0
VERTEX
  5
10027D
  8
SLIM
 10
1065.185045423776
 20
-1250.0
 30
0.0
  0
VERTEX
  5
10027E
  8
SLIM
 10
1070.092522711888
 20
-1258.5
 30
0.0
  0
VERTEX
  5
10027F
  8
SLIM
 10
1079.907477288112
 20
-1258.5
 30
0.0
  0
VERTEX
  5
100280
  8
SLIM
 10
1084.814954576223
 20
-1250.0
 30
0.0
  0
VERTEX
  5
100281
  8
SLIM
 10
1079.907477288112
 20
-1241.5
 30
0.0
  0
SEQEND
  5
100282
  8
SLIM
  0
LINE
  5
F929B
  8
OBJECT
 10
941.72638790488145
 20
-1234.0000000000009
 30
0.0
 11
833.99999999999955
 21
-1234.0
 31
0.0
  0
LINE
  5
F929C
  8
OBJECT
 10
833.99999999999955
 20
-1234.0
 30
0.0
 11
833.99999999999955
 21
-1266.0
 31
0.0
  0
LINE
  5
F929D
  8
OBJECT
 10
833.99999999999955
 20
-1266.0
 30
0.0
 11
941.72638790488145
 21
-1266.0000000000009
 31
0.0
  0
POLYLINE
  5
F92A1
  8
SLIM
 66
     1
 10
0.0
 20
0.0
 30
0.0
 70
     1
  0
VERTEX
  5
100283
  8
SLIM
 10
854.90747728811141
 20
-1241.5
 30
0.0
  0
VERTEX
  5
100284
  8
SLIM
 10
859.81495457622339
 20
-1250.0
 30
0.0
  0
VERTEX
  5
100285
  8
SLIM
 10
854.90747728811141
 20
-1258.5
 30
0.0
  0
VERTEX
  5
100286
  8
SLIM
 10
845.0925227118878
 20
-1258.5
 30
0.0
  0
VERTEX
  5
100287
  8
SLIM
 10
840.18504542377593
 20
-1250.0
 30
0.0
  0
VERTEX
  5
100288
  8
SLIM
 10
845.0925227118878
 20
-1241.5
 30
0.0
  0
SEQEND
  5
100289
  8
SLIM
  0
LINE
  5
F92A3
  8
CENTER
 10
849.99999999999955
 20
-1186.5999999999999
 30
0.0
 11
849.99999999999955
 21
-1270.9999999999991
 31
0.0
  0
POLYLINE
  5
F92A4
  8
SLIM
 66
     1
 10
0.0
 20
0.0
 30
0.0
 70
     1
  0
VERTEX
  5
10028A
  8
SLIM
 10
929.90747728811141
 20
-1241.5
 30
0.0
  0
VERTEX
  5
10028B
  8
SLIM
 10
934.81495457622339
 20
-1250.0
 30
0.0
  0
VERTEX
  5
10028C
  8
SLIM
 10
929.90747728811141
 20
-1258.5
 30
0.0
  0
VERTEX
  5
10028D
  8
SLIM
 10
920.09252271188791
 20
-1258.5
 30
0.0
  0
VERTEX
  5
10028E
  8
SLIM
 10
915.18504542377593
 20
-1250.0
 30
0.0
  0
VERTEX
  5
10028F
  8
SLIM
 10
920.09252271188791
 20
-1241.5
 30
0.0
  0
SEQEND
  5
100290
  8
SLIM
  0
ARC
  5
F92A8
  8
OBJECT
 10
999.99999999999955
 20
-1000.0
 30
0.0
 40
54.0
 50
2.6535308674193461
 51
9.0000000000180762
  0
ARC
  5
F92A9
  8
OBJECT
 10
999.99999999999955
 20
-1000.0
 30
0.0
 40
57.0
 50
5.537155237425976
 51
9.0000000000182379
  0
LINE
  5
F92B1
  8
OBJECT
 10
943.26597141044863
 20
-1236.0
 30
0.0
 11
943.26597141044863
 21
-1264.0
 31
0.0
  0
LINE
  5
F92B2
  8
OBJECT
 10
941.72638790488145
 20
-1269.0
 30
0.0
 11
941.72638790488145
 21
-1264.0
 31
0.0
  0
LINE
  5
F92B3
  8
OBJECT
 10
941.72638790488145
 20
-1231.0
 30
0.0
 11
941.72638790488145
 21
-1236.0
 31
0.0
  0
LINE
  5
F92B8
  8
CENTER
 10
0.0000000000000041
 20
-925.79999999999995
 30
0.0
 11
0.0000000000000041
 21
-1074.2
 31
0.0
  0
ARC
  5
F92B9
  8
OBJECT
 10
0.0000000000000041
 20
-1000.0
 30
0.0
 40
51.0
 50
9.0000000000183178
 51
170.99999999998161
  0
LINE
  5
F92BC
  8
OBJECT
 10
58.471149763229192
 20
-1234.0
 30
0.0
 11
166.0000000000002
 21
-1234.0
 31
0.0
  0
LINE
  5
F92BD
  8
OBJECT
 10
166.0000000000002
 20
-1234.0
 30
0.0
 11
166.0000000000002
 21
-1266.0
 31
0.0
  0
LINE
  5
F92BE
  8
OBJECT
 10
166.0000000000002
 20
-1266.0
 30
0.0
 11
58.471149763229171
 21
-1266.0
 31
0.0
  0
LINE
  5
F92BF
  8
CENTER
 10
-181.0000000000002
 20
-1250.0
 30
0.0
 11
181.0000000000002
 21
-1250.0
 31
0.0
  0
LINE
  5
F92C0
  8
CENTER
 10
0.0000000000000041
 20
-1216.0
 30
0.0
 11
0.0000000000000041
 21
-1284.0
 31
0.0
  0
LINE
  5
F92C1
  8
OBJECT
 10
56.91528792863965
 20
-1236.0
 30
0.0
 11
56.91528792863965
 21
-1264.0
 31
0.0
  0
LINE
  5
F92C2
  8
OBJECT
 10
-58.471149763220851
 20
-1269.0
 30
0.0
 11
58.471149763229171
 21
-1269.0
 31
0.0
  0
LINE
  5
F92C3
  8
OBJECT
 10
58.471149763229171
 20
-1269.0
 30
0.0
 11
58.471149763229171
 21
-1264.0
 31
0.0
  0
LINE
  5
F92C4
  8
OBJECT
 10
58.471149763229171
 20
-1264.0
 30
0.0
 11
-58.471149763220851
 21
-1264.0
 31
0.0
  0
LINE
  5
F92C5
  8
OBJECT
 10
-58.471149763220851
 20
-1231.0
 30
0.0
 11
58.471149763229192
 21
-1231.0
 31
0.0
  0
LINE
  5
F92C6
  8
OBJECT
 10
58.471149763229192
 20
-1231.0
 30
0.0
 11
58.471149763229192
 21
-1236.0
 31
0.0
  0
LINE
  5
F92C7
  8
OBJECT
 10
58.471149763229192
 20
-1236.0
 30
0.0
 11
-58.471149763220851
 21
-1236.0
 31
0.0
  0
ARC
  5
F92CB
  8
HIDDEN
 10
0.0000000000000041
 20
-1000.0
 30
0.0
 40
54.0
 50
9.0000000000183178
 51
170.99999999998161
  0
ARC
  5
F92CC
  8
HIDDEN
 10
0.0000000000000041
 20
-1000.0
 30
0.0
 40
57.200000000000003
 50
9.0000000000183604
 51
170.99999999998161
  0
ARC
  5
F92CD
  8
OBJECT
 10
0.0000000000000041
 20
-1000.0
 30
0.0
 40
59.200000000000003
 50
9.0000000000183604
 51
170.99999999998161
  0
LINE
  5
F92E8
  8
OBJECT
 10
84.814954576223698
 20
-1005.699999999998
 30
0.0
 11
84.814954576223698
 21
-1012.699999999998
 31
0.0
  0
LINE
  5
F92E9
  8
OBJECT
 10
84.814954576223698
 20
-1012.699999999998
 30
0.0
 11
65.185045423776273
 21
-1012.699999999998
 31
0.0
  0
LINE
  5
F92EA
  8
OBJECT
 10
65.185045423776273
 20
-1012.699999999998
 30
0.0
 11
65.185045423776273
 21
-1005.699999999998
 31
0.0
  0
LINE
  5
F92EC
  8
OBJECT
 10
79.90747728811175
 20
-1005.699999999998
 30
0.0
 11
79.90747728811175
 21
-1012.699999999998
 31
0.0
  0
LINE
  5
F92ED
  8
OBJECT
 10
80.0
 20
-1002.499999999999
 30
0.0
 11
80.000000000000213
 21
-997.49999999999989
 31
0.0
  0
LINE
  5
F92EE
  8
OBJECT
 10
80.0
 20
-986.29999999999995
 30
0.0
 11
80.0
 21
-975.699999999998
 31
0.0
  0
LINE
  5
F92EF
  8
OBJECT
 10
69.999999999999773
 20
-1002.499999999999
 30
0.0
 11
70.000000000000227
 21
-997.49999999999989
 31
0.0
  0
LINE
  5
F92F0
  8
OBJECT
 10
70.0
 20
-986.29999999999995
 30
0.0
 11
70.0
 21
-975.699999999998
 31
0.0
  0
LINE
  5
F92F1
  8
OBJECT
 10
80.0
 20
-975.699999999998
 30
0.0
 11
70.0
 21
-975.699999999998
 31
0.0
  0
LINE
  5
F92F2
  8
OBJECT
 10
70.09252271188825
 20
-1005.699999999998
 30
0.0
 11
70.09252271188825
 21
-1012.699999999998
 31
0.0
  0
LINE
  5
F92F3
  8
OBJECT
 10
84.814954576223698
 20
-986.29999999999995
 30
0.0
 11
84.814954576223698
 21
-994.29999999999995
 31
0.0
  0
LINE
  5
F92F5
  8
OBJECT
 10
65.185045423776273
 20
-994.29999999999995
 30
0.0
 11
65.185045423776273
 21
-986.29999999999995
 31
0.0
  0
LINE
  5
F92F6
  8
OBJECT
 10
65.185045423776273
 20
-986.29999999999995
 30
0.0
 11
84.814954576223698
 21
-986.29999999999995
 31
0.0
  0
LINE
  5
F92F7
  8
OBJECT
 10
79.90747728811175
 20
-986.29999999999995
 30
0.0
 11
79.90747728811175
 21
-994.29999999999995
 31
0.0
  0
LINE
  5
F92F8
  8
OBJECT
 10
70.09252271188825
 20
-986.29999999999995
 30
0.0
 11
70.09252271188825
 21
-994.29999999999995
 31
0.0
  0
ARC
  5
F932A
  8
OBJECT
 10
0.0000000000000041
 20
-1000.0
 30
0.0
 40
54.0
 50
170.99999999998161
 51
177.34646913258061
  0
POLYLINE
  5
F932F
  8
SLIM
 66
     1
 10
0.0
 20
0.0
 30
0.0
 70
     1
  0
VERTEX
  5
100291
  8
SLIM
 10
145.09252271188819
 20
-1241.5
 30
0.0
  0
VERTEX
  5
100292
  8
SLIM
 10
140.18504542377619
 20
-1250.0
 30
0.0
  0
VERTEX
  5
100293
  8
SLIM
 10
145.09252271188819
 20
-1258.5
 30
0.0
  0
VERTEX
  5
100294
  8
SLIM
 10
154.90747728811169
 20
-1258.5
 30
0.0
  0
VERTEX
  5
100295
  8
SLIM
 10
159.8149545762237
 20
-1250.0
 30
0.0
  0
VERTEX
  5
100296
  8
SLIM
 10
154.90747728811169
 20
-1241.5
 30
0.0
  0
SEQEND
  5
100297
  8
SLIM
  0
LINE
  5
F9331
  8
CENTER
 10
150.0
 20
-1186.5999999999999
 30
0.0
 11
150.0
 21
-1270.9999999999991
 31
0.0
  0
POLYLINE
  5
F9332
  8
SLIM
 66
     1
 10
0.0
 20
0.0
 30
0.0
 70
     1
  0
VERTEX
  5
100298
  8
SLIM
 10
70.09252271188825
 20
-1241.5
 30
0.0
  0
VERTEX
  5
100299
  8
SLIM
 10
65.069592622932561
 20
-1250.0
 30
0.0
  0
VERTEX
  5
10029A
  8
SLIM
 10
70.09252271188825
 20
-1258.5
 30
0.0
  0
VERTEX
  5
10029B
  8
SLIM
 10
79.90747728811175
 20
-1258.5
 30
0.0
  0
VERTEX
  5
10029C
  8
SLIM
 10
84.814954576223698
 20
-1250.0
 30
0.0
  0
VERTEX
  5
10029D
  8
SLIM
 10
79.90747728811175
 20
-1241.5
 30
0.0
  0
SEQEND
  5
10029E
  8
SLIM
  0
LINE
  5
F9335
  8
OBJECT
 10
-58.471149763220851
 20
-1234.0000000000009
 30
0.0
 11
-166.0000000000002
 21
-1234.0
 31
0.0
  0
LINE
  5
F9336
  8
OBJECT
 10
-166.0000000000002
 20
-1234.0
 30
0.0
 11
-166.0000000000002
 21
-1266.0
 31
0.0
  0
LINE
  5
F9337
  8
OBJECT
 10
-166.0000000000002
 20
-1266.0
 30
0.0
 11
-58.471149763220851
 21
-1266.0000000000009
 31
0.0
  0
POLYLINE
  5
F9338
  8
SLIM
 66
     1
 10
0.0
 20
0.0
 30
0.0
 70
     1
  0
VERTEX
  5
10029F
  8
SLIM
 10
-145.09252271188819
 20
-1241.5
 30
0.0
  0
VERTEX
  5
1002A0
  8
SLIM
 10
-140.18504542377619
 20
-1250.0
 30
0.0
  0
VERTEX
  5
1002A1
  8
SLIM
 10
-145.09252271188819
 20
-1258.5
 30
0.0
  0
VERTEX
  5
1002A2
  8
SLIM
 10
-154.90747728811169
 20
-1258.5
 30
0.0
  0
VERTEX
  5
1002A3
  8
SLIM
 10
-159.8149545762237
 20
-1250.0
 30
0.0
  0
VERTEX
  5
1002A4
  8
SLIM
 10
-154.90747728811169
 20
-1241.5
 30
0.0
  0
SEQEND
  5
1002A5
  8
SLIM
  0
LINE
  5
F933A
  8
CENTER
 10
-150.0
 20
-1186.5999999999999
 30
0.0
 11
-150.0
 21
-1270.9999999999991
 31
0.0
  0
POLYLINE
  5
F933B
  8
SLIM
 66
     1
 10
0.0
 20
0.0
 30
0.0
 70
     1
  0
VERTEX
  5
1002A6
  8
SLIM
 10
-70.09252271188825
 20
-1241.5
 30
0.0
  0
VERTEX
  5
1002A7
  8
SLIM
 10
-65.185045423776273
 20
-1250.0
 30
0.0
  0
VERTEX
  5
1002A8
  8
SLIM
 10
-70.09252271188825
 20
-1258.5
 30
0.0
  0
VERTEX
  5
1002A9
  8
SLIM
 10
-79.90747728811175
 20
-1258.5
 30
0.0
  0
VERTEX
  5
1002AA
  8
SLIM
 10
-84.814954576223698
 20
-1250.0
 30
0.0
  0
VERTEX
  5
1002AB
  8
SLIM
 10
-79.90747728811175
 20
-1241.5
 30
0.0
  0
SEQEND
  5
1002AC
  8
SLIM
  0
ARC
  5
F933F
  8
OBJECT
 10
0.0000000000000041
 20
-1000.0
 30
0.0
 40
54.0
 50
2.6535308674193478
 51
9.0000000000183604
  0
ARC
  5
F9349
  8
OBJECT
 10
0.0000000000000041
 20
-1000.0
 30
0.0
 40
57.200000000000003
 50
5.7190364180628963
 51
9.0000000000183604
  0
LINE
  5
F9368
  8
OBJECT
 10
-84.814954576223698
 20
-1005.699999999998
 30
0.0
 11
-84.814954576223698
 21
-1012.699999999998
 31
0.0
  0
LINE
  5
F9369
  8
OBJECT
 10
-84.814954576223698
 20
-1012.699999999998
 30
0.0
 11
-65.185045423776273
 21
-1012.699999999998
 31
0.0
  0
LINE
  5
F936A
  8
OBJECT
 10
-65.185045423776273
 20
-1012.699999999998
 30
0.0
 11
-65.185045423776273
 21
-1005.699999999998
 31
0.0
  0
LINE
  5
F936C
  8
OBJECT
 10
-79.90747728811175
 20
-1005.699999999998
 30
0.0
 11
-79.90747728811175
 21
-1012.699999999998
 31
0.0
  0
LINE
  5
F936D
  8
OBJECT
 10
-80.0
 20
-1002.499999999999
 30
0.0
 11
-80.000000000000213
 21
-997.49999999999989
 31
0.0
  0
LINE
  5
F936E
  8
OBJECT
 10
-80.0
 20
-986.29999999999995
 30
0.0
 11
-80.0
 21
-975.699999999998
 31
0.0
  0
LINE
  5
F936F
  8
OBJECT
 10
-69.999999999999773
 20
-1002.499999999999
 30
0.0
 11
-70.000000000000227
 21
-997.49999999999989
 31
0.0
  0
LINE
  5
F9370
  8
OBJECT
 10
-70.0
 20
-986.29999999999995
 30
0.0
 11
-70.0
 21
-975.699999999998
 31
0.0
  0
LINE
  5
F9371
  8
OBJECT
 10
-80.0
 20
-975.699999999998
 30
0.0
 11
-70.0
 21
-975.699999999998
 31
0.0
  0
LINE
  5
F9372
  8
OBJECT
 10
-70.09252271188825
 20
-1005.699999999998
 30
0.0
 11
-70.09252271188825
 21
-1012.699999999998
 31
0.0
  0
LINE
  5
F9373
  8
OBJECT
 10
-84.814954576223698
 20
-986.29999999999995
 30
0.0
 11
-84.814954576223698
 21
-994.29999999999995
 31
0.0
  0
LINE
  5
F9375
  8
OBJECT
 10
-65.185045423776273
 20
-994.29999999999995
 30
0.0
 11
-65.185045423776273
 21
-986.29999999999995
 31
0.0
  0
LINE
  5
F9376
  8
OBJECT
 10
-65.185045423776273
 20
-986.29999999999995
 30
0.0
 11
-84.814954576223698
 21
-986.29999999999995
 31
0.0
  0
LINE
  5
F9377
  8
OBJECT
 10
-79.90747728811175
 20
-986.29999999999995
 30
0.0
 11
-79.90747728811175
 21
-994.29999999999995
 31
0.0
  0
LINE
  5
F9378
  8
OBJECT
 10
-70.09252271188825
 20
-986.29999999999995
 30
0.0
 11
-70.09252271188825
 21
-994.29999999999995
 31
0.0
  0
ARC
  5
F937D
  8
OBJECT
 10
0.0000000000000041
 20
-1000.0
 30
0.0
 40
57.200000000000003
 50
170.99999999998161
 51
174.2809635819371
  0
LINE
  5
F939C
  8
OBJECT
 10
-56.915287928639621
 20
-1236.0
 30
0.0
 11
-56.915287928639621
 21
-1264.0
 31
0.0
  0
LINE
  5
F939D
  8
OBJECT
 10
-58.471149763220851
 20
-1269.0
 30
0.0
 11
-58.471149763220851
 21
-1264.0
 31
0.0
  0
LINE
  5
F939E
  8
OBJECT
 10
-58.471149763220851
 20
-1231.0
 30
0.0
 11
-58.471149763220851
 21
-1236.0
 31
0.0
  0
LINE
  5
FCC9B
  8
HIDDEN
 10
1936.5
 20
-266.0
 30
0.0
 11
1936.5
 21
-234.0
 31
0.0
  0
LINE
  5
FCC9C
  8
HIDDEN
 10
2063.5000000000009
 20
-266.0
 30
0.0
 11
2063.5000000000009
 21
-234.0
 31
0.0
  0
LINE
  5
FCC9D
  8
HIDDEN
 10
2936.5
 20
-266.0
 30
0.0
 11
2936.5
 21
-234.0
 31
0.0
  0
LINE
  5
FCC9E
  8
HIDDEN
 10
3063.5000000000018
 20
-266.0
 30
0.0
 11
3063.5000000000018
 21
-234.0
 31
0.0
  0
LINE
  5
FCC9F
  8
HIDDEN
 10
-50.999999999999879
 20
-266.0
 30
0.0
 11
-50.999999999999879
 21
-234.0
 31
0.0
  0
LINE
  5
FCCA0
  8
HIDDEN
 10
51.000000000000121
 20
-266.0
 30
0.0
 11
51.000000000000121
 21
-234.0
 31
0.0
  0
LINE
  5
FCCA1
  8
HIDDEN
 10
948.99999999999955
 20
-266.0
 30
0.0
 11
948.99999999999955
 21
-234.0
 31
0.0
  0
LINE
  5
FCCA2
  8
HIDDEN
 10
1051.0
 20
-266.0
 30
0.0
 11
1051.0
 21
-234.0
 31
0.0
  0
LINE
  5
FD005
  8
OBJECT
 10
137.5
 20
-234.0
 30
0.0
 11
137.5
 21
-212.0
 31
0.0
  0
LINE
  5
FD006
  8
OBJECT
 10
137.5
 20
-212.0
 30
0.0
 11
162.5
 21
-212.0
 31
0.0
  0
LINE
  5
FD007
  8
OBJECT
 10
162.5
 20
-212.0
 30
0.0
 11
162.5
 21
-234.0
 31
0.0
  0
LINE
  5
FD008
  8
OBJECT
 10
137.5
 20
-232.0
 30
0.0
 11
162.5
 21
-232.0
 31
0.0
  0
LINE
  5
FD009
  8
OBJECT
 10
137.5
 20
-222.0
 30
0.0
 11
146.0
 21
-222.0
 31
0.0
  0
LINE
  5
FD00C
  8
OBJECT
 10
143.25
 20
-201.60000000000039
 30
0.0
 11
143.2499999999998
 21
-212.0
 31
0.0
  0
LINE
  5
FD00D
  8
OBJECT
 10
143.25
 20
-201.60000000000039
 30
0.0
 11
156.75
 21
-201.60000000000039
 31
0.0
  0
LINE
  5
FD00E
  8
OBJECT
 10
156.75
 20
-201.60000000000039
 30
0.0
 11
156.75
 21
-212.0
 31
0.0
  0
LINE
  5
FD00F
  8
OBJECT
 10
153.375
 20
-201.60000000000039
 30
0.0
 11
153.375
 21
-212.0
 31
0.0
  0
LINE
  5
FD010
  8
OBJECT
 10
146.625
 20
-201.60000000000039
 30
0.0
 11
146.625
 21
-212.0
 31
0.0
  0
LINE
  5
FD012
  8
OBJECT
 10
146.0
 20
-219.0
 30
0.0
 11
154.0
 21
-219.0
 31
0.0
  0
LINE
  5
FD015
  8
OBJECT
 10
146.0
 20
-219.0
 30
0.0
 11
146.0
 21
-225.89999999999961
 31
0.0
  0
LINE
  5
FD016
  8
OBJECT
 10
146.0
 20
-225.89999999999961
 30
0.0
 11
154.0
 21
-225.89999999999961
 31
0.0
  0
LINE
  5
FD017
  8
OBJECT
 10
154.0
 20
-225.89999999999961
 30
0.0
 11
154.0
 21
-219.0
 31
0.0
  0
LINE
  5
FD018
  8
OBJECT
 10
154.0
 20
-222.0
 30
0.0
 11
162.5
 21
-222.0
 31
0.0
  0
LINE
  5
FD095
  8
OBJECT
 10
137.5
 20
5.6999999999998172
 30
0.0
 11
53.899443410860883
 21
5.6999999999998172
 31
0.0
  0
LINE
  5
FD096
  8
OBJECT
 10
162.5
 20
-2.4999999999990901
 30
0.0
 11
166.0000000000002
 21
-2.4999999999990901
 31
0.0
  0
LINE
  5
FD097
  8
OBJECT
 10
162.5
 20
2.5
 30
0.0
 11
166.0
 21
2.5
 31
0.0
  0
LINE
  5
FD098
  8
OBJECT
 10
137.5
 20
-5.6999999999979991
 30
0.0
 11
53.899443410861082
 21
-5.6999999999989068
 31
0.0
  0
LINE
  5
FD099
  8
OBJECT
 10
137.5
 20
12.500000000000909
 30
0.0
 11
137.5
 21
-12.499999999999091
 31
0.0
  0
LINE
  5
FD09A
  8
OBJECT
 10
137.5
 20
-12.499999999999091
 30
0.0
 11
162.5
 21
-12.499999999999091
 31
0.0
  0
LINE
  5
FD09B
  8
OBJECT
 10
162.5
 20
-12.499999999999091
 30
0.0
 11
162.5
 21
12.500000000000909
 31
0.0
  0
LINE
  5
FD09C
  8
OBJECT
 10
162.5
 20
12.500000000000909
 30
0.0
 11
137.5
 21
12.500000000000909
 31
0.0
  0
POLYLINE
  5
FD09D
  8
SLIM
 66
     1
 10
0.0
 20
0.0
 30
0.0
 70
     1
  0
VERTEX
  5
1002AD
  8
SLIM
 10
146.625
 20
5.8456714755457133
 30
0.0
  0
VERTEX
  5
1002AE
  8
SLIM
 10
143.25
 20
0.0000000000009095
 30
0.0
  0
VERTEX
  5
1002AF
  8
SLIM
 10
146.625
 20
-5.8456714755438952
 30
0.0
  0
VERTEX
  5
1002B0
  8
SLIM
 10
153.375
 20
-5.8456714755438952
 30
0.0
  0
VERTEX
  5
1002B1
  8
SLIM
 10
156.75
 20
0.0000000000009095
 30
0.0
  0
VERTEX
  5
1002B2
  8
SLIM
 10
153.375
 20
5.8456714755457133
 30
0.0
  0
SEQEND
  5
1002B3
  8
SLIM
  0
CIRCLE
  5
FD09E
  8
OBJECT
 10
150.0
 20
0.0000000000009095
 30
0.0
 40
7.5
  0
CIRCLE
  5
FD09F
  8
SLIM
 10
150.0
 20
0.0000000000009095
 30
0.0
 40
4.7625000000000002
  0
POINT
  5
FD0AE
  8
DOTS
 10
145.23750000000001
 20
-201.60000000000039
 30
0.0
  0
POINT
  5
FD0AF
  8
DOTS
 10
154.76249999999999
 20
-201.60000000000039
 30
0.0
  0
LINE
  5
FD0B8
  8
OBJECT
 10
-50.938688636438158
 20
-2.5000000000009082
 30
0.0
 11
-137.5
 21
-2.4999999999990901
 31
0.0
  0
LINE
  5
FD0B9
  8
OBJECT
 10
-162.5
 20
-2.4999999999990901
 30
0.0
 11
-166.0000000000002
 21
-2.4999999999990901
 31
0.0
  0
LINE
  5
FD0BA
  8
OBJECT
 10
-50.938688636438201
 20
2.5
 30
0.0
 11
-137.5
 21
2.5
 31
0.0
  0
LINE
  5
FD0BB
  8
OBJECT
 10
-162.5
 20
2.5
 30
0.0
 11
-166.0
 21
2.5
 31
0.0
  0
LINE
  5
FD0BC
  8
CENTER
 10
-150.0
 20
29.300000000002001
 30
0.0
 11
-150.0
 21
-17.699999999997999
 31
0.0
  0
LINE
  5
FD0BD
  8
OBJECT
 10
-159.8149545762237
 20
-12.499999999999091
 30
0.0
 11
-159.8149545762237
 21
-12.699999999998001
 31
0.0
  0
LINE
  5
FD0BE
  8
OBJECT
 10
-159.8149545762237
 20
-12.699999999998001
 30
0.0
 11
-140.18504542377619
 21
-12.699999999998001
 31
0.0
  0
LINE
  5
FD0BF
  8
OBJECT
 10
-140.18504542377619
 20
-12.699999999998001
 30
0.0
 11
-140.18504542377619
 21
-12.499999999999091
 31
0.0
  0
LINE
  5
FD0C0
  8
OBJECT
 10
-154.90747728811169
 20
-12.499999999999091
 30
0.0
 11
-154.90747728811169
 21
-12.699999999998001
 31
0.0
  0
LINE
  5
FD0C1
  8
OBJECT
 10
-155.0
 20
13.69999999999982
 30
0.0
 11
-155.0
 21
24.300000000002001
 31
0.0
  0
LINE
  5
FD0C2
  8
OBJECT
 10
-145.0
 20
13.69999999999982
 30
0.0
 11
-145.0
 21
24.300000000002001
 31
0.0
  0
LINE
  5
FD0C3
  8
OBJECT
 10
-155.0
 20
24.300000000002001
 30
0.0
 11
-145.0
 21
24.300000000002001
 31
0.0
  0
LINE
  5
FD0C4
  8
OBJECT
 10
-145.09252271188819
 20
-12.499999999999091
 30
0.0
 11
-145.09252271188819
 21
-12.699999999998001
 31
0.0
  0
LINE
  5
FD0C5
  8
OBJECT
 10
-159.8149545762237
 20
13.69999999999982
 30
0.0
 11
-159.8149545762237
 21
12.500000000000909
 31
0.0
  0
LINE
  5
FD0C6
  8
OBJECT
 10
-140.18504542377619
 20
12.500000000000909
 30
0.0
 11
-140.18504542377619
 21
13.69999999999982
 31
0.0
  0
LINE
  5
FD0C7
  8
OBJECT
 10
-140.18504542377619
 20
13.69999999999982
 30
0.0
 11
-159.8149545762237
 21
13.69999999999982
 31
0.0
  0
LINE
  5
FD0C8
  8
OBJECT
 10
-154.90747728811169
 20
13.69999999999982
 30
0.0
 11
-154.90747728811169
 21
12.500000000000909
 31
0.0
  0
LINE
  5
FD0C9
  8
OBJECT
 10
-145.09252271188819
 20
13.69999999999982
 30
0.0
 11
-145.09252271188819
 21
12.500000000000909
 31
0.0
  0
LINE
  5
FD0CA
  8
OBJECT
 10
-166.0
 20
5.6999999999998172
 30
0.0
 11
-166.0
 21
2.5
 31
0.0
  0
LINE
  5
FD0CB
  8
OBJECT
 10
-166.0000000000002
 20
-2.4999999999990901
 30
0.0
 11
-166.0000000000002
 21
-5.6999999999979991
 31
0.0
  0
LINE
  5
FD0CC
  8
OBJECT
 10
-166.0
 20
5.6999999999998172
 30
0.0
 11
-162.5
 21
5.6999999999998172
 31
0.0
  0
LINE
  5
FD0CD
  8
OBJECT
 10
-137.5
 20
5.6999999999998172
 30
0.0
 11
-53.899443410860862
 21
5.6999999999998172
 31
0.0
  0
LINE
  5
FD0CE
  8
OBJECT
 10
-166.0000000000002
 20
-5.6999999999979991
 30
0.0
 11
-162.5
 21
-5.6999999999979991
 31
0.0
  0
LINE
  5
FD0CF
  8
OBJECT
 10
-137.5
 20
-5.6999999999979991
 30
0.0
 11
-53.89944341086106
 21
-5.6999999999989068
 31
0.0
  0
LINE
  5
FD0D0
  8
OBJECT
 10
-137.5
 20
12.500000000000909
 30
0.0
 11
-137.5
 21
-12.499999999999091
 31
0.0
  0
LINE
  5
FD0D1
  8
OBJECT
 10
-137.5
 20
-12.499999999999091
 30
0.0
 11
-162.5
 21
-12.499999999999091
 31
0.0
  0
LINE
  5
FD0D2
  8
OBJECT
 10
-162.5
 20
-12.499999999999091
 30
0.0
 11
-162.5
 21
12.500000000000909
 31
0.0
  0
LINE
  5
FD0D3
  8
OBJECT
 10
-162.5
 20
12.500000000000909
 30
0.0
 11
-137.5
 21
12.500000000000909
 31
0.0
  0
POLYLINE
  5
FD0D4
  8
SLIM
 66
     1
 10
0.0
 20
0.0
 30
0.0
 70
     1
  0
VERTEX
  5
1002B4
  8
SLIM
 10
-146.625
 20
5.8456714755457133
 30
0.0
  0
VERTEX
  5
1002B5
  8
SLIM
 10
-143.25
 20
0.0000000000009095
 30
0.0
  0
VERTEX
  5
1002B6
  8
SLIM
 10
-146.625
 20
-5.8456714755438952
 30
0.0
  0
VERTEX
  5
1002B7
  8
SLIM
 10
-153.375
 20
-5.8456714755438952
 30
0.0
  0
VERTEX
  5
1002B8
  8
SLIM
 10
-156.75
 20
0.0000000000009095
 30
0.0
  0
VERTEX
  5
1002B9
  8
SLIM
 10
-153.375
 20
5.8456714755457133
 30
0.0
  0
SEQEND
  5
1002BA
  8
SLIM
  0
CIRCLE
  5
FD0D5
  8
OBJECT
 10
-150.0
 20
0.0000000000009095
 30
0.0
 40
7.5
  0
CIRCLE
  5
FD0D6
  8
SLIM
 10
-150.0
 20
0.0000000000009095
 30
0.0
 40
4.7625000000000002
  0
LINE
  5
FD0E9
  8
OBJECT
 10
-166.0000000000002
 20
-234.0
 30
0.0
 11
-166.0000000000002
 21
-266.0
 31
0.0
  0
POLYLINE
  5
FD0EA
  8
SLIM
 66
     1
 10
0.0
 20
0.0
 30
0.0
 70
     1
  0
VERTEX
  5
1002BB
  8
SLIM
 10
-145.09252271188819
 20
-241.5
 30
0.0
  0
VERTEX
  5
1002BC
  8
SLIM
 10
-140.18504542377619
 20
-250.0
 30
0.0
  0
VERTEX
  5
1002BD
  8
SLIM
 10
-145.09252271188819
 20
-258.5
 30
0.0
  0
VERTEX
  5
1002BE
  8
SLIM
 10
-154.90747728811169
 20
-258.5
 30
0.0
  0
VERTEX
  5
1002BF
  8
SLIM
 10
-159.8149545762237
 20
-250.0
 30
0.0
  0
VERTEX
  5
1002C0
  8
SLIM
 10
-154.90747728811169
 20
-241.5
 30
0.0
  0
SEQEND
  5
1002C1
  8
SLIM
  0
LINE
  5
FD0EB
  8
CENTER
 10
-150.0
 20
-186.60000000000031
 30
0.0
 11
-150.0
 21
-270.99999999999909
 31
0.0
  0
LINE
  5
FD0EC
  8
OBJECT
 10
-137.5
 20
-234.0
 30
0.0
 11
-137.5
 21
-212.0
 31
0.0
  0
LINE
  5
FD0ED
  8
OBJECT
 10
-137.5
 20
-212.0
 30
0.0
 11
-162.5
 21
-212.0
 31
0.0
  0
LINE
  5
FD0EE
  8
OBJECT
 10
-162.5
 20
-212.0
 30
0.0
 11
-162.5
 21
-234.0
 31
0.0
  0
LINE
  5
FD0EF
  8
OBJECT
 10
-137.5
 20
-232.0
 30
0.0
 11
-162.5
 21
-232.0
 31
0.0
  0
LINE
  5
FD0F0
  8
OBJECT
 10
-137.5
 20
-222.0
 30
0.0
 11
-146.0
 21
-222.0
 31
0.0
  0
LINE
  5
FD0F1
  8
OBJECT
 10
-154.0
 20
-222.0
 30
0.0
 11
-162.5
 21
-222.0
 31
0.0
  0
LINE
  5
FD0F2
  8
OBJECT
 10
-143.25
 20
-201.60000000000039
 30
0.0
 11
-143.2499999999998
 21
-212.0
 31
0.0
  0
LINE
  5
FD0F3
  8
OBJECT
 10
-143.25
 20
-201.60000000000039
 30
0.0
 11
-156.75
 21
-201.60000000000039
 31
0.0
  0
LINE
  5
FD0F4
  8
OBJECT
 10
-156.75
 20
-201.60000000000039
 30
0.0
 11
-156.75
 21
-212.0
 31
0.0
  0
LINE
  5
FD0F5
  8
OBJECT
 10
-153.375
 20
-201.60000000000039
 30
0.0
 11
-153.375
 21
-212.0
 31
0.0
  0
LINE
  5
FD0F6
  8
OBJECT
 10
-146.625
 20
-201.60000000000039
 30
0.0
 11
-146.625
 21
-212.0
 31
0.0
  0
LINE
  5
FD0F7
  8
OBJECT
 10
-146.0
 20
-219.0
 30
0.0
 11
-154.0
 21
-219.0
 31
0.0
  0
LINE
  5
FD0F8
  8
OBJECT
 10
-146.0
 20
-219.0
 30
0.0
 11
-146.0
 21
-225.89999999999961
 31
0.0
  0
LINE
  5
FD0F9
  8
OBJECT
 10
-146.0
 20
-225.89999999999961
 30
0.0
 11
-154.0
 21
-225.89999999999961
 31
0.0
  0
LINE
  5
FD0FA
  8
OBJECT
 10
-154.0
 20
-225.89999999999961
 30
0.0
 11
-154.0
 21
-219.0
 31
0.0
  0
POINT
  5
FD0FF
  8
DOTS
 10
-145.23750000000001
 20
-201.60000000000039
 30
0.0
 50
180.0
  0
POINT
  5
FD100
  8
DOTS
 10
-154.76249999999999
 20
-201.60000000000039
 30
0.0
 50
180.0
  0
LINE
  5
FD120
  8
OBJECT
 10
862.49999999999955
 20
-234.0
 30
0.0
 11
862.49999999999955
 21
-212.0
 31
0.0
  0
LINE
  5
FD121
  8
OBJECT
 10
862.49999999999955
 20
-212.0
 30
0.0
 11
837.49999999999955
 21
-212.0
 31
0.0
  0
LINE
  5
FD122
  8
OBJECT
 10
837.49999999999955
 20
-212.0
 30
0.0
 11
837.49999999999955
 21
-234.0
 31
0.0
  0
LINE
  5
FD123
  8
OBJECT
 10
862.49999999999955
 20
-232.0
 30
0.0
 11
837.49999999999955
 21
-232.0
 31
0.0
  0
LINE
  5
FD124
  8
OBJECT
 10
862.49999999999955
 20
-222.0
 30
0.0
 11
853.99999999999966
 21
-222.0
 31
0.0
  0
LINE
  5
FD125
  8
OBJECT
 10
845.99999999999966
 20
-222.0
 30
0.0
 11
837.49999999999955
 21
-222.0
 31
0.0
  0
LINE
  5
FD126
  8
OBJECT
 10
856.74999999999966
 20
-201.60000000000039
 30
0.0
 11
856.74999999999966
 21
-212.0
 31
0.0
  0
LINE
  5
FD127
  8
OBJECT
 10
856.74999999999966
 20
-201.60000000000039
 30
0.0
 11
843.24999999999966
 21
-201.60000000000039
 31
0.0
  0
LINE
  5
FD128
  8
OBJECT
 10
843.24999999999966
 20
-201.60000000000039
 30
0.0
 11
843.24999999999966
 21
-212.0
 31
0.0
  0
LINE
  5
FD129
  8
OBJECT
 10
846.62499999999955
 20
-201.60000000000039
 30
0.0
 11
846.62499999999955
 21
-212.0
 31
0.0
  0
LINE
  5
FD12A
  8
OBJECT
 10
853.37499999999955
 20
-201.60000000000039
 30
0.0
 11
853.37499999999955
 21
-212.0
 31
0.0
  0
LINE
  5
FD12B
  8
OBJECT
 10
853.99999999999966
 20
-219.0
 30
0.0
 11
845.99999999999966
 21
-219.0
 31
0.0
  0
LINE
  5
FD12C
  8
OBJECT
 10
853.99999999999966
 20
-219.0
 30
0.0
 11
853.99999999999966
 21
-225.89999999999961
 31
0.0
  0
LINE
  5
FD12D
  8
OBJECT
 10
853.99999999999966
 20
-225.89999999999961
 30
0.0
 11
845.99999999999966
 21
-225.89999999999961
 31
0.0
  0
LINE
  5
FD12E
  8
OBJECT
 10
845.99999999999966
 20
-225.89999999999961
 30
0.0
 11
845.99999999999966
 21
-219.0
 31
0.0
  0
POINT
  5
FD12F
  8
DOTS
 10
854.76249999999959
 20
-201.60000000000039
 30
0.0
 50
180.0
  0
POINT
  5
FD130
  8
DOTS
 10
845.23749999999984
 20
-201.60000000000039
 30
0.0
 50
180.0
  0
LINE
  5
FD131
  8
OBJECT
 10
1162.5
 20
-234.0
 30
0.0
 11
1162.5
 21
-212.0
 31
0.0
  0
LINE
  5
FD132
  8
OBJECT
 10
1162.5
 20
-212.0
 30
0.0
 11
1137.5
 21
-212.0
 31
0.0
  0
LINE
  5
FD133
  8
OBJECT
 10
1137.5
 20
-212.0
 30
0.0
 11
1137.5
 21
-234.0
 31
0.0
  0
LINE
  5
FD134
  8
OBJECT
 10
1162.5
 20
-232.0
 30
0.0
 11
1137.5
 21
-232.0
 31
0.0
  0
LINE
  5
FD135
  8
OBJECT
 10
1162.5
 20
-222.0
 30
0.0
 11
1154.0
 21
-222.0
 31
0.0
  0
LINE
  5
FD136
  8
OBJECT
 10
1146.0
 20
-222.0
 30
0.0
 11
1137.5
 21
-222.0
 31
0.0
  0
LINE
  5
FD137
  8
OBJECT
 10
1156.75
 20
-201.60000000000039
 30
0.0
 11
1156.75
 21
-212.0
 31
0.0
  0
LINE
  5
FD138
  8
OBJECT
 10
1156.75
 20
-201.60000000000039
 30
0.0
 11
1143.25
 21
-201.60000000000039
 31
0.0
  0
LINE
  5
FD139
  8
OBJECT
 10
1143.25
 20
-201.60000000000039
 30
0.0
 11
1143.25
 21
-212.0
 31
0.0
  0
LINE
  5
FD13A
  8
OBJECT
 10
1146.625
 20
-201.60000000000039
 30
0.0
 11
1146.625
 21
-212.0
 31
0.0
  0
LINE
  5
FD13B
  8
OBJECT
 10
1153.375
 20
-201.60000000000039
 30
0.0
 11
1153.375
 21
-212.0
 31
0.0
  0
LINE
  5
FD13C
  8
OBJECT
 10
1154.0
 20
-219.0
 30
0.0
 11
1146.0
 21
-219.0
 31
0.0
  0
LINE
  5
FD13D
  8
OBJECT
 10
1154.0
 20
-219.0
 30
0.0
 11
1154.0
 21
-225.89999999999961
 31
0.0
  0
LINE
  5
FD13E
  8
OBJECT
 10
1154.0
 20
-225.89999999999961
 30
0.0
 11
1146.0
 21
-225.89999999999961
 31
0.0
  0
LINE
  5
FD13F
  8
OBJECT
 10
1146.0
 20
-225.89999999999961
 30
0.0
 11
1146.0
 21
-219.0
 31
0.0
  0
POINT
  5
FD140
  8
DOTS
 10
1154.7625
 20
-201.60000000000039
 30
0.0
 50
180.0
  0
POINT
  5
FD141
  8
DOTS
 10
1145.2375
 20
-201.60000000000039
 30
0.0
 50
180.0
  0
LINE
  5
FD142
  8
OBJECT
 10
1842.5
 20
-234.0
 30
0.0
 11
1842.5
 21
-212.0
 31
0.0
  0
LINE
  5
FD143
  8
OBJECT
 10
1842.5
 20
-212.0
 30
0.0
 11
1817.5
 21
-212.0
 31
0.0
  0
LINE
  5
FD144
  8
OBJECT
 10
1817.5
 20
-212.0
 30
0.0
 11
1817.5
 21
-234.0
 31
0.0
  0
LINE
  5
FD145
  8
OBJECT
 10
1842.5
 20
-232.0
 30
0.0
 11
1817.5
 21
-232.0
 31
0.0
  0
LINE
  5
FD146
  8
OBJECT
 10
1842.5
 20
-222.0
 30
0.0
 11
1834.0
 21
-222.0
 31
0.0
  0
LINE
  5
FD147
  8
OBJECT
 10
1826.0
 20
-222.0
 30
0.0
 11
1817.5
 21
-222.0
 31
0.0
  0
LINE
  5
FD148
  8
OBJECT
 10
1836.75
 20
-201.60000000000039
 30
0.0
 11
1836.75
 21
-212.0
 31
0.0
  0
LINE
  5
FD149
  8
OBJECT
 10
1836.75
 20
-201.60000000000039
 30
0.0
 11
1823.25
 21
-201.60000000000039
 31
0.0
  0
LINE
  5
FD14A
  8
OBJECT
 10
1823.25
 20
-201.60000000000039
 30
0.0
 11
1823.25
 21
-212.0
 31
0.0
  0
LINE
  5
FD14B
  8
OBJECT
 10
1826.625
 20
-201.60000000000039
 30
0.0
 11
1826.625
 21
-212.0
 31
0.0
  0
LINE
  5
FD14C
  8
OBJECT
 10
1833.375
 20
-201.60000000000039
 30
0.0
 11
1833.375
 21
-212.0
 31
0.0
  0
LINE
  5
FD14D
  8
OBJECT
 10
1834.0
 20
-219.0
 30
0.0
 11
1826.0
 21
-219.0
 31
0.0
  0
LINE
  5
FD14E
  8
OBJECT
 10
1834.0
 20
-219.0
 30
0.0
 11
1834.0
 21
-225.89999999999961
 31
0.0
  0
LINE
  5
FD14F
  8
OBJECT
 10
1834.0
 20
-225.89999999999961
 30
0.0
 11
1826.0
 21
-225.89999999999961
 31
0.0
  0
LINE
  5
FD150
  8
OBJECT
 10
1826.0
 20
-225.89999999999961
 30
0.0
 11
1826.0
 21
-219.0
 31
0.0
  0
POINT
  5
FD151
  8
DOTS
 10
1834.7625
 20
-201.60000000000039
 30
0.0
 50
180.0
  0
POINT
  5
FD152
  8
DOTS
 10
1825.2375
 20
-201.60000000000039
 30
0.0
 50
180.0
  0
LINE
  5
FD153
  8
OBJECT
 10
2182.5
 20
-234.0
 30
0.0
 11
2182.5
 21
-212.0
 31
0.0
  0
LINE
  5
FD154
  8
OBJECT
 10
2182.5
 20
-212.0
 30
0.0
 11
2157.5000000000009
 21
-212.0
 31
0.0
  0
LINE
  5
FD155
  8
OBJECT
 10
2157.5000000000009
 20
-212.0
 30
0.0
 11
2157.5000000000009
 21
-234.0
 31
0.0
  0
LINE
  5
FD156
  8
OBJECT
 10
2182.5
 20
-232.0
 30
0.0
 11
2157.5000000000009
 21
-232.0
 31
0.0
  0
LINE
  5
FD157
  8
OBJECT
 10
2182.5
 20
-222.0
 30
0.0
 11
2174.0000000000009
 21
-222.0
 31
0.0
  0
LINE
  5
FD158
  8
OBJECT
 10
2166.0
 20
-222.0
 30
0.0
 11
2157.5000000000009
 21
-222.0
 31
0.0
  0
LINE
  5
FD159
  8
OBJECT
 10
2176.7500000000009
 20
-201.60000000000039
 30
0.0
 11
2176.7500000000009
 21
-212.0
 31
0.0
  0
LINE
  5
FD15A
  8
OBJECT
 10
2176.7500000000009
 20
-201.60000000000039
 30
0.0
 11
2163.2500000000009
 21
-201.60000000000039
 31
0.0
  0
LINE
  5
FD15B
  8
OBJECT
 10
2163.2500000000009
 20
-201.60000000000039
 30
0.0
 11
2163.2500000000009
 21
-212.0
 31
0.0
  0
LINE
  5
FD15C
  8
OBJECT
 10
2166.6250000000009
 20
-201.60000000000039
 30
0.0
 11
2166.6250000000009
 21
-212.0
 31
0.0
  0
LINE
  5
FD15D
  8
OBJECT
 10
2173.375
 20
-201.60000000000039
 30
0.0
 11
2173.375
 21
-212.0
 31
0.0
  0
LINE
  5
FD15E
  8
OBJECT
 10
2174.0000000000009
 20
-219.0
 30
0.0
 11
2166.0
 21
-219.0
 31
0.0
  0
LINE
  5
FD15F
  8
OBJECT
 10
2174.0000000000009
 20
-219.0
 30
0.0
 11
2174.0000000000009
 21
-225.89999999999961
 31
0.0
  0
LINE
  5
FD160
  8
OBJECT
 10
2174.0000000000009
 20
-225.89999999999961
 30
0.0
 11
2166.0
 21
-225.89999999999961
 31
0.0
  0
LINE
  5
FD161
  8
OBJECT
 10
2166.0
 20
-225.89999999999961
 30
0.0
 11
2166.0
 21
-219.0
 31
0.0
  0
POINT
  5
FD162
  8
DOTS
 10
2174.7625000000012
 20
-201.60000000000039
 30
0.0
 50
180.0
  0
POINT
  5
FD163
  8
DOTS
 10
2165.2375000000011
 20
-201.60000000000039
 30
0.0
 50
180.0
  0
LINE
  5
FD164
  8
OBJECT
 10
2842.5
 20
-234.0
 30
0.0
 11
2842.5
 21
-212.0
 31
0.0
  0
LINE
  5
FD165
  8
OBJECT
 10
2842.5
 20
-212.0
 30
0.0
 11
2817.5
 21
-212.0
 31
0.0
  0
LINE
  5
FD166
  8
OBJECT
 10
2817.5
 20
-212.0
 30
0.0
 11
2817.5
 21
-234.0
 31
0.0
  0
LINE
  5
FD167
  8
OBJECT
 10
2842.5
 20
-232.0
 30
0.0
 11
2817.5
 21
-232.0
 31
0.0
  0
LINE
  5
FD168
  8
OBJECT
 10
2842.5
 20
-222.0
 30
0.0
 11
2834.0
 21
-222.0
 31
0.0
  0
LINE
  5
FD169
  8
OBJECT
 10
2826.0
 20
-222.0
 30
0.0
 11
2817.5
 21
-222.0
 31
0.0
  0
LINE
  5
FD16A
  8
OBJECT
 10
2836.75
 20
-201.60000000000039
 30
0.0
 11
2836.75
 21
-212.0
 31
0.0
  0
LINE
  5
FD16B
  8
OBJECT
 10
2836.75
 20
-201.60000000000039
 30
0.0
 11
2823.25
 21
-201.60000000000039
 31
0.0
  0
LINE
  5
FD16C
  8
OBJECT
 10
2823.25
 20
-201.60000000000039
 30
0.0
 11
2823.25
 21
-212.0
 31
0.0
  0
LINE
  5
FD16D
  8
OBJECT
 10
2826.625
 20
-201.60000000000039
 30
0.0
 11
2826.625
 21
-212.0
 31
0.0
  0
LINE
  5
FD16E
  8
OBJECT
 10
2833.375
 20
-201.60000000000039
 30
0.0
 11
2833.375
 21
-212.0
 31
0.0
  0
LINE
  5
FD16F
  8
OBJECT
 10
2834.0
 20
-219.0
 30
0.0
 11
2826.0
 21
-219.0
 31
0.0
  0
LINE
  5
FD170
  8
OBJECT
 10
2834.0
 20
-219.0
 30
0.0
 11
2834.0
 21
-225.89999999999961
 31
0.0
  0
LINE
  5
FD171
  8
OBJECT
 10
2834.0
 20
-225.89999999999961
 30
0.0
 11
2826.0
 21
-225.89999999999961
 31
0.0
  0
LINE
  5
FD172
  8
OBJECT
 10
2826.0
 20
-225.89999999999961
 30
0.0
 11
2826.0
 21
-219.0
 31
0.0
  0
POINT
  5
FD173
  8
DOTS
 10
2834.7624999999998
 20
-201.60000000000039
 30
0.0
 50
180.0
  0
POINT
  5
FD174
  8
DOTS
 10
2825.2375000000002
 20
-201.60000000000039
 30
0.0
 50
180.0
  0
LINE
  5
FD175
  8
OBJECT
 10
3182.5
 20
-234.0
 30
0.0
 11
3182.5
 21
-212.0
 31
0.0
  0
LINE
  5
FD176
  8
OBJECT
 10
3182.5
 20
-212.0
 30
0.0
 11
3157.5
 21
-212.0
 31
0.0
  0
LINE
  5
FD177
  8
OBJECT
 10
3157.5
 20
-212.0
 30
0.0
 11
3157.5
 21
-234.0
 31
0.0
  0
LINE
  5
FD178
  8
OBJECT
 10
3182.5
 20
-232.0
 30
0.0
 11
3157.5
 21
-232.0
 31
0.0
  0
LINE
  5
FD179
  8
OBJECT
 10
3182.5
 20
-222.0
 30
0.0
 11
3174.0
 21
-222.0
 31
0.0
  0
LINE
  5
FD17A
  8
OBJECT
 10
3166.0
 20
-222.0
 30
0.0
 11
3157.5
 21
-222.0
 31
0.0
  0
LINE
  5
FD17B
  8
OBJECT
 10
3176.75
 20
-201.60000000000039
 30
0.0
 11
3176.75
 21
-212.0
 31
0.0
  0
LINE
  5
FD17C
  8
OBJECT
 10
3176.75
 20
-201.60000000000039
 30
0.0
 11
3163.25
 21
-201.60000000000039
 31
0.0
  0
LINE
  5
FD17D
  8
OBJECT
 10
3163.25
 20
-201.60000000000039
 30
0.0
 11
3163.25
 21
-212.0
 31
0.0
  0
LINE
  5
FD17E
  8
OBJECT
 10
3166.625
 20
-201.60000000000039
 30
0.0
 11
3166.625
 21
-212.0
 31
0.0
  0
LINE
  5
FD17F
  8
OBJECT
 10
3173.375
 20
-201.60000000000039
 30
0.0
 11
3173.375
 21
-212.0
 31
0.0
  0
LINE
  5
FD180
  8
OBJECT
 10
3174.0
 20
-219.0
 30
0.0
 11
3166.0
 21
-219.0
 31
0.0
  0
LINE
  5
FD181
  8
OBJECT
 10
3174.0
 20
-219.0
 30
0.0
 11
3174.0
 21
-225.89999999999961
 31
0.0
  0
LINE
  5
FD182
  8
OBJECT
 10
3174.0
 20
-225.89999999999961
 30
0.0
 11
3166.0
 21
-225.89999999999961
 31
0.0
  0
LINE
  5
FD183
  8
OBJECT
 10
3166.0
 20
-225.89999999999961
 30
0.0
 11
3166.0
 21
-219.0
 31
0.0
  0
POINT
  5
FD184
  8
DOTS
 10
3174.7624999999998
 20
-201.60000000000039
 30
0.0
 50
180.0
  0
POINT
  5
FD185
  8
DOTS
 10
3165.2375000000002
 20
-201.60000000000039
 30
0.0
 50
180.0
  0
LINE
  5
FD19C
  8
OBJECT
 10
1820.185045423776
 20
-12.5
 30
0.0
 11
1820.185045423776
 21
-12.69999999999891
 31
0.0
  0
LINE
  5
FD19D
  8
OBJECT
 10
1820.185045423776
 20
-12.69999999999891
 30
0.0
 11
1839.814954576224
 21
-12.69999999999891
 31
0.0
  0
LINE
  5
FD19E
  8
OBJECT
 10
1839.814954576224
 20
-12.69999999999891
 30
0.0
 11
1839.814954576224
 21
-12.5
 31
0.0
  0
LINE
  5
FD19F
  8
OBJECT
 10
1825.092522711888
 20
-12.5
 30
0.0
 11
1825.092522711888
 21
-12.69999999999891
 31
0.0
  0
LINE
  5
FD1A0
  8
OBJECT
 10
1834.907477288112
 20
-12.5
 30
0.0
 11
1834.907477288112
 21
-12.69999999999891
 31
0.0
  0
LINE
  5
FD1A1
  8
OBJECT
 10
1820.185045423776
 20
13.69999999999891
 30
0.0
 11
1820.185045423776
 21
12.5
 31
0.0
  0
LINE
  5
FD1A2
  8
OBJECT
 10
1839.814954576224
 20
12.5
 30
0.0
 11
1839.814954576224
 21
13.69999999999891
 31
0.0
  0
LINE
  5
FD1A3
  8
OBJECT
 10
1839.814954576224
 20
13.69999999999891
 30
0.0
 11
1820.185045423776
 21
13.69999999999891
 31
0.0
  0
LINE
  5
FD1A4
  8
OBJECT
 10
1825.092522711888
 20
13.69999999999891
 30
0.0
 11
1825.092522711888
 21
12.5
 31
0.0
  0
LINE
  5
FD1A5
  8
OBJECT
 10
1834.907477288112
 20
13.69999999999891
 30
0.0
 11
1834.907477288112
 21
12.5
 31
0.0
  0
LINE
  5
FD1A6
  8
OBJECT
 10
1842.5
 20
12.5
 30
0.0
 11
1842.5
 21
-12.5
 31
0.0
  0
LINE
  5
FD1A7
  8
OBJECT
 10
1842.5
 20
-12.5
 30
0.0
 11
1817.5
 21
-12.5
 31
0.0
  0
LINE
  5
FD1A8
  8
OBJECT
 10
1817.5
 20
-12.5
 30
0.0
 11
1817.5
 21
12.5
 31
0.0
  0
LINE
  5
FD1A9
  8
OBJECT
 10
1817.5
 20
12.5
 30
0.0
 11
1842.5
 21
12.5
 31
0.0
  0
POLYLINE
  5
FD1AA
  8
SLIM
 66
     1
 10
0.0
 20
0.0
 30
0.0
 70
     1
  0
VERTEX
  5
1002C2
  8
SLIM
 10
1833.375
 20
5.8456714755448029
 30
0.0
  0
VERTEX
  5
1002C3
  8
SLIM
 10
1836.75
 20
0.0
 30
0.0
  0
VERTEX
  5
1002C4
  8
SLIM
 10
1833.375
 20
-5.8456714755448029
 30
0.0
  0
VERTEX
  5
1002C5
  8
SLIM
 10
1826.625
 20
-5.8456714755448029
 30
0.0
  0
VERTEX
  5
1002C6
  8
SLIM
 10
1823.25
 20
0.0
 30
0.0
  0
VERTEX
  5
1002C7
  8
SLIM
 10
1826.625
 20
5.8456714755448029
 30
0.0
  0
SEQEND
  5
1002C8
  8
SLIM
  0
CIRCLE
  5
FD1AB
  8
OBJECT
 10
1830.0
 20
0.0
 30
0.0
 40
7.5
  0
CIRCLE
  5
FD1AC
  8
SLIM
 10
1830.0
 20
0.0
 30
0.0
 40
4.7625000000000002
  0
LINE
  5
FD1AD
  8
OBJECT
 10
1817.5
 20
2.5
 30
0.0
 11
1814.0
 21
2.5
 31
0.0
  0
LINE
  5
FD1AE
  8
OBJECT
 10
1842.5
 20
5.7000000000007267
 30
0.0
 11
1933.543999518474
 21
5.7000000000007267
 31
0.0
  0
LINE
  5
FD1AF
  8
OBJECT
 10
1842.5
 20
-5.6999999999970878
 30
0.0
 11
1933.543999518474
 21
-5.6999999999979991
 31
0.0
  0
LINE
  5
FD1B0
  8
OBJECT
 10
1817.5
 20
-2.5
 30
0.0
 11
1814.0
 21
-2.4999999999990901
 31
0.0
  0
LINE
  5
FD1B1
  8
OBJECT
 10
2063.4507683168631
 20
-2.5000000000009082
 30
0.0
 11
2157.5000000000009
 21
-2.5
 31
0.0
  0
LINE
  5
FD1B2
  8
OBJECT
 10
2182.5
 20
-2.5
 30
0.0
 11
2186.0000000000009
 21
-2.4999999999990901
 31
0.0
  0
LINE
  5
FD1B3
  8
OBJECT
 10
2063.4507683168631
 20
2.5
 30
0.0
 11
2157.5000000000009
 21
2.5
 31
0.0
  0
LINE
  5
FD1B4
  8
OBJECT
 10
2182.5
 20
2.5
 30
0.0
 11
2186.0000000000009
 21
2.5
 31
0.0
  0
LINE
  5
FD1B5
  8
CENTER
 10
2170.0000000000009
 20
29.300000000002001
 30
0.0
 11
2170.0000000000009
 21
-17.699999999997999
 31
0.0
  0
LINE
  5
FD1B6
  8
OBJECT
 10
2175.0
 20
13.69999999999982
 30
0.0
 11
2175.0
 21
24.300000000002001
 31
0.0
  0
LINE
  5
FD1B7
  8
OBJECT
 10
2165.0
 20
13.69999999999982
 30
0.0
 11
2165.0
 21
24.300000000002001
 31
0.0
  0
LINE
  5
FD1B8
  8
OBJECT
 10
2175.0
 20
24.300000000002001
 30
0.0
 11
2165.0
 21
24.300000000002001
 31
0.0
  0
LINE
  5
FD1B9
  8
OBJECT
 10
2186.0000000000009
 20
5.6999999999998172
 30
0.0
 11
2186.0000000000009
 21
2.5
 31
0.0
  0
LINE
  5
FD1BA
  8
OBJECT
 10
2186.0000000000009
 20
-2.4999999999990901
 30
0.0
 11
2186.0000000000009
 21
-5.6999999999979991
 31
0.0
  0
LINE
  5
FD1BB
  8
OBJECT
 10
2186.0000000000009
 20
5.6999999999998172
 30
0.0
 11
2182.5
 21
5.7000000000007267
 31
0.0
  0
LINE
  5
FD1BC
  8
OBJECT
 10
2157.5000000000009
 20
5.7000000000007267
 30
0.0
 11
2066.4560004815271
 21
5.7000000000007267
 31
0.0
  0
LINE
  5
FD1BD
  8
OBJECT
 10
2186.0000000000009
 20
-5.6999999999979991
 30
0.0
 11
2182.5
 21
-5.6999999999970878
 31
0.0
  0
LINE
  5
FD1BE
  8
OBJECT
 10
2157.5000000000009
 20
-5.6999999999970878
 30
0.0
 11
2066.4560004815271
 21
-5.6999999999979991
 31
0.0
  0
LINE
  5
FD1BF
  8
OBJECT
 10
2179.814954576224
 20
-12.5
 30
0.0
 11
2179.814954576224
 21
-12.69999999999891
 31
0.0
  0
LINE
  5
FD1C0
  8
OBJECT
 10
2179.814954576224
 20
-12.69999999999891
 30
0.0
 11
2160.185045423776
 21
-12.69999999999891
 31
0.0
  0
LINE
  5
FD1C1
  8
OBJECT
 10
2160.185045423776
 20
-12.69999999999891
 30
0.0
 11
2160.185045423776
 21
-12.5
 31
0.0
  0
LINE
  5
FD1C2
  8
OBJECT
 10
2174.9074772881122
 20
-12.5
 30
0.0
 11
2174.9074772881122
 21
-12.69999999999891
 31
0.0
  0
LINE
  5
FD1C3
  8
OBJECT
 10
2165.0925227118892
 20
-12.5
 30
0.0
 11
2165.0925227118892
 21
-12.69999999999891
 31
0.0
  0
LINE
  5
FD1C4
  8
OBJECT
 10
2179.814954576224
 20
13.69999999999891
 30
0.0
 11
2179.814954576224
 21
12.5
 31
0.0
  0
LINE
  5
FD1C5
  8
OBJECT
 10
2160.185045423776
 20
12.5
 30
0.0
 11
2160.185045423776
 21
13.69999999999891
 31
0.0
  0
LINE
  5
FD1C6
  8
OBJECT
 10
2160.185045423776
 20
13.69999999999891
 30
0.0
 11
2179.814954576224
 21
13.69999999999891
 31
0.0
  0
LINE
  5
FD1C7
  8
OBJECT
 10
2174.9074772881122
 20
13.69999999999891
 30
0.0
 11
2174.9074772881122
 21
12.5
 31
0.0
  0
LINE
  5
FD1C8
  8
OBJECT
 10
2165.0925227118878
 20
13.69999999999891
 30
0.0
 11
2165.0925227118878
 21
12.5
 31
0.0
  0
LINE
  5
FD1C9
  8
OBJECT
 10
2157.5000000000009
 20
12.5
 30
0.0
 11
2157.5000000000009
 21
-12.5
 31
0.0
  0
LINE
  5
FD1CA
  8
OBJECT
 10
2157.5000000000009
 20
-12.5
 30
0.0
 11
2182.5
 21
-12.5
 31
0.0
  0
LINE
  5
FD1CB
  8
OBJECT
 10
2182.5
 20
-12.5
 30
0.0
 11
2182.5
 21
12.5
 31
0.0
  0
LINE
  5
FD1CC
  8
OBJECT
 10
2182.5
 20
12.5
 30
0.0
 11
2157.5000000000009
 21
12.5
 31
0.0
  0
POLYLINE
  5
FD1CD
  8
SLIM
 66
     1
 10
0.0
 20
0.0
 30
0.0
 70
     1
  0
VERTEX
  5
1002C9
  8
SLIM
 10
2166.6250000000009
 20
5.8456714755448029
 30
0.0
  0
VERTEX
  5
1002CA
  8
SLIM
 10
2163.2500000000009
 20
0.0
 30
0.0
  0
VERTEX
  5
1002CB
  8
SLIM
 10
2166.6250000000009
 20
-5.8456714755448029
 30
0.0
  0
VERTEX
  5
1002CC
  8
SLIM
 10
2173.375
 20
-5.8456714755448029
 30
0.0
  0
VERTEX
  5
1002CD
  8
SLIM
 10
2176.7500000000009
 20
0.0
 30
0.0
  0
VERTEX
  5
1002CE
  8
SLIM
 10
2173.375
 20
5.8456714755448029
 30
0.0
  0
SEQEND
  5
1002CF
  8
SLIM
  0
CIRCLE
  5
FD1CE
  8
OBJECT
 10
2170.0000000000009
 20
0.0
 30
0.0
 40
7.5
  0
CIRCLE
  5
FD1CF
  8
SLIM
 10
2170.0000000000009
 20
0.0
 30
0.0
 40
4.7625000000000002
  0
LINE
  5
FD1D0
  8
OBJECT
 10
862.49999999999955
 20
12.5
 30
0.0
 11
862.49999999999955
 21
-12.5
 31
0.0
  0
LINE
  5
FD1D1
  8
OBJECT
 10
862.49999999999955
 20
-12.5
 30
0.0
 11
837.49999999999955
 21
-12.5
 31
0.0
  0
LINE
  5
FD1D2
  8
OBJECT
 10
837.49999999999955
 20
-12.5
 30
0.0
 11
837.49999999999955
 21
12.5
 31
0.0
  0
LINE
  5
FD1D3
  8
OBJECT
 10
837.49999999999955
 20
12.5
 30
0.0
 11
862.49999999999955
 21
12.5
 31
0.0
  0
POLYLINE
  5
FD1D4
  8
SLIM
 66
     1
 10
0.0
 20
0.0
 30
0.0
 70
     1
  0
VERTEX
  5
1002D0
  8
SLIM
 10
853.37499999999955
 20
5.8456714755448029
 30
0.0
  0
VERTEX
  5
1002D1
  8
SLIM
 10
856.74999999999966
 20
0.0
 30
0.0
  0
VERTEX
  5
1002D2
  8
SLIM
 10
853.37499999999955
 20
-5.8456714755448029
 30
0.0
  0
VERTEX
  5
1002D3
  8
SLIM
 10
846.62499999999955
 20
-5.8456714755448029
 30
0.0
  0
VERTEX
  5
1002D4
  8
SLIM
 10
843.24999999999966
 20
0.0
 30
0.0
  0
VERTEX
  5
1002D5
  8
SLIM
 10
846.62499999999955
 20
5.8456714755448029
 30
0.0
  0
SEQEND
  5
1002D6
  8
SLIM
  0
CIRCLE
  5
FD1D5
  8
OBJECT
 10
849.99999999999955
 20
0.0
 30
0.0
 40
7.5
  0
CIRCLE
  5
FD1D6
  8
SLIM
 10
849.99999999999955
 20
0.0
 30
0.0
 40
4.7625000000000002
  0
LINE
  5
FD1DC
  8
OBJECT
 10
837.49999999999955
 20
5.5
 30
0.0
 11
833.99999999999955
 21
5.5
 31
0.0
  0
LINE
  5
FD1DD
  8
OBJECT
 10
837.49999999999955
 20
2.5
 30
0.0
 11
833.99999999999955
 21
2.5
 31
0.0
  0
LINE
  5
FD1DE
  8
OBJECT
 10
837.49999999999955
 20
-2.499999999998181
 30
0.0
 11
833.99999999999955
 21
-2.4999999999990901
 31
0.0
  0
LINE
  5
FD1DF
  8
OBJECT
 10
837.49999999999955
 20
-5.4999999999990887
 30
0.0
 11
833.99999999999955
 21
-5.4999999999990887
 31
0.0
  0
LINE
  5
FD1E0
  8
OBJECT
 10
1050.938688636438
 20
-2.5000000000009082
 30
0.0
 11
1137.5
 21
-2.4999999999990901
 31
0.0
  0
LINE
  5
FD1E1
  8
OBJECT
 10
1162.5
 20
-2.499999999998181
 30
0.0
 11
1166.0
 21
-2.4999999999990901
 31
0.0
  0
LINE
  5
FD1E2
  8
OBJECT
 10
1053.7191772088879
 20
-5.5000000000009077
 30
0.0
 11
1137.5
 21
-5.5
 31
0.0
  0
LINE
  5
FD1E3
  8
OBJECT
 10
1162.5
 20
-5.4999999999990887
 30
0.0
 11
1166.0
 21
-5.4999999999990887
 31
0.0
  0
LINE
  5
FD1E4
  8
OBJECT
 10
1050.938688636438
 20
2.5
 30
0.0
 11
1137.5
 21
2.5
 31
0.0
  0
LINE
  5
FD1E5
  8
OBJECT
 10
1162.5
 20
2.5
 30
0.0
 11
1166.0
 21
2.5
 31
0.0
  0
LINE
  5
FD1E6
  8
OBJECT
 10
1053.7191772088879
 20
5.5
 30
0.0
 11
1137.5
 21
5.5
 31
0.0
  0
LINE
  5
FD1E7
  8
OBJECT
 10
1162.5
 20
5.5
 30
0.0
 11
1166.0
 21
5.5
 31
0.0
  0
LINE
  5
FD1E8
  8
CENTER
 10
1150.0
 20
29.500000000001819
 30
0.0
 11
1150.0
 21
-17.499999999998181
 31
0.0
  0
LINE
  5
FD1E9
  8
OBJECT
 10
1155.0
 20
13.5
 30
0.0
 11
1155.0
 21
24.500000000001819
 31
0.0
  0
LINE
  5
FD1EA
  8
OBJECT
 10
1145.0
 20
13.5
 30
0.0
 11
1145.0
 21
24.500000000001819
 31
0.0
  0
LINE
  5
FD1EB
  8
OBJECT
 10
1155.0
 20
24.500000000001819
 30
0.0
 11
1145.0
 21
24.500000000001819
 31
0.0
  0
LINE
  5
FD1EC
  8
OBJECT
 10
1159.814954576223
 20
13.5
 30
0.0
 11
1159.814954576223
 21
12.5
 31
0.0
  0
LINE
  5
FD1ED
  8
OBJECT
 10
1140.185045423776
 20
12.5
 30
0.0
 11
1140.185045423776
 21
13.5
 31
0.0
  0
LINE
  5
FD1EE
  8
OBJECT
 10
1140.185045423776
 20
13.5
 30
0.0
 11
1159.814954576223
 21
13.5
 31
0.0
  0
LINE
  5
FD1EF
  8
OBJECT
 10
1154.907477288112
 20
13.5
 30
0.0
 11
1154.907477288112
 21
12.5
 31
0.0
  0
LINE
  5
FD1F0
  8
OBJECT
 10
1145.092522711888
 20
13.5
 30
0.0
 11
1145.092522711888
 21
12.5
 31
0.0
  0
LINE
  5
FD1F1
  8
OBJECT
 10
1166.0
 20
5.5
 30
0.0
 11
1166.0
 21
2.5
 31
0.0
  0
LINE
  5
FD1F2
  8
OBJECT
 10
1166.0
 20
-2.4999999999990901
 30
0.0
 11
1166.0
 21
-5.4999999999990887
 31
0.0
  0
LINE
  5
FD1F3
  8
OBJECT
 10
1137.5
 20
12.5
 30
0.0
 11
1137.5
 21
-12.5
 31
0.0
  0
LINE
  5
FD1F4
  8
OBJECT
 10
1137.5
 20
-12.5
 30
0.0
 11
1162.5
 21
-12.5
 31
0.0
  0
LINE
  5
FD1F5
  8
OBJECT
 10
1162.5
 20
-12.5
 30
0.0
 11
1162.5
 21
12.5
 31
0.0
  0
LINE
  5
FD1F6
  8
OBJECT
 10
1162.5
 20
12.5
 30
0.0
 11
1137.5
 21
12.5
 31
0.0
  0
POLYLINE
  5
FD1F7
  8
SLIM
 66
     1
 10
0.0
 20
0.0
 30
0.0
 70
     1
  0
VERTEX
  5
1002D7
  8
SLIM
 10
1146.625
 20
5.8456714755448029
 30
0.0
  0
VERTEX
  5
1002D8
  8
SLIM
 10
1143.25
 20
0.0
 30
0.0
  0
VERTEX
  5
1002D9
  8
SLIM
 10
1146.625
 20
-5.8456714755448029
 30
0.0
  0
VERTEX
  5
1002DA
  8
SLIM
 10
1153.375
 20
-5.8456714755448029
 30
0.0
  0
VERTEX
  5
1002DB
  8
SLIM
 10
1156.75
 20
0.0
 30
0.0
  0
VERTEX
  5
1002DC
  8
SLIM
 10
1153.375
 20
5.8456714755448029
 30
0.0
  0
SEQEND
  5
1002DD
  8
SLIM
  0
CIRCLE
  5
FD1F8
  8
OBJECT
 10
1150.0
 20
0.0
 30
0.0
 40
7.5
  0
CIRCLE
  5
FD1F9
  8
SLIM
 10
1150.0
 20
0.0
 30
0.0
 40
4.7625000000000002
  0
LINE
  5
FD217
  8
OBJECT
 10
2817.5
 20
-2.499999999998181
 30
0.0
 11
2814.0
 21
-2.4999999999990901
 31
0.0
  0
LINE
  5
FD218
  8
OBJECT
 10
2817.5
 20
-5.4999999999990887
 30
0.0
 11
2814.0
 21
-5.4999999999990887
 31
0.0
  0
LINE
  5
FD219
  8
OBJECT
 10
2817.5
 20
2.5
 30
0.0
 11
2814.0
 21
2.5
 31
0.0
  0
LINE
  5
FD21A
  8
OBJECT
 10
2817.5
 20
5.5
 30
0.0
 11
2814.0
 21
5.5
 31
0.0
  0
LINE
  5
FD21B
  8
CENTER
 10
2830.0
 20
29.500000000001819
 30
0.0
 11
2830.0
 21
-17.499999999998181
 31
0.0
  0
LINE
  5
FD21C
  8
OBJECT
 10
2825.0
 20
13.5
 30
0.0
 11
2825.0
 21
24.500000000001819
 31
0.0
  0
LINE
  5
FD21D
  8
OBJECT
 10
2835.0
 20
13.5
 30
0.0
 11
2835.0
 21
24.500000000001819
 31
0.0
  0
LINE
  5
FD21E
  8
OBJECT
 10
2825.0
 20
24.500000000001819
 30
0.0
 11
2835.0
 21
24.500000000001819
 31
0.0
  0
LINE
  5
FD21F
  8
OBJECT
 10
2820.185045423776
 20
13.5
 30
0.0
 11
2820.185045423776
 21
12.5
 31
0.0
  0
LINE
  5
FD220
  8
OBJECT
 10
2839.814954576224
 20
12.5
 30
0.0
 11
2839.814954576224
 21
13.5
 31
0.0
  0
LINE
  5
FD221
  8
OBJECT
 10
2839.814954576224
 20
13.5
 30
0.0
 11
2820.185045423776
 21
13.5
 31
0.0
  0
LINE
  5
FD222
  8
OBJECT
 10
2825.0925227118892
 20
13.5
 30
0.0
 11
2825.0925227118892
 21
12.5
 31
0.0
  0
LINE
  5
FD223
  8
OBJECT
 10
2834.9074772881122
 20
13.5
 30
0.0
 11
2834.9074772881122
 21
12.5
 31
0.0
  0
LINE
  5
FD224
  8
OBJECT
 10
2814.0
 20
5.5
 30
0.0
 11
2814.0
 21
2.5
 31
0.0
  0
LINE
  5
FD225
  8
OBJECT
 10
2814.0
 20
-2.4999999999990901
 30
0.0
 11
2814.0
 21
-5.4999999999990887
 31
0.0
  0
LINE
  5
FD226
  8
OBJECT
 10
2842.5
 20
12.5
 30
0.0
 11
2842.5
 21
-12.5
 31
0.0
  0
LINE
  5
FD227
  8
OBJECT
 10
2842.5
 20
-12.5
 30
0.0
 11
2817.5
 21
-12.5
 31
0.0
  0
LINE
  5
FD228
  8
OBJECT
 10
2817.5
 20
-12.5
 30
0.0
 11
2817.5
 21
12.5
 31
0.0
  0
LINE
  5
FD229
  8
OBJECT
 10
2817.5
 20
12.5
 30
0.0
 11
2842.5
 21
12.5
 31
0.0
  0
POLYLINE
  5
FD22A
  8
SLIM
 66
     1
 10
0.0
 20
0.0
 30
0.0
 70
     1
  0
VERTEX
  5
1002DE
  8
SLIM
 10
2833.375
 20
5.8456714755448029
 30
0.0
  0
VERTEX
  5
1002DF
  8
SLIM
 10
2836.75
 20
0.0
 30
0.0
  0
VERTEX
  5
1002E0
  8
SLIM
 10
2833.375
 20
-5.8456714755448029
 30
0.0
  0
VERTEX
  5
1002E1
  8
SLIM
 10
2826.625
 20
-5.8456714755448029
 30
0.0
  0
VERTEX
  5
1002E2
  8
SLIM
 10
2823.25
 20
0.0
 30
0.0
  0
VERTEX
  5
1002E3
  8
SLIM
 10
2826.625
 20
5.8456714755448029
 30
0.0
  0
SEQEND
  5
1002E4
  8
SLIM
  0
CIRCLE
  5
FD22B
  8
OBJECT
 10
2830.0
 20
0.0
 30
0.0
 40
7.5
  0
CIRCLE
  5
FD22C
  8
SLIM
 10
2830.0
 20
0.0
 30
0.0
 40
4.7625000000000002
  0
LINE
  5
FD22D
  8
OBJECT
 10
3063.4507683168608
 20
-2.5000000000009082
 30
0.0
 11
3157.5000000000009
 21
-2.4999999999990901
 31
0.0
  0
LINE
  5
FD22E
  8
OBJECT
 10
3066.2721661031242
 20
-5.5000000000009077
 30
0.0
 11
3157.5000000000009
 21
-5.4999999999990887
 31
0.0
  0
LINE
  5
FD22F
  8
OBJECT
 10
3063.4507683168631
 20
2.5
 30
0.0
 11
3157.5
 21
2.5
 31
0.0
  0
LINE
  5
FD230
  8
OBJECT
 10
3066.2721661031242
 20
5.5
 30
0.0
 11
3157.5
 21
5.5
 31
0.0
  0
LINE
  5
FD231
  8
OBJECT
 10
3182.5
 20
-2.499999999998181
 30
0.0
 11
3186.0000000000018
 21
-2.4999999999990901
 31
0.0
  0
LINE
  5
FD232
  8
OBJECT
 10
3182.5
 20
-5.4999999999990887
 30
0.0
 11
3186.0000000000018
 21
-5.4999999999990887
 31
0.0
  0
LINE
  5
FD233
  8
OBJECT
 10
3182.5
 20
2.5
 30
0.0
 11
3186.0
 21
2.5
 31
0.0
  0
LINE
  5
FD234
  8
OBJECT
 10
3182.5
 20
5.5
 30
0.0
 11
3186.0
 21
5.5
 31
0.0
  0
LINE
  5
FD235
  8
CENTER
 10
3170.0
 20
29.500000000001819
 30
0.0
 11
3170.0
 21
-17.499999999998181
 31
0.0
  0
LINE
  5
FD236
  8
OBJECT
 10
3175.0
 20
13.5
 30
0.0
 11
3175.0
 21
24.500000000001819
 31
0.0
  0
LINE
  5
FD237
  8
OBJECT
 10
3165.0
 20
13.5
 30
0.0
 11
3165.0
 21
24.500000000001819
 31
0.0
  0
LINE
  5
FD238
  8
OBJECT
 10
3175.0
 20
24.500000000001819
 30
0.0
 11
3165.0
 21
24.500000000001819
 31
0.0
  0
LINE
  5
FD239
  8
OBJECT
 10
3179.814954576224
 20
13.5
 30
0.0
 11
3179.814954576224
 21
12.5
 31
0.0
  0
LINE
  5
FD23A
  8
OBJECT
 10
3160.185045423777
 20
12.5
 30
0.0
 11
3160.185045423776
 21
13.5
 31
0.0
  0
LINE
  5
FD23B
  8
OBJECT
 10
3160.185045423776
 20
13.5
 30
0.0
 11
3179.814954576224
 21
13.5
 31
0.0
  0
LINE
  5
FD23C
  8
OBJECT
 10
3174.9074772881122
 20
13.5
 30
0.0
 11
3174.9074772881122
 21
12.5
 31
0.0
  0
LINE
  5
FD23D
  8
OBJECT
 10
3165.0925227118878
 20
13.5
 30
0.0
 11
3165.0925227118878
 21
12.5
 31
0.0
  0
LINE
  5
FD23E
  8
OBJECT
 10
3186.0
 20
5.5
 30
0.0
 11
3186.0
 21
2.5
 31
0.0
  0
LINE
  5
FD23F
  8
OBJECT
 10
3186.0000000000018
 20
-2.4999999999990901
 30
0.0
 11
3186.0000000000018
 21
-5.4999999999990887
 31
0.0
  0
LINE
  5
FD240
  8
OBJECT
 10
3157.5
 20
12.5
 30
0.0
 11
3157.5
 21
-12.5
 31
0.0
  0
LINE
  5
FD241
  8
OBJECT
 10
3157.5
 20
-12.5
 30
0.0
 11
3182.5
 21
-12.5
 31
0.0
  0
LINE
  5
FD242
  8
OBJECT
 10
3182.5
 20
-12.5
 30
0.0
 11
3182.5
 21
12.5
 31
0.0
  0
LINE
  5
FD243
  8
OBJECT
 10
3182.5
 20
12.5
 30
0.0
 11
3157.5
 21
12.5
 31
0.0
  0
POLYLINE
  5
FD244
  8
SLIM
 66
     1
 10
0.0
 20
0.0
 30
0.0
 70
     1
  0
VERTEX
  5
1002E5
  8
SLIM
 10
3166.625
 20
5.8456714755448029
 30
0.0
  0
VERTEX
  5
1002E6
  8
SLIM
 10
3163.25
 20
0.0
 30
0.0
  0
VERTEX
  5
1002E7
  8
SLIM
 10
3166.625
 20
-5.8456714755448029
 30
0.0
  0
VERTEX
  5
1002E8
  8
SLIM
 10
3173.375
 20
-5.8456714755448029
 30
0.0
  0
VERTEX
  5
1002E9
  8
SLIM
 10
3176.75
 20
0.0
 30
0.0
  0
VERTEX
  5
1002EA
  8
SLIM
 10
3173.375
 20
5.8456714755448029
 30
0.0
  0
SEQEND
  5
1002EB
  8
SLIM
  0
CIRCLE
  5
FD245
  8
OBJECT
 10
3170.0
 20
0.0
 30
0.0
 40
7.5
  0
CIRCLE
  5
FD246
  8
SLIM
 10
3170.0
 20
0.0
 30
0.0
 40
4.7625000000000002
  0
LINE
  5
FD2C5
  8
OBJECT
 10
4075.9297806005638
 20
-990.67699522953433
 30
0.0
 11
4084.8626959653329
 21
-989.58017113886081
 31
0.0
  0
LINE
  5
FD2C6
  8
OBJECT
 10
3915.1373040346671
 20
-989.58017113885887
 30
0.0
 11
3924.0702193994362
 21
-990.67699522953205
 31
0.0
  0
ARC
  5
FD2C7
  8
OBJECT
 10
4000.0
 20
-999.99999999999955
 30
0.0
 40
76.5
 50
187.0000000000322
 51
353.00000000007282
  0
ARC
  5
FD2C8
  8
HIDDEN
 10
4000.0
 20
-999.99999999999955
 30
0.0
 40
79.5
 50
187.0000000000322
 51
353.00000000007282
  0
ARC
  5
FD2C9
  8
HIDDEN
 10
4000.0
 20
-999.99999999999955
 30
0.0
 40
83.499999999999986
 50
187.0000000000322
 51
353.00000000007282
  0
ARC
  5
FD2CA
  8
OBJECT
 10
4000.0
 20
-999.99999999999955
 30
0.0
 40
85.5
 50
187.0000000000322
 51
353.00000000007282
  0
ARC
  5
FD2CB
  8
OBJECT
 10
4000.0
 20
-999.99999999999955
 30
0.0
 40
79.500000000000071
 50
353.00000000007282
 51
358.19794884043472
  0
ARC
  5
FD2CC
  8
OBJECT
 10
4000.0
 20
-999.99999999999955
 30
0.0
 40
83.500000000000057
 50
353.00000000007282
 51
355.53533261470977
  0
ARC
  5
FD2CD
  8
OBJECT
 10
4000.0
 20
-999.99999999999955
 30
0.0
 40
79.500000000000071
 50
181.80205115956531
 51
187.0000000000322
  0
ARC
  5
FD2CE
  8
OBJECT
 10
4000.0
 20
-999.99999999999955
 30
0.0
 40
83.500000000000057
 50
184.46466738529011
 51
187.0000000000322
  0
LINE
  5
FD2CF
  8
OBJECT
 10
4075.9297806005638
 20
-1009.323004770465
 30
0.0
 11
4084.8626959653329
 21
-1010.4198288611379
 31
0.0
  0
LINE
  5
FD2D0
  8
OBJECT
 10
3915.1373040346671
 20
-1010.419828861141
 30
0.0
 11
3924.0702193994362
 21
-1009.323004770467
 31
0.0
  0
POINT
  5
FD2D7
  8
DOTS
 10
3808.6500000000001
 20
-1190.0
 30
0.0
  0
POINT
  5
FD2D8
  8
DOTS
 10
3821.3500000000008
 20
-1190.0
 30
0.0
  0
POINT
  5
FD2D9
  8
DOTS
 10
4178.6499999999996
 20
-1190.0
 30
0.0
  0
POINT
  5
FD2DA
  8
DOTS
 10
4191.3500000000004
 20
-1190.0
 30
0.0
  0
LINE
  5
FD458
  8
OBJECT
 10
50.372105370352138
 20
-992.02184228294846
 30
0.0
 11
58.471149763229249
 21
-990.73907966959985
 31
0.0
  0
LINE
  5
FD459
  8
OBJECT
 10
-58.471149763231899
 20
-990.73907966961599
 30
0.0
 11
-50.372105370351747
 21
-992.02184228294561
 31
0.0
  0
ARC
  5
FD45A
  8
OBJECT
 10
0.0000000000000041
 20
-999.99999999999818
 30
0.0
 40
51.0
 50
189.00000000007111
 51
351.00000000003428
  0
ARC
  5
FD45B
  8
HIDDEN
 10
0.0000000000000041
 20
-999.99999999999818
 30
0.0
 40
54.0
 50
189.00000000007111
 51
351.00000000003428
  0
ARC
  5
FD45C
  8
HIDDEN
 10
0.0000000000000041
 20
-999.99999999999818
 30
0.0
 40
57.200000000000003
 50
189.00000000007111
 51
351.00000000003428
  0
ARC
  5
FD45D
  8
OBJECT
 10
0.0000000000000041
 20
-999.99999999999818
 30
0.0
 40
59.200000000000003
 50
189.00000000007111
 51
351.00000000003428
  0
ARC
  5
FD45E
  8
OBJECT
 10
0.0000000000000041
 20
-999.99999999999818
 30
0.0
 40
54.0
 50
182.65353086741919
 51
189.00000000007111
  0
ARC
  5
FD45F
  8
OBJECT
 10
0.0000000000000041
 20
-999.99999999999818
 30
0.0
 40
54.0
 50
351.00000000003428
 51
357.34646913258058
  0
ARC
  5
FD460
  8
OBJECT
 10
0.0000000000000041
 20
-999.99999999999818
 30
0.0
 40
57.200000000000003
 50
351.00000000003428
 51
354.280963581989
  0
ARC
  5
FD461
  8
OBJECT
 10
0.0000000000000041
 20
-999.99999999999818
 30
0.0
 40
57.200000000000003
 50
185.719036418011
 51
189.00000000007111
  0
LINE
  5
FD462
  8
OBJECT
 10
50.372105370352138
 20
-1007.978157717049
 30
0.0
 11
58.471149763229249
 21
-1009.260920330398
 31
0.0
  0
LINE
  5
FD463
  8
OBJECT
 10
-58.471149763231899
 20
-1009.260920330382
 30
0.0
 11
-50.372105370351747
 21
-1007.978157717052
 31
0.0
  0
LINE
  5
FD464
  8
OBJECT
 10
1050.3721053703521
 20
-992.02184228294846
 30
0.0
 11
1058.2736120951099
 21
-990.77036656260964
 31
0.0
  0
LINE
  5
FD465
  8
OBJECT
 10
941.72638790488668
 20
-990.77036656262499
 30
0.0
 11
949.62789462964793
 21
-992.02184228294561
 31
0.0
  0
ARC
  5
FD466
  8
OBJECT
 10
999.99999999999955
 20
-1000.0
 30
0.0
 40
51.0
 50
188.9999999999655
 51
351.00000000003428
  0
ARC
  5
FD467
  8
HIDDEN
 10
999.99999999999955
 20
-1000.0
 30
0.0
 40
54.0
 50
188.9999999999655
 51
351.00000000003428
  0
ARC
  5
FD468
  8
HIDDEN
 10
999.99999999999955
 20
-1000.0
 30
0.0
 40
57.0
 50
188.9999999999655
 51
351.00000000003428
  0
ARC
  5
FD469
  8
OBJECT
 10
999.99999999999955
 20
-1000.0
 30
0.0
 40
59.0
 50
188.9999999999655
 51
351.00000000003428
  0
ARC
  5
FD46A
  8
OBJECT
 10
999.99999999999955
 20
-1000.0
 30
0.0
 40
54.0
 50
182.65353086741919
 51
188.9999999999655
  0
ARC
  5
FD46B
  8
OBJECT
 10
999.99999999999955
 20
-1000.0
 30
0.0
 40
57.0
 50
185.53715523742599
 51
188.9999999999655
  0
ARC
  5
FD46C
  8
OBJECT
 10
999.99999999999955
 20
-1000.0
 30
0.0
 40
54.0
 50
351.00000000003428
 51
357.34646913258058
  0
ARC
  5
FD46D
  8
OBJECT
 10
999.99999999999955
 20
-1000.0
 30
0.0
 40
57.0
 50
351.00000000003428
 51
354.46284476257398
  0
LINE
  5
FD46E
  8
OBJECT
 10
1050.3721053703521
 20
-1007.978157717051
 30
0.0
 11
1058.2736120951099
 21
-1009.22963343739
 31
0.0
  0
LINE
  5
FD46F
  8
OBJECT
 10
941.72638790488668
 20
-1009.229633437375
 30
0.0
 11
949.62789462964793
 21
-1007.978157717054
 31
0.0
  0
LINE
  5
FD477
  8
OBJECT
 10
1928.834440927315
 20
-991.26196807787437
 30
0.0
 11
1936.9733193707759
 21
-992.26129669377121
 31
0.0
  0
LINE
  5
FD478
  8
OBJECT
 10
2063.026680629227
 20
-992.26129669379486
 30
0.0
 11
2071.1655590726859
 21
-991.26196807787596
 31
0.0
  0
ARC
  5
FD479
  8
OBJECT
 10
2000.0
 20
-999.99999999999818
 30
0.0
 40
63.5
 50
187.0000000000322
 51
352.99999999996783
  0
ARC
  5
FD47A
  8
HIDDEN
 10
2000.0
 20
-999.99999999999818
 30
0.0
 40
66.5
 50
187.0000000000322
 51
352.99999999996783
  0
ARC
  5
FD47B
  8
HIDDEN
 10
2000.0
 20
-999.99999999999818
 30
0.0
 40
69.700000000000003
 50
187.0000000000322
 51
353.00000000007282
  0
ARC
  5
FD47C
  8
OBJECT
 10
2000.0
 20
-999.99999999999818
 30
0.0
 40
71.700000000000003
 50
187.0000000000322
 51
353.00000000007282
  0
ARC
  5
FD47D
  8
OBJECT
 10
2000.0
 20
-999.99999999999818
 30
0.0
 40
66.499999999999929
 50
352.99999999996783
 51
357.84551563162893
  0
ARC
  5
FD47E
  8
OBJECT
 10
2000.0
 20
-999.99999999999818
 30
0.0
 40
69.700000000000003
 50
353.00000000007282
 51
355.30916689444717
  0
ARC
  5
FD47F
  8
OBJECT
 10
2000.0
 20
-999.99999999999818
 30
0.0
 40
66.499999999999929
 50
182.1544843683709
 51
187.0000000000322
  0
ARC
  5
FD480
  8
OBJECT
 10
2000.0
 20
-999.99999999999818
 30
0.0
 40
69.700000000000003
 50
184.6908331055526
 51
187.0000000000322
  0
LINE
  5
FD481
  8
OBJECT
 10
1928.834440927315
 20
-1008.738031922123
 30
0.0
 11
1936.9733193707759
 21
-1007.738703306227
 31
0.0
  0
LINE
  5
FD482
  8
OBJECT
 10
2063.026680629227
 20
-1007.738703306203
 30
0.0
 11
2071.1655590726859
 21
-1008.738031922122
 31
0.0
  0
LINE
  5
FD483
  8
OBJECT
 10
2929.032950157643
 20
-991.28634194655262
 30
0.0
 11
2936.9733193707762
 21
-992.26129669377121
 31
0.0
  0
LINE
  5
FD484
  8
OBJECT
 10
3063.0266806292279
 20
-992.26129669379316
 30
0.0
 11
3070.9670498423579
 21
-991.28634194655547
 31
0.0
  0
ARC
  5
FD485
  8
OBJECT
 10
3000.0
 20
-1000.000000000001
 30
0.0
 40
63.5
 50
187.0000000000322
 51
352.99999999996783
  0
ARC
  5
FD486
  8
HIDDEN
 10
3000.0
 20
-1000.000000000001
 30
0.0
 40
66.5
 50
187.0000000000322
 51
352.99999999996783
  0
ARC
  5
FD487
  8
HIDDEN
 10
3000.0
 20
-1000.000000000001
 30
0.0
 40
69.5
 50
187.0000000000322
 51
352.99999999996783
  0
ARC
  5
FD488
  8
OBJECT
 10
3000.0
 20
-1000.000000000001
 30
0.0
 40
71.5
 50
187.0000000000322
 51
353.00000000007282
  0
ARC
  5
FD489
  8
OBJECT
 10
3000.0
 20
-1000.000000000001
 30
0.0
 40
66.499999999999929
 50
352.99999999996783
 51
357.84551563162893
  0
ARC
  5
FD48A
  8
OBJECT
 10
3000.0
 20
-1000.000000000001
 30
0.0
 40
69.499999999999972
 50
353.00000000007282
 51
355.4610555767768
  0
ARC
  5
FD48B
  8
OBJECT
 10
3000.0
 20
-1000.000000000001
 30
0.0
 40
66.499999999999929
 50
182.1544843683709
 51
187.0000000000322
  0
ARC
  5
FD48C
  8
OBJECT
 10
3000.0
 20
-1000.000000000001
 30
0.0
 40
69.499999999999972
 50
184.5389444232232
 51
187.0000000000322
  0
LINE
  5
FD48D
  8
OBJECT
 10
2929.0329501576439
 20
-1008.71365805345
 30
0.0
 11
2936.9733193707771
 21
-1007.73870330623
 31
0.0
  0
LINE
  5
FD48E
  8
OBJECT
 10
3063.0266806292279
 20
-1007.738703306207
 30
0.0
 11
3070.9670498423579
 21
-1008.713658053444
 31
0.0
  0
LINE
  5
FD49F
  8
OBJECT
 10
-137.50000000000011
 20
-1234.0
 30
0.0
 11
-137.50000000000011
 21
-1212.0
 31
0.0
  0
LINE
  5
FD4A0
  8
OBJECT
 10
-137.50000000000011
 20
-1212.0
 30
0.0
 11
-162.50000000000011
 21
-1212.0
 31
0.0
  0
LINE
  5
FD4A1
  8
OBJECT
 10
-162.50000000000011
 20
-1212.0
 30
0.0
 11
-162.50000000000011
 21
-1234.0
 31
0.0
  0
LINE
  5
FD4A2
  8
OBJECT
 10
-137.50000000000011
 20
-1232.0
 30
0.0
 11
-162.50000000000011
 21
-1232.0
 31
0.0
  0
LINE
  5
FD4A3
  8
OBJECT
 10
-137.50000000000011
 20
-1222.0
 30
0.0
 11
-146.00000000000011
 21
-1222.0
 31
0.0
  0
LINE
  5
FD4A4
  8
OBJECT
 10
-154.0000000000002
 20
-1222.0
 30
0.0
 11
-162.50000000000011
 21
-1222.0
 31
0.0
  0
LINE
  5
FD4A5
  8
OBJECT
 10
-143.25000000000011
 20
-1201.5999999999999
 30
0.0
 11
-143.25000000000011
 21
-1212.0
 31
0.0
  0
LINE
  5
FD4A6
  8
OBJECT
 10
-143.25000000000011
 20
-1201.5999999999999
 30
0.0
 11
-156.75000000000011
 21
-1201.5999999999999
 31
0.0
  0
LINE
  5
FD4A7
  8
OBJECT
 10
-156.75000000000011
 20
-1201.5999999999999
 30
0.0
 11
-156.75000000000011
 21
-1212.0
 31
0.0
  0
LINE
  5
FD4A8
  8
OBJECT
 10
-153.37500000000011
 20
-1201.5999999999999
 30
0.0
 11
-153.37500000000011
 21
-1212.0
 31
0.0
  0
LINE
  5
FD4A9
  8
OBJECT
 10
-146.62500000000011
 20
-1201.5999999999999
 30
0.0
 11
-146.62500000000011
 21
-1212.0
 31
0.0
  0
LINE
  5
FD4AA
  8
OBJECT
 10
-146.00000000000011
 20
-1219.0
 30
0.0
 11
-154.00000000000011
 21
-1219.0
 31
0.0
  0
LINE
  5
FD4AB
  8
OBJECT
 10
-146.00000000000011
 20
-1219.0
 30
0.0
 11
-146.00000000000011
 21
-1225.899999999999
 31
0.0
  0
LINE
  5
FD4AC
  8
OBJECT
 10
-146.00000000000011
 20
-1225.899999999999
 30
0.0
 11
-154.00000000000011
 21
-1225.899999999999
 31
0.0
  0
LINE
  5
FD4AD
  8
OBJECT
 10
-154.00000000000011
 20
-1225.899999999999
 30
0.0
 11
-154.00000000000011
 21
-1219.0
 31
0.0
  0
POINT
  5
FD4AE
  8
DOTS
 10
-145.2375000000001
 20
-1201.5999999999999
 30
0.0
 50
180.0
  0
POINT
  5
FD4AF
  8
DOTS
 10
-154.7625000000001
 20
-1201.5999999999999
 30
0.0
 50
180.0
  0
LINE
  5
FD4B2
  8
OBJECT
 10
162.4999999999998
 20
-1234.0
 30
0.0
 11
162.4999999999998
 21
-1212.0
 31
0.0
  0
LINE
  5
FD4B3
  8
OBJECT
 10
162.4999999999998
 20
-1212.0
 30
0.0
 11
137.4999999999998
 21
-1212.0
 31
0.0
  0
LINE
  5
FD4B4
  8
OBJECT
 10
137.4999999999998
 20
-1212.0
 30
0.0
 11
137.4999999999998
 21
-1234.0
 31
0.0
  0
LINE
  5
FD4B5
  8
OBJECT
 10
162.4999999999998
 20
-1232.0
 30
0.0
 11
137.4999999999998
 21
-1232.0
 31
0.0
  0
LINE
  5
FD4B6
  8
OBJECT
 10
162.4999999999998
 20
-1222.0
 30
0.0
 11
153.9999999999998
 21
-1222.0
 31
0.0
  0
LINE
  5
FD4B7
  8
OBJECT
 10
145.9999999999998
 20
-1222.0
 30
0.0
 11
137.4999999999998
 21
-1222.0
 31
0.0
  0
LINE
  5
FD4B8
  8
OBJECT
 10
156.7499999999998
 20
-1201.5999999999999
 30
0.0
 11
156.7499999999998
 21
-1212.0
 31
0.0
  0
LINE
  5
FD4B9
  8
OBJECT
 10
156.7499999999998
 20
-1201.5999999999999
 30
0.0
 11
143.2499999999998
 21
-1201.5999999999999
 31
0.0
  0
LINE
  5
FD4BA
  8
OBJECT
 10
143.2499999999998
 20
-1201.5999999999999
 30
0.0
 11
143.2499999999998
 21
-1212.0
 31
0.0
  0
LINE
  5
FD4BB
  8
OBJECT
 10
146.6249999999998
 20
-1201.5999999999999
 30
0.0
 11
146.6249999999998
 21
-1212.0
 31
0.0
  0
LINE
  5
FD4BC
  8
OBJECT
 10
153.3749999999998
 20
-1201.5999999999999
 30
0.0
 11
153.3749999999998
 21
-1212.0
 31
0.0
  0
LINE
  5
FD4BD
  8
OBJECT
 10
153.9999999999998
 20
-1219.0
 30
0.0
 11
145.9999999999998
 21
-1219.0
 31
0.0
  0
LINE
  5
FD4BE
  8
OBJECT
 10
153.9999999999998
 20
-1219.0
 30
0.0
 11
153.9999999999998
 21
-1225.899999999999
 31
0.0
  0
LINE
  5
FD4BF
  8
OBJECT
 10
153.9999999999998
 20
-1225.899999999999
 30
0.0
 11
145.9999999999998
 21
-1225.899999999999
 31
0.0
  0
LINE
  5
FD4C0
  8
OBJECT
 10
145.9999999999998
 20
-1225.899999999999
 30
0.0
 11
145.9999999999998
 21
-1219.0
 31
0.0
  0
POINT
  5
FD4C1
  8
DOTS
 10
154.76249999999979
 20
-1201.5999999999999
 30
0.0
 50
180.0
  0
POINT
  5
FD4C2
  8
DOTS
 10
145.23749999999981
 20
-1201.5999999999999
 30
0.0
 50
180.0
  0
LINE
  5
FD4C3
  8
OBJECT
 10
862.49999999999955
 20
-1234.0
 30
0.0
 11
862.49999999999955
 21
-1212.0
 31
0.0
  0
LINE
  5
FD4C4
  8
OBJECT
 10
862.49999999999955
 20
-1212.0
 30
0.0
 11
837.49999999999955
 21
-1212.0
 31
0.0
  0
LINE
  5
FD4C5
  8
OBJECT
 10
837.49999999999955
 20
-1212.0
 30
0.0
 11
837.49999999999955
 21
-1234.0
 31
0.0
  0
LINE
  5
FD4C6
  8
OBJECT
 10
862.49999999999955
 20
-1232.0
 30
0.0
 11
837.49999999999955
 21
-1232.0
 31
0.0
  0
LINE
  5
FD4C7
  8
OBJECT
 10
862.49999999999955
 20
-1222.0
 30
0.0
 11
853.99999999999966
 21
-1222.0
 31
0.0
  0
LINE
  5
FD4C8
  8
OBJECT
 10
845.99999999999955
 20
-1222.0
 30
0.0
 11
837.49999999999955
 21
-1222.0
 31
0.0
  0
LINE
  5
FD4C9
  8
OBJECT
 10
856.74999999999966
 20
-1201.5999999999999
 30
0.0
 11
856.74999999999966
 21
-1212.0
 31
0.0
  0
LINE
  5
FD4CA
  8
OBJECT
 10
856.74999999999966
 20
-1201.5999999999999
 30
0.0
 11
843.24999999999966
 21
-1201.5999999999999
 31
0.0
  0
LINE
  5
FD4CB
  8
OBJECT
 10
843.24999999999966
 20
-1201.5999999999999
 30
0.0
 11
843.24999999999966
 21
-1212.0
 31
0.0
  0
LINE
  5
FD4CC
  8
OBJECT
 10
846.62499999999955
 20
-1201.5999999999999
 30
0.0
 11
846.62499999999955
 21
-1212.0
 31
0.0
  0
LINE
  5
FD4CD
  8
OBJECT
 10
853.37499999999955
 20
-1201.5999999999999
 30
0.0
 11
853.37499999999955
 21
-1212.0
 31
0.0
  0
LINE
  5
FD4CE
  8
OBJECT
 10
853.99999999999966
 20
-1219.0
 30
0.0
 11
845.99999999999966
 21
-1219.0
 31
0.0
  0
LINE
  5
FD4CF
  8
OBJECT
 10
853.99999999999966
 20
-1219.0
 30
0.0
 11
853.99999999999966
 21
-1225.899999999999
 31
0.0
  0
LINE
  5
FD4D0
  8
OBJECT
 10
853.99999999999966
 20
-1225.899999999999
 30
0.0
 11
845.99999999999966
 21
-1225.899999999999
 31
0.0
  0
LINE
  5
FD4D1
  8
OBJECT
 10
845.99999999999966
 20
-1225.899999999999
 30
0.0
 11
845.99999999999966
 21
-1219.0
 31
0.0
  0
POINT
  5
FD4D2
  8
DOTS
 10
854.76249999999959
 20
-1201.5999999999999
 30
0.0
 50
180.0
  0
POINT
  5
FD4D3
  8
DOTS
 10
845.23749999999984
 20
-1201.5999999999999
 30
0.0
 50
180.0
  0
LINE
  5
FD4D4
  8
OBJECT
 10
1162.5
 20
-1234.0
 30
0.0
 11
1162.5
 21
-1212.0
 31
0.0
  0
LINE
  5
FD4D5
  8
OBJECT
 10
1162.5
 20
-1212.0
 30
0.0
 11
1137.5
 21
-1212.0
 31
0.0
  0
LINE
  5
FD4D6
  8
OBJECT
 10
1137.5
 20
-1212.0
 30
0.0
 11
1137.5
 21
-1234.0
 31
0.0
  0
LINE
  5
FD4D7
  8
OBJECT
 10
1162.5
 20
-1232.0
 30
0.0
 11
1137.5
 21
-1232.0
 31
0.0
  0
LINE
  5
FD4D8
  8
OBJECT
 10
1162.5
 20
-1222.0
 30
0.0
 11
1154.0
 21
-1222.0
 31
0.0
  0
LINE
  5
FD4D9
  8
OBJECT
 10
1146.0
 20
-1222.0
 30
0.0
 11
1137.5
 21
-1222.0
 31
0.0
  0
LINE
  5
FD4DA
  8
OBJECT
 10
1156.75
 20
-1201.5999999999999
 30
0.0
 11
1156.75
 21
-1212.0
 31
0.0
  0
LINE
  5
FD4DB
  8
OBJECT
 10
1156.75
 20
-1201.5999999999999
 30
0.0
 11
1143.25
 21
-1201.5999999999999
 31
0.0
  0
LINE
  5
FD4DC
  8
OBJECT
 10
1143.25
 20
-1201.5999999999999
 30
0.0
 11
1143.25
 21
-1212.0
 31
0.0
  0
LINE
  5
FD4DD
  8
OBJECT
 10
1146.625
 20
-1201.5999999999999
 30
0.0
 11
1146.625
 21
-1212.0
 31
0.0
  0
LINE
  5
FD4DE
  8
OBJECT
 10
1153.375
 20
-1201.5999999999999
 30
0.0
 11
1153.375
 21
-1212.0
 31
0.0
  0
LINE
  5
FD4DF
  8
OBJECT
 10
1154.0
 20
-1219.0
 30
0.0
 11
1146.0
 21
-1219.0
 31
0.0
  0
LINE
  5
FD4E0
  8
OBJECT
 10
1154.0
 20
-1219.0
 30
0.0
 11
1154.0
 21
-1225.899999999999
 31
0.0
  0
LINE
  5
FD4E1
  8
OBJECT
 10
1154.0
 20
-1225.899999999999
 30
0.0
 11
1146.0
 21
-1225.899999999999
 31
0.0
  0
LINE
  5
FD4E2
  8
OBJECT
 10
1146.0
 20
-1225.899999999999
 30
0.0
 11
1146.0
 21
-1219.0
 31
0.0
  0
POINT
  5
FD4E3
  8
DOTS
 10
1154.7625
 20
-1201.5999999999999
 30
0.0
 50
180.0
  0
POINT
  5
FD4E4
  8
DOTS
 10
1145.2375
 20
-1201.5999999999999
 30
0.0
 50
180.0
  0
LINE
  5
FD4E5
  8
OBJECT
 10
1842.5
 20
-1234.0
 30
0.0
 11
1842.5
 21
-1212.0
 31
0.0
  0
LINE
  5
FD4E6
  8
OBJECT
 10
1842.5
 20
-1212.0
 30
0.0
 11
1817.5
 21
-1212.0
 31
0.0
  0
LINE
  5
FD4E7
  8
OBJECT
 10
1817.5
 20
-1212.0
 30
0.0
 11
1817.5
 21
-1234.0
 31
0.0
  0
LINE
  5
FD4E8
  8
OBJECT
 10
1842.5
 20
-1232.0
 30
0.0
 11
1817.5
 21
-1232.0
 31
0.0
  0
LINE
  5
FD4E9
  8
OBJECT
 10
1842.5
 20
-1222.0
 30
0.0
 11
1834.0
 21
-1222.0
 31
0.0
  0
LINE
  5
FD4EA
  8
OBJECT
 10
1826.0
 20
-1222.0
 30
0.0
 11
1817.5
 21
-1222.0
 31
0.0
  0
LINE
  5
FD4EB
  8
OBJECT
 10
1836.75
 20
-1201.5999999999999
 30
0.0
 11
1836.75
 21
-1212.0
 31
0.0
  0
LINE
  5
FD4EC
  8
OBJECT
 10
1836.75
 20
-1201.5999999999999
 30
0.0
 11
1823.25
 21
-1201.5999999999999
 31
0.0
  0
LINE
  5
FD4ED
  8
OBJECT
 10
1823.25
 20
-1201.5999999999999
 30
0.0
 11
1823.25
 21
-1212.0
 31
0.0
  0
LINE
  5
FD4EE
  8
OBJECT
 10
1826.625
 20
-1201.5999999999999
 30
0.0
 11
1826.625
 21
-1212.0
 31
0.0
  0
LINE
  5
FD4EF
  8
OBJECT
 10
1833.375
 20
-1201.5999999999999
 30
0.0
 11
1833.375
 21
-1212.0
 31
0.0
  0
LINE
  5
FD4F0
  8
OBJECT
 10
1834.0
 20
-1219.0
 30
0.0
 11
1826.0
 21
-1219.0
 31
0.0
  0
LINE
  5
FD4F1
  8
OBJECT
 10
1834.0
 20
-1219.0
 30
0.0
 11
1834.0
 21
-1225.899999999999
 31
0.0
  0
LINE
  5
FD4F2
  8
OBJECT
 10
1834.0
 20
-1225.899999999999
 30
0.0
 11
1826.0
 21
-1225.899999999999
 31
0.0
  0
LINE
  5
FD4F3
  8
OBJECT
 10
1826.0
 20
-1225.899999999999
 30
0.0
 11
1826.0
 21
-1219.0
 31
0.0
  0
POINT
  5
FD4F4
  8
DOTS
 10
1834.7625
 20
-1201.5999999999999
 30
0.0
 50
180.0
  0
POINT
  5
FD4F5
  8
DOTS
 10
1825.2375
 20
-1201.5999999999999
 30
0.0
 50
180.0
  0
LINE
  5
FD4F6
  8
OBJECT
 10
2182.5
 20
-1234.0
 30
0.0
 11
2182.5
 21
-1212.0
 31
0.0
  0
LINE
  5
FD4F7
  8
OBJECT
 10
2182.5
 20
-1212.0
 30
0.0
 11
2157.5000000000009
 21
-1212.0
 31
0.0
  0
LINE
  5
FD4F8
  8
OBJECT
 10
2157.5000000000009
 20
-1212.0
 30
0.0
 11
2157.5000000000009
 21
-1234.0
 31
0.0
  0
LINE
  5
FD4F9
  8
OBJECT
 10
2182.5
 20
-1232.0
 30
0.0
 11
2157.5000000000009
 21
-1232.0
 31
0.0
  0
LINE
  5
FD4FA
  8
OBJECT
 10
2182.5
 20
-1222.0
 30
0.0
 11
2174.0000000000009
 21
-1222.0
 31
0.0
  0
LINE
  5
FD4FB
  8
OBJECT
 10
2166.0
 20
-1222.0
 30
0.0
 11
2157.5000000000009
 21
-1222.0
 31
0.0
  0
LINE
  5
FD4FC
  8
OBJECT
 10
2176.7500000000009
 20
-1201.5999999999999
 30
0.0
 11
2176.7500000000009
 21
-1212.0
 31
0.0
  0
LINE
  5
FD4FD
  8
OBJECT
 10
2176.7500000000009
 20
-1201.5999999999999
 30
0.0
 11
2163.2500000000009
 21
-1201.5999999999999
 31
0.0
  0
LINE
  5
FD4FE
  8
OBJECT
 10
2163.2500000000009
 20
-1201.5999999999999
 30
0.0
 11
2163.2500000000009
 21
-1212.0
 31
0.0
  0
LINE
  5
FD4FF
  8
OBJECT
 10
2166.6250000000009
 20
-1201.5999999999999
 30
0.0
 11
2166.6250000000009
 21
-1212.0
 31
0.0
  0
LINE
  5
FD500
  8
OBJECT
 10
2173.375
 20
-1201.5999999999999
 30
0.0
 11
2173.375
 21
-1212.0
 31
0.0
  0
LINE
  5
FD501
  8
OBJECT
 10
2174.0000000000009
 20
-1219.0
 30
0.0
 11
2166.0
 21
-1219.0
 31
0.0
  0
LINE
  5
FD502
  8
OBJECT
 10
2174.0000000000009
 20
-1219.0
 30
0.0
 11
2174.0000000000009
 21
-1225.899999999999
 31
0.0
  0
LINE
  5
FD503
  8
OBJECT
 10
2174.0000000000009
 20
-1225.899999999999
 30
0.0
 11
2166.0
 21
-1225.899999999999
 31
0.0
  0
LINE
  5
FD504
  8
OBJECT
 10
2166.0
 20
-1225.899999999999
 30
0.0
 11
2166.0
 21
-1219.0
 31
0.0
  0
POINT
  5
FD505
  8
DOTS
 10
2174.7624999999998
 20
-1201.5999999999999
 30
0.0
 50
180.0
  0
POINT
  5
FD506
  8
DOTS
 10
2165.2375000000011
 20
-1201.5999999999999
 30
0.0
 50
180.0
  0
LINE
  5
FD507
  8
OBJECT
 10
2842.5
 20
-1234.0
 30
0.0
 11
2842.5
 21
-1212.0
 31
0.0
  0
LINE
  5
FD508
  8
OBJECT
 10
2842.5
 20
-1212.0
 30
0.0
 11
2817.5
 21
-1212.0
 31
0.0
  0
LINE
  5
FD509
  8
OBJECT
 10
2817.5
 20
-1212.0
 30
0.0
 11
2817.5
 21
-1234.0
 31
0.0
  0
LINE
  5
FD50A
  8
OBJECT
 10
2842.5
 20
-1232.0
 30
0.0
 11
2817.5
 21
-1232.0
 31
0.0
  0
LINE
  5
FD50B
  8
OBJECT
 10
2842.5
 20
-1222.0
 30
0.0
 11
2834.0
 21
-1222.0
 31
0.0
  0
LINE
  5
FD50C
  8
OBJECT
 10
2826.0
 20
-1222.0
 30
0.0
 11
2817.5
 21
-1222.0
 31
0.0
  0
LINE
  5
FD50D
  8
OBJECT
 10
2836.75
 20
-1201.5999999999999
 30
0.0
 11
2836.75
 21
-1212.0
 31
0.0
  0
LINE
  5
FD50E
  8
OBJECT
 10
2836.75
 20
-1201.5999999999999
 30
0.0
 11
2823.25
 21
-1201.5999999999999
 31
0.0
  0
LINE
  5
FD50F
  8
OBJECT
 10
2823.25
 20
-1201.5999999999999
 30
0.0
 11
2823.25
 21
-1212.0
 31
0.0
  0
LINE
  5
FD510
  8
OBJECT
 10
2826.625
 20
-1201.5999999999999
 30
0.0
 11
2826.625
 21
-1212.0
 31
0.0
  0
LINE
  5
FD511
  8
OBJECT
 10
2833.375
 20
-1201.5999999999999
 30
0.0
 11
2833.375
 21
-1212.0
 31
0.0
  0
LINE
  5
FD512
  8
OBJECT
 10
2834.0
 20
-1219.0
 30
0.0
 11
2826.0
 21
-1219.0
 31
0.0
  0
LINE
  5
FD513
  8
OBJECT
 10
2834.0
 20
-1219.0
 30
0.0
 11
2834.0
 21
-1225.899999999999
 31
0.0
  0
LINE
  5
FD514
  8
OBJECT
 10
2834.0
 20
-1225.899999999999
 30
0.0
 11
2826.0
 21
-1225.899999999999
 31
0.0
  0
LINE
  5
FD515
  8
OBJECT
 10
2826.0
 20
-1225.899999999999
 30
0.0
 11
2826.0
 21
-1219.0
 31
0.0
  0
POINT
  5
FD516
  8
DOTS
 10
2834.7624999999998
 20
-1201.5999999999999
 30
0.0
 50
180.0
  0
POINT
  5
FD517
  8
DOTS
 10
2825.2375000000002
 20
-1201.5999999999999
 30
0.0
 50
180.0
  0
LINE
  5
FD518
  8
OBJECT
 10
3182.5
 20
-1234.0
 30
0.0
 11
3182.5
 21
-1212.0
 31
0.0
  0
LINE
  5
FD519
  8
OBJECT
 10
3182.5
 20
-1212.0
 30
0.0
 11
3157.5
 21
-1212.0
 31
0.0
  0
LINE
  5
FD51A
  8
OBJECT
 10
3157.5
 20
-1212.0
 30
0.0
 11
3157.5
 21
-1234.0
 31
0.0
  0
LINE
  5
FD51B
  8
OBJECT
 10
3182.5
 20
-1232.0
 30
0.0
 11
3157.5
 21
-1232.0
 31
0.0
  0
LINE
  5
FD51C
  8
OBJECT
 10
3182.5
 20
-1222.0
 30
0.0
 11
3174.0
 21
-1222.0
 31
0.0
  0
LINE
  5
FD51D
  8
OBJECT
 10
3166.0
 20
-1222.0
 30
0.0
 11
3157.5
 21
-1222.0
 31
0.0
  0
LINE
  5
FD51E
  8
OBJECT
 10
3176.75
 20
-1201.5999999999999
 30
0.0
 11
3176.75
 21
-1212.0
 31
0.0
  0
LINE
  5
FD51F
  8
OBJECT
 10
3176.75
 20
-1201.5999999999999
 30
0.0
 11
3163.25
 21
-1201.5999999999999
 31
0.0
  0
LINE
  5
FD520
  8
OBJECT
 10
3163.25
 20
-1201.5999999999999
 30
0.0
 11
3163.25
 21
-1212.0
 31
0.0
  0
LINE
  5
FD521
  8
OBJECT
 10
3166.625
 20
-1201.5999999999999
 30
0.0
 11
3166.625
 21
-1212.0
 31
0.0
  0
LINE
  5
FD522
  8
OBJECT
 10
3173.375
 20
-1201.5999999999999
 30
0.0
 11
3173.375
 21
-1212.0
 31
0.0
  0
LINE
  5
FD523
  8
OBJECT
 10
3174.0
 20
-1219.0
 30
0.0
 11
3166.0
 21
-1219.0
 31
0.0
  0
LINE
  5
FD524
  8
OBJECT
 10
3174.0
 20
-1219.0
 30
0.0
 11
3174.0
 21
-1225.899999999999
 31
0.0
  0
LINE
  5
FD525
  8
OBJECT
 10
3174.0
 20
-1225.899999999999
 30
0.0
 11
3166.0
 21
-1225.899999999999
 31
0.0
  0
LINE
  5
FD526
  8
OBJECT
 10
3166.0
 20
-1225.899999999999
 30
0.0
 11
3166.0
 21
-1219.0
 31
0.0
  0
POINT
  5
FD527
  8
DOTS
 10
3174.7624999999998
 20
-1201.5999999999999
 30
0.0
 50
180.0
  0
POINT
  5
FD528
  8
DOTS
 10
3165.2375000000002
 20
-1201.5999999999999
 30
0.0
 50
180.0
  0
LINE
  5
FD529
  8
CENTER
 10
-181.0
 20
-999.99999999999818
 30
0.0
 11
181.0
 21
-999.99999999999693
 31
0.0
  0
LINE
  5
FD52A
  8
OBJECT
 10
53.942098587281492
 20
-1002.499999999998
 30
0.0
 11
137.5
 21
-1002.499999999997
 31
0.0
  0
LINE
  5
FD52B
  8
OBJECT
 10
162.5
 20
-1002.499999999997
 30
0.0
 11
166.0000000000002
 21
-1002.499999999997
 31
0.0
  0
LINE
  5
FD52C
  8
OBJECT
 10
53.942098587281457
 20
-997.49999999999807
 30
0.0
 11
137.5
 21
-997.49999999999807
 31
0.0
  0
LINE
  5
FD52D
  8
OBJECT
 10
162.5
 20
-997.49999999999807
 30
0.0
 11
166.0
 21
-997.49999999999807
 31
0.0
  0
LINE
  5
FD52E
  8
CENTER
 10
150.0
 20
-970.69999999999607
 30
0.0
 11
150.0
 21
-1017.699999999996
 31
0.0
  0
LINE
  5
FD52F
  8
OBJECT
 10
159.8149545762237
 20
-1012.499999999997
 30
0.0
 11
159.8149545762237
 21
-1012.699999999996
 31
0.0
  0
LINE
  5
FD530
  8
OBJECT
 10
159.8149545762237
 20
-1012.699999999996
 30
0.0
 11
140.18504542377619
 21
-1012.699999999996
 31
0.0
  0
LINE
  5
FD531
  8
OBJECT
 10
140.18504542377619
 20
-1012.699999999996
 30
0.0
 11
140.18504542377619
 21
-1012.499999999997
 31
0.0
  0
LINE
  5
FD532
  8
OBJECT
 10
154.90747728811169
 20
-1012.499999999997
 30
0.0
 11
154.90747728811169
 21
-1012.699999999996
 31
0.0
  0
LINE
  5
FD533
  8
OBJECT
 10
155.0
 20
-986.29999999999825
 30
0.0
 11
155.0
 21
-975.69999999999618
 31
0.0
  0
LINE
  5
FD534
  8
OBJECT
 10
145.0
 20
-986.29999999999825
 30
0.0
 11
145.0
 21
-975.69999999999618
 31
0.0
  0
LINE
  5
FD535
  8
OBJECT
 10
155.0
 20
-975.69999999999618
 30
0.0
 11
145.0
 21
-975.69999999999618
 31
0.0
  0
LINE
  5
FD536
  8
OBJECT
 10
145.09252271188819
 20
-1012.499999999997
 30
0.0
 11
145.09252271188819
 21
-1012.699999999996
 31
0.0
  0
LINE
  5
FD537
  8
OBJECT
 10
159.8149545762237
 20
-986.29999999999825
 30
0.0
 11
159.8149545762237
 21
-987.49999999999693
 31
0.0
  0
LINE
  5
FD538
  8
OBJECT
 10
140.18504542377619
 20
-987.49999999999693
 30
0.0
 11
140.18504542377619
 21
-986.29999999999825
 31
0.0
  0
LINE
  5
FD539
  8
OBJECT
 10
140.18504542377619
 20
-986.29999999999825
 30
0.0
 11
159.8149545762237
 21
-986.29999999999825
 31
0.0
  0
LINE
  5
FD53A
  8
OBJECT
 10
154.90747728811169
 20
-986.29999999999825
 30
0.0
 11
154.90747728811169
 21
-987.49999999999693
 31
0.0
  0
LINE
  5
FD53B
  8
OBJECT
 10
145.09252271188819
 20
-986.29999999999825
 30
0.0
 11
145.09252271188819
 21
-987.49999999999693
 31
0.0
  0
LINE
  5
FD53C
  8
OBJECT
 10
166.0
 20
-994.29999999999825
 30
0.0
 11
166.0
 21
-997.49999999999807
 31
0.0
  0
LINE
  5
FD53D
  8
OBJECT
 10
166.0000000000002
 20
-1002.499999999997
 30
0.0
 11
166.0000000000002
 21
-1005.699999999996
 31
0.0
  0
LINE
  5
FD53E
  8
OBJECT
 10
166.0
 20
-994.29999999999825
 30
0.0
 11
162.5
 21
-994.29999999999825
 31
0.0
  0
LINE
  5
FD53F
  8
OBJECT
 10
137.5
 20
-994.29999999999825
 30
0.0
 11
56.915287928638577
 21
-994.29999999999825
 31
0.0
  0
LINE
  5
FD540
  8
OBJECT
 10
166.0000000000002
 20
-1005.699999999996
 30
0.0
 11
162.5
 21
-1005.699999999996
 31
0.0
  0
LINE
  5
FD541
  8
OBJECT
 10
137.5
 20
-1005.699999999996
 30
0.0
 11
56.915287928638861
 21
-1005.699999999998
 31
0.0
  0
LINE
  5
FD542
  8
OBJECT
 10
137.5
 20
-987.49999999999693
 30
0.0
 11
137.5
 21
-1012.499999999997
 31
0.0
  0
LINE
  5
FD543
  8
OBJECT
 10
137.5
 20
-1012.499999999997
 30
0.0
 11
162.5
 21
-1012.499999999997
 31
0.0
  0
LINE
  5
FD544
  8
OBJECT
 10
162.5
 20
-1012.499999999997
 30
0.0
 11
162.5
 21
-987.49999999999693
 31
0.0
  0
LINE
  5
FD545
  8
OBJECT
 10
162.5
 20
-987.49999999999693
 30
0.0
 11
137.5
 21
-987.49999999999693
 31
0.0
  0
POLYLINE
  5
FD546
  8
SLIM
 66
     1
 10
0.0
 20
0.0
 30
0.0
 70
     1
  0
VERTEX
  5
1002EC
  8
SLIM
 10
146.625
 20
-994.15432852445235
 30
0.0
  0
VERTEX
  5
1002ED
  8
SLIM
 10
143.25
 20
-999.99999999999693
 30
0.0
  0
VERTEX
  5
1002EE
  8
SLIM
 10
146.625
 20
-1005.845671475542
 30
0.0
  0
VERTEX
  5
1002EF
  8
SLIM
 10
153.375
 20
-1005.845671475542
 30
0.0
  0
VERTEX
  5
1002F0
  8
SLIM
 10
156.75
 20
-999.99999999999693
 30
0.0
  0
VERTEX
  5
1002F1
  8
SLIM
 10
153.375
 20
-994.15432852445235
 30
0.0
  0
SEQEND
  5
1002F2
  8
SLIM
  0
CIRCLE
  5
FD547
  8
OBJECT
 10
150.0
 20
-999.99999999999693
 30
0.0
 40
7.5
  0
CIRCLE
  5
FD548
  8
SLIM
 10
150.0
 20
-999.99999999999693
 30
0.0
 40
4.7625000000000002
  0
LINE
  5
FD549
  8
OBJECT
 10
-53.942098587281457
 20
-1002.499999999998
 30
0.0
 11
-137.5
 21
-1002.499999999997
 31
0.0
  0
LINE
  5
FD54A
  8
OBJECT
 10
-162.5
 20
-1002.499999999997
 30
0.0
 11
-166.0000000000002
 21
-1002.499999999997
 31
0.0
  0
LINE
  5
FD54B
  8
OBJECT
 10
-53.942098587281457
 20
-997.49999999999807
 30
0.0
 11
-137.5
 21
-997.49999999999807
 31
0.0
  0
LINE
  5
FD54C
  8
OBJECT
 10
-162.5
 20
-997.49999999999807
 30
0.0
 11
-166.0
 21
-997.49999999999807
 31
0.0
  0
LINE
  5
FD54D
  8
CENTER
 10
-150.0
 20
-970.69999999999607
 30
0.0
 11
-150.0
 21
-1017.699999999996
 31
0.0
  0
LINE
  5
FD54E
  8
OBJECT
 10
-159.8149545762237
 20
-1012.499999999997
 30
0.0
 11
-159.8149545762237
 21
-1012.699999999996
 31
0.0
  0
LINE
  5
FD54F
  8
OBJECT
 10
-159.8149545762237
 20
-1012.699999999996
 30
0.0
 11
-140.18504542377619
 21
-1012.699999999996
 31
0.0
  0
LINE
  5
FD550
  8
OBJECT
 10
-140.18504542377619
 20
-1012.699999999996
 30
0.0
 11
-140.18504542377619
 21
-1012.499999999997
 31
0.0
  0
LINE
  5
FD551
  8
OBJECT
 10
-154.90747728811169
 20
-1012.499999999997
 30
0.0
 11
-154.90747728811169
 21
-1012.699999999996
 31
0.0
  0
LINE
  5
FD552
  8
OBJECT
 10
-155.0
 20
-986.29999999999825
 30
0.0
 11
-155.0
 21
-975.69999999999618
 31
0.0
  0
LINE
  5
FD553
  8
OBJECT
 10
-145.0
 20
-986.29999999999825
 30
0.0
 11
-145.0
 21
-975.69999999999618
 31
0.0
  0
LINE
  5
FD554
  8
OBJECT
 10
-155.0
 20
-975.69999999999618
 30
0.0
 11
-145.0
 21
-975.69999999999618
 31
0.0
  0
LINE
  5
FD555
  8
OBJECT
 10
-145.09252271188819
 20
-1012.499999999997
 30
0.0
 11
-145.09252271188819
 21
-1012.699999999996
 31
0.0
  0
LINE
  5
FD556
  8
OBJECT
 10
-159.8149545762237
 20
-986.29999999999825
 30
0.0
 11
-159.8149545762237
 21
-987.49999999999693
 31
0.0
  0
LINE
  5
FD557
  8
OBJECT
 10
-140.18504542377619
 20
-987.49999999999693
 30
0.0
 11
-140.18504542377619
 21
-986.29999999999825
 31
0.0
  0
LINE
  5
FD558
  8
OBJECT
 10
-140.18504542377619
 20
-986.29999999999825
 30
0.0
 11
-159.8149545762237
 21
-986.29999999999825
 31
0.0
  0
LINE
  5
FD559
  8
OBJECT
 10
-154.90747728811169
 20
-986.29999999999825
 30
0.0
 11
-154.90747728811169
 21
-987.49999999999693
 31
0.0
  0
LINE
  5
FD55A
  8
OBJECT
 10
-145.09252271188819
 20
-986.29999999999825
 30
0.0
 11
-145.09252271188819
 21
-987.49999999999693
 31
0.0
  0
LINE
  5
FD55B
  8
OBJECT
 10
-166.0
 20
-994.29999999999825
 30
0.0
 11
-166.0
 21
-997.49999999999807
 31
0.0
  0
LINE
  5
FD55C
  8
OBJECT
 10
-166.0000000000002
 20
-1002.499999999997
 30
0.0
 11
-166.0000000000002
 21
-1005.699999999996
 31
0.0
  0
LINE
  5
FD55D
  8
OBJECT
 10
-166.0
 20
-994.29999999999825
 30
0.0
 11
-162.5
 21
-994.29999999999825
 31
0.0
  0
LINE
  5
FD55E
  8
OBJECT
 10
-137.5
 20
-994.29999999999825
 30
0.0
 11
-56.91528792863857
 21
-994.29999999999825
 31
0.0
  0
LINE
  5
FD55F
  8
OBJECT
 10
-166.0000000000002
 20
-1005.699999999996
 30
0.0
 11
-162.5
 21
-1005.699999999996
 31
0.0
  0
LINE
  5
FD560
  8
OBJECT
 10
-137.5
 20
-1005.699999999996
 30
0.0
 11
-56.91528792863884
 21
-1005.699999999998
 31
0.0
  0
LINE
  5
FD561
  8
OBJECT
 10
-137.5
 20
-987.49999999999693
 30
0.0
 11
-137.5
 21
-1012.499999999997
 31
0.0
  0
LINE
  5
FD562
  8
OBJECT
 10
-137.5
 20
-1012.499999999997
 30
0.0
 11
-162.5
 21
-1012.499999999997
 31
0.0
  0
LINE
  5
FD563
  8
OBJECT
 10
-162.5
 20
-1012.499999999997
 30
0.0
 11
-162.5
 21
-987.49999999999693
 31
0.0
  0
LINE
  5
FD564
  8
OBJECT
 10
-162.5
 20
-987.49999999999693
 30
0.0
 11
-137.5
 21
-987.49999999999693
 31
0.0
  0
POLYLINE
  5
FD565
  8
SLIM
 66
     1
 10
0.0
 20
0.0
 30
0.0
 70
     1
  0
VERTEX
  5
1002F3
  8
SLIM
 10
-146.625
 20
-994.15432852445235
 30
0.0
  0
VERTEX
  5
1002F4
  8
SLIM
 10
-143.25
 20
-999.99999999999693
 30
0.0
  0
VERTEX
  5
1002F5
  8
SLIM
 10
-146.625
 20
-1005.845671475542
 30
0.0
  0
VERTEX
  5
1002F6
  8
SLIM
 10
-153.375
 20
-1005.845671475542
 30
0.0
  0
VERTEX
  5
1002F7
  8
SLIM
 10
-156.75
 20
-999.99999999999693
 30
0.0
  0
VERTEX
  5
1002F8
  8
SLIM
 10
-153.375
 20
-994.15432852445235
 30
0.0
  0
SEQEND
  5
1002F9
  8
SLIM
  0
CIRCLE
  5
FD566
  8
OBJECT
 10
-150.0
 20
-999.99999999999693
 30
0.0
 40
7.5
  0
CIRCLE
  5
FD567
  8
SLIM
 10
-150.0
 20
-999.99999999999693
 30
0.0
 40
4.7625000000000002
  0
LINE
  5
FD568
  8
CENTER
 10
1799.0
 20
-1000.0
 30
0.0
 11
2201.0
 21
-999.9999999999992
 31
0.0
  0
LINE
  5
FD569
  8
OBJECT
 10
1933.547009096656
 20
-1002.500000000001
 30
0.0
 11
1842.5
 21
-1002.5
 31
0.0
  0
LINE
  5
FD56A
  8
OBJECT
 10
1817.5
 20
-1002.5
 30
0.0
 11
1814.0
 21
-1002.499999999999
 31
0.0
  0
LINE
  5
FD56B
  8
OBJECT
 10
1933.5470090966551
 20
-997.49999999999989
 30
0.0
 11
1842.5
 21
-997.49999999999989
 31
0.0
  0
LINE
  5
FD56C
  8
OBJECT
 10
1817.5
 20
-997.49999999999989
 30
0.0
 11
1814.0
 21
-997.49999999999989
 31
0.0
  0
LINE
  5
FD56D
  8
CENTER
 10
1830.0
 20
-970.69999999999789
 30
0.0
 11
1830.0
 21
-1017.699999999998
 31
0.0
  0
LINE
  5
FD56E
  8
OBJECT
 10
1825.0
 20
-986.29999999999995
 30
0.0
 11
1825.0
 21
-975.699999999998
 31
0.0
  0
LINE
  5
FD56F
  8
OBJECT
 10
1835.0
 20
-986.29999999999995
 30
0.0
 11
1835.0
 21
-975.699999999998
 31
0.0
  0
LINE
  5
FD570
  8
OBJECT
 10
1825.0
 20
-975.699999999998
 30
0.0
 11
1835.0
 21
-975.699999999998
 31
0.0
  0
LINE
  5
FD571
  8
OBJECT
 10
1814.0
 20
-994.29999999999995
 30
0.0
 11
1814.0
 21
-997.49999999999989
 31
0.0
  0
LINE
  5
FD572
  8
OBJECT
 10
1814.0
 20
-1002.499999999999
 30
0.0
 11
1814.0
 21
-1005.699999999998
 31
0.0
  0
LINE
  5
FD573
  8
OBJECT
 10
1814.0
 20
-994.29999999999995
 30
0.0
 11
1817.5
 21
-994.29999999999916
 31
0.0
  0
LINE
  5
FD574
  8
OBJECT
 10
1842.5
 20
-994.29999999999916
 30
0.0
 11
1930.5334612924789
 21
-994.29999999999916
 31
0.0
  0
LINE
  5
FD575
  8
OBJECT
 10
1814.0
 20
-1005.699999999998
 30
0.0
 11
1817.5
 21
-1005.699999999997
 31
0.0
  0
LINE
  5
FD576
  8
OBJECT
 10
1842.5
 20
-1005.699999999997
 30
0.0
 11
1930.5334612924789
 21
-1005.699999999998
 31
0.0
  0
LINE
  5
FD577
  8
CENTER
 10
2799.0
 20
-1000.0
 30
0.0
 11
3201.0
 21
-999.9999999999992
 31
0.0
  0
LINE
  5
FD578
  8
OBJECT
 10
2933.547009096656
 20
-1002.500000000001
 30
0.0
 11
2842.5
 21
-1002.499999999999
 31
0.0
  0
LINE
  5
FD579
  8
OBJECT
 10
2930.7179676972451
 20
-1005.500000000001
 30
0.0
 11
2842.5
 21
-1005.499999999999
 31
0.0
  0
LINE
  5
FD57A
  8
OBJECT
 10
2933.547009096656
 20
-997.49999999999989
 30
0.0
 11
2842.5
 21
-997.49999999999989
 31
0.0
  0
LINE
  5
FD57B
  8
OBJECT
 10
2930.7179676972451
 20
-994.5
 30
0.0
 11
2842.5
 21
-994.5
 31
0.0
  0
LINE
  5
FD57C
  8
CENTER
 10
818.99999999999955
 20
-1000.0
 30
0.0
 11
1181.0
 21
-999.9999999999992
 31
0.0
  0
LINE
  5
FD57D
  8
OBJECT
 10
946.05790141271825
 20
-1002.500000000001
 30
0.0
 11
862.49999999999955
 21
-1002.499999999999
 31
0.0
  0
LINE
  5
FD57E
  8
OBJECT
 10
837.49999999999955
 20
-1002.499999999998
 30
0.0
 11
833.99999999999955
 21
-1002.499999999999
 31
0.0
  0
LINE
  5
FD57F
  8
OBJECT
 10
943.26597141044863
 20
-1005.500000000001
 30
0.0
 11
862.49999999999955
 21
-1005.5
 31
0.0
  0
LINE
  5
FD580
  8
OBJECT
 10
837.49999999999955
 20
-1005.499999999999
 30
0.0
 11
833.99999999999955
 21
-1005.499999999999
 31
0.0
  0
LINE
  5
FD581
  8
OBJECT
 10
946.05790141271825
 20
-997.49999999999989
 30
0.0
 11
862.49999999999955
 21
-997.49999999999989
 31
0.0
  0
LINE
  5
FD582
  8
OBJECT
 10
837.49999999999955
 20
-997.49999999999989
 30
0.0
 11
833.99999999999955
 21
-997.49999999999989
 31
0.0
  0
LINE
  5
FD583
  8
OBJECT
 10
943.26597141044863
 20
-994.5
 30
0.0
 11
862.49999999999955
 21
-994.5
 31
0.0
  0
LINE
  5
FD584
  8
OBJECT
 10
837.49999999999955
 20
-994.5
 30
0.0
 11
833.99999999999955
 21
-994.5
 31
0.0
  0
LINE
  5
FD585
  8
CENTER
 10
849.99999999999955
 20
-970.49999999999818
 30
0.0
 11
849.99999999999955
 21
-1017.499999999998
 31
0.0
  0
LINE
  5
FD586
  8
OBJECT
 10
844.99999999999966
 20
-986.5
 30
0.0
 11
844.99999999999966
 21
-975.49999999999807
 31
0.0
  0
LINE
  5
FD587
  8
OBJECT
 10
854.99999999999966
 20
-986.5
 30
0.0
 11
854.99999999999966
 21
-975.49999999999807
 31
0.0
  0
LINE
  5
FD588
  8
OBJECT
 10
844.99999999999966
 20
-975.49999999999807
 30
0.0
 11
854.99999999999966
 21
-975.49999999999807
 31
0.0
  0
LINE
  5
FD589
  8
OBJECT
 10
840.18504542377593
 20
-986.5
 30
0.0
 11
840.18504542377593
 21
-987.5
 31
0.0
  0
LINE
  5
FD58A
  8
OBJECT
 10
859.81495457622339
 20
-987.5
 30
0.0
 11
859.81495457622339
 21
-986.5
 31
0.0
  0
LINE
  5
FD58B
  8
OBJECT
 10
859.81495457622339
 20
-986.5
 30
0.0
 11
840.18504542377593
 21
-986.5
 31
0.0
  0
LINE
  5
FD58C
  8
OBJECT
 10
845.0925227118878
 20
-986.5
 30
0.0
 11
845.0925227118878
 21
-987.5
 31
0.0
  0
LINE
  5
FD58D
  8
OBJECT
 10
854.90747728811141
 20
-986.5
 30
0.0
 11
854.90747728811141
 21
-987.5
 31
0.0
  0
LINE
  5
FD58E
  8
OBJECT
 10
833.99999999999955
 20
-994.5
 30
0.0
 11
833.99999999999955
 21
-997.49999999999989
 31
0.0
  0
LINE
  5
FD58F
  8
OBJECT
 10
833.99999999999955
 20
-1002.499999999999
 30
0.0
 11
833.99999999999955
 21
-1005.499999999999
 31
0.0
  0
LINE
  5
FD590
  8
OBJECT
 10
1820.185045423776
 20
-1012.5
 30
0.0
 11
1820.185045423776
 21
-1012.699999999999
 31
0.0
  0
LINE
  5
FD591
  8
OBJECT
 10
1820.185045423776
 20
-1012.699999999999
 30
0.0
 11
1839.814954576224
 21
-1012.699999999999
 31
0.0
  0
LINE
  5
FD592
  8
OBJECT
 10
1839.814954576224
 20
-1012.699999999999
 30
0.0
 11
1839.814954576224
 21
-1012.5
 31
0.0
  0
LINE
  5
FD593
  8
OBJECT
 10
1825.092522711888
 20
-1012.5
 30
0.0
 11
1825.092522711888
 21
-1012.699999999999
 31
0.0
  0
LINE
  5
FD594
  8
OBJECT
 10
1834.907477288112
 20
-1012.5
 30
0.0
 11
1834.907477288112
 21
-1012.699999999999
 31
0.0
  0
LINE
  5
FD595
  8
OBJECT
 10
1820.185045423776
 20
-986.30000000000109
 30
0.0
 11
1820.185045423776
 21
-987.5
 31
0.0
  0
LINE
  5
FD596
  8
OBJECT
 10
1839.814954576224
 20
-987.5
 30
0.0
 11
1839.814954576224
 21
-986.30000000000109
 31
0.0
  0
LINE
  5
FD597
  8
OBJECT
 10
1839.814954576224
 20
-986.30000000000109
 30
0.0
 11
1820.185045423776
 21
-986.30000000000109
 31
0.0
  0
LINE
  5
FD598
  8
OBJECT
 10
1825.092522711888
 20
-986.30000000000109
 30
0.0
 11
1825.092522711888
 21
-987.5
 31
0.0
  0
LINE
  5
FD599
  8
OBJECT
 10
1834.907477288112
 20
-986.30000000000109
 30
0.0
 11
1834.907477288112
 21
-987.5
 31
0.0
  0
LINE
  5
FD59A
  8
OBJECT
 10
1842.5
 20
-987.5
 30
0.0
 11
1842.5
 21
-1012.5
 31
0.0
  0
LINE
  5
FD59B
  8
OBJECT
 10
1842.5
 20
-1012.5
 30
0.0
 11
1817.5
 21
-1012.5
 31
0.0
  0
LINE
  5
FD59C
  8
OBJECT
 10
1817.5
 20
-1012.5
 30
0.0
 11
1817.5
 21
-987.5
 31
0.0
  0
LINE
  5
FD59D
  8
OBJECT
 10
1817.5
 20
-987.5
 30
0.0
 11
1842.5
 21
-987.5
 31
0.0
  0
POLYLINE
  5
FD59E
  8
SLIM
 66
     1
 10
0.0
 20
0.0
 30
0.0
 70
     1
  0
VERTEX
  5
1002FA
  8
SLIM
 10
1833.375
 20
-994.1543285244552
 30
0.0
  0
VERTEX
  5
1002FB
  8
SLIM
 10
1836.75
 20
-1000.0
 30
0.0
  0
VERTEX
  5
1002FC
  8
SLIM
 10
1833.375
 20
-1005.845671475545
 30
0.0
  0
VERTEX
  5
1002FD
  8
SLIM
 10
1826.625
 20
-1005.845671475545
 30
0.0
  0
VERTEX
  5
1002FE
  8
SLIM
 10
1823.25
 20
-1000.0
 30
0.0
  0
VERTEX
  5
1002FF
  8
SLIM
 10
1826.625
 20
-994.1543285244552
 30
0.0
  0
SEQEND
  5
100300
  8
SLIM
  0
CIRCLE
  5
FD59F
  8
OBJECT
 10
1830.0
 20
-1000.0
 30
0.0
 40
7.5
  0
CIRCLE
  5
FD5A0
  8
SLIM
 10
1830.0
 20
-1000.0
 30
0.0
 40
4.7625000000000002
  0
LINE
  5
FD5A1
  8
OBJECT
 10
2066.4529909033449
 20
-1002.500000000001
 30
0.0
 11
2157.5000000000009
 21
-1002.5
 31
0.0
  0
LINE
  5
FD5A2
  8
OBJECT
 10
2182.5
 20
-1002.5
 30
0.0
 11
2186.0000000000009
 21
-1002.499999999999
 31
0.0
  0
LINE
  5
FD5A3
  8
OBJECT
 10
2066.4529909033449
 20
-997.49999999999989
 30
0.0
 11
2157.5000000000009
 21
-997.49999999999989
 31
0.0
  0
LINE
  5
FD5A4
  8
OBJECT
 10
2182.5
 20
-997.49999999999989
 30
0.0
 11
2186.0000000000009
 21
-997.49999999999989
 31
0.0
  0
LINE
  5
FD5A5
  8
CENTER
 10
2170.0000000000009
 20
-970.69999999999789
 30
0.0
 11
2170.0000000000009
 21
-1017.699999999998
 31
0.0
  0
LINE
  5
FD5A6
  8
OBJECT
 10
2175.0
 20
-986.29999999999995
 30
0.0
 11
2175.0
 21
-975.699999999998
 31
0.0
  0
LINE
  5
FD5A7
  8
OBJECT
 10
2165.0
 20
-986.29999999999995
 30
0.0
 11
2165.0
 21
-975.699999999998
 31
0.0
  0
LINE
  5
FD5A8
  8
OBJECT
 10
2175.0
 20
-975.699999999998
 30
0.0
 11
2165.0
 21
-975.699999999998
 31
0.0
  0
LINE
  5
FD5A9
  8
OBJECT
 10
2186.0000000000009
 20
-994.29999999999995
 30
0.0
 11
2186.0000000000009
 21
-997.49999999999989
 31
0.0
  0
LINE
  5
FD5AA
  8
OBJECT
 10
2186.0000000000009
 20
-1002.499999999999
 30
0.0
 11
2186.0000000000009
 21
-1005.699999999998
 31
0.0
  0
LINE
  5
FD5AB
  8
OBJECT
 10
2186.0000000000009
 20
-994.29999999999995
 30
0.0
 11
2182.5
 21
-994.29999999999916
 31
0.0
  0
LINE
  5
FD5AC
  8
OBJECT
 10
2157.5000000000009
 20
-994.29999999999916
 30
0.0
 11
2069.4665387075211
 21
-994.29999999999916
 31
0.0
  0
LINE
  5
FD5AD
  8
OBJECT
 10
2186.0000000000009
 20
-1005.699999999998
 30
0.0
 11
2182.5
 21
-1005.699999999997
 31
0.0
  0
LINE
  5
FD5AE
  8
OBJECT
 10
2157.5000000000009
 20
-1005.699999999997
 30
0.0
 11
2069.4665387075211
 21
-1005.699999999998
 31
0.0
  0
LINE
  5
FD5AF
  8
OBJECT
 10
2179.814954576224
 20
-1012.5
 30
0.0
 11
2179.814954576224
 21
-1012.699999999999
 31
0.0
  0
LINE
  5
FD5B0
  8
OBJECT
 10
2179.814954576224
 20
-1012.699999999999
 30
0.0
 11
2160.185045423776
 21
-1012.699999999999
 31
0.0
  0
LINE
  5
FD5B1
  8
OBJECT
 10
2160.185045423776
 20
-1012.699999999999
 30
0.0
 11
2160.185045423776
 21
-1012.5
 31
0.0
  0
LINE
  5
FD5B2
  8
OBJECT
 10
2174.9074772881122
 20
-1012.5
 30
0.0
 11
2174.9074772881122
 21
-1012.699999999999
 31
0.0
  0
LINE
  5
FD5B3
  8
OBJECT
 10
2165.0925227118892
 20
-1012.5
 30
0.0
 11
2165.0925227118892
 21
-1012.699999999999
 31
0.0
  0
LINE
  5
FD5B4
  8
OBJECT
 10
2179.814954576224
 20
-986.30000000000109
 30
0.0
 11
2179.814954576224
 21
-987.5
 31
0.0
  0
LINE
  5
FD5B5
  8
OBJECT
 10
2160.185045423776
 20
-987.5
 30
0.0
 11
2160.185045423776
 21
-986.30000000000109
 31
0.0
  0
LINE
  5
FD5B6
  8
OBJECT
 10
2160.185045423776
 20
-986.30000000000109
 30
0.0
 11
2179.814954576224
 21
-986.30000000000109
 31
0.0
  0
LINE
  5
FD5B7
  8
OBJECT
 10
2174.9074772881122
 20
-986.30000000000109
 30
0.0
 11
2174.9074772881122
 21
-987.5
 31
0.0
  0
LINE
  5
FD5B8
  8
OBJECT
 10
2165.0925227118878
 20
-986.30000000000109
 30
0.0
 11
2165.0925227118878
 21
-987.5
 31
0.0
  0
LINE
  5
FD5B9
  8
OBJECT
 10
2157.5000000000009
 20
-987.5
 30
0.0
 11
2157.5000000000009
 21
-1012.5
 31
0.0
  0
LINE
  5
FD5BA
  8
OBJECT
 10
2157.5000000000009
 20
-1012.5
 30
0.0
 11
2182.5
 21
-1012.5
 31
0.0
  0
LINE
  5
FD5BB
  8
OBJECT
 10
2182.5
 20
-1012.5
 30
0.0
 11
2182.5
 21
-987.5
 31
0.0
  0
LINE
  5
FD5BC
  8
OBJECT
 10
2182.5
 20
-987.5
 30
0.0
 11
2157.5000000000009
 21
-987.5
 31
0.0
  0
POLYLINE
  5
FD5BD
  8
SLIM
 66
     1
 10
0.0
 20
0.0
 30
0.0
 70
     1
  0
VERTEX
  5
100301
  8
SLIM
 10
2166.6250000000009
 20
-994.1543285244552
 30
0.0
  0
VERTEX
  5
100302
  8
SLIM
 10
2163.2500000000009
 20
-1000.0
 30
0.0
  0
VERTEX
  5
100303
  8
SLIM
 10
2166.6250000000009
 20
-1005.845671475545
 30
0.0
  0
VERTEX
  5
100304
  8
SLIM
 10
2173.375
 20
-1005.845671475545
 30
0.0
  0
VERTEX
  5
100305
  8
SLIM
 10
2176.7500000000009
 20
-1000.0
 30
0.0
  0
VERTEX
  5
100306
  8
SLIM
 10
2173.375
 20
-994.1543285244552
 30
0.0
  0
SEQEND
  5
100307
  8
SLIM
  0
CIRCLE
  5
FD5BE
  8
OBJECT
 10
2170.0000000000009
 20
-1000.0
 30
0.0
 40
7.5
  0
CIRCLE
  5
FD5BF
  8
SLIM
 10
2170.0000000000009
 20
-1000.0
 30
0.0
 40
4.7625000000000002
  0
LINE
  5
FD5C0
  8
OBJECT
 10
862.49999999999955
 20
-987.5
 30
0.0
 11
862.49999999999955
 21
-1012.5
 31
0.0
  0
LINE
  5
FD5C1
  8
OBJECT
 10
862.49999999999955
 20
-1012.5
 30
0.0
 11
837.49999999999955
 21
-1012.5
 31
0.0
  0
LINE
  5
FD5C2
  8
OBJECT
 10
837.49999999999955
 20
-1012.5
 30
0.0
 11
837.49999999999955
 21
-987.5
 31
0.0
  0
LINE
  5
FD5C3
  8
OBJECT
 10
837.49999999999955
 20
-987.5
 30
0.0
 11
862.49999999999955
 21
-987.5
 31
0.0
  0
POLYLINE
  5
FD5C4
  8
SLIM
 66
     1
 10
0.0
 20
0.0
 30
0.0
 70
     1
  0
VERTEX
  5
100308
  8
SLIM
 10
853.37499999999955
 20
-994.1543285244552
 30
0.0
  0
VERTEX
  5
100309
  8
SLIM
 10
856.74999999999966
 20
-1000.0
 30
0.0
  0
VERTEX
  5
10030A
  8
SLIM
 10
853.37499999999955
 20
-1005.845671475545
 30
0.0
  0
VERTEX
  5
10030B
  8
SLIM
 10
846.62499999999955
 20
-1005.845671475545
 30
0.0
  0
VERTEX
  5
10030C
  8
SLIM
 10
843.24999999999966
 20
-1000.0
 30
0.0
  0
VERTEX
  5
10030D
  8
SLIM
 10
846.62499999999955
 20
-994.1543285244552
 30
0.0
  0
SEQEND
  5
10030E
  8
SLIM
  0
CIRCLE
  5
FD5C5
  8
OBJECT
 10
849.99999999999955
 20
-1000.0
 30
0.0
 40
7.5
  0
CIRCLE
  5
FD5C6
  8
SLIM
 10
849.99999999999955
 20
-1000.0
 30
0.0
 40
4.7625000000000002
  0
LINE
  5
FD5C7
  8
OBJECT
 10
1053.942098587281
 20
-1002.500000000001
 30
0.0
 11
1137.5
 21
-1002.499999999999
 31
0.0
  0
LINE
  5
FD5C8
  8
OBJECT
 10
1162.5
 20
-1002.499999999998
 30
0.0
 11
1166.0
 21
-1002.499999999999
 31
0.0
  0
LINE
  5
FD5C9
  8
OBJECT
 10
1056.7340285895509
 20
-1005.500000000001
 30
0.0
 11
1137.5
 21
-1005.5
 31
0.0
  0
LINE
  5
FD5CA
  8
OBJECT
 10
1162.5
 20
-1005.499999999999
 30
0.0
 11
1166.0
 21
-1005.499999999999
 31
0.0
  0
LINE
  5
FD5CB
  8
OBJECT
 10
1053.942098587281
 20
-997.49999999999989
 30
0.0
 11
1137.5
 21
-997.49999999999989
 31
0.0
  0
LINE
  5
FD5CC
  8
OBJECT
 10
1162.5
 20
-997.49999999999989
 30
0.0
 11
1166.0
 21
-997.49999999999989
 31
0.0
  0
LINE
  5
FD5CD
  8
OBJECT
 10
1056.7340285895509
 20
-994.5
 30
0.0
 11
1137.5
 21
-994.5
 31
0.0
  0
LINE
  5
FD5CE
  8
OBJECT
 10
1162.5
 20
-994.5
 30
0.0
 11
1166.0
 21
-994.5
 31
0.0
  0
LINE
  5
FD5CF
  8
CENTER
 10
1150.0
 20
-970.49999999999818
 30
0.0
 11
1150.0
 21
-1017.499999999998
 31
0.0
  0
LINE
  5
FD5D0
  8
OBJECT
 10
1155.0
 20
-986.5
 30
0.0
 11
1155.0
 21
-975.49999999999807
 31
0.0
  0
LINE
  5
FD5D1
  8
OBJECT
 10
1145.0
 20
-986.5
 30
0.0
 11
1145.0
 21
-975.49999999999807
 31
0.0
  0
LINE
  5
FD5D2
  8
OBJECT
 10
1155.0
 20
-975.49999999999807
 30
0.0
 11
1145.0
 21
-975.49999999999807
 31
0.0
  0
LINE
  5
FD5D3
  8
OBJECT
 10
1159.814954576223
 20
-986.5
 30
0.0
 11
1159.814954576223
 21
-987.5
 31
0.0
  0
LINE
  5
FD5D4
  8
OBJECT
 10
1140.185045423776
 20
-987.5
 30
0.0
 11
1140.185045423776
 21
-986.5
 31
0.0
  0
LINE
  5
FD5D5
  8
OBJECT
 10
1140.185045423776
 20
-986.5
 30
0.0
 11
1159.814954576223
 21
-986.5
 31
0.0
  0
LINE
  5
FD5D6
  8
OBJECT
 10
1154.907477288112
 20
-986.5
 30
0.0
 11
1154.907477288112
 21
-987.5
 31
0.0
  0
LINE
  5
FD5D7
  8
OBJECT
 10
1145.092522711888
 20
-986.5
 30
0.0
 11
1145.092522711888
 21
-987.5
 31
0.0
  0
LINE
  5
FD5D8
  8
OBJECT
 10
1166.0
 20
-994.5
 30
0.0
 11
1166.0
 21
-997.49999999999989
 31
0.0
  0
LINE
  5
FD5D9
  8
OBJECT
 10
1166.0
 20
-1002.499999999999
 30
0.0
 11
1166.0
 21
-1005.499999999999
 31
0.0
  0
LINE
  5
FD5DA
  8
OBJECT
 10
1137.5
 20
-987.5
 30
0.0
 11
1137.5
 21
-1012.5
 31
0.0
  0
LINE
  5
FD5DB
  8
OBJECT
 10
1137.5
 20
-1012.5
 30
0.0
 11
1162.5
 21
-1012.5
 31
0.0
  0
LINE
  5
FD5DC
  8
OBJECT
 10
1162.5
 20
-1012.5
 30
0.0
 11
1162.5
 21
-987.5
 31
0.0
  0
LINE
  5
FD5DD
  8
OBJECT
 10
1162.5
 20
-987.5
 30
0.0
 11
1137.5
 21
-987.5
 31
0.0
  0
POLYLINE
  5
FD5DE
  8
SLIM
 66
     1
 10
0.0
 20
0.0
 30
0.0
 70
     1
  0
VERTEX
  5
10030F
  8
SLIM
 10
1146.625
 20
-994.1543285244552
 30
0.0
  0
VERTEX
  5
100310
  8
SLIM
 10
1143.25
 20
-1000.0
 30
0.0
  0
VERTEX
  5
100311
  8
SLIM
 10
1146.625
 20
-1005.845671475545
 30
0.0
  0
VERTEX
  5
100312
  8
SLIM
 10
1153.375
 20
-1005.845671475545
 30
0.0
  0
VERTEX
  5
100313
  8
SLIM
 10
1156.75
 20
-1000.0
 30
0.0
  0
VERTEX
  5
100314
  8
SLIM
 10
1153.375
 20
-994.1543285244552
 30
0.0
  0
SEQEND
  5
100315
  8
SLIM
  0
CIRCLE
  5
FD5DF
  8
OBJECT
 10
1150.0
 20
-1000.0
 30
0.0
 40
7.5
  0
CIRCLE
  5
FD5E0
  8
SLIM
 10
1150.0
 20
-1000.0
 30
0.0
 40
4.7625000000000002
  0
LINE
  5
FD5E1
  8
OBJECT
 10
2817.5
 20
-1002.499999999998
 30
0.0
 11
2814.0
 21
-1002.499999999999
 31
0.0
  0
LINE
  5
FD5E2
  8
OBJECT
 10
2817.5
 20
-1005.499999999999
 30
0.0
 11
2814.0
 21
-1005.499999999999
 31
0.0
  0
LINE
  5
FD5E3
  8
OBJECT
 10
2817.5
 20
-997.49999999999989
 30
0.0
 11
2814.0
 21
-997.49999999999989
 31
0.0
  0
LINE
  5
FD5E4
  8
OBJECT
 10
2817.5
 20
-994.5
 30
0.0
 11
2814.0
 21
-994.5
 31
0.0
  0
LINE
  5
FD5E5
  8
CENTER
 10
2830.0
 20
-970.49999999999818
 30
0.0
 11
2830.0
 21
-1017.499999999998
 31
0.0
  0
LINE
  5
FD5E6
  8
OBJECT
 10
2825.0
 20
-986.5
 30
0.0
 11
2825.0
 21
-975.49999999999807
 31
0.0
  0
LINE
  5
FD5E7
  8
OBJECT
 10
2835.0
 20
-986.5
 30
0.0
 11
2835.0
 21
-975.49999999999807
 31
0.0
  0
LINE
  5
FD5E8
  8
OBJECT
 10
2825.0
 20
-975.49999999999807
 30
0.0
 11
2835.0
 21
-975.49999999999807
 31
0.0
  0
LINE
  5
FD5E9
  8
OBJECT
 10
2820.185045423776
 20
-986.5
 30
0.0
 11
2820.185045423776
 21
-987.5
 31
0.0
  0
LINE
  5
FD5EA
  8
OBJECT
 10
2839.814954576224
 20
-987.5
 30
0.0
 11
2839.814954576224
 21
-986.5
 31
0.0
  0
LINE
  5
FD5EB
  8
OBJECT
 10
2839.814954576224
 20
-986.5
 30
0.0
 11
2820.185045423776
 21
-986.5
 31
0.0
  0
LINE
  5
FD5EC
  8
OBJECT
 10
2825.0925227118892
 20
-986.5
 30
0.0
 11
2825.0925227118892
 21
-987.5
 31
0.0
  0
LINE
  5
FD5ED
  8
OBJECT
 10
2834.9074772881122
 20
-986.5
 30
0.0
 11
2834.9074772881122
 21
-987.5
 31
0.0
  0
LINE
  5
FD5EE
  8
OBJECT
 10
2814.0
 20
-994.5
 30
0.0
 11
2814.0
 21
-997.49999999999989
 31
0.0
  0
LINE
  5
FD5EF
  8
OBJECT
 10
2814.0
 20
-1002.499999999999
 30
0.0
 11
2814.0
 21
-1005.499999999999
 31
0.0
  0
LINE
  5
FD5F0
  8
OBJECT
 10
2842.5
 20
-987.5
 30
0.0
 11
2842.5
 21
-1012.5
 31
0.0
  0
LINE
  5
FD5F1
  8
OBJECT
 10
2842.5
 20
-1012.5
 30
0.0
 11
2817.5
 21
-1012.5
 31
0.0
  0
LINE
  5
FD5F2
  8
OBJECT
 10
2817.5
 20
-1012.5
 30
0.0
 11
2817.5
 21
-987.5
 31
0.0
  0
LINE
  5
FD5F3
  8
OBJECT
 10
2817.5
 20
-987.5
 30
0.0
 11
2842.5
 21
-987.5
 31
0.0
  0
POLYLINE
  5
FD5F4
  8
SLIM
 66
     1
 10
0.0
 20
0.0
 30
0.0
 70
     1
  0
VERTEX
  5
100316
  8
SLIM
 10
2833.375
 20
-994.1543285244552
 30
0.0
  0
VERTEX
  5
100317
  8
SLIM
 10
2836.75
 20
-1000.0
 30
0.0
  0
VERTEX
  5
100318
  8
SLIM
 10
2833.375
 20
-1005.845671475545
 30
0.0
  0
VERTEX
  5
100319
  8
SLIM
 10
2826.625
 20
-1005.845671475545
 30
0.0
  0
VERTEX
  5
10031A
  8
SLIM
 10
2823.25
 20
-1000.0
 30
0.0
  0
VERTEX
  5
10031B
  8
SLIM
 10
2826.625
 20
-994.1543285244552
 30
0.0
  0
SEQEND
  5
10031C
  8
SLIM
  0
CIRCLE
  5
FD5F5
  8
OBJECT
 10
2830.0
 20
-1000.0
 30
0.0
 40
7.5
  0
CIRCLE
  5
FD5F6
  8
SLIM
 10
2830.0
 20
-1000.0
 30
0.0
 40
4.7625000000000002
  0
LINE
  5
FD5F7
  8
OBJECT
 10
3066.4529909033449
 20
-1002.500000000001
 30
0.0
 11
3157.5000000000009
 21
-1002.499999999999
 31
0.0
  0
LINE
  5
FD5F8
  8
OBJECT
 10
3069.2820323027549
 20
-1005.500000000001
 30
0.0
 11
3157.5000000000009
 21
-1005.499999999999
 31
0.0
  0
LINE
  5
FD5F9
  8
OBJECT
 10
3066.4529909033449
 20
-997.49999999999989
 30
0.0
 11
3157.5
 21
-997.49999999999989
 31
0.0
  0
LINE
  5
FD5FA
  8
OBJECT
 10
3069.2820323027549
 20
-994.5
 30
0.0
 11
3157.5
 21
-994.5
 31
0.0
  0
LINE
  5
FD5FB
  8
OBJECT
 10
3182.5
 20
-1002.499999999998
 30
0.0
 11
3186.0000000000018
 21
-1002.499999999999
 31
0.0
  0
LINE
  5
FD5FC
  8
OBJECT
 10
3182.5
 20
-1005.499999999999
 30
0.0
 11
3186.0000000000018
 21
-1005.499999999999
 31
0.0
  0
LINE
  5
FD5FD
  8
OBJECT
 10
3182.5
 20
-997.49999999999989
 30
0.0
 11
3186.0
 21
-997.49999999999989
 31
0.0
  0
LINE
  5
FD5FE
  8
OBJECT
 10
3182.5
 20
-994.5
 30
0.0
 11
3186.0
 21
-994.5
 31
0.0
  0
LINE
  5
FD5FF
  8
CENTER
 10
3170.0
 20
-970.49999999999818
 30
0.0
 11
3170.0
 21
-1017.499999999998
 31
0.0
  0
LINE
  5
FD600
  8
OBJECT
 10
3175.0
 20
-986.5
 30
0.0
 11
3175.0
 21
-975.49999999999807
 31
0.0
  0
LINE
  5
FD601
  8
OBJECT
 10
3165.0
 20
-986.5
 30
0.0
 11
3165.0
 21
-975.49999999999807
 31
0.0
  0
LINE
  5
FD602
  8
OBJECT
 10
3175.0
 20
-975.49999999999807
 30
0.0
 11
3165.0
 21
-975.49999999999807
 31
0.0
  0
LINE
  5
FD603
  8
OBJECT
 10
3179.814954576224
 20
-986.5
 30
0.0
 11
3179.814954576224
 21
-987.5
 31
0.0
  0
LINE
  5
FD604
  8
OBJECT
 10
3160.185045423777
 20
-987.5
 30
0.0
 11
3160.185045423776
 21
-986.5
 31
0.0
  0
LINE
  5
FD605
  8
OBJECT
 10
3160.185045423776
 20
-986.5
 30
0.0
 11
3179.814954576224
 21
-986.5
 31
0.0
  0
LINE
  5
FD606
  8
OBJECT
 10
3174.9074772881122
 20
-986.5
 30
0.0
 11
3174.9074772881122
 21
-987.5
 31
0.0
  0
LINE
  5
FD607
  8
OBJECT
 10
3165.0925227118878
 20
-986.5
 30
0.0
 11
3165.0925227118878
 21
-987.5
 31
0.0
  0
LINE
  5
FD608
  8
OBJECT
 10
3186.0
 20
-994.5
 30
0.0
 11
3186.0
 21
-997.49999999999989
 31
0.0
  0
LINE
  5
FD609
  8
OBJECT
 10
3186.0000000000018
 20
-1002.499999999999
 30
0.0
 11
3186.0000000000018
 21
-1005.499999999999
 31
0.0
  0
LINE
  5
FD60A
  8
OBJECT
 10
3157.5
 20
-987.5
 30
0.0
 11
3157.5
 21
-1012.5
 31
0.0
  0
LINE
  5
FD60B
  8
OBJECT
 10
3157.5
 20
-1012.5
 30
0.0
 11
3182.5
 21
-1012.5
 31
0.0
  0
LINE
  5
FD60C
  8
OBJECT
 10
3182.5
 20
-1012.5
 30
0.0
 11
3182.5
 21
-987.5
 31
0.0
  0
LINE
  5
FD60D
  8
OBJECT
 10
3182.5
 20
-987.5
 30
0.0
 11
3157.5
 21
-987.5
 31
0.0
  0
POLYLINE
  5
FD60E
  8
SLIM
 66
     1
 10
0.0
 20
0.0
 30
0.0
 70
     1
  0
VERTEX
  5
10031D
  8
SLIM
 10
3166.625
 20
-994.1543285244552
 30
0.0
  0
VERTEX
  5
10031E
  8
SLIM
 10
3163.25
 20
-1000.0
 30
0.0
  0
VERTEX
  5
10031F
  8
SLIM
 10
3166.625
 20
-1005.845671475545
 30
0.0
  0
VERTEX
  5
100320
  8
SLIM
 10
3173.375
 20
-1005.845671475545
 30
0.0
  0
VERTEX
  5
100321
  8
SLIM
 10
3176.75
 20
-1000.0
 30
0.0
  0
VERTEX
  5
100322
  8
SLIM
 10
3173.375
 20
-994.1543285244552
 30
0.0
  0
SEQEND
  5
100323
  8
SLIM
  0
CIRCLE
  5
FD60F
  8
OBJECT
 10
3170.0
 20
-1000.0
 30
0.0
 40
7.5
  0
CIRCLE
  5
FD610
  8
SLIM
 10
3170.0
 20
-1000.0
 30
0.0
 40
4.7625000000000002
  0
TEXT
  5
FDC08
  8
SLIM
 10
-46.714285714285808
 20
-472.69999999999982
 30
0.0
 40
20.0
  1
3Lベンド用
 41
0.75
 72
     4
 11
-0.0000000000001095
 21
-462.69999999999982
 31
0.0
  0
TEXT
  5
FDC09
  8
SLIM
 10
-78.500000000000114
 20
-507.69999999999987
 30
0.0
 40
20.0
  1
（鋼、電気めっき）
 41
0.75
 72
     4
 11
-0.0000000000001095
 21
-497.69999999999982
 31
0.0
  0
TEXT
  5
FDC0A
  8
SLIM
 10
-83.214285714285808
 20
-1472.7
 30
0.0
 40
20.0
  1
3Lベンド用、ゴム付
 41
0.75
 72
     4
 11
-0.0000000000001095
 21
-1462.7
 31
0.0
  0
TEXT
  5
FDC0B
  8
SLIM
 10
-78.500000000000114
 20
-1507.7
 30
0.0
 40
20.0
  1
（鋼、電気めっき）
 41
0.75
 72
     4
 11
-0.0000000000001095
 21
-1497.7
 31
0.0
  0
TEXT
  5
FDC12
  8
SLIM
 10
953.28571428571388
 20
-472.69999999999982
 30
0.0
 40
20.0
  1
3Lベンド用
 41
0.75
 72
     4
 11
999.99999999999955
 21
-462.69999999999982
 31
0.0
  0
TEXT
  5
FDC13
  8
SLIM
 10
940.92857142857122
 20
-507.69999999999987
 30
0.0
 40
20.0
  1
（SUS304）
 41
0.75
 72
     4
 11
999.99999999999955
 21
-497.69999999999982
 31
0.0
  0
TEXT
  5
FDC14
  8
SLIM
 10
916.78571428571399
 20
-1472.7
 30
0.0
 40
20.0
  1
3Lベンド用、ゴム付
 41
0.75
 72
     4
 11
999.99999999999955
 21
-1462.7
 31
0.0
  0
TEXT
  5
FDC15
  8
SLIM
 10
940.92857142857122
 20
-1507.7
 30
0.0
 40
20.0
  1
（SUS304）
 41
0.75
 72
     4
 11
999.99999999999955
 21
-1497.7
 31
0.0
  0
TEXT
  5
FEA77
  8
SLIM
 10
1953.285714285714
 20
-472.69999999999982
 30
0.0
 40
20.0
  1
4Lベンド用
 41
0.75
 72
     4
 11
2000.0
 21
-462.69999999999982
 31
0.0
  0
TEXT
  5
FEA78
  8
SLIM
 10
1921.5
 20
-507.69999999999987
 30
0.0
 40
20.0
  1
（鋼、電気めっき）
 41
0.75
 72
     4
 11
2000.0
 21
-497.69999999999982
 31
0.0
  0
TEXT
  5
FEA79
  8
SLIM
 10
1916.785714285714
 20
-1472.7
 30
0.0
 40
20.0
  1
4Lベンド用、ゴム付
 41
0.75
 72
     4
 11
2000.0
 21
-1462.7
 31
0.0
  0
TEXT
  5
FEA7A
  8
SLIM
 10
1921.5
 20
-1507.7
 30
0.0
 40
20.0
  1
（鋼、電気めっき）
 41
0.75
 72
     4
 11
2000.0
 21
-1497.7
 31
0.0
  0
TEXT
  5
FEA7F
  8
SLIM
 10
2953.2857142857142
 20
-472.69999999999982
 30
0.0
 40
20.0
  1
4Lベンド用
 41
0.75
 72
     4
 11
3000.0
 21
-462.69999999999982
 31
0.0
  0
TEXT
  5
FEA80
  8
SLIM
 10
2940.9285714285711
 20
-507.69999999999987
 30
0.0
 40
20.0
  1
（SUS304）
 41
0.75
 72
     4
 11
3000.0
 21
-497.69999999999982
 31
0.0
  0
TEXT
  5
FEA81
  8
SLIM
 10
2916.7857142857142
 20
-1472.7
 30
0.0
 40
20.0
  1
4Lベンド用、ゴム付
 41
0.75
 72
     4
 11
3000.0
 21
-1462.7
 31
0.0
  0
TEXT
  5
FEA82
  8
SLIM
 10
2940.9285714285711
 20
-1507.7
 30
0.0
 40
20.0
  1
（SUS304）
 41
0.75
 72
     4
 11
3000.0
 21
-1497.7
 31
0.0
  0
TEXT
  5
FF69E
  8
SLIM
 10
3916.7857142857101
 20
-1472.7
 30
0.0
 40
20.0
  1
5Lベンド用、ゴム付
 41
0.75
 72
     4
 11
3999.999999999995
 21
-1462.7
 31
0.0
  0
TEXT
  5
FF69F
  8
SLIM
 10
3940.928571428567
 20
-1507.7
 30
0.0
 40
20.0
  1
（SUS304）
 41
0.75
 72
     4
 11
3999.999999999995
 21
-1497.7
 31
0.0
  0
VIEWPORT
  5
FFECF
 67
     1
  8
0
 10
143.60523986816401
 20
100.10775232315061
 30
0.0
 40
407.30664751466441
 41
222.19657968139651
 68
     1
 69
     1
1001
ACAD
1000
MVIEW
1002
{
1070
    16
1010
0.0
1020
0.0
1030
0.0
1010
0.0
1020
0.0
1030
1.0
1040
0.0
1040
222.19657968139651
1040
143.60523986816401
1040
100.10775232315061
1040
50.0
1040
0.0
1040
0.0
1070
     0
1070
     0
1070
     1
1070
     1
1070
     0
1070
     0
1070
     0
1070
     0
1040
0.0
1040
0.0
1040
0.0
1040
10.0
1040
10.0
1040
10.0
1040
10.0
1070
     0
1002
{
1002
}
1002
}
  0
VIEWPORT
  5
FFED3
 67
     1
  8
OBJECT
 10
143.6052539348602
 20
100.1077511310577
 30
0.0
 40
229.76840629577629
 41
160.1724018096923
 68
     2
 69
     2
1001
ACAD
1000
MVIEW
1002
{
1070
    16
1010
0.0
1020
0.0
1030
0.0
1010
0.0
1020
0.0
1030
1.0
1040
0.0
1040
4933.1359306726754
1040
2475.3377741515901
1040
-4820.6129266796397
1040
50.0
1040
0.0
1040
0.0
1070
     0
1070
   600
1070
     1
1070
     1
1070
     0
1070
     0
1070
     0
1070
     1
1040
0.0
1040
0.0
1040
0.0
1040
1.0
1040
1.0
1040
0.0
1040
0.0
1070
     0
1002
{
1002
}
1002
}
  0
ENDSEC
  0
EOF
