  0
SECTION
  2
HEADER
  9
$ACADVER
  1
AC1009
  9
$INSBASE
 10
0.0
 20
0.0
 30
0.0
  9
$EXTMIN
 10
-155.2000000000003
 20
-1457.700000000001
 30
0.0
  9
$EXTMAX
 10
5192.5
 20
90.199999999999804
 30
0.0
  9
$LIMMIN
 10
0.0
 20
0.0
  9
$LIMMAX
 10
210.0
 20
297.0
  9
$ORTHOMODE
 70
     0
  9
$REGENMODE
 70
     1
  9
$FILLMODE
 70
     1
  9
$QTEXTMODE
 70
     0
  9
$MIRRTEXT
 70
     0
  9
$DRAGMODE
 70
     2
  9
$LTSCALE
 40
1.0
  9
$OSMODE
 70
   125
  9
$ATTMODE
 70
     1
  9
$TEXTSIZE
 40
39.008254181735531
  9
$TRACEWID
 40
0.05
  9
$TEXTSTYLE
  7
STANDARD
  9
$CLAYER
  8
OBJECT
  9
$CELTYPE
  6
BYLAYER
  9
$CECOLOR
 62
   256
  9
$DIMSCALE
 40
10.0
  9
$DIMASZ
 40
1.0
  9
$DIMEXO
 40
0.5
  9
$DIMDLI
 40
5.0
  9
$DIMRND
 40
0.0
  9
$DIMDLE
 40
0.0
  9
$DIMEXE
 40
0.5
  9
$DIMTP
 40
0.0
  9
$DIMTM
 40
0.0
  9
$DIMTXT
 40
1.6000000000000001
  9
$DIMCEN
 40
0.0
  9
$DIMTSZ
 40
0.0
  9
$DIMTOL
 70
     0
  9
$DIMLIM
 70
     0
  9
$DIMTIH
 70
     0
  9
$DIMTOH
 70
     0
  9
$DIMSE1
 70
     0
  9
$DIMSE2
 70
     0
  9
$DIMTAD
 70
     1
  9
$DIMZIN
 70
     8
  9
$DIMBLK
  1
OPEN30
  9
$DIMASO
 70
     1
  9
$DIMSHO
 70
     1
  9
$DIMPOST
  1

  9
$DIMAPOST
  1

  9
$DIMALT
 70
     0
  9
$DIMALTD
 70
     2
  9
$DIMALTF
 40
25.399999999999999
  9
$DIMLFAC
 40
1.0
  9
$DIMTOFL
 70
     1
  9
$DIMTVP
 40
0.0
  9
$DIMTIX
 70
     0
  9
$DIMSOXD
 70
     0
  9
$DIMSAH
 70
     0
  9
$DIMBLK1
  1

  9
$DIMBLK2
  1

  9
$DIMSTYLE
  2
S10
  9
$DIMCLRD
 70
   256
  9
$DIMCLRE
 70
   256
  9
$DIMCLRT
 70
   256
  9
$DIMTFAC
 40
1.0
  9
$DIMGAP
 40
0.45
  9
$LUNITS
 70
     2
  9
$LUPREC
 70
     2
  9
$SKETCHINC
 40
0.1
  9
$FILLETRAD
 40
0.0
  9
$AUNITS
 70
     0
  9
$AUPREC
 70
     2
  9
$MENU
  1
ACAD
  9
$ELEVATION
 40
0.0
  9
$PELEVATION
 40
0.0
  9
$THICKNESS
 40
0.0
  9
$LIMCHECK
 70
     0
  9
$BLIPMODE
 70
     0
  9
$CHAMFERA
 40
2.0
  9
$CHAMFERB
 40
2.0
  9
$SKPOLY
 70
     0
  9
$TDCREATE
 40
2453095.4929404748
  9
$TDUPDATE
 40
2456757.6405592482
  9
$TDINDWG
 40
27.164429421299999
  9
$TDUSRTIMER
 40
27.1644287847
  9
$USRTIMER
 70
     1
  9
$ANGBASE
 50
0.0
  9
$ANGDIR
 70
     0
  9
$PDMODE
 70
    35
  9
$PDSIZE
 40
2.0
  9
$PLINEWID
 40
0.0
  9
$COORDS
 70
     1
  9
$SPLFRAME
 70
     0
  9
$SPLINETYPE
 70
     6
  9
$SPLINESEGS
 70
     8
  9
$ATTDIA
 70
     1
  9
$ATTREQ
 70
     1
  9
$HANDLING
 70
     1
  9
$HANDSEED
  5
10013D
  9
$SURFTAB1
 70
     6
  9
$SURFTAB2
 70
     6
  9
$SURFTYPE
 70
     6
  9
$SURFU
 70
     6
  9
$SURFV
 70
     6
  9
$UCSNAME
  2

  9
$UCSORG
 10
0.0
 20
0.0
 30
0.0
  9
$UCSXDIR
 10
1.0
 20
0.0
 30
0.0
  9
$UCSYDIR
 10
0.0
 20
1.0
 30
0.0
  9
$PUCSNAME
  2

  9
$PUCSORG
 10
0.0
 20
0.0
 30
0.0
  9
$PUCSXDIR
 10
1.0
 20
0.0
 30
0.0
  9
$PUCSYDIR
 10
0.0
 20
1.0
 30
0.0
  9
$USERI1
 70
     0
  9
$USERI2
 70
     0
  9
$USERI3
 70
     0
  9
$USERI4
 70
     0
  9
$USERI5
 70
     0
  9
$USERR1
 40
0.0
  9
$USERR2
 40
0.0
  9
$USERR3
 40
0.0
  9
$USERR4
 40
0.0
  9
$USERR5
 40
0.0
  9
$WORLDVIEW
 70
     1
  9
$SHADEDGE
 70
     3
  9
$SHADEDIF
 70
    70
  9
$TILEMODE
 70
     1
  9
$MAXACTVP
 70
    64
  9
$PLIMCHECK
 70
     0
  9
$PEXTMIN
 10
28.721050786972061
 20
20.021550226211559
 30
0.0
  9
$PEXTMAX
 10
258.4894570827484
 20
180.19395203590389
 30
0.0
  9
$PLIMMIN
 10
-4.90008544921875
 20
-4.9000830650329581
  9
$PLIMMAX
 10
292.11056518554688
 20
205.1155877113342
  9
$UNITMODE
 70
     0
  9
$VISRETAIN
 70
     1
  9
$PLINEGEN
 70
     0
  9
$PSLTSCALE
 70
     1
  0
ENDSEC
  0
SECTION
  2
TABLES
  0
TABLE
  2
VPORT
 70
     1
  0
VPORT
  2
*ACTIVE
 70
     0
 10
0.0
 20
0.0
 11
1.0
 21
1.0
 12
2616.224936357738
 22
-757.75293888929809
 13
0.0
 23
0.0
 14
1.0
 24
1.0
 15
0.0
 25
0.0
 16
0.0
 26
0.0
 36
1.0
 17
0.0
 27
0.0
 37
0.0
 40
4350.5829093649572
 41
1.8330914368650211
 42
50.0
 43
0.0
 44
0.0
 50
0.0
 51
0.0
 71
     0
 72
   600
 73
     1
 74
     1
 75
     0
 76
     0
 77
     0
 78
     1
  0
ENDTAB
  0
TABLE
  2
LTYPE
 70
     3
  0
LTYPE
  2
CONTINUOUS
 70
     0
  3
Solid line
 72
    65
 73
     0
 40
0.0
  0
LTYPE
  2
ACAD_ISO08W100
 70
     0
  3
ISO long-dash short-dash ____ __ ____ __ ____ _
 72
    65
 73
     4
 40
36.0
 49
24.0
 49
-3.0
 49
6.0
 49
-3.0
  0
LTYPE
  2
ACAD_ISO02W100
 70
     0
  3
ISO dash __ __ __ __ __ __ __ __ __ __ __ __ __
 72
    65
 73
     2
 40
15.0
 49
12.0
 49
-3.0
  0
ENDTAB
  0
TABLE
  2
LAYER
 70
     6
  0
LAYER
  2
0
 70
     0
 62
     7
  6
CONTINUOUS
  0
LAYER
  2
OBJECT
 70
     0
 62
     4
  6
CONTINUOUS
  0
LAYER
  2
DEFPOINTS
 70
     0
 62
     7
  6
CONTINUOUS
  0
LAYER
  2
HIDDEN
 70
     0
 62
     2
  6
ACAD_ISO02W100
  0
LAYER
  2
CENTER
 70
     0
 62
     2
  6
ACAD_ISO08W100
  0
LAYER
  2
SLIM
 70
     0
 62
     2
  6
CONTINUOUS
  0
ENDTAB
  0
TABLE
  2
STYLE
 70
     2
  0
STYLE
  2
STANDARD
 70
     0
 40
0.0
 41
0.75
 50
0.0
 71
     0
 42
39.008254181735531
  3
simplex.shx
  4
bigfont.shx
  0
ENDTAB
  0
TABLE
  2
VIEW
 70
     0
  0
ENDTAB
  0
TABLE
  2
UCS
 70
     0
  0
ENDTAB
  0
TABLE
  2
APPID
 70
    21
  0
APPID
  2
ACAD
 70
     0
  0
APPID
  2
ACADANNOTATIVE
 70
     0
  0
APPID
  2
ACAD_PSEXT
 70
     0
  0
APPID
  2
ACAD_EXEMPT_FROM_CAD_STANDARDS
 70
     0
  0
APPID
  2
ACAECLAYERSTANDARD
 70
     0
  0
APPID
  2
ACAUTHENVIRON
 70
     0
  0
APPID
  2
ACDBDYNAMICBLOCKTRUENAME
 70
     0
  0
APPID
  2
ACDBDYNAMICBLOCKGUID
 70
     0
  0
APPID
  2
ACDBBLOCKREPETAG
 70
     0
  0
APPID
  2
ACDBBLOCKREPBTAG
 70
     0
  0
APPID
  2
ACAD_NAV_VCDISPLAY
 70
     0
  0
APPID
  2
ACAD_DSTYLE_DIMRADIAL_EXTENSION
 70
     0
  0
APPID
  2
ACAD_DSTYLE_DIMJAG
 70
     0
  0
APPID
  2
ACAD_DSTYLE_DIMTALN
 70
     0
  0
APPID
  2
GRADIENTCOLOR1ACI
 70
     0
  0
APPID
  2
GRADIENTCOLOR2ACI
 70
     0
  0
APPID
  2
ACADANNOAV
 70
     0
  0
APPID
  2
SIGMA
 70
     0
  0
APPID
  2
ACAD_DSTYLE_DIMJOGGED_JOGA
 70
     0
  0
APPID
  2
ACAD_DSTYLE_DIMBREAK
 70
     0
  0
APPID
  2
ACAD_MLEADERVER
 70
     0
  0
ENDTAB
  0
TABLE
  2
DIMSTYLE
 70
     3
  0
DIMSTYLE
  2
STANDARD
 70
     0
  3

  4

  5

  6

  7

 40
1.0
 41
0.18
 42
0.0625
 43
0.38
 44
0.18
 45
0.0
 46
0.0
 47
0.0
 48
0.0
140
0.18
141
0.09
142
0.0
143
25.399999999999999
144
1.0
145
0.0
146
1.0
147
0.09
 71
     0
 72
     0
 73
     1
 74
     1
 75
     0
 76
     0
 77
     0
 78
     0
170
     0
171
     2
172
     0
173
     0
174
     0
175
     0
176
     0
177
     0
178
     0
  0
DIMSTYLE
  2
S10
 70
     0
  3

  4

  5

  6

  7

 40
10.0
 41
1.0
 42
0.5
 43
5.0
 44
0.5
 45
0.0
 46
0.0
 47
0.0
 48
0.0
140
1.6000000000000001
141
0.0
142
0.0
143
25.399999999999999
144
1.0
145
0.0
146
1.0
147
0.45
 71
     0
 72
     0
 73
     0
 74
     0
 75
     0
 76
     0
 77
     1
 78
     8
170
     0
171
     2
172
     1
173
     0
174
     0
175
     0
176
   256
177
   256
178
   256
  0
ENDTAB
  0
ENDSEC
  0
SECTION
  2
BLOCKS
  0
BLOCK
  8
0
  2
$MODEL_SPACE
 70
     0
 10
0.0
 20
0.0
 30
0.0
  3
$MODEL_SPACE
  1

  0
ENDBLK
  5
100046
  8
0
  0
BLOCK
 67
     1
  8
0
  2
$PAPER_SPACE
 70
     0
 10
0.0
 20
0.0
 30
0.0
  3
$PAPER_SPACE
  1

  0
ENDBLK
  5
100042
 67
     1
  8
0
  0
BLOCK
  8
0
  2
_OPEN30
 70
     0
 10
0.0
 20
0.0
 30
0.0
  3
_OPEN30
  1

  0
LINE
  5
202
  8
0
  6
BYBLOCK
 62
     0
 10
-1.0
 20
0.26794919
 30
0.0
 11
0.0
 21
0.0
 31
0.0
  0
LINE
  5
203
  8
0
  6
BYBLOCK
 62
     0
 10
0.0
 20
0.0
 30
0.0
 11
-1.0
 21
-0.26794919
 31
0.0
  0
LINE
  5
204
  8
0
  6
BYBLOCK
 62
     0
 10
0.0
 20
0.0
 30
0.0
 11
-1.0
 21
0.0
 31
0.0
  0
ENDBLK
  5
206
  8
0
  0
ENDSEC
  0
SECTION
  2
ENTITIES
  0
LINE
  5
F6A1F
  8
CENTER
 10
-155.19999999999999
 20
0.0
 30
0.0
 11
155.2000000000001
 21
0.0
 31
0.0
  0
LINE
  5
F6A20
  8
CENTER
 10
0.0000000000000142
 20
77.699999999999804
 30
0.0
 11
-0.0000000000000142
 21
-77.699999999999804
 31
0.0
  0
ARC
  5
F6A21
  8
OBJECT
 10
0.0000000000000142
 20
0.0
 30
0.0
 40
59.5
 50
1.444584461059204
 51
178.55541553894079
  0
ARC
  5
F6A22
  8
OBJECT
 10
0.0000000000000142
 20
0.0
 30
0.0
 40
62.700000000000003
 50
4.298931334943811
 51
175.70106866505611
  0
LINE
  5
F6A24
  8
OBJECT
 10
59.481089431852197
 20
-1.5000000000009091
 30
0.0
 11
110.0
 21
-1.5000000000009091
 31
0.0
  0
LINE
  5
F6A26
  8
OBJECT
 10
62.523595546001971
 20
-4.6999999999998172
 30
0.0
 11
110.0
 21
-4.6999999999998172
 31
0.0
  0
ARC
  5
F6A27
  8
OBJECT
 10
130.0
 20
0.0
 30
0.0
 40
7.0
 50
180.0
 51
167.6263748838081
  0
ARC
  5
F6A28
  8
OBJECT
 10
130.0
 20
0.0
 30
0.0
 40
10.20000000000004
 50
180.0
 51
152.5622705788208
  0
LINE
  5
F6A29
  8
OBJECT
 10
119.8
 20
0.0
 30
0.0
 11
123.0
 21
0.0
 31
0.0
  0
LINE
  5
F6A2A
  8
OBJECT
 10
62.523595546001999
 20
4.6999999999998172
 30
0.0
 11
120.94737607099459
 21
4.6999999999998172
 31
0.0
  0
LINE
  5
F6A2B
  8
OBJECT
 10
59.481089431852212
 20
1.4999999999995439
 30
0.0
 11
123.1626028344112
 21
1.4999999999995439
 31
0.0
  0
LINE
  5
F6A32
  8
OBJECT
 10
110.0
 20
-1.5000000000009091
 30
0.0
 11
110.0
 21
-4.6999999999998172
 31
0.0
  0
LINE
  5
F6A33
  8
OBJECT
 10
-59.481089431852169
 20
1.5000000000009091
 30
0.0
 11
-110.0
 21
1.5000000000009091
 31
0.0
  0
LINE
  5
F6A34
  8
OBJECT
 10
-62.523595546001943
 20
4.6999999999998172
 30
0.0
 11
-109.9999999999999
 21
4.6999999999998172
 31
0.0
  0
LINE
  5
F6A35
  8
OBJECT
 10
-59.481089431852197
 20
-1.4999999999995439
 30
0.0
 11
-123.1626028344112
 21
-1.4999999999995439
 31
0.0
  0
LINE
  5
F6A36
  8
OBJECT
 10
-62.523595546001971
 20
-4.6999999999998172
 30
0.0
 11
-120.94737607099449
 21
-4.6999999999998172
 31
0.0
  0
ARC
  5
F6A37
  8
OBJECT
 10
-129.9999999999998
 20
0.0
 30
0.0
 40
7.0
 50
0.0
 51
347.62637488383422
  0
ARC
  5
F6A38
  8
OBJECT
 10
-130.0
 20
0.0
 30
0.0
 40
10.20000000000004
 50
0.0
 51
332.56227057882018
  0
LINE
  5
F6A39
  8
OBJECT
 10
-119.7999999999999
 20
0.0
 30
0.0
 11
-122.9999999999999
 21
0.0
 31
0.0
  0
LINE
  5
F6A3A
  8
OBJECT
 10
-109.9999999999999
 20
1.5000000000009091
 30
0.0
 11
-109.9999999999999
 21
4.6999999999998172
 31
0.0
  0
ARC
  5
F6A3B
  8
OBJECT
 10
0.0000000000000142
 20
0.0
 30
0.0
 40
62.700000000000003
 50
184.2989313349438
 51
355.70106866505608
  0
ARC
  5
F6A3C
  8
OBJECT
 10
0.0000000000000142
 20
0.0
 30
0.0
 40
59.5
 50
181.44458446105921
 51
358.55541553894079
  0
TEXT
  5
F6A84
  8
SLIM
 10
-26.85714285714284
 20
-422.69999999999982
 30
0.0
 40
20.0
  1
3SL用
 41
0.75
 72
     4
 11
0.0000000000000142
 21
-412.69999999999982
 31
0.0
  0
LINE
  5
F6B14
  8
CENTER
 10
-0.0000000000000142
 20
-219.0
 30
0.0
 11
-0.0000000000000426
 21
-281.0
 31
0.0
  0
LINE
  5
F6B2B
  8
OBJECT
 10
-140.2000000000001
 20
-266.0
 30
0.0
 11
-140.2000000000001
 21
-234.0
 31
0.0
  0
LINE
  5
F6B2C
  8
OBJECT
 10
-140.2000000000001
 20
-234.0
 30
0.0
 11
140.2000000000001
 21
-234.0
 31
0.0
  0
LINE
  5
F6B2D
  8
OBJECT
 10
140.2000000000001
 20
-234.0
 30
0.0
 11
140.2000000000001
 21
-266.0
 31
0.0
  0
LINE
  5
F6B2E
  8
OBJECT
 10
140.2000000000001
 20
-266.0
 30
0.0
 11
-140.2000000000001
 21
-266.0
 31
0.0
  0
LINE
  5
F6B2F
  8
OBJECT
 10
-120.94737607099449
 20
-234.0
 30
0.0
 11
-120.94737607099449
 21
-266.0
 31
0.0
  0
LINE
  5
F6B30
  8
OBJECT
 10
-62.523595546008451
 20
-234.0
 30
0.0
 11
-62.523595546008451
 21
-266.0
 31
0.0
  0
LINE
  5
F6B31
  8
OBJECT
 10
62.523595546008451
 20
-234.0
 30
0.0
 11
62.523595546009602
 21
-266.0
 31
0.0
  0
LINE
  5
F6B32
  8
OBJECT
 10
110.0
 20
-234.0
 30
0.0
 11
110.0
 21
-266.0
 31
0.0
  0
LINE
  5
F6B33
  8
OBJECT
 10
119.7999999999999
 20
-234.0
 30
0.0
 11
119.7999999999999
 21
-266.0
 31
0.0
  0
LINE
  5
F6B34
  8
CENTER
 10
-155.2000000000001
 20
-250.0
 30
0.0
 11
155.19999999999999
 21
-250.0
 31
0.0
  0
LINE
  5
F6B37
  8
CENTER
 10
845.0
 20
0.0
 30
0.0
 11
1155.0
 21
0.0
 31
0.0
  0
LINE
  5
F6B38
  8
OBJECT
 10
1059.4810894318521
 20
-1.5000000000009091
 30
0.0
 11
1110.0
 21
-1.5000000000009091
 31
0.0
  0
LINE
  5
F6B3A
  8
OBJECT
 10
1059.4810894318521
 20
1.4999999999995439
 30
0.0
 11
1123.162602834411
 21
1.4999999999995439
 31
0.0
  0
LINE
  5
F6B3C
  8
CENTER
 10
1000.0
 20
77.5
 30
0.0
 11
1000.0
 21
-77.5
 31
0.0
  0
ARC
  5
F6B3D
  8
OBJECT
 10
1000.0
 20
0.0
 30
0.0
 40
59.5
 50
1.444584461059204
 51
178.55541553894079
  0
ARC
  5
F6B3E
  8
OBJECT
 10
1000.0
 20
0.0
 30
0.0
 40
59.5
 50
181.44458446105921
 51
358.55541553894079
  0
ARC
  5
F6B41
  8
OBJECT
 10
1130.0
 20
0.0
 30
0.0
 40
7.0
 50
180.0
 51
167.6263748838081
  0
LINE
  5
F6B45
  8
OBJECT
 10
940.51891056814759
 20
1.5000000000009091
 30
0.0
 11
890.0
 21
1.5000000000009091
 31
0.0
  0
LINE
  5
F6B47
  8
OBJECT
 10
940.51891056814759
 20
-1.4999999999995439
 30
0.0
 11
876.83739716558864
 21
-1.4999999999995439
 31
0.0
  0
ARC
  5
F6B49
  8
OBJECT
 10
870.00000000000011
 20
0.0
 30
0.0
 40
7.0
 50
0.0
 51
347.62637488383422
  0
LINE
  5
F6B56
  8
CENTER
 10
1000.0
 20
-219.0
 30
0.0
 11
1000.0
 21
-281.0
 31
0.0
  0
LINE
  5
F6B57
  8
OBJECT
 10
860.00000000000011
 20
-266.0
 30
0.0
 11
860.00000000000011
 21
-234.0
 31
0.0
  0
LINE
  5
F6B58
  8
OBJECT
 10
860.00000000000011
 20
-234.0
 30
0.0
 11
1140.0
 21
-234.0
 31
0.0
  0
LINE
  5
F6B59
  8
OBJECT
 10
1140.0
 20
-234.0
 30
0.0
 11
1140.0
 21
-266.0
 31
0.0
  0
LINE
  5
F6B5A
  8
OBJECT
 10
1140.0
 20
-266.0
 30
0.0
 11
860.00000000000011
 21
-266.0
 31
0.0
  0
LINE
  5
F6B5E
  8
OBJECT
 10
1110.0
 20
-234.0
 30
0.0
 11
1110.0
 21
-266.0
 31
0.0
  0
LINE
  5
F6B60
  8
CENTER
 10
845.00000000000011
 20
-250.0
 30
0.0
 11
1155.0
 21
-250.0
 31
0.0
  0
ARC
  5
F6BDF
  8
OBJECT
 10
1000.0
 20
0.0
 30
0.0
 40
62.5
 50
4.1288687212442161
 51
175.87113127875571
  0
LINE
  5
F6BE0
  8
OBJECT
 10
937.66221049796502
 20
4.5000000000009077
 30
0.0
 11
890.0
 21
4.5000000000009077
 31
0.0
  0
LINE
  5
F6BE1
  8
OBJECT
 10
1062.3377895020351
 20
4.4999999999995444
 30
0.0
 11
1121.069714450254
 21
4.4999999999995444
 31
0.0
  0
LINE
  5
F6BE2
  8
OBJECT
 10
937.66221049796491
 20
-4.4999999999995444
 30
0.0
 11
878.93028554974615
 21
-4.4999999999995444
 31
0.0
  0
ARC
  5
F6BE3
  8
OBJECT
 10
870.00000000000011
 20
0.0
 30
0.0
 40
10.0
 50
0.0
 51
333.25631604960682
  0
ARC
  5
F6BE4
  8
OBJECT
 10
1000.0
 20
0.0
 30
0.0
 40
62.5
 50
184.1288687212442
 51
355.8711312787558
  0
LINE
  5
F6BE5
  8
OBJECT
 10
1062.3377895020351
 20
-4.5000000000009077
 30
0.0
 11
1110.0
 21
-4.5000000000009077
 31
0.0
  0
ARC
  5
F6BE6
  8
OBJECT
 10
1130.0
 20
0.0
 30
0.0
 40
10.0
 50
180.0
 51
153.25631604960671
  0
LINE
  5
F6BE7
  8
OBJECT
 10
890.0
 20
1.5000000000009091
 30
0.0
 11
890.0
 21
4.5000000000009077
 31
0.0
  0
LINE
  5
F6BE8
  8
OBJECT
 10
877.00000000000011
 20
0.0
 30
0.0
 11
880.0
 21
0.0
 31
0.0
  0
LINE
  5
F6BE9
  8
OBJECT
 10
1110.0
 20
-1.5000000000009091
 30
0.0
 11
1110.0
 21
-4.5000000000009077
 31
0.0
  0
LINE
  5
F6BEA
  8
OBJECT
 10
1120.0
 20
0.0
 30
0.0
 11
1123.0
 21
0.0
 31
0.0
  0
LINE
  5
F6BF7
  8
OBJECT
 10
878.93028554974615
 20
-234.0
 30
0.0
 11
878.93028554974615
 21
-266.0
 31
0.0
  0
LINE
  5
F6BF8
  8
OBJECT
 10
937.66221049796491
 20
-234.0
 30
0.0
 11
937.66221049796491
 21
-266.0
 31
0.0
  0
LINE
  5
F6BF9
  8
OBJECT
 10
1062.3377895020351
 20
-234.0
 30
0.0
 11
1062.3377895020351
 21
-266.0
 31
0.0
  0
LINE
  5
F6BFA
  8
OBJECT
 10
1110.0
 20
-234.0
 30
0.0
 11
1110.0
 21
-266.0
 31
0.0
  0
LINE
  5
F6BFB
  8
OBJECT
 10
1120.0
 20
-234.0
 30
0.0
 11
1120.0
 21
-266.0
 31
0.0
  0
LINE
  5
F6CDF
  8
CENTER
 10
1834.8
 20
0.0
 30
0.0
 11
2165.1999999999998
 21
0.0
 31
0.0
  0
LINE
  5
F6CE0
  8
OBJECT
 10
2071.9843733042112
 20
-1.5000000000009091
 30
0.0
 11
2120.0
 21
-1.5000000000009091
 31
0.0
  0
LINE
  5
F6CE2
  8
OBJECT
 10
2071.9843733042112
 20
1.4999999999995439
 30
0.0
 11
2133.1626028344122
 21
1.4999999999995439
 31
0.0
  0
LINE
  5
F6CE4
  8
CENTER
 10
2000.0
 20
90.199999999999804
 30
0.0
 11
2000.0
 21
-90.199999999999804
 31
0.0
  0
ARC
  5
F6CE5
  8
OBJECT
 10
2000.0
 20
0.0
 30
0.0
 40
72.0
 50
1.1937484371497611
 51
178.80625156285009
  0
ARC
  5
F6CE7
  8
OBJECT
 10
2000.0
 20
0.0
 30
0.0
 40
72.0
 50
181.19374843714971
 51
358.80625156285021
  0
ARC
  5
F6CE9
  8
OBJECT
 10
2140.0
 20
0.0
 30
0.0
 40
7.0
 50
180.0
 51
167.6263748838081
  0
LINE
  5
F6CEB
  8
OBJECT
 10
1928.015626695789
 20
1.5000000000009091
 30
0.0
 11
1880.0
 21
1.5000000000009091
 31
0.0
  0
LINE
  5
F6CED
  8
OBJECT
 10
1928.015626695789
 20
-1.4999999999995439
 30
0.0
 11
1866.837397165589
 21
-1.4999999999995439
 31
0.0
  0
ARC
  5
F6CEF
  8
OBJECT
 10
1860.0
 20
0.0
 30
0.0
 40
7.0
 50
0.0
 51
347.62637488383422
  0
LINE
  5
F6DD6
  8
CENTER
 10
2835.0
 20
0.0
 30
0.0
 11
3165.0
 21
0.0
 31
0.0
  0
LINE
  5
F6DD7
  8
OBJECT
 10
3071.9843733042112
 20
-1.5000000000009091
 30
0.0
 11
3120.0
 21
-1.5000000000009091
 31
0.0
  0
LINE
  5
F6DD8
  8
OBJECT
 10
3071.9843733042112
 20
1.4999999999995439
 30
0.0
 11
3133.1626028344122
 21
1.4999999999995439
 31
0.0
  0
LINE
  5
F6DD9
  8
CENTER
 10
3000.0
 20
90.0
 30
0.0
 11
3000.0
 21
-90.0
 31
0.0
  0
ARC
  5
F6DDA
  8
OBJECT
 10
3000.0
 20
0.0
 30
0.0
 40
72.0
 50
1.1937484371497611
 51
178.80625156285009
  0
ARC
  5
F6DDB
  8
OBJECT
 10
3000.0
 20
0.0
 30
0.0
 40
72.0
 50
181.19374843714971
 51
358.80625156285021
  0
ARC
  5
F6DDC
  8
OBJECT
 10
3140.0
 20
0.0
 30
0.0
 40
7.0
 50
180.0
 51
167.6263748838081
  0
LINE
  5
F6DDD
  8
OBJECT
 10
2928.0156266957888
 20
1.5000000000009091
 30
0.0
 11
2880.0
 21
1.5000000000009091
 31
0.0
  0
LINE
  5
F6DDE
  8
OBJECT
 10
2928.0156266957888
 20
-1.4999999999995439
 30
0.0
 11
2866.8373971655892
 21
-1.4999999999995439
 31
0.0
  0
ARC
  5
F6DDF
  8
OBJECT
 10
2860.0
 20
0.0
 30
0.0
 40
7.0
 50
0.0
 51
347.62637488383422
  0
LINE
  5
F6DE8
  8
CENTER
 10
3000.0
 20
-219.0
 30
0.0
 11
3000.0
 21
-281.0
 31
0.0
  0
LINE
  5
F6DE9
  8
OBJECT
 10
2850.0
 20
-266.0
 30
0.0
 11
2850.0
 21
-234.0
 31
0.0
  0
LINE
  5
F6DEA
  8
OBJECT
 10
2850.0
 20
-234.0
 30
0.0
 11
3150.0
 21
-234.0
 31
0.0
  0
LINE
  5
F6DEB
  8
OBJECT
 10
3150.0
 20
-234.0
 30
0.0
 11
3150.0
 21
-266.0
 31
0.0
  0
LINE
  5
F6DEC
  8
OBJECT
 10
3150.0
 20
-266.0
 30
0.0
 11
2850.0
 21
-266.0
 31
0.0
  0
LINE
  5
F6DED
  8
OBJECT
 10
3120.0
 20
-234.0
 30
0.0
 11
3120.0
 21
-266.0
 31
0.0
  0
LINE
  5
F6DEE
  8
CENTER
 10
2835.0
 20
-250.0
 30
0.0
 11
3165.0
 21
-250.0
 31
0.0
  0
LINE
  5
F6DEF
  8
OBJECT
 10
2868.9302855497458
 20
-234.0
 30
0.0
 11
2868.9302855497458
 21
-266.0
 31
0.0
  0
LINE
  5
F6DF0
  8
OBJECT
 10
2925.1351217191932
 20
-234.0
 30
0.0
 11
2925.1351217191932
 21
-266.0
 31
0.0
  0
LINE
  5
F6DF1
  8
OBJECT
 10
3074.8648782808068
 20
-234.0
 30
0.0
 11
3074.8648782808068
 21
-266.0
 31
0.0
  0
LINE
  5
F6DF2
  8
OBJECT
 10
3120.0
 20
-234.0
 30
0.0
 11
3120.0
 21
-266.0
 31
0.0
  0
LINE
  5
F6DF3
  8
OBJECT
 10
3130.0
 20
-234.0
 30
0.0
 11
3130.0
 21
-266.0
 31
0.0
  0
ARC
  5
F6E59
  8
OBJECT
 10
3000.0
 20
0.0
 30
0.0
 40
75.0
 50
3.4398127675120742
 51
176.56018723248789
  0
LINE
  5
F6E5A
  8
OBJECT
 10
2925.1351217191932
 20
4.5000000000009077
 30
0.0
 11
2880.0
 21
4.5000000000009077
 31
0.0
  0
ARC
  5
F6E5B
  8
OBJECT
 10
2860.0
 20
0.0
 30
0.0
 40
10.0
 50
0.0
 51
333.25631604960631
  0
LINE
  5
F6E5C
  8
OBJECT
 10
2925.1351217191932
 20
-4.4999999999995444
 30
0.0
 11
2868.9302855497458
 21
-4.4999999999995444
 31
0.0
  0
ARC
  5
F6E5D
  8
OBJECT
 10
3000.0
 20
0.0
 30
0.0
 40
75.0
 50
183.43981276751211
 51
356.56018723248792
  0
LINE
  5
F6E5E
  8
OBJECT
 10
3074.8648782808068
 20
-4.5000000000009077
 30
0.0
 11
3120.0
 21
-4.5000000000009077
 31
0.0
  0
LINE
  5
F6E5F
  8
OBJECT
 10
3074.8648782808068
 20
4.4999999999995444
 30
0.0
 11
3131.0697144502551
 21
4.4999999999995444
 31
0.0
  0
ARC
  5
F6E60
  8
OBJECT
 10
3140.0
 20
0.0
 30
0.0
 40
10.0
 50
180.0
 51
153.2563160496066
  0
LINE
  5
F6E61
  8
OBJECT
 10
3120.0
 20
-1.5000000000009091
 30
0.0
 11
3120.0
 21
-4.5000000000009077
 31
0.0
  0
LINE
  5
F6E62
  8
OBJECT
 10
3130.0
 20
0.0
 30
0.0
 11
3133.0
 21
0.0
 31
0.0
  0
LINE
  5
F6E63
  8
OBJECT
 10
2880.0
 20
4.5000000000009077
 30
0.0
 11
2880.0
 21
1.5000000000009091
 31
0.0
  0
LINE
  5
F6E64
  8
OBJECT
 10
2867.0
 20
0.0
 30
0.0
 11
2870.0
 21
0.0
 31
0.0
  0
ARC
  5
F6E8C
  8
OBJECT
 10
2000.0
 20
0.0
 30
0.0
 40
75.200000000000003
 50
3.5833216984719689
 51
176.41667830152801
  0
LINE
  5
F6E8D
  8
OBJECT
 10
1924.947018713445
 20
4.7000000000007267
 30
0.0
 11
1880.0
 21
4.7000000000007267
 31
0.0
  0
ARC
  5
F6E8E
  8
OBJECT
 10
1860.0
 20
0.0
 30
0.0
 40
10.199999999999999
 50
0.0
 51
332.56227057882279
  0
LINE
  5
F6E8F
  8
OBJECT
 10
1924.9470187134441
 20
-4.6999999999993634
 30
0.0
 11
1869.052623929008
 21
-4.6999999999993634
 31
0.0
  0
ARC
  5
F6E90
  8
OBJECT
 10
2000.0
 20
0.0
 30
0.0
 40
75.200000000000003
 50
183.58332169847199
 51
356.41667830152812
  0
LINE
  5
F6E91
  8
OBJECT
 10
2075.0529812865552
 20
-4.7000000000007267
 30
0.0
 11
2120.0
 21
-4.7000000000007267
 31
0.0
  0
LINE
  5
F6E92
  8
OBJECT
 10
2075.0529812865552
 20
4.6999999999993634
 30
0.0
 11
2130.947376070992
 21
4.6999999999993634
 31
0.0
  0
ARC
  5
F6E93
  8
OBJECT
 10
2140.0
 20
0.0
 30
0.0
 40
10.199999999999999
 50
180.0
 51
152.56227057882191
  0
LINE
  5
F6E94
  8
OBJECT
 10
1867.0
 20
0.0
 30
0.0
 11
1870.2
 21
0.0
 31
0.0
  0
LINE
  5
F6E95
  8
OBJECT
 10
1880.0
 20
1.5000000000009091
 30
0.0
 11
1880.0
 21
4.7000000000007267
 31
0.0
  0
LINE
  5
F6E96
  8
OBJECT
 10
2120.0
 20
-1.5000000000009091
 30
0.0
 11
2120.0
 21
-4.7000000000007267
 31
0.0
  0
LINE
  5
F6E97
  8
OBJECT
 10
2129.8000000000002
 20
0.0
 30
0.0
 11
2133.0
 21
0.0
 31
0.0
  0
LINE
  5
F6E98
  8
CENTER
 10
2000.0
 20
-219.0
 30
0.0
 11
2000.0
 21
-281.0
 31
0.0
  0
LINE
  5
F6E99
  8
OBJECT
 10
1849.8
 20
-266.0
 30
0.0
 11
1849.8
 21
-234.0
 31
0.0
  0
LINE
  5
F6E9A
  8
OBJECT
 10
1849.8
 20
-234.0
 30
0.0
 11
2150.1999999999998
 21
-234.0
 31
0.0
  0
LINE
  5
F6E9B
  8
OBJECT
 10
2150.1999999999998
 20
-234.0
 30
0.0
 11
2150.1999999999998
 21
-266.0
 31
0.0
  0
LINE
  5
F6E9C
  8
OBJECT
 10
2150.1999999999998
 20
-266.0
 30
0.0
 11
1849.8
 21
-266.0
 31
0.0
  0
LINE
  5
F6E9D
  8
OBJECT
 10
1869.052623929005
 20
-234.0
 30
0.0
 11
1869.052623929005
 21
-266.0
 31
0.0
  0
LINE
  5
F6E9E
  8
OBJECT
 10
1924.9470187134441
 20
-234.0
 30
0.0
 11
1924.9470187134441
 21
-266.0
 31
0.0
  0
LINE
  5
F6E9F
  8
OBJECT
 10
2075.0529812865552
 20
-234.0
 30
0.0
 11
2075.0529812865561
 21
-266.0
 31
0.0
  0
LINE
  5
F6EA0
  8
OBJECT
 10
2120.0
 20
-234.0
 30
0.0
 11
2120.0
 21
-266.0
 31
0.0
  0
LINE
  5
F6EA1
  8
OBJECT
 10
2129.8000000000002
 20
-234.0
 30
0.0
 11
2129.8000000000002
 21
-266.0
 31
0.0
  0
LINE
  5
F6EA2
  8
CENTER
 10
1834.8
 20
-250.0
 30
0.0
 11
2165.1999999999998
 21
-250.0
 31
0.0
  0
LINE
  5
F6EEB
  8
CENTER
 10
-155.20000000000019
 20
-1000.0
 30
0.0
 11
155.19999999999979
 21
-1000.0
 31
0.0
  0
LINE
  5
F6EEC
  8
OBJECT
 10
62.481997407252997
 20
-1001.500000000001
 30
0.0
 11
109.9999999999998
 21
-1001.500000000001
 31
0.0
  0
LINE
  5
F6EED
  8
OBJECT
 10
65.53167173207315
 20
-1004.7
 30
0.0
 11
109.9999999999997
 21
-1004.7
 31
0.0
  0
LINE
  5
F6EEE
  8
OBJECT
 10
62.481997407253019
 20
-998.50000000000023
 30
0.0
 11
123.162602834411
 21
-998.50000000000023
 31
0.0
  0
LINE
  5
F6EEF
  8
OBJECT
 10
65.53167173207315
 20
-995.29999999999995
 30
0.0
 11
120.9473760709943
 21
-995.29999999999995
 31
0.0
  0
LINE
  5
F6EF0
  8
CENTER
 10
-0.0000000000002123
 20
-917.29999999999995
 30
0.0
 11
-0.0000000000002437
 21
-1082.6999999999989
 31
0.0
  0
ARC
  5
F6EF5
  8
OBJECT
 10
129.9999999999998
 20
-1000.0
 30
0.0
 40
7.0
 50
180.0
 51
167.62637488383371
  0
ARC
  5
F6EF6
  8
OBJECT
 10
129.9999999999998
 20
-1000.0
 30
0.0
 40
10.20000000000004
 50
180.0
 51
152.56227057882151
  0
LINE
  5
F6EF7
  8
OBJECT
 10
119.7999999999997
 20
-1000.0
 30
0.0
 11
122.9999999999997
 21
-1000.0
 31
0.0
  0
LINE
  5
F6EF8
  8
OBJECT
 10
109.9999999999997
 20
-1001.500000000001
 30
0.0
 11
109.9999999999997
 21
-1004.7
 31
0.0
  0
LINE
  5
F6EF9
  8
OBJECT
 10
-62.481997407253431
 20
-998.49999999999864
 30
0.0
 11
-110.0000000000002
 21
-998.49999999999864
 31
0.0
  0
LINE
  5
F6EFA
  8
OBJECT
 10
-65.531671732073619
 20
-995.29999999999995
 30
0.0
 11
-110.0000000000002
 21
-995.29999999999995
 31
0.0
  0
LINE
  5
F6EFB
  8
OBJECT
 10
-62.481997407253473
 20
-1001.499999999999
 30
0.0
 11
-123.1626028344114
 21
-1001.499999999999
 31
0.0
  0
LINE
  5
F6EFC
  8
OBJECT
 10
-65.531671732073619
 20
-1004.7
 30
0.0
 11
-120.94737607099481
 21
-1004.7
 31
0.0
  0
ARC
  5
F6EFD
  8
OBJECT
 10
-130.0000000000002
 20
-1000.0
 30
0.0
 40
7.0
 50
0.0
 51
347.62637488383422
  0
ARC
  5
F6EFE
  8
OBJECT
 10
-130.0000000000002
 20
-1000.0
 30
0.0
 40
10.20000000000004
 50
0.0
 51
332.56227057882001
  0
LINE
  5
F6EFF
  8
OBJECT
 10
-119.8000000000002
 20
-1000.0
 30
0.0
 11
-123.0000000000002
 21
-1000.0
 31
0.0
  0
LINE
  5
F6F00
  8
OBJECT
 10
-110.0000000000002
 20
-998.49999999999864
 30
0.0
 11
-110.0000000000002
 21
-995.29999999999995
 31
0.0
  0
LINE
  5
F6F0A
  8
CENTER
 10
-0.0000000000002416
 20
-1216.0
 30
0.0
 11
-0.0000000000002785
 21
-1284.0
 31
0.0
  0
LINE
  5
F6F0B
  8
OBJECT
 10
-140.2000000000003
 20
-1266.0
 30
0.0
 11
-140.2000000000003
 21
-1234.0
 31
0.0
  0
LINE
  5
F6F0C
  8
OBJECT
 10
-140.2000000000003
 20
-1234.0
 30
0.0
 11
-67.195374466116931
 21
-1234.0
 31
0.0
  0
LINE
  5
F6F0D
  8
OBJECT
 10
140.1999999999999
 20
-1234.0
 30
0.0
 11
140.1999999999999
 21
-1266.0
 31
0.0
  0
LINE
  5
F6F0E
  8
OBJECT
 10
140.1999999999999
 20
-1266.0
 30
0.0
 11
67.195374466116405
 21
-1266.0
 31
0.0
  0
LINE
  5
F6F0F
  8
OBJECT
 10
-120.94737607099469
 20
-1234.0
 30
0.0
 11
-120.94737607099469
 21
-1266.0
 31
0.0
  0
LINE
  5
F6F12
  8
OBJECT
 10
109.9999999999997
 20
-1234.0
 30
0.0
 11
109.9999999999997
 21
-1266.0
 31
0.0
  0
LINE
  5
F6F13
  8
OBJECT
 10
119.7999999999997
 20
-1234.0
 30
0.0
 11
119.7999999999996
 21
-1266.0
 31
0.0
  0
LINE
  5
F6F14
  8
CENTER
 10
-155.2000000000003
 20
-1250.0
 30
0.0
 11
155.19999999999979
 21
-1250.0
 31
0.0
  0
LINE
  5
F6F44
  8
CENTER
 10
1834.8
 20
-1000.0
 30
0.0
 11
2165.1999999999998
 21
-1000.0
 31
0.0
  0
LINE
  5
F6F45
  8
OBJECT
 10
2074.9849984996999
 20
-1001.500000000001
 30
0.0
 11
2120.0
 21
-1001.500000000001
 31
0.0
  0
LINE
  5
F6F46
  8
OBJECT
 10
2078.0586318096871
 20
-1004.700000000001
 30
0.0
 11
2120.0
 21
-1004.700000000001
 31
0.0
  0
LINE
  5
F6F47
  8
OBJECT
 10
2074.9849984996999
 20
-998.49999999999989
 30
0.0
 11
2133.1626028344108
 21
-998.50000000000023
 31
0.0
  0
LINE
  5
F6F48
  8
OBJECT
 10
2078.0586318096871
 20
-995.30000000000064
 30
0.0
 11
2130.947376070992
 21
-995.30000000000064
 31
0.0
  0
LINE
  5
F6F49
  8
CENTER
 10
2000.0
 20
-904.79999999999995
 30
0.0
 11
2000.0
 21
-1095.2
 31
0.0
  0
ARC
  5
F6F4A
  8
OBJECT
 10
2000.0
 20
-1000.0
 30
0.0
 40
75.0
 50
1.1459919983875491
 51
6.0000000000083054
  0
ARC
  5
F6F4C
  8
OBJECT
 10
2000.0
 20
-1000.0
 30
0.0
 40
75.0
 50
181.1459919983875
 51
186.0000000000083
  0
ARC
  5
F6F4E
  8
OBJECT
 10
2140.0
 20
-1000.0
 30
0.0
 40
7.0
 50
180.0
 51
167.62637488380821
  0
ARC
  5
F6F4F
  8
OBJECT
 10
2140.0
 20
-1000.0
 30
0.0
 40
10.199999999999999
 50
180.0
 51
152.5622705788216
  0
LINE
  5
F6F50
  8
OBJECT
 10
1925.0150015003001
 20
-998.49999999999864
 30
0.0
 11
1880.0
 21
-998.49999999999864
 31
0.0
  0
LINE
  5
F6F51
  8
OBJECT
 10
1921.9413681903129
 20
-995.29999999999882
 30
0.0
 11
1880.0
 21
-995.29999999999916
 31
0.0
  0
LINE
  5
F6F52
  8
OBJECT
 10
1925.0150015003001
 20
-1001.499999999999
 30
0.0
 11
1866.837397165589
 21
-1001.499999999999
 31
0.0
  0
LINE
  5
F6F53
  8
OBJECT
 10
1921.9413681903129
 20
-1004.699999999999
 30
0.0
 11
1869.052623929007
 21
-1004.699999999999
 31
0.0
  0
ARC
  5
F6F54
  8
OBJECT
 10
1860.0
 20
-1000.0
 30
0.0
 40
7.0
 50
0.0
 51
347.62637488383422
  0
ARC
  5
F6F55
  8
OBJECT
 10
1860.0
 20
-1000.0
 30
0.0
 40
10.199999999999999
 50
0.0
 51
332.56227057884632
  0
LINE
  5
F6F89
  8
OBJECT
 10
1867.0
 20
-1000.0
 30
0.0
 11
1870.2
 21
-1000.0
 31
0.0
  0
LINE
  5
F6F8A
  8
OBJECT
 10
1880.0
 20
-998.49999999999864
 30
0.0
 11
1880.0
 21
-995.29999999999916
 31
0.0
  0
LINE
  5
F6F8B
  8
OBJECT
 10
2120.0
 20
-1001.500000000001
 30
0.0
 11
2120.0
 21
-1004.700000000001
 31
0.0
  0
LINE
  5
F6F8C
  8
OBJECT
 10
2129.8000000000002
 20
-1000.0
 30
0.0
 11
2133.0
 21
-1000.0
 31
0.0
  0
LINE
  5
F6F8E
  8
OBJECT
 10
1849.8
 20
-1266.0
 30
0.0
 11
1849.8
 21
-1234.0
 31
0.0
  0
LINE
  5
F6F8F
  8
OBJECT
 10
1849.8
 20
-1234.0
 30
0.0
 11
1920.2393439914649
 21
-1234.0
 31
0.0
  0
LINE
  5
F6F90
  8
OBJECT
 10
2150.1999999999998
 20
-1234.0
 30
0.0
 11
2150.1999999999998
 21
-1266.0
 31
0.0
  0
LINE
  5
F6F91
  8
OBJECT
 10
2150.1999999999998
 20
-1266.0
 30
0.0
 11
2079.7606560085342
 21
-1266.0
 31
0.0
  0
LINE
  5
F6F92
  8
OBJECT
 10
1869.052623929005
 20
-1234.0
 30
0.0
 11
1869.052623929005
 21
-1266.0
 31
0.0
  0
LINE
  5
F6F95
  8
OBJECT
 10
2120.0
 20
-1234.0
 30
0.0
 11
2120.0
 21
-1266.0
 31
0.0
  0
LINE
  5
F6F96
  8
OBJECT
 10
2129.8000000000002
 20
-1234.0
 30
0.0
 11
2129.7999999999988
 21
-1266.0
 31
0.0
  0
LINE
  5
F6F97
  8
CENTER
 10
1834.8
 20
-1250.0
 30
0.0
 11
2165.1999999999998
 21
-1250.0
 31
0.0
  0
ARC
  5
F7261
  8
OBJECT
 10
-0.0000000000002132
 20
-1000.0
 30
0.0
 40
67.700000000000003
 50
7.0000000000059801
 51
172.999999999994
  0
ARC
  5
F7262
  8
OBJECT
 10
-0.0000000000002132
 20
-1000.0
 30
0.0
 40
59.5
 50
7.0000000000059801
 51
172.999999999994
  0
LINE
  5
F7279
  8
OBJECT
 10
-65.531671732082998
 20
-1235.9999999999991
 30
0.0
 11
-65.531671732084703
 21
-1264.0
 31
0.0
  0
LINE
  5
F727F
  8
OBJECT
 10
-67.195374466116931
 20
-1264.0
 30
0.0
 11
-67.195374466116931
 21
-1269.0
 31
0.0
  0
LINE
  5
F7280
  8
OBJECT
 10
-67.195374466116931
 20
-1269.0
 30
0.0
 11
67.195374466116391
 21
-1269.0
 31
0.0
  0
LINE
  5
F7282
  8
OBJECT
 10
67.195374466116405
 20
-1264.0
 30
0.0
 11
-67.195374466116931
 21
-1264.0
 31
0.0
  0
LINE
  5
F7283
  8
OBJECT
 10
-67.195374466116931
 20
-1266.0
 30
0.0
 11
-140.2000000000003
 21
-1266.0
 31
0.0
  0
LINE
  5
F7284
  8
OBJECT
 10
-67.195374466116931
 20
-1236.0
 30
0.0
 11
-67.195374466116931
 21
-1231.0
 31
0.0
  0
LINE
  5
F7285
  8
OBJECT
 10
-67.195374466116931
 20
-1231.0
 30
0.0
 11
67.195374466116419
 21
-1231.0
 31
0.0
  0
LINE
  5
F7287
  8
OBJECT
 10
67.195374466116419
 20
-1236.0
 30
0.0
 11
-67.195374466116931
 21
-1236.0
 31
0.0
  0
LINE
  5
F7288
  8
OBJECT
 10
67.195374466116419
 20
-1234.0
 30
0.0
 11
140.1999999999999
 21
-1234.0
 31
0.0
  0
ARC
  5
F72C5
  8
OBJECT
 10
2000.0
 20
-1000.0
 30
0.0
 40
78.200000000000003
 50
3.4456848256330961
 51
6.0000000000083054
  0
ARC
  5
F72C6
  8
OBJECT
 10
2000.0
 20
-1000.0
 30
0.0
 40
78.200000000000003
 50
183.44568482563301
 51
186.0000000000083
  0
ARC
  5
F72C9
  8
OBJECT
 10
2000.0
 20
-1000.0
 30
0.0
 40
72.0
 50
6.0000000000083054
 51
173.99999999999159
  0
ARC
  5
F72CA
  8
OBJECT
 10
2000.0
 20
-1000.0
 30
0.0
 40
80.200000000000017
 50
6.0000000000083054
 51
173.99999999999159
  0
ARC
  5
F72CB
  8
OBJECT
 10
2000.0
 20
-1000.0
 30
0.0
 40
72.0
 50
186.0000000000083
 51
353.99999999999159
  0
ARC
  5
F72CC
  8
OBJECT
 10
2000.0
 20
-1000.0
 30
0.0
 40
80.200000000000017
 50
186.0000000000083
 51
353.99999999999159
  0
ARC
  5
F72D7
  8
OBJECT
 10
2000.0
 20
-1000.0
 30
0.0
 40
78.200000000000003
 50
353.99999999999159
 51
356.55431517436688
  0
ARC
  5
F72D8
  8
OBJECT
 10
2000.0
 20
-1000.0
 30
0.0
 40
75.0
 50
353.99999999999159
 51
358.85400800161239
  0
ARC
  5
F72D9
  8
OBJECT
 10
2000.0
 20
-1000.0
 30
0.0
 40
75.0
 50
173.99999999999159
 51
178.85400800161241
  0
ARC
  5
F72DA
  8
OBJECT
 10
2000.0
 20
-1000.0
 30
0.0
 40
78.200000000000003
 50
173.99999999999159
 51
176.55431517436691
  0
LINE
  5
F72EB
  8
CENTER
 10
2000.0
 20
-1216.0
 30
0.0
 11
2000.0
 21
-1284.0
 31
0.0
  0
LINE
  5
F72EC
  8
OBJECT
 10
1921.9413681903141
 20
-1236.0
 30
0.0
 11
1921.9413681903129
 21
-1264.0
 31
0.0
  0
LINE
  5
F72EE
  8
OBJECT
 10
1920.2393439914649
 20
-1264.0
 30
0.0
 11
1920.2393439914649
 21
-1269.0
 31
0.0
  0
LINE
  5
F72EF
  8
OBJECT
 10
1920.2393439914649
 20
-1269.0
 30
0.0
 11
2079.7606560085342
 21
-1269.0
 31
0.0
  0
LINE
  5
F72F1
  8
OBJECT
 10
2079.7606560085342
 20
-1264.0
 30
0.0
 11
1920.2393439914649
 21
-1264.0
 31
0.0
  0
LINE
  5
F72F2
  8
OBJECT
 10
1920.2393439914649
 20
-1236.0
 30
0.0
 11
1920.2393439914649
 21
-1231.0
 31
0.0
  0
LINE
  5
F72F3
  8
OBJECT
 10
1920.2393439914649
 20
-1231.0
 30
0.0
 11
2079.7606560085342
 21
-1231.0
 31
0.0
  0
LINE
  5
F72F5
  8
OBJECT
 10
2079.7606560085342
 20
-1236.0
 30
0.0
 11
1920.2393439914649
 21
-1236.0
 31
0.0
  0
LINE
  5
F7301
  8
OBJECT
 10
2079.7606560085342
 20
-1234.0
 30
0.0
 11
2150.1999999999998
 21
-1234.0
 31
0.0
  0
LINE
  5
F7302
  8
OBJECT
 10
1920.2393439914649
 20
-1266.0
 30
0.0
 11
1849.8
 21
-1266.0
 31
0.0
  0
LINE
  5
F7308
  8
OBJECT
 10
2078.0586318096848
 20
-1236.0
 30
0.0
 11
2078.0586318096871
 21
-1264.0
 31
0.0
  0
LINE
  5
F7309
  8
OBJECT
 10
2079.7606560085342
 20
-1264.0
 30
0.0
 11
2079.7606560085342
 21
-1269.0
 31
0.0
  0
LINE
  5
F730A
  8
OBJECT
 10
2079.7606560085342
 20
-1236.0
 30
0.0
 11
2079.7606560085342
 21
-1231.0
 31
0.0
  0
LINE
  5
F7378
  8
CENTER
 10
3807.0
 20
-1000.0
 30
0.0
 11
4193.0
 21
-1000.0
 31
0.0
  0
LINE
  5
F7379
  8
OBJECT
 10
4088.4872872225151
 20
-1001.500000000001
 30
0.0
 11
4135.0
 21
-1001.500000000001
 31
0.0
  0
LINE
  5
F737B
  8
OBJECT
 10
4088.4872872225151
 20
-998.49999999999989
 30
0.0
 11
4156.6333997346583
 21
-998.50000000000023
 31
0.0
  0
LINE
  5
F737D
  8
CENTER
 10
4000.0
 20
-890.0
 30
0.0
 11
4000.0
 21
-1110.0
 31
0.0
  0
ARC
  5
F7380
  8
OBJECT
 10
4000.0
 20
-1000.0
 30
0.0
 40
85.5
 50
6.000000000008324
 51
173.99999999999159
  0
ARC
  5
F7383
  8
OBJECT
 10
4000.0
 20
-1000.0
 30
0.0
 40
88.499999999999986
 50
0.9711614089978596
 51
6.000000000008324
  0
ARC
  5
F738A
  8
OBJECT
 10
4165.0
 20
-1000.0
 30
0.0
 40
8.5
 50
180.0
 51
169.83575137828561
  0
LINE
  5
F738C
  8
OBJECT
 10
3911.512712777484
 20
-998.49999999999852
 30
0.0
 11
3865.0
 21
-998.49999999999864
 31
0.0
  0
LINE
  5
F738E
  8
OBJECT
 10
3911.512712777484
 20
-1001.499999999999
 30
0.0
 11
3843.3666002653408
 21
-1001.499999999999
 31
0.0
  0
ARC
  5
F7390
  8
OBJECT
 10
3835.0
 20
-1000.0
 30
0.0
 40
8.5
 50
0.0
 51
349.83575137828569
  0
LINE
  5
F7397
  8
OBJECT
 10
3822.0
 20
-1269.0
 30
0.0
 11
3822.0
 21
-1231.0
 31
0.0
  0
LINE
  5
F7398
  8
OBJECT
 10
3822.0
 20
-1231.0
 30
0.0
 11
3905.52041994002
 21
-1231.0
 31
0.0
  0
LINE
  5
F7399
  8
OBJECT
 10
4094.4795800600059
 20
-1231.0
 30
0.0
 11
4178.0
 21
-1231.0
 31
0.0
  0
LINE
  5
F739A
  8
OBJECT
 10
4178.0
 20
-1231.0
 30
0.0
 11
4178.0
 21
-1269.0
 31
0.0
  0
LINE
  5
F739B
  8
OBJECT
 10
4178.0
 20
-1269.0
 30
0.0
 11
4094.4795800600059
 21
-1269.0
 31
0.0
  0
LINE
  5
F739C
  8
OBJECT
 10
3905.52041994002
 20
-1269.0
 30
0.0
 11
3822.0
 21
-1269.0
 31
0.0
  0
LINE
  5
F739D
  8
CENTER
 10
3807.0
 20
-1250.0
 30
0.0
 11
4193.0
 21
-1250.0
 31
0.0
  0
LINE
  5
F739E
  8
OBJECT
 10
3846.5325625946712
 20
-1231.0
 30
0.0
 11
3846.5325625946712
 21
-1269.0
 31
0.0
  0
LINE
  5
F739F
  8
OBJECT
 10
4152.0
 20
-1231.0
 30
0.0
 11
4152.0
 21
-1269.0
 31
0.0
  0
LINE
  5
F73A6
  8
CENTER
 10
4000.0
 20
-1213.0
 30
0.0
 11
4000.0
 21
-1287.0
 31
0.0
  0
LINE
  5
F73A7
  8
OBJECT
 10
3907.1937502104529
 20
-1234.0
 30
0.0
 11
3907.1937502104502
 21
-1266.0
 31
0.0
  0
LINE
  5
F73A8
  8
OBJECT
 10
4092.8062497895471
 20
-1234.0
 30
0.0
 11
4092.8062497895471
 21
-1266.0
 31
0.0
  0
LINE
  5
F73A9
  8
OBJECT
 10
3905.52041994002
 20
-1266.0
 30
0.0
 11
3905.52041994002
 21
-1272.0
 31
0.0
  0
LINE
  5
F73AA
  8
OBJECT
 10
3905.52041994002
 20
-1272.0
 30
0.0
 11
4094.4795800600059
 21
-1272.0
 31
0.0
  0
LINE
  5
F73AB
  8
OBJECT
 10
4094.4795800600059
 20
-1272.0
 30
0.0
 11
4094.4795800600059
 21
-1266.0
 31
0.0
  0
LINE
  5
F73AC
  8
OBJECT
 10
4094.4795800600059
 20
-1266.0
 30
0.0
 11
3905.52041994002
 21
-1266.0
 31
0.0
  0
LINE
  5
F73AD
  8
OBJECT
 10
3905.52041994002
 20
-1234.0
 30
0.0
 11
3905.52041994002
 21
-1228.0
 31
0.0
  0
LINE
  5
F73AE
  8
OBJECT
 10
3905.52041994002
 20
-1228.0
 30
0.0
 11
4094.4795800600059
 21
-1228.0
 31
0.0
  0
LINE
  5
F73AF
  8
OBJECT
 10
4094.4795800600059
 20
-1228.0
 30
0.0
 11
4094.4795800600059
 21
-1234.0
 31
0.0
  0
LINE
  5
F73B0
  8
OBJECT
 10
4094.4795800600059
 20
-1234.0
 30
0.0
 11
3905.52041994002
 21
-1234.0
 31
0.0
  0
LINE
  5
F7432
  8
CENTER
 10
4807.5
 20
-1000.0
 30
0.0
 11
5192.5
 21
-1000.0
 31
0.0
  0
LINE
  5
F7433
  8
OBJECT
 10
5088.4872872225151
 20
-1001.500000000001
 30
0.0
 11
5135.0
 21
-1001.500000000001
 31
0.0
  0
LINE
  5
F7434
  8
OBJECT
 10
5088.4872872225151
 20
-998.49999999999989
 30
0.0
 11
5156.6333997346583
 21
-998.50000000000023
 31
0.0
  0
LINE
  5
F7435
  8
CENTER
 10
5000.0
 20
-890.49999999999989
 30
0.0
 11
5000.0
 21
-1109.5
 31
0.0
  0
ARC
  5
F7436
  8
OBJECT
 10
5000.0
 20
-1000.0
 30
0.0
 40
85.5
 50
6.000000000008324
 51
173.99999999999159
  0
ARC
  5
F7437
  8
OBJECT
 10
5000.0
 20
-1000.0
 30
0.0
 40
88.499999999999986
 50
0.9711614089978596
 51
6.000000000008324
  0
ARC
  5
F743A
  8
OBJECT
 10
5165.0
 20
-1000.0
 30
0.0
 40
8.5
 50
180.0
 51
169.83575137828561
  0
LINE
  5
F743B
  8
OBJECT
 10
4911.512712777484
 20
-998.49999999999852
 30
0.0
 11
4865.0
 21
-998.49999999999864
 31
0.0
  0
LINE
  5
F743C
  8
OBJECT
 10
4911.512712777484
 20
-1001.499999999999
 30
0.0
 11
4843.3666002653408
 21
-1001.499999999999
 31
0.0
  0
ARC
  5
F743D
  8
OBJECT
 10
4835.0
 20
-1000.0
 30
0.0
 40
8.5
 50
0.0
 51
349.83575137828569
  0
LINE
  5
F7443
  8
OBJECT
 10
4822.5
 20
-1269.0
 30
0.0
 11
4822.5
 21
-1231.0
 31
0.0
  0
LINE
  5
F7444
  8
OBJECT
 10
4822.5
 20
-1231.0
 30
0.0
 11
4906.0176808877004
 21
-1231.0
 31
0.0
  0
LINE
  5
F7445
  8
OBJECT
 10
5093.982319112296
 20
-1231.0
 30
0.0
 11
5177.5
 21
-1231.0
 31
0.0
  0
LINE
  5
F7446
  8
OBJECT
 10
5177.5
 20
-1231.0
 30
0.0
 11
5177.5
 21
-1269.0
 31
0.0
  0
LINE
  5
F7447
  8
OBJECT
 10
5177.5
 20
-1269.0
 30
0.0
 11
5093.982319112296
 21
-1269.0
 31
0.0
  0
LINE
  5
F7448
  8
OBJECT
 10
4906.0176808877004
 20
-1269.0
 30
0.0
 11
4822.5
 21
-1269.0
 31
0.0
  0
LINE
  5
F7449
  8
CENTER
 10
4807.5
 20
-1250.0
 30
0.0
 11
5192.5
 21
-1250.0
 31
0.0
  0
LINE
  5
F744A
  8
OBJECT
 10
4846.2249721603221
 20
-1231.0
 30
0.0
 11
4846.2249721603221
 21
-1269.0
 31
0.0
  0
LINE
  5
F744B
  8
OBJECT
 10
5152.4999999999991
 20
-1231.0
 30
0.0
 11
5152.4999999999991
 21
-1269.0
 31
0.0
  0
LINE
  5
F744E
  8
CENTER
 10
5000.0
 20
-1213.0
 30
0.0
 11
5000.0
 21
-1287.0
 31
0.0
  0
LINE
  5
F744F
  8
OBJECT
 10
4907.6636582920892
 20
-1234.0
 30
0.0
 11
4907.6636582920864
 21
-1266.0
 31
0.0
  0
LINE
  5
F7450
  8
OBJECT
 10
5092.3363417079108
 20
-1233.9999999999991
 30
0.0
 11
5092.3363417079108
 21
-1266.0
 31
0.0
  0
LINE
  5
F7451
  8
OBJECT
 10
4906.0176808877004
 20
-1266.0
 30
0.0
 11
4906.0176808877004
 21
-1272.0
 31
0.0
  0
LINE
  5
F7452
  8
OBJECT
 10
4906.0176808877004
 20
-1272.0
 30
0.0
 11
5093.982319112296
 21
-1272.0
 31
0.0
  0
LINE
  5
F7453
  8
OBJECT
 10
5093.982319112296
 20
-1272.0
 30
0.0
 11
5093.982319112296
 21
-1266.0
 31
0.0
  0
LINE
  5
F7454
  8
OBJECT
 10
5093.982319112296
 20
-1266.0
 30
0.0
 11
4906.0176808877004
 21
-1266.0
 31
0.0
  0
LINE
  5
F7455
  8
OBJECT
 10
4906.0176808877004
 20
-1234.0
 30
0.0
 11
4906.0176808877004
 21
-1228.0
 31
0.0
  0
LINE
  5
F7456
  8
OBJECT
 10
4906.0176808877004
 20
-1228.0
 30
0.0
 11
5093.982319112296
 21
-1228.0
 31
0.0
  0
LINE
  5
F7457
  8
OBJECT
 10
5093.982319112296
 20
-1228.0
 30
0.0
 11
5093.982319112296
 21
-1234.0
 31
0.0
  0
LINE
  5
F7458
  8
OBJECT
 10
5093.982319112296
 20
-1234.0
 30
0.0
 11
4906.0176808877004
 21
-1234.0
 31
0.0
  0
ARC
  5
F748C
  8
OBJECT
 10
3835.0
 20
-1000.0
 30
0.0
 40
13.0
 50
0.0
 51
332.5135737496139
  0
LINE
  5
F748D
  8
OBJECT
 10
3907.1937502104529
 20
-1005.999999999999
 30
0.0
 11
3846.5325625946712
 21
-1005.999999999999
 31
0.0
  0
LINE
  5
F748F
  8
OBJECT
 10
3907.1937502104529
 20
-993.99999999999875
 30
0.0
 11
3865.0
 21
-993.99999999999875
 31
0.0
  0
ARC
  5
F7490
  8
OBJECT
 10
4000.0
 20
-1000.0
 30
0.0
 40
93.0
 50
3.6990710631616781
 51
6.000000000008324
  0
LINE
  5
F7491
  8
OBJECT
 10
4092.8062497895471
 20
-1006.000000000001
 30
0.0
 11
4135.0
 21
-1006.000000000001
 31
0.0
  0
ARC
  5
F7492
  8
OBJECT
 10
4165.0
 20
-1000.0
 30
0.0
 40
13.0
 50
180.0
 51
152.5135737496139
  0
LINE
  5
F7493
  8
OBJECT
 10
4092.8062497895471
 20
-994.0
 30
0.0
 11
4153.4674374053266
 21
-994.00000000000034
 31
0.0
  0
ARC
  5
F7494
  8
OBJECT
 10
4000.0
 20
-1000.0
 30
0.0
 40
95.0
 50
6.000000000008324
 51
173.99999999999159
  0
LINE
  5
F7496
  8
OBJECT
 10
4135.0
 20
-1001.500000000001
 30
0.0
 11
4135.0
 21
-1006.000000000001
 31
0.0
  0
LINE
  5
F7497
  8
OBJECT
 10
4152.0
 20
-1000.0
 30
0.0
 11
4156.5
 21
-1000.0
 31
0.0
  0
LINE
  5
F7498
  8
OBJECT
 10
3865.0
 20
-993.99999999999875
 30
0.0
 11
3865.0
 21
-998.49999999999864
 31
0.0
  0
LINE
  5
F7499
  8
OBJECT
 10
3843.5
 20
-1000.0
 30
0.0
 11
3848.0
 21
-1000.0
 31
0.0
  0
ARC
  5
F749A
  8
OBJECT
 10
4000.0
 20
-1000.0
 30
0.0
 40
93.0
 50
173.99999999999159
 51
176.3009289368382
  0
ARC
  5
F749B
  8
OBJECT
 10
4000.0
 20
-1000.0
 30
0.0
 40
88.499999999999986
 50
173.99999999999159
 51
179.02883859100211
  0
LINE
  5
F74A8
  8
OBJECT
 10
4135.0
 20
-1231.0
 30
0.0
 11
4135.0
 21
-1269.0
 31
0.0
  0
ARC
  5
F74AE
  8
OBJECT
 10
4835.0
 20
-1000.0
 30
0.0
 40
12.5
 50
0.0
 51
333.89611886265772
  0
LINE
  5
F74AF
  8
OBJECT
 10
4907.6636582920892
 20
-1005.499999999999
 30
0.0
 11
4846.2249721603221
 21
-1005.499999999999
 31
0.0
  0
LINE
  5
F74B0
  8
OBJECT
 10
4907.6636582920892
 20
-994.49999999999864
 30
0.0
 11
4865.0
 21
-994.49999999999909
 31
0.0
  0
ARC
  5
F74B2
  8
OBJECT
 10
5000.0
 20
-1000.0
 30
0.0
 40
92.5
 50
3.408786681092578
 51
6.000000000008324
  0
LINE
  5
F74B3
  8
OBJECT
 10
5092.3363417079108
 20
-1005.500000000001
 30
0.0
 11
5135.0
 21
-1005.500000000001
 31
0.0
  0
LINE
  5
F74B4
  8
OBJECT
 10
5092.3363417079108
 20
-994.5
 30
0.0
 11
5153.7750278396779
 21
-994.50000000000034
 31
0.0
  0
ARC
  5
F74B5
  8
OBJECT
 10
5165.0
 20
-1000.0
 30
0.0
 40
12.5
 50
180.0
 51
153.89611886265749
  0
ARC
  5
F74B6
  8
OBJECT
 10
5000.0
 20
-1000.0
 30
0.0
 40
94.500000000000014
 50
6.000000000008324
 51
173.99999999999159
  0
LINE
  5
F74B8
  8
OBJECT
 10
4865.0
 20
-994.49999999999909
 30
0.0
 11
4865.0
 21
-998.49999999999864
 31
0.0
  0
LINE
  5
F74B9
  8
OBJECT
 10
4843.5
 20
-1000.0
 30
0.0
 11
4847.5
 21
-1000.0
 31
0.0
  0
LINE
  5
F74BA
  8
OBJECT
 10
5135.0
 20
-1001.500000000001
 30
0.0
 11
5135.0
 21
-1005.500000000001
 31
0.0
  0
LINE
  5
F74BB
  8
OBJECT
 10
5152.4999999999991
 20
-1000.0
 30
0.0
 11
5156.5
 21
-1000.0
 31
0.0
  0
ARC
  5
F74BE
  8
OBJECT
 10
5000.0
 20
-1000.0
 30
0.0
 40
88.499999999999986
 50
173.99999999999159
 51
179.02883859100211
  0
ARC
  5
F74BF
  8
OBJECT
 10
5000.0
 20
-1000.0
 30
0.0
 40
92.5
 50
173.99999999999159
 51
176.59121331890739
  0
LINE
  5
F74D2
  8
OBJECT
 10
5135.0
 20
-1231.0
 30
0.0
 11
5135.0
 21
-1269.0
 31
0.0
  0
POLYLINE
  5
F752B
  8
SLIM
 66
     1
 10
0.0
 20
0.0
 30
0.0
 70
     1
  0
VERTEX
  5
100089
  8
SLIM
 10
3879.5151724427001
 20
-1240.5
 30
0.0
  0
VERTEX
  5
10008A
  8
SLIM
 10
3874.0303448853961
 20
-1250.0
 30
0.0
  0
VERTEX
  5
10008B
  8
SLIM
 10
3879.5151724427001
 20
-1259.5
 30
0.0
  0
VERTEX
  5
10008C
  8
SLIM
 10
3890.4848275573008
 20
-1259.5
 30
0.0
  0
VERTEX
  5
10008D
  8
SLIM
 10
3895.9696551146039
 20
-1250.0
 30
0.0
  0
VERTEX
  5
10008E
  8
SLIM
 10
3890.4848275573008
 20
-1240.5
 30
0.0
  0
SEQEND
  5
10008F
  8
SLIM
  0
POLYLINE
  5
F752D
  8
SLIM
 66
     1
 10
0.0
 20
0.0
 30
0.0
 70
     1
  0
VERTEX
  5
100090
  8
SLIM
 10
4109.5151724426987
 20
-1240.5
 30
0.0
  0
VERTEX
  5
100091
  8
SLIM
 10
4104.0303448853974
 20
-1250.0
 30
0.0
  0
VERTEX
  5
100092
  8
SLIM
 10
4109.5151724426987
 20
-1259.5
 30
0.0
  0
VERTEX
  5
100093
  8
SLIM
 10
4120.4848275573013
 20
-1259.5
 30
0.0
  0
VERTEX
  5
100094
  8
SLIM
 10
4125.9696551146026
 20
-1250.0
 30
0.0
  0
VERTEX
  5
100095
  8
SLIM
 10
4120.4848275573013
 20
-1240.5
 30
0.0
  0
SEQEND
  5
100096
  8
SLIM
  0
POLYLINE
  5
F752F
  8
SLIM
 66
     1
 10
0.0
 20
0.0
 30
0.0
 70
     1
  0
VERTEX
  5
100097
  8
SLIM
 10
4879.5151724426969
 20
-1240.5
 30
0.0
  0
VERTEX
  5
100098
  8
SLIM
 10
4874.0303448853956
 20
-1250.0
 30
0.0
  0
VERTEX
  5
100099
  8
SLIM
 10
4879.5151724426969
 20
-1259.5
 30
0.0
  0
VERTEX
  5
10009A
  8
SLIM
 10
4890.4848275573013
 20
-1259.5
 30
0.0
  0
VERTEX
  5
10009B
  8
SLIM
 10
4895.9696551146008
 20
-1250.0
 30
0.0
  0
VERTEX
  5
10009C
  8
SLIM
 10
4890.4848275573013
 20
-1240.5
 30
0.0
  0
SEQEND
  5
10009D
  8
SLIM
  0
POLYLINE
  5
F7531
  8
SLIM
 66
     1
 10
0.0
 20
0.0
 30
0.0
 70
     1
  0
VERTEX
  5
10009E
  8
SLIM
 10
5109.5151724426978
 20
-1240.5
 30
0.0
  0
VERTEX
  5
10009F
  8
SLIM
 10
5104.0303448853983
 20
-1250.0
 30
0.0
  0
VERTEX
  5
1000A0
  8
SLIM
 10
5109.5151724426978
 20
-1259.5
 30
0.0
  0
VERTEX
  5
1000A1
  8
SLIM
 10
5120.4848275573022
 20
-1259.5
 30
0.0
  0
VERTEX
  5
1000A2
  8
SLIM
 10
5125.9696551146017
 20
-1250.0
 30
0.0
  0
VERTEX
  5
1000A3
  8
SLIM
 10
5120.4848275573022
 20
-1240.5
 30
0.0
  0
SEQEND
  5
1000A4
  8
SLIM
  0
LINE
  5
F753D
  8
OBJECT
 10
3874.0303448853961
 20
-1005.999999999999
 30
0.0
 11
3874.0303448853961
 21
-1013.999999999999
 31
0.0
  0
LINE
  5
F753E
  8
OBJECT
 10
3874.0303448853961
 20
-1013.999999999999
 30
0.0
 11
3895.9696551146039
 21
-1013.999999999999
 31
0.0
  0
LINE
  5
F753F
  8
OBJECT
 10
3895.9696551146039
 20
-1013.999999999999
 30
0.0
 11
3895.9696551146039
 21
-1005.999999999999
 31
0.0
  0
LINE
  5
F7541
  8
OBJECT
 10
3879.5151724427001
 20
-1005.999999999999
 30
0.0
 11
3879.5151724427001
 21
-1013.999999999999
 31
0.0
  0
LINE
  5
F7542
  8
OBJECT
 10
3890.4848275573008
 20
-1005.999999999999
 30
0.0
 11
3890.4848275573008
 21
-1013.999999999999
 31
0.0
  0
LINE
  5
F7683
  8
OBJECT
 10
3891.0
 20
-965.99999999999932
 30
0.0
 11
3891.0
 21
-983.99999999999875
 31
0.0
  0
LINE
  5
F7684
  8
OBJECT
 10
3879.0
 20
-965.99999999999932
 30
0.0
 11
3879.0
 21
-983.99999999999875
 31
0.0
  0
LINE
  5
F7685
  8
OBJECT
 10
3891.0
 20
-965.99999999999932
 30
0.0
 11
3879.0
 21
-965.99999999999932
 31
0.0
  0
LINE
  5
F7686
  8
OBJECT
 10
3879.0
 20
-998.49999999999864
 30
0.0
 11
3879.0
 21
-1001.499999999999
 31
0.0
  0
LINE
  5
F7687
  8
OBJECT
 10
3891.0
 20
-998.49999999999852
 30
0.0
 11
3891.0
 21
-1001.499999999999
 31
0.0
  0
LINE
  5
F768A
  8
OBJECT
 10
3874.0303448853961
 20
-983.99999999999875
 30
0.0
 11
3874.0303448853961
 21
-993.99999999999875
 31
0.0
  0
LINE
  5
F768C
  8
OBJECT
 10
3895.9696551146039
 20
-993.99999999999875
 30
0.0
 11
3895.9696551146039
 21
-983.99999999999875
 31
0.0
  0
LINE
  5
F768D
  8
OBJECT
 10
3895.9696551146039
 20
-983.99999999999875
 30
0.0
 11
3874.0303448853961
 21
-983.99999999999875
 31
0.0
  0
LINE
  5
F768E
  8
OBJECT
 10
3879.5151724427001
 20
-983.99999999999875
 30
0.0
 11
3879.5151724427001
 21
-993.99999999999875
 31
0.0
  0
LINE
  5
F768F
  8
OBJECT
 10
3890.4848275573008
 20
-983.99999999999875
 30
0.0
 11
3890.4848275573008
 21
-993.99999999999875
 31
0.0
  0
LINE
  5
F7691
  8
OBJECT
 10
4121.0
 20
-965.99999999999932
 30
0.0
 11
4121.0
 21
-983.99999999999875
 31
0.0
  0
LINE
  5
F7692
  8
OBJECT
 10
4121.0
 20
-998.49999999999864
 30
0.0
 11
4121.0
 21
-1001.499999999999
 31
0.0
  0
LINE
  5
F7693
  8
OBJECT
 10
4109.0
 20
-965.99999999999932
 30
0.0
 11
4109.0
 21
-983.99999999999875
 31
0.0
  0
LINE
  5
F7694
  8
OBJECT
 10
4109.0
 20
-998.49999999999852
 30
0.0
 11
4109.0
 21
-1001.499999999999
 31
0.0
  0
LINE
  5
F7695
  8
OBJECT
 10
4125.9696551146026
 20
-1005.999999999999
 30
0.0
 11
4125.9696551146026
 21
-1013.999999999999
 31
0.0
  0
LINE
  5
F7696
  8
OBJECT
 10
4125.9696551146026
 20
-1013.999999999999
 30
0.0
 11
4104.0303448853974
 21
-1013.999999999999
 31
0.0
  0
LINE
  5
F7697
  8
OBJECT
 10
4104.0303448853974
 20
-1013.999999999999
 30
0.0
 11
4104.0303448853974
 21
-1005.999999999999
 31
0.0
  0
LINE
  5
F7699
  8
OBJECT
 10
4109.0
 20
-965.99999999999932
 30
0.0
 11
4121.0
 21
-965.99999999999932
 31
0.0
  0
LINE
  5
F769A
  8
OBJECT
 10
4120.4848275573013
 20
-1005.999999999999
 30
0.0
 11
4120.4848275573013
 21
-1013.999999999999
 31
0.0
  0
LINE
  5
F769B
  8
OBJECT
 10
4109.5151724426969
 20
-1005.999999999999
 30
0.0
 11
4109.5151724426969
 21
-1013.999999999999
 31
0.0
  0
LINE
  5
F769E
  8
OBJECT
 10
4125.9696551146026
 20
-983.99999999999875
 30
0.0
 11
4125.9696551146026
 21
-993.99999999999875
 31
0.0
  0
LINE
  5
F76A0
  8
OBJECT
 10
4104.0303448853974
 20
-993.99999999999875
 30
0.0
 11
4104.0303448853974
 21
-983.99999999999875
 31
0.0
  0
LINE
  5
F76A1
  8
OBJECT
 10
4104.0303448853974
 20
-983.99999999999875
 30
0.0
 11
4125.9696551146026
 21
-983.99999999999875
 31
0.0
  0
LINE
  5
F76A2
  8
OBJECT
 10
4120.4848275573013
 20
-983.99999999999875
 30
0.0
 11
4120.4848275573013
 21
-993.99999999999875
 31
0.0
  0
LINE
  5
F76A3
  8
OBJECT
 10
4109.5151724426969
 20
-983.99999999999875
 30
0.0
 11
4109.5151724426969
 21
-993.99999999999875
 31
0.0
  0
LINE
  5
F76A8
  8
OBJECT
 10
4879.0
 20
-965.49999999999864
 30
0.0
 11
4879.0
 21
-984.49999999999818
 31
0.0
  0
LINE
  5
F76A9
  8
OBJECT
 10
4879.0
 20
-998.49999999999852
 30
0.0
 11
4879.0
 21
-1001.499999999999
 31
0.0
  0
LINE
  5
F76AA
  8
OBJECT
 10
4891.0
 20
-965.49999999999864
 30
0.0
 11
4891.0
 21
-984.49999999999841
 31
0.0
  0
LINE
  5
F76AB
  8
OBJECT
 10
4891.0
 20
-998.49999999999807
 30
0.0
 11
4891.0
 21
-1001.499999999999
 31
0.0
  0
LINE
  5
F76AC
  8
OBJECT
 10
4874.0303448853956
 20
-1005.499999999999
 30
0.0
 11
4874.0303448853956
 21
-1013.499999999999
 31
0.0
  0
LINE
  5
F76AD
  8
OBJECT
 10
4874.0303448853956
 20
-1013.499999999999
 30
0.0
 11
4895.9696551146008
 21
-1013.499999999999
 31
0.0
  0
LINE
  5
F76AE
  8
OBJECT
 10
4895.9696551146008
 20
-1013.499999999999
 30
0.0
 11
4895.9696551146008
 21
-1005.499999999999
 31
0.0
  0
LINE
  5
F76B0
  8
OBJECT
 10
4891.0
 20
-965.49999999999864
 30
0.0
 11
4879.0
 21
-965.49999999999864
 31
0.0
  0
LINE
  5
F76B1
  8
OBJECT
 10
4879.5151724426969
 20
-1005.499999999999
 30
0.0
 11
4879.5151724426969
 21
-1013.499999999999
 31
0.0
  0
LINE
  5
F76B2
  8
OBJECT
 10
4890.4848275573013
 20
-1005.499999999999
 30
0.0
 11
4890.4848275573013
 21
-1013.499999999999
 31
0.0
  0
LINE
  5
F76B5
  8
OBJECT
 10
4874.0303448853956
 20
-984.49999999999841
 30
0.0
 11
4874.0303448853956
 21
-994.49999999999864
 31
0.0
  0
LINE
  5
F76B7
  8
OBJECT
 10
4895.9696551146008
 20
-994.49999999999864
 30
0.0
 11
4895.9696551146008
 21
-984.49999999999841
 31
0.0
  0
LINE
  5
F76B8
  8
OBJECT
 10
4895.9696551146008
 20
-984.49999999999841
 30
0.0
 11
4874.0303448853956
 21
-984.49999999999841
 31
0.0
  0
LINE
  5
F76B9
  8
OBJECT
 10
4879.5151724426969
 20
-984.49999999999841
 30
0.0
 11
4879.5151724426969
 21
-994.49999999999864
 31
0.0
  0
LINE
  5
F76BA
  8
OBJECT
 10
4890.4848275573013
 20
-984.49999999999841
 30
0.0
 11
4890.4848275573013
 21
-994.49999999999864
 31
0.0
  0
LINE
  5
F76C5
  8
OBJECT
 10
5121.0
 20
-965.49999999999864
 30
0.0
 11
5121.0
 21
-984.49999999999818
 31
0.0
  0
LINE
  5
F76C6
  8
OBJECT
 10
5121.0
 20
-998.49999999999852
 30
0.0
 11
5121.0
 21
-1001.499999999999
 31
0.0
  0
LINE
  5
F76C7
  8
OBJECT
 10
5109.0
 20
-965.49999999999864
 30
0.0
 11
5109.0
 21
-984.49999999999841
 31
0.0
  0
LINE
  5
F76C8
  8
OBJECT
 10
5109.0
 20
-998.49999999999807
 30
0.0
 11
5109.0
 21
-1001.499999999999
 31
0.0
  0
LINE
  5
F76C9
  8
OBJECT
 10
5125.9696551146017
 20
-1005.499999999999
 30
0.0
 11
5125.9696551146017
 21
-1013.499999999999
 31
0.0
  0
LINE
  5
F76CA
  8
OBJECT
 10
5125.9696551146017
 20
-1013.499999999999
 30
0.0
 11
5104.0303448853983
 21
-1013.499999999999
 31
0.0
  0
LINE
  5
F76CB
  8
OBJECT
 10
5104.0303448853983
 20
-1013.499999999999
 30
0.0
 11
5104.0303448853983
 21
-1005.499999999999
 31
0.0
  0
LINE
  5
F76CD
  8
OBJECT
 10
5109.0
 20
-965.49999999999864
 30
0.0
 11
5121.0
 21
-965.49999999999864
 31
0.0
  0
LINE
  5
F76CE
  8
OBJECT
 10
5120.4848275573022
 20
-1005.499999999999
 30
0.0
 11
5120.4848275573022
 21
-1013.499999999999
 31
0.0
  0
LINE
  5
F76CF
  8
OBJECT
 10
5109.5151724426978
 20
-1005.499999999999
 30
0.0
 11
5109.5151724426978
 21
-1013.499999999999
 31
0.0
  0
LINE
  5
F76D2
  8
OBJECT
 10
5125.9696551146017
 20
-984.49999999999841
 30
0.0
 11
5125.9696551146017
 21
-994.49999999999864
 31
0.0
  0
LINE
  5
F76D4
  8
OBJECT
 10
5104.0303448853983
 20
-994.49999999999864
 30
0.0
 11
5104.0303448853983
 21
-984.49999999999841
 31
0.0
  0
LINE
  5
F76D5
  8
OBJECT
 10
5104.0303448853983
 20
-984.49999999999841
 30
0.0
 11
5125.9696551146017
 21
-984.49999999999841
 31
0.0
  0
LINE
  5
F76D6
  8
OBJECT
 10
5120.4848275573022
 20
-984.49999999999841
 30
0.0
 11
5120.4848275573022
 21
-994.49999999999864
 31
0.0
  0
LINE
  5
F76D7
  8
OBJECT
 10
5109.5151724426978
 20
-984.49999999999841
 30
0.0
 11
5109.5151724426978
 21
-994.49999999999864
 31
0.0
  0
POLYLINE
  5
F7715
  8
SLIM
 66
     1
 10
0.0
 20
0.0
 30
0.0
 70
     1
  0
VERTEX
  5
1000A5
  8
SLIM
 10
2100.0925227118878
 20
-1241.5
 30
0.0
  0
VERTEX
  5
1000A6
  8
SLIM
 10
2095.185045423776
 20
-1250.0
 30
0.0
  0
VERTEX
  5
1000A7
  8
SLIM
 10
2100.0925227118878
 20
-1258.5
 30
0.0
  0
VERTEX
  5
1000A8
  8
SLIM
 10
2109.9074772881108
 20
-1258.5
 30
0.0
  0
VERTEX
  5
1000A9
  8
SLIM
 10
2114.814954576223
 20
-1250.0
 30
0.0
  0
VERTEX
  5
1000AA
  8
SLIM
 10
2109.9074772881108
 20
-1241.5
 30
0.0
  0
SEQEND
  5
1000AB
  8
SLIM
  0
POLYLINE
  5
F7717
  8
SLIM
 66
     1
 10
0.0
 20
0.0
 30
0.0
 70
     1
  0
VERTEX
  5
1000AC
  8
SLIM
 10
1890.092522711888
 20
-1241.5
 30
0.0
  0
VERTEX
  5
1000AD
  8
SLIM
 10
1885.185045423776
 20
-1250.0
 30
0.0
  0
VERTEX
  5
1000AE
  8
SLIM
 10
1890.092522711888
 20
-1258.5
 30
0.0
  0
VERTEX
  5
1000AF
  8
SLIM
 10
1899.9074772881111
 20
-1258.5
 30
0.0
  0
VERTEX
  5
1000B0
  8
SLIM
 10
1904.814954576223
 20
-1250.0
 30
0.0
  0
VERTEX
  5
1000B1
  8
SLIM
 10
1899.9074772881111
 20
-1241.5
 30
0.0
  0
SEQEND
  5
1000B2
  8
SLIM
  0
POLYLINE
  5
F771D
  8
SLIM
 66
     1
 10
0.0
 20
0.0
 30
0.0
 70
     1
  0
VERTEX
  5
1000B3
  8
SLIM
 10
90.092522711888009
 20
-1241.5
 30
0.0
  0
VERTEX
  5
1000B4
  8
SLIM
 10
85.185045423776046
 20
-1250.0
 30
0.0
  0
VERTEX
  5
1000B5
  8
SLIM
 10
90.092522711888009
 20
-1258.5
 30
0.0
  0
VERTEX
  5
1000B6
  8
SLIM
 10
99.907477288111494
 20
-1258.5
 30
0.0
  0
VERTEX
  5
1000B7
  8
SLIM
 10
104.8149545762235
 20
-1250.0
 30
0.0
  0
VERTEX
  5
1000B8
  8
SLIM
 10
99.907477288111494
 20
-1241.5
 30
0.0
  0
SEQEND
  5
1000B9
  8
SLIM
  0
POLYLINE
  5
F771F
  8
SLIM
 66
     1
 10
0.0
 20
0.0
 30
0.0
 70
     1
  0
VERTEX
  5
1000BA
  8
SLIM
 10
-99.907477288111949
 20
-1241.5
 30
0.0
  0
VERTEX
  5
1000BB
  8
SLIM
 10
-104.8149545762239
 20
-1250.0
 30
0.0
  0
VERTEX
  5
1000BC
  8
SLIM
 10
-99.907477288111949
 20
-1258.5
 30
0.0
  0
VERTEX
  5
1000BD
  8
SLIM
 10
-90.092522711888449
 20
-1258.5
 30
0.0
  0
VERTEX
  5
1000BE
  8
SLIM
 10
-85.185045423776501
 20
-1250.0
 30
0.0
  0
VERTEX
  5
1000BF
  8
SLIM
 10
-90.092522711888449
 20
-1241.5
 30
0.0
  0
SEQEND
  5
1000C0
  8
SLIM
  0
POLYLINE
  5
F7721
  8
SLIM
 66
     1
 10
0.0
 20
0.0
 30
0.0
 70
     1
  0
VERTEX
  5
1000C1
  8
SLIM
 10
-99.907477288111764
 20
-241.5
 30
0.0
  0
VERTEX
  5
1000C2
  8
SLIM
 10
-104.8149545762237
 20
-250.0
 30
0.0
  0
VERTEX
  5
1000C3
  8
SLIM
 10
-99.907477288111764
 20
-258.5
 30
0.0
  0
VERTEX
  5
1000C4
  8
SLIM
 10
-90.092522711888265
 20
-258.5
 30
0.0
  0
VERTEX
  5
1000C5
  8
SLIM
 10
-85.185045423776245
 20
-250.0
 30
0.0
  0
VERTEX
  5
1000C6
  8
SLIM
 10
-90.092522711888265
 20
-241.5
 30
0.0
  0
SEQEND
  5
1000C7
  8
SLIM
  0
POLYLINE
  5
F7723
  8
SLIM
 66
     1
 10
0.0
 20
0.0
 30
0.0
 70
     1
  0
VERTEX
  5
1000C8
  8
SLIM
 10
90.092522711888265
 20
-241.5
 30
0.0
  0
VERTEX
  5
1000C9
  8
SLIM
 10
85.185045423776245
 20
-250.0
 30
0.0
  0
VERTEX
  5
1000CA
  8
SLIM
 10
90.092522711888265
 20
-258.5
 30
0.0
  0
VERTEX
  5
1000CB
  8
SLIM
 10
99.907477288111764
 20
-258.5
 30
0.0
  0
VERTEX
  5
1000CC
  8
SLIM
 10
104.8149545762237
 20
-250.0
 30
0.0
  0
VERTEX
  5
1000CD
  8
SLIM
 10
99.907477288111764
 20
-241.5
 30
0.0
  0
SEQEND
  5
1000CE
  8
SLIM
  0
POLYLINE
  5
F7725
  8
SLIM
 66
     1
 10
0.0
 20
0.0
 30
0.0
 70
     1
  0
VERTEX
  5
1000CF
  8
SLIM
 10
900.09252271188825
 20
-241.5
 30
0.0
  0
VERTEX
  5
1000D0
  8
SLIM
 10
895.18504542377605
 20
-250.0
 30
0.0
  0
VERTEX
  5
1000D1
  8
SLIM
 10
900.09252271188825
 20
-258.5
 30
0.0
  0
VERTEX
  5
1000D2
  8
SLIM
 10
909.90747728811152
 20
-258.5
 30
0.0
  0
VERTEX
  5
1000D3
  8
SLIM
 10
914.8149545762235
 20
-250.0
 30
0.0
  0
VERTEX
  5
1000D4
  8
SLIM
 10
909.90747728811152
 20
-241.5
 30
0.0
  0
SEQEND
  5
1000D5
  8
SLIM
  0
POLYLINE
  5
F7727
  8
SLIM
 66
     1
 10
0.0
 20
0.0
 30
0.0
 70
     1
  0
VERTEX
  5
1000D6
  8
SLIM
 10
1090.092522711888
 20
-241.5
 30
0.0
  0
VERTEX
  5
1000D7
  8
SLIM
 10
1085.185045423776
 20
-250.0
 30
0.0
  0
VERTEX
  5
1000D8
  8
SLIM
 10
1090.092522711888
 20
-258.5
 30
0.0
  0
VERTEX
  5
1000D9
  8
SLIM
 10
1099.907477288112
 20
-258.5
 30
0.0
  0
VERTEX
  5
1000DA
  8
SLIM
 10
1104.814954576224
 20
-250.0
 30
0.0
  0
VERTEX
  5
1000DB
  8
SLIM
 10
1099.907477288112
 20
-241.5
 30
0.0
  0
SEQEND
  5
1000DC
  8
SLIM
  0
POLYLINE
  5
F7729
  8
SLIM
 66
     1
 10
0.0
 20
0.0
 30
0.0
 70
     1
  0
VERTEX
  5
1000DD
  8
SLIM
 10
1890.092522711888
 20
-241.5
 30
0.0
  0
VERTEX
  5
1000DE
  8
SLIM
 10
1885.185045423776
 20
-250.0
 30
0.0
  0
VERTEX
  5
1000DF
  8
SLIM
 10
1890.092522711888
 20
-258.5
 30
0.0
  0
VERTEX
  5
1000E0
  8
SLIM
 10
1899.907477288112
 20
-258.5
 30
0.0
  0
VERTEX
  5
1000E1
  8
SLIM
 10
1904.814954576224
 20
-250.0
 30
0.0
  0
VERTEX
  5
1000E2
  8
SLIM
 10
1899.907477288112
 20
-241.5
 30
0.0
  0
SEQEND
  5
1000E3
  8
SLIM
  0
POLYLINE
  5
F772B
  8
SLIM
 66
     1
 10
0.0
 20
0.0
 30
0.0
 70
     1
  0
VERTEX
  5
1000E4
  8
SLIM
 10
2100.0925227118878
 20
-241.5
 30
0.0
  0
VERTEX
  5
1000E5
  8
SLIM
 10
2095.185045423776
 20
-250.0
 30
0.0
  0
VERTEX
  5
1000E6
  8
SLIM
 10
2100.0925227118878
 20
-258.5
 30
0.0
  0
VERTEX
  5
1000E7
  8
SLIM
 10
2109.9074772881108
 20
-258.5
 30
0.0
  0
VERTEX
  5
1000E8
  8
SLIM
 10
2114.814954576223
 20
-250.0
 30
0.0
  0
VERTEX
  5
1000E9
  8
SLIM
 10
2109.9074772881108
 20
-241.5
 30
0.0
  0
SEQEND
  5
1000EA
  8
SLIM
  0
POLYLINE
  5
F772D
  8
SLIM
 66
     1
 10
0.0
 20
0.0
 30
0.0
 70
     1
  0
VERTEX
  5
1000EB
  8
SLIM
 10
2890.0925227118878
 20
-241.5
 30
0.0
  0
VERTEX
  5
1000EC
  8
SLIM
 10
2885.185045423776
 20
-250.0
 30
0.0
  0
VERTEX
  5
1000ED
  8
SLIM
 10
2890.0925227118878
 20
-258.5
 30
0.0
  0
VERTEX
  5
1000EE
  8
SLIM
 10
2899.9074772881122
 20
-258.5
 30
0.0
  0
VERTEX
  5
1000EF
  8
SLIM
 10
2904.814954576224
 20
-250.0
 30
0.0
  0
VERTEX
  5
1000F0
  8
SLIM
 10
2899.9074772881122
 20
-241.5
 30
0.0
  0
SEQEND
  5
1000F1
  8
SLIM
  0
POLYLINE
  5
F772F
  8
SLIM
 66
     1
 10
0.0
 20
0.0
 30
0.0
 70
     1
  0
VERTEX
  5
1000F2
  8
SLIM
 10
3100.0925227118878
 20
-241.5
 30
0.0
  0
VERTEX
  5
1000F3
  8
SLIM
 10
3095.185045423777
 20
-250.0
 30
0.0
  0
VERTEX
  5
1000F4
  8
SLIM
 10
3100.0925227118878
 20
-258.5
 30
0.0
  0
VERTEX
  5
1000F5
  8
SLIM
 10
3109.9074772881131
 20
-258.5
 30
0.0
  0
VERTEX
  5
1000F6
  8
SLIM
 10
3114.814954576224
 20
-250.0
 30
0.0
  0
VERTEX
  5
1000F7
  8
SLIM
 10
3109.9074772881131
 20
-241.5
 30
0.0
  0
SEQEND
  5
1000F8
  8
SLIM
  0
LINE
  5
F776A
  8
OBJECT
 10
2904.814954576224
 20
-4.4999999999995444
 30
0.0
 11
2904.814954576224
 21
-11.49999999999954
 31
0.0
  0
LINE
  5
F776B
  8
OBJECT
 10
2904.814954576224
 20
-11.49999999999954
 30
0.0
 11
2885.185045423776
 21
-11.49999999999954
 31
0.0
  0
LINE
  5
F776C
  8
OBJECT
 10
2885.185045423776
 20
-11.49999999999954
 30
0.0
 11
2885.185045423776
 21
-4.4999999999995444
 31
0.0
  0
LINE
  5
F776E
  8
OBJECT
 10
2899.9074772881122
 20
-4.4999999999995444
 30
0.0
 11
2899.9074772881122
 21
-11.49999999999954
 31
0.0
  0
LINE
  5
F776F
  8
OBJECT
 10
2900.0
 20
-1.4999999999995439
 30
0.0
 11
2900.0
 21
1.5000000000018181
 31
0.0
  0
LINE
  5
F7770
  8
OBJECT
 10
2900.0
 20
12.500000000000909
 30
0.0
 11
2900.0
 21
25.500000000000458
 31
0.0
  0
LINE
  5
F7771
  8
OBJECT
 10
2890.0
 20
-1.4999999999995439
 30
0.0
 11
2890.0
 21
1.5000000000018181
 31
0.0
  0
LINE
  5
F7772
  8
OBJECT
 10
2890.0
 20
12.500000000000909
 30
0.0
 11
2890.0
 21
25.500000000000458
 31
0.0
  0
LINE
  5
F7773
  8
OBJECT
 10
2900.0
 20
25.500000000000458
 30
0.0
 11
2890.0
 21
25.500000000000458
 31
0.0
  0
LINE
  5
F7774
  8
OBJECT
 10
2890.0925227118878
 20
-4.4999999999995444
 30
0.0
 11
2890.0925227118878
 21
-11.49999999999954
 31
0.0
  0
LINE
  5
F7775
  8
OBJECT
 10
2904.814954576224
 20
12.500000000000909
 30
0.0
 11
2904.814954576224
 21
4.5000000000009077
 31
0.0
  0
LINE
  5
F7777
  8
OBJECT
 10
2885.185045423776
 20
4.5000000000009077
 30
0.0
 11
2885.185045423776
 21
12.500000000000909
 31
0.0
  0
LINE
  5
F7778
  8
OBJECT
 10
2885.185045423776
 20
12.500000000000909
 30
0.0
 11
2904.814954576224
 21
12.500000000000909
 31
0.0
  0
LINE
  5
F7779
  8
OBJECT
 10
2899.9074772881122
 20
12.500000000000909
 30
0.0
 11
2899.9074772881122
 21
4.5000000000009077
 31
0.0
  0
LINE
  5
F777A
  8
OBJECT
 10
2890.0925227118878
 20
12.500000000000909
 30
0.0
 11
2890.0925227118878
 21
4.5000000000009077
 31
0.0
  0
LINE
  5
F777E
  8
OBJECT
 10
3114.814954576224
 20
-4.5000000000009077
 30
0.0
 11
3114.814954576224
 21
-11.500000000000901
 31
0.0
  0
LINE
  5
F777F
  8
OBJECT
 10
3114.814954576224
 20
-11.500000000000901
 30
0.0
 11
3095.185045423777
 21
-11.500000000000901
 31
0.0
  0
LINE
  5
F7780
  8
OBJECT
 10
3095.185045423777
 20
-11.500000000000901
 30
0.0
 11
3095.185045423777
 21
-4.5000000000009077
 31
0.0
  0
LINE
  5
F7782
  8
OBJECT
 10
3109.9074772881131
 20
-4.5000000000009077
 30
0.0
 11
3109.9074772881131
 21
-11.500000000000901
 31
0.0
  0
LINE
  5
F7783
  8
OBJECT
 10
3110.0
 20
-1.5000000000009091
 30
0.0
 11
3110.0
 21
1.5000000000004541
 31
0.0
  0
LINE
  5
F7784
  8
OBJECT
 10
3110.0
 20
12.49999999999954
 30
0.0
 11
3110.0
 21
25.499999999999091
 31
0.0
  0
LINE
  5
F7785
  8
OBJECT
 10
3100.0
 20
-1.5000000000009091
 30
0.0
 11
3100.0
 21
1.5000000000004541
 31
0.0
  0
LINE
  5
F7786
  8
OBJECT
 10
3100.0
 20
12.49999999999954
 30
0.0
 11
3100.0
 21
25.499999999999091
 31
0.0
  0
LINE
  5
F7787
  8
OBJECT
 10
3110.0
 20
25.499999999999091
 30
0.0
 11
3100.0
 21
25.499999999999091
 31
0.0
  0
LINE
  5
F7788
  8
OBJECT
 10
3100.0925227118878
 20
-4.5000000000009077
 30
0.0
 11
3100.0925227118878
 21
-11.500000000000901
 31
0.0
  0
LINE
  5
F7789
  8
OBJECT
 10
3114.814954576224
 20
12.49999999999954
 30
0.0
 11
3114.814954576224
 21
4.4999999999995444
 31
0.0
  0
LINE
  5
F778B
  8
OBJECT
 10
3095.185045423777
 20
4.4999999999995444
 30
0.0
 11
3095.185045423777
 21
12.49999999999954
 31
0.0
  0
LINE
  5
F778C
  8
OBJECT
 10
3095.185045423777
 20
12.49999999999954
 30
0.0
 11
3114.814954576224
 21
12.49999999999954
 31
0.0
  0
LINE
  5
F778D
  8
OBJECT
 10
3109.9074772881131
 20
12.49999999999954
 30
0.0
 11
3109.9074772881131
 21
4.4999999999995444
 31
0.0
  0
LINE
  5
F778E
  8
OBJECT
 10
3100.0925227118878
 20
12.49999999999954
 30
0.0
 11
3100.0925227118878
 21
4.4999999999995444
 31
0.0
  0
LINE
  5
F7792
  8
OBJECT
 10
1104.814954576224
 20
-4.5000000000009077
 30
0.0
 11
1104.814954576224
 21
-11.500000000000901
 31
0.0
  0
LINE
  5
F7793
  8
OBJECT
 10
1104.814954576224
 20
-11.500000000000901
 30
0.0
 11
1085.185045423776
 21
-11.500000000000901
 31
0.0
  0
LINE
  5
F7794
  8
OBJECT
 10
1085.185045423776
 20
-11.500000000000901
 30
0.0
 11
1085.185045423776
 21
-4.5000000000009077
 31
0.0
  0
LINE
  5
F7796
  8
OBJECT
 10
1099.907477288112
 20
-4.5000000000009077
 30
0.0
 11
1099.907477288112
 21
-11.500000000000901
 31
0.0
  0
LINE
  5
F7797
  8
OBJECT
 10
1100.0
 20
-1.5000000000009091
 30
0.0
 11
1100.0
 21
1.5000000000004541
 31
0.0
  0
LINE
  5
F7798
  8
OBJECT
 10
1100.0
 20
12.49999999999954
 30
0.0
 11
1100.0
 21
25.499999999999091
 31
0.0
  0
LINE
  5
F7799
  8
OBJECT
 10
1090.0
 20
-1.5000000000009091
 30
0.0
 11
1090.0
 21
1.5000000000004541
 31
0.0
  0
LINE
  5
F779A
  8
OBJECT
 10
1090.0
 20
12.49999999999954
 30
0.0
 11
1090.0
 21
25.499999999999091
 31
0.0
  0
LINE
  5
F779B
  8
OBJECT
 10
1100.0
 20
25.499999999999091
 30
0.0
 11
1090.0
 21
25.499999999999091
 31
0.0
  0
LINE
  5
F779C
  8
OBJECT
 10
1090.092522711888
 20
-4.5000000000009077
 30
0.0
 11
1090.092522711888
 21
-11.500000000000901
 31
0.0
  0
LINE
  5
F779D
  8
OBJECT
 10
1104.814954576224
 20
12.49999999999954
 30
0.0
 11
1104.814954576224
 21
4.4999999999995444
 31
0.0
  0
LINE
  5
F779F
  8
OBJECT
 10
1085.185045423776
 20
4.4999999999995444
 30
0.0
 11
1085.185045423776
 21
12.49999999999954
 31
0.0
  0
LINE
  5
F77A0
  8
OBJECT
 10
1085.185045423776
 20
12.49999999999954
 30
0.0
 11
1104.814954576224
 21
12.49999999999954
 31
0.0
  0
LINE
  5
F77A1
  8
OBJECT
 10
1099.907477288112
 20
12.49999999999954
 30
0.0
 11
1099.907477288112
 21
4.4999999999995444
 31
0.0
  0
LINE
  5
F77A2
  8
OBJECT
 10
1090.092522711888
 20
12.49999999999954
 30
0.0
 11
1090.092522711888
 21
4.4999999999995444
 31
0.0
  0
LINE
  5
F77A6
  8
OBJECT
 10
914.8149545762235
 20
-4.4999999999995444
 30
0.0
 11
914.8149545762235
 21
-11.49999999999954
 31
0.0
  0
LINE
  5
F77A7
  8
OBJECT
 10
914.8149545762235
 20
-11.49999999999954
 30
0.0
 11
895.18504542377605
 21
-11.49999999999954
 31
0.0
  0
LINE
  5
F77A8
  8
OBJECT
 10
895.18504542377605
 20
-11.49999999999954
 30
0.0
 11
895.18504542377605
 21
-4.4999999999995444
 31
0.0
  0
LINE
  5
F77AA
  8
OBJECT
 10
909.90747728811152
 20
-4.4999999999995444
 30
0.0
 11
909.90747728811152
 21
-11.49999999999954
 31
0.0
  0
LINE
  5
F77AB
  8
OBJECT
 10
910.0
 20
-1.4999999999995439
 30
0.0
 11
910.00000000000034
 21
1.5000000000018181
 31
0.0
  0
LINE
  5
F77AC
  8
OBJECT
 10
910.0
 20
12.500000000000909
 30
0.0
 11
910.0
 21
25.500000000000458
 31
0.0
  0
LINE
  5
F77AD
  8
OBJECT
 10
899.99999999999955
 20
-1.4999999999995439
 30
0.0
 11
900.00000000000011
 21
1.5000000000018181
 31
0.0
  0
LINE
  5
F77AE
  8
OBJECT
 10
900.0
 20
12.500000000000909
 30
0.0
 11
900.0
 21
25.500000000000458
 31
0.0
  0
LINE
  5
F77AF
  8
OBJECT
 10
910.0
 20
25.500000000000458
 30
0.0
 11
900.0
 21
25.500000000000458
 31
0.0
  0
LINE
  5
F77B0
  8
OBJECT
 10
900.09252271188825
 20
-4.4999999999995444
 30
0.0
 11
900.09252271188825
 21
-11.49999999999954
 31
0.0
  0
LINE
  5
F77B1
  8
OBJECT
 10
914.8149545762235
 20
12.500000000000909
 30
0.0
 11
914.8149545762235
 21
4.5000000000009077
 31
0.0
  0
LINE
  5
F77B3
  8
OBJECT
 10
895.18504542377605
 20
4.5000000000009077
 30
0.0
 11
895.18504542377605
 21
12.500000000000909
 31
0.0
  0
LINE
  5
F77B4
  8
OBJECT
 10
895.18504542377605
 20
12.500000000000909
 30
0.0
 11
914.8149545762235
 21
12.500000000000909
 31
0.0
  0
LINE
  5
F77B5
  8
OBJECT
 10
909.90747728811152
 20
12.500000000000909
 30
0.0
 11
909.90747728811152
 21
4.5000000000009077
 31
0.0
  0
LINE
  5
F77B6
  8
OBJECT
 10
900.09252271188825
 20
12.500000000000909
 30
0.0
 11
900.09252271188825
 21
4.5000000000009077
 31
0.0
  0
LINE
  5
F77F6
  8
OBJECT
 10
2114.814954576223
 20
-1004.700000000001
 30
0.0
 11
2114.814954576223
 21
-1011.700000000001
 31
0.0
  0
LINE
  5
F77F7
  8
OBJECT
 10
2114.814954576223
 20
-1011.700000000001
 30
0.0
 11
2095.185045423776
 21
-1011.700000000001
 31
0.0
  0
LINE
  5
F77F8
  8
OBJECT
 10
2095.185045423776
 20
-1011.700000000001
 30
0.0
 11
2095.185045423776
 21
-1004.700000000001
 31
0.0
  0
LINE
  5
F77FA
  8
OBJECT
 10
2109.9074772881108
 20
-1004.700000000001
 30
0.0
 11
2109.9074772881108
 21
-1011.700000000001
 31
0.0
  0
LINE
  5
F77FB
  8
OBJECT
 10
2110.0
 20
-1001.500000000002
 30
0.0
 11
2110.0
 21
-998.50000000000023
 31
0.0
  0
LINE
  5
F77FC
  8
OBJECT
 10
2110.0
 20
-987.30000000000064
 30
0.0
 11
2110.0
 21
-974.70000000000118
 31
0.0
  0
LINE
  5
F77FD
  8
OBJECT
 10
2100.0
 20
-1001.500000000002
 30
0.0
 11
2100.0
 21
-998.50000000000023
 31
0.0
  0
LINE
  5
F77FE
  8
OBJECT
 10
2100.0
 20
-987.30000000000064
 30
0.0
 11
2100.0
 21
-974.70000000000118
 31
0.0
  0
LINE
  5
F77FF
  8
OBJECT
 10
2110.0
 20
-974.70000000000118
 30
0.0
 11
2100.0
 21
-974.70000000000118
 31
0.0
  0
LINE
  5
F7800
  8
OBJECT
 10
2100.0925227118878
 20
-1004.700000000001
 30
0.0
 11
2100.0925227118878
 21
-1011.700000000001
 31
0.0
  0
LINE
  5
F7801
  8
OBJECT
 10
2114.814954576223
 20
-987.30000000000064
 30
0.0
 11
2114.814954576223
 21
-995.30000000000064
 31
0.0
  0
LINE
  5
F7803
  8
OBJECT
 10
2095.185045423776
 20
-995.30000000000064
 30
0.0
 11
2095.185045423776
 21
-987.30000000000064
 31
0.0
  0
LINE
  5
F7804
  8
OBJECT
 10
2095.185045423776
 20
-987.30000000000064
 30
0.0
 11
2114.814954576223
 21
-987.30000000000064
 31
0.0
  0
LINE
  5
F7805
  8
OBJECT
 10
2109.9074772881108
 20
-987.30000000000064
 30
0.0
 11
2109.9074772881108
 21
-995.30000000000064
 31
0.0
  0
LINE
  5
F7806
  8
OBJECT
 10
2100.0925227118878
 20
-987.30000000000064
 30
0.0
 11
2100.0925227118878
 21
-995.30000000000064
 31
0.0
  0
LINE
  5
F780F
  8
OBJECT
 10
1904.814954576223
 20
-1004.699999999999
 30
0.0
 11
1904.814954576223
 21
-1011.699999999999
 31
0.0
  0
LINE
  5
F7810
  8
OBJECT
 10
1904.814954576223
 20
-1011.699999999999
 30
0.0
 11
1885.185045423776
 21
-1011.699999999999
 31
0.0
  0
LINE
  5
F7811
  8
OBJECT
 10
1885.185045423776
 20
-1011.699999999999
 30
0.0
 11
1885.185045423776
 21
-1004.699999999999
 31
0.0
  0
LINE
  5
F7813
  8
OBJECT
 10
1899.9074772881111
 20
-1004.699999999999
 30
0.0
 11
1899.9074772881111
 21
-1011.699999999999
 31
0.0
  0
LINE
  5
F7814
  8
OBJECT
 10
1900.0
 20
-1001.5
 30
0.0
 11
1900.0
 21
-998.49999999999864
 31
0.0
  0
LINE
  5
F7815
  8
OBJECT
 10
1900.0
 20
-987.29999999999916
 30
0.0
 11
1900.0
 21
-974.69999999999982
 31
0.0
  0
LINE
  5
F7816
  8
OBJECT
 10
1889.9999999999991
 20
-1001.5
 30
0.0
 11
1890.0
 21
-998.49999999999864
 31
0.0
  0
LINE
  5
F7817
  8
OBJECT
 10
1890.0
 20
-987.29999999999916
 30
0.0
 11
1890.0
 21
-974.69999999999982
 31
0.0
  0
LINE
  5
F7818
  8
OBJECT
 10
1900.0
 20
-974.69999999999982
 30
0.0
 11
1890.0
 21
-974.69999999999982
 31
0.0
  0
LINE
  5
F7819
  8
OBJECT
 10
1890.092522711888
 20
-1004.699999999999
 30
0.0
 11
1890.092522711888
 21
-1011.699999999999
 31
0.0
  0
LINE
  5
F781A
  8
OBJECT
 10
1904.814954576223
 20
-987.29999999999916
 30
0.0
 11
1904.814954576223
 21
-995.29999999999916
 31
0.0
  0
LINE
  5
F781C
  8
OBJECT
 10
1885.185045423776
 20
-995.29999999999916
 30
0.0
 11
1885.185045423776
 21
-987.29999999999916
 31
0.0
  0
LINE
  5
F781D
  8
OBJECT
 10
1885.185045423776
 20
-987.29999999999916
 30
0.0
 11
1904.814954576223
 21
-987.29999999999916
 31
0.0
  0
LINE
  5
F781E
  8
OBJECT
 10
1899.9074772881111
 20
-987.29999999999916
 30
0.0
 11
1899.9074772881111
 21
-995.29999999999916
 31
0.0
  0
LINE
  5
F781F
  8
OBJECT
 10
1890.092522711888
 20
-987.29999999999916
 30
0.0
 11
1890.092522711888
 21
-995.29999999999916
 31
0.0
  0
LINE
  5
F7823
  8
OBJECT
 10
104.8149545762235
 20
-1004.700000000001
 30
0.0
 11
104.8149545762235
 21
-1011.700000000001
 31
0.0
  0
LINE
  5
F7824
  8
OBJECT
 10
104.8149545762235
 20
-1011.700000000001
 30
0.0
 11
85.185045423776046
 21
-1011.700000000001
 31
0.0
  0
LINE
  5
F7825
  8
OBJECT
 10
85.185045423776046
 20
-1011.700000000001
 30
0.0
 11
85.185045423776046
 21
-1004.700000000001
 31
0.0
  0
LINE
  5
F7827
  8
OBJECT
 10
99.907477288111494
 20
-1004.700000000001
 30
0.0
 11
99.907477288111494
 21
-1011.700000000001
 31
0.0
  0
LINE
  5
F7828
  8
OBJECT
 10
99.999999999999787
 20
-1001.500000000002
 30
0.0
 11
100.0
 21
-998.50000000000023
 31
0.0
  0
LINE
  5
F7829
  8
OBJECT
 10
99.999999999999787
 20
-987.30000000000064
 30
0.0
 11
99.999999999999787
 21
-974.70000000000118
 31
0.0
  0
LINE
  5
F782A
  8
OBJECT
 10
89.999999999999545
 20
-1001.500000000002
 30
0.0
 11
90.0
 21
-998.50000000000023
 31
0.0
  0
LINE
  5
F782B
  8
OBJECT
 10
89.99999999999973
 20
-987.30000000000064
 30
0.0
 11
89.99999999999973
 21
-974.70000000000118
 31
0.0
  0
LINE
  5
F782C
  8
OBJECT
 10
99.999999999999787
 20
-974.70000000000118
 30
0.0
 11
89.99999999999973
 21
-974.70000000000118
 31
0.0
  0
LINE
  5
F782D
  8
OBJECT
 10
90.092522711888009
 20
-1004.700000000001
 30
0.0
 11
90.092522711888009
 21
-1011.700000000001
 31
0.0
  0
LINE
  5
F782E
  8
OBJECT
 10
104.8149545762235
 20
-987.30000000000064
 30
0.0
 11
104.8149545762235
 21
-995.30000000000064
 31
0.0
  0
LINE
  5
F7830
  8
OBJECT
 10
85.185045423776046
 20
-995.30000000000064
 30
0.0
 11
85.185045423776046
 21
-987.30000000000064
 31
0.0
  0
LINE
  5
F7831
  8
OBJECT
 10
85.185045423776046
 20
-987.30000000000064
 30
0.0
 11
104.8149545762235
 21
-987.30000000000064
 31
0.0
  0
LINE
  5
F7832
  8
OBJECT
 10
99.907477288111494
 20
-987.30000000000064
 30
0.0
 11
99.907477288111494
 21
-995.30000000000064
 31
0.0
  0
LINE
  5
F7833
  8
OBJECT
 10
90.092522711888009
 20
-987.30000000000064
 30
0.0
 11
90.092522711888009
 21
-995.30000000000064
 31
0.0
  0
LINE
  5
F7837
  8
OBJECT
 10
-85.185045423776501
 20
-1004.700000000001
 30
0.0
 11
-85.185045423776501
 21
-1011.700000000001
 31
0.0
  0
LINE
  5
F7838
  8
OBJECT
 10
-85.185045423776501
 20
-1011.700000000001
 30
0.0
 11
-104.8149545762239
 21
-1011.700000000001
 31
0.0
  0
LINE
  5
F7839
  8
OBJECT
 10
-104.8149545762239
 20
-1011.700000000001
 30
0.0
 11
-104.8149545762239
 21
-1004.700000000001
 31
0.0
  0
LINE
  5
F783B
  8
OBJECT
 10
-90.092522711888449
 20
-1004.700000000001
 30
0.0
 11
-90.092522711888449
 21
-1011.700000000001
 31
0.0
  0
LINE
  5
F783C
  8
OBJECT
 10
-90.000000000000213
 20
-1001.500000000002
 30
0.0
 11
-90.0
 21
-998.50000000000023
 31
0.0
  0
LINE
  5
F783D
  8
OBJECT
 10
-90.000000000000213
 20
-987.30000000000064
 30
0.0
 11
-90.000000000000213
 21
-974.70000000000118
 31
0.0
  0
LINE
  5
F783E
  8
OBJECT
 10
-100.0000000000004
 20
-1001.500000000002
 30
0.0
 11
-100.0
 21
-998.50000000000023
 31
0.0
  0
LINE
  5
F783F
  8
OBJECT
 10
-100.0000000000002
 20
-987.30000000000064
 30
0.0
 11
-100.0000000000002
 21
-974.70000000000118
 31
0.0
  0
LINE
  5
F7840
  8
OBJECT
 10
-90.000000000000213
 20
-974.70000000000118
 30
0.0
 11
-100.0000000000002
 21
-974.70000000000118
 31
0.0
  0
LINE
  5
F7841
  8
OBJECT
 10
-99.907477288111949
 20
-1004.700000000001
 30
0.0
 11
-99.907477288111949
 21
-1011.700000000001
 31
0.0
  0
LINE
  5
F7842
  8
OBJECT
 10
-85.185045423776501
 20
-987.30000000000064
 30
0.0
 11
-85.185045423776501
 21
-995.30000000000064
 31
0.0
  0
LINE
  5
F7844
  8
OBJECT
 10
-104.8149545762239
 20
-995.30000000000064
 30
0.0
 11
-104.8149545762239
 21
-987.30000000000064
 31
0.0
  0
LINE
  5
F7845
  8
OBJECT
 10
-104.8149545762239
 20
-987.30000000000064
 30
0.0
 11
-85.185045423776501
 21
-987.30000000000064
 31
0.0
  0
LINE
  5
F7846
  8
OBJECT
 10
-90.092522711888449
 20
-987.30000000000064
 30
0.0
 11
-90.092522711888449
 21
-995.30000000000064
 31
0.0
  0
LINE
  5
F7847
  8
OBJECT
 10
-99.907477288111949
 20
-987.30000000000064
 30
0.0
 11
-99.907477288111949
 21
-995.30000000000064
 31
0.0
  0
LINE
  5
F784B
  8
OBJECT
 10
-85.185045423776245
 20
-4.6999999999998172
 30
0.0
 11
-85.185045423776245
 21
-11.69999999999982
 31
0.0
  0
LINE
  5
F784C
  8
OBJECT
 10
-85.185045423776245
 20
-11.69999999999982
 30
0.0
 11
-104.8149545762237
 21
-11.69999999999982
 31
0.0
  0
LINE
  5
F784D
  8
OBJECT
 10
-104.8149545762237
 20
-11.69999999999982
 30
0.0
 11
-104.8149545762237
 21
-4.6999999999998172
 31
0.0
  0
LINE
  5
F784F
  8
OBJECT
 10
-90.092522711888265
 20
-4.6999999999998172
 30
0.0
 11
-90.092522711888265
 21
-11.69999999999982
 31
0.0
  0
LINE
  5
F7850
  8
OBJECT
 10
-90.0
 20
-1.5000000000009091
 30
0.0
 11
-89.99999999999973
 21
1.5000000000004541
 31
0.0
  0
LINE
  5
F7851
  8
OBJECT
 10
-90.0
 20
12.700000000000269
 30
0.0
 11
-90.0
 21
25.299999999999731
 31
0.0
  0
LINE
  5
F7852
  8
OBJECT
 10
-100.0000000000002
 20
-1.5000000000009091
 30
0.0
 11
-99.999999999999787
 21
1.5000000000004541
 31
0.0
  0
LINE
  5
F7853
  8
OBJECT
 10
-100.0
 20
12.700000000000269
 30
0.0
 11
-100.0
 21
25.299999999999731
 31
0.0
  0
LINE
  5
F7854
  8
OBJECT
 10
-90.0
 20
25.299999999999731
 30
0.0
 11
-100.0
 21
25.299999999999731
 31
0.0
  0
LINE
  5
F7855
  8
OBJECT
 10
-99.907477288111764
 20
-4.6999999999998172
 30
0.0
 11
-99.907477288111764
 21
-11.69999999999982
 31
0.0
  0
LINE
  5
F7856
  8
OBJECT
 10
-85.185045423776245
 20
12.700000000000269
 30
0.0
 11
-85.185045423776245
 21
4.7000000000002711
 31
0.0
  0
LINE
  5
F7858
  8
OBJECT
 10
-104.8149545762237
 20
4.7000000000002711
 30
0.0
 11
-104.8149545762237
 21
12.700000000000269
 31
0.0
  0
LINE
  5
F7859
  8
OBJECT
 10
-104.8149545762237
 20
12.700000000000269
 30
0.0
 11
-85.185045423776245
 21
12.700000000000269
 31
0.0
  0
LINE
  5
F785A
  8
OBJECT
 10
-90.092522711888265
 20
12.700000000000269
 30
0.0
 11
-90.092522711888265
 21
4.7000000000002711
 31
0.0
  0
LINE
  5
F785B
  8
OBJECT
 10
-99.907477288111764
 20
12.700000000000269
 30
0.0
 11
-99.907477288111764
 21
4.7000000000002711
 31
0.0
  0
LINE
  5
F785F
  8
OBJECT
 10
104.8149545762237
 20
-4.6999999999998172
 30
0.0
 11
104.8149545762237
 21
-11.69999999999982
 31
0.0
  0
LINE
  5
F7860
  8
OBJECT
 10
104.8149545762237
 20
-11.69999999999982
 30
0.0
 11
85.185045423776245
 21
-11.69999999999982
 31
0.0
  0
LINE
  5
F7861
  8
OBJECT
 10
85.185045423776245
 20
-11.69999999999982
 30
0.0
 11
85.185045423776245
 21
-4.6999999999998172
 31
0.0
  0
LINE
  5
F7863
  8
OBJECT
 10
99.907477288111764
 20
-4.6999999999998172
 30
0.0
 11
99.907477288111764
 21
-11.69999999999982
 31
0.0
  0
LINE
  5
F7864
  8
OBJECT
 10
100.0
 20
-1.5000000000009091
 30
0.0
 11
100.0000000000002
 21
1.5000000000004541
 31
0.0
  0
LINE
  5
F7865
  8
OBJECT
 10
100.0
 20
12.700000000000269
 30
0.0
 11
100.0
 21
25.299999999999731
 31
0.0
  0
LINE
  5
F7866
  8
OBJECT
 10
89.99999999999973
 20
-1.5000000000009091
 30
0.0
 11
90.000000000000213
 21
1.5000000000004541
 31
0.0
  0
LINE
  5
F7867
  8
OBJECT
 10
90.0
 20
12.700000000000269
 30
0.0
 11
90.0
 21
25.299999999999731
 31
0.0
  0
LINE
  5
F7868
  8
OBJECT
 10
100.0
 20
25.299999999999731
 30
0.0
 11
90.0
 21
25.299999999999731
 31
0.0
  0
LINE
  5
F7869
  8
OBJECT
 10
90.092522711888265
 20
-4.6999999999998172
 30
0.0
 11
90.092522711888265
 21
-11.69999999999982
 31
0.0
  0
LINE
  5
F786A
  8
OBJECT
 10
104.8149545762237
 20
12.700000000000269
 30
0.0
 11
104.8149545762237
 21
4.7000000000002711
 31
0.0
  0
LINE
  5
F786C
  8
OBJECT
 10
85.185045423776245
 20
4.7000000000002711
 30
0.0
 11
85.185045423776245
 21
12.700000000000269
 31
0.0
  0
LINE
  5
F786D
  8
OBJECT
 10
85.185045423776245
 20
12.700000000000269
 30
0.0
 11
104.8149545762237
 21
12.700000000000269
 31
0.0
  0
LINE
  5
F786E
  8
OBJECT
 10
99.907477288111764
 20
12.700000000000269
 30
0.0
 11
99.907477288111764
 21
4.7000000000002711
 31
0.0
  0
LINE
  5
F786F
  8
OBJECT
 10
90.092522711888265
 20
12.700000000000269
 30
0.0
 11
90.092522711888265
 21
4.7000000000002711
 31
0.0
  0
LINE
  5
F7873
  8
OBJECT
 10
1904.814954576224
 20
-4.6999999999993634
 30
0.0
 11
1904.814954576224
 21
-11.699999999999349
 31
0.0
  0
LINE
  5
F7874
  8
OBJECT
 10
1904.814954576224
 20
-11.699999999999349
 30
0.0
 11
1885.185045423776
 21
-11.699999999999349
 31
0.0
  0
LINE
  5
F7875
  8
OBJECT
 10
1885.185045423776
 20
-11.699999999999349
 30
0.0
 11
1885.185045423776
 21
-4.6999999999993634
 31
0.0
  0
LINE
  5
F7877
  8
OBJECT
 10
1899.907477288112
 20
-4.6999999999993634
 30
0.0
 11
1899.907477288112
 21
-11.699999999999349
 31
0.0
  0
LINE
  5
F7878
  8
OBJECT
 10
1900.0
 20
-1.5000000000004541
 30
0.0
 11
1900.0
 21
1.5000000000009091
 31
0.0
  0
LINE
  5
F7879
  8
OBJECT
 10
1900.0
 20
12.700000000000729
 30
0.0
 11
1900.0
 21
25.300000000000178
 31
0.0
  0
LINE
  5
F787A
  8
OBJECT
 10
1890.0
 20
-1.5000000000004541
 30
0.0
 11
1890.0
 21
1.5000000000009091
 31
0.0
  0
LINE
  5
F787B
  8
OBJECT
 10
1890.0
 20
12.700000000000729
 30
0.0
 11
1890.0
 21
25.300000000000178
 31
0.0
  0
LINE
  5
F787C
  8
OBJECT
 10
1900.0
 20
25.300000000000178
 30
0.0
 11
1890.0
 21
25.300000000000178
 31
0.0
  0
LINE
  5
F787D
  8
OBJECT
 10
1890.092522711888
 20
-4.6999999999993634
 30
0.0
 11
1890.092522711888
 21
-11.699999999999349
 31
0.0
  0
LINE
  5
F787E
  8
OBJECT
 10
1904.814954576224
 20
12.700000000000729
 30
0.0
 11
1904.814954576224
 21
4.7000000000007267
 31
0.0
  0
LINE
  5
F7880
  8
OBJECT
 10
1885.185045423776
 20
4.7000000000007267
 30
0.0
 11
1885.185045423776
 21
12.700000000000729
 31
0.0
  0
LINE
  5
F7881
  8
OBJECT
 10
1885.185045423776
 20
12.700000000000729
 30
0.0
 11
1904.814954576224
 21
12.700000000000729
 31
0.0
  0
LINE
  5
F7882
  8
OBJECT
 10
1899.907477288112
 20
12.700000000000729
 30
0.0
 11
1899.907477288112
 21
4.7000000000007267
 31
0.0
  0
LINE
  5
F7883
  8
OBJECT
 10
1890.092522711888
 20
12.700000000000729
 30
0.0
 11
1890.092522711888
 21
4.7000000000007267
 31
0.0
  0
LINE
  5
F7887
  8
OBJECT
 10
2114.814954576223
 20
-4.7000000000007267
 30
0.0
 11
2114.814954576223
 21
-11.70000000000072
 31
0.0
  0
LINE
  5
F7888
  8
OBJECT
 10
2114.814954576223
 20
-11.70000000000072
 30
0.0
 11
2095.185045423777
 21
-11.70000000000072
 31
0.0
  0
LINE
  5
F7889
  8
OBJECT
 10
2095.185045423777
 20
-11.70000000000072
 30
0.0
 11
2095.185045423777
 21
-4.7000000000007267
 31
0.0
  0
LINE
  5
F788B
  8
OBJECT
 10
2109.9074772881122
 20
-4.7000000000007267
 30
0.0
 11
2109.9074772881122
 21
-11.70000000000072
 31
0.0
  0
LINE
  5
F788C
  8
OBJECT
 10
2110.0
 20
-1.5000000000018181
 30
0.0
 11
2110.0
 21
1.4999999999995439
 31
0.0
  0
LINE
  5
F788D
  8
OBJECT
 10
2110.0
 20
12.69999999999936
 30
0.0
 11
2110.0
 21
25.299999999998821
 31
0.0
  0
LINE
  5
F788E
  8
OBJECT
 10
2100.0
 20
-1.5000000000018181
 30
0.0
 11
2100.0
 21
1.4999999999995439
 31
0.0
  0
LINE
  5
F788F
  8
OBJECT
 10
2100.0
 20
12.69999999999936
 30
0.0
 11
2100.0
 21
25.299999999998821
 31
0.0
  0
LINE
  5
F7890
  8
OBJECT
 10
2110.0
 20
25.299999999998821
 30
0.0
 11
2100.0
 21
25.299999999998821
 31
0.0
  0
LINE
  5
F7891
  8
OBJECT
 10
2100.0925227118878
 20
-4.7000000000007267
 30
0.0
 11
2100.0925227118878
 21
-11.70000000000072
 31
0.0
  0
LINE
  5
F7892
  8
OBJECT
 10
2114.814954576223
 20
12.69999999999936
 30
0.0
 11
2114.814954576223
 21
4.6999999999993634
 31
0.0
  0
LINE
  5
F7894
  8
OBJECT
 10
2095.185045423777
 20
4.6999999999993634
 30
0.0
 11
2095.185045423777
 21
12.69999999999936
 31
0.0
  0
LINE
  5
F7895
  8
OBJECT
 10
2095.185045423777
 20
12.69999999999936
 30
0.0
 11
2114.814954576223
 21
12.69999999999936
 31
0.0
  0
LINE
  5
F7896
  8
OBJECT
 10
2109.9074772881122
 20
12.69999999999936
 30
0.0
 11
2109.9074772881122
 21
4.6999999999993634
 31
0.0
  0
LINE
  5
F7897
  8
OBJECT
 10
2100.0925227118878
 20
12.69999999999936
 30
0.0
 11
2100.0925227118878
 21
4.6999999999993634
 31
0.0
  0
ARC
  5
F817A
  8
OBJECT
 10
-0.0000000000002132
 20
-1000.0
 30
0.0
 40
62.5
 50
1.375230752038165
 51
7.0000000000059801
  0
ARC
  5
F817B
  8
OBJECT
 10
-0.0000000000002132
 20
-1000.0
 30
0.0
 40
65.700000000000003
 50
4.1022888905865971
 51
7.0000000000059801
  0
ARC
  5
F87F5
  8
HIDDEN
 10
2000.0
 20
-1000.0
 30
0.0
 40
75.0
 50
186.0000000000083
 51
353.99999999999159
  0
ARC
  5
F87F6
  8
HIDDEN
 10
2000.0
 20
-1000.0
 30
0.0
 40
78.200000000000003
 50
186.0000000000083
 51
353.99999999999159
  0
ARC
  5
F87F9
  8
HIDDEN
 10
4000.0
 20
-1000.0
 30
0.0
 40
88.499999999999901
 50
6.000000000008324
 51
173.99999999999159
  0
ARC
  5
F87FA
  8
HIDDEN
 10
4000.0
 20
-1000.0
 30
0.0
 40
92.999999999999901
 50
6.000000000008324
 51
173.99999999999159
  0
ARC
  5
F87FD
  8
HIDDEN
 10
-0.000000000000228
 20
-1000.0
 30
0.0
 40
62.5
 50
7.0000000000059801
 51
172.999999999994
  0
ARC
  5
F87FE
  8
HIDDEN
 10
-0.000000000000228
 20
-1000.0
 30
0.0
 40
65.700000000000017
 50
7.0000000000059801
 51
172.999999999994
  0
ARC
  5
F8801
  8
HIDDEN
 10
2000.0
 20
-1000.0
 30
0.0
 40
78.200000000000003
 50
6.0000000000083054
 51
173.99999999999159
  0
ARC
  5
F8802
  8
HIDDEN
 10
2000.0
 20
-1000.0
 30
0.0
 40
75.0
 50
6.0000000000083054
 51
173.99999999999159
  0
ARC
  5
F8807
  8
HIDDEN
 10
5000.0
 20
-1000.0
 30
0.0
 40
92.499999999999872
 50
6.000000000008324
 51
173.99999999999159
  0
ARC
  5
F8808
  8
HIDDEN
 10
5000.0
 20
-1000.0
 30
0.0
 40
88.500000000000128
 50
6.000000000008324
 51
173.99999999999159
  0
LINE
  5
F93B2
  8
HIDDEN
 10
123.0
 20
-234.0
 30
0.0
 11
123.0
 21
-266.0
 31
0.0
  0
LINE
  5
F93B3
  8
HIDDEN
 10
137.0
 20
-234.0
 30
0.0
 11
137.0
 21
-266.0
 31
0.0
  0
LINE
  5
F93B4
  8
CENTER
 10
130.00000000000011
 20
-25.199999999999829
 30
0.0
 11
130.0
 21
25.199999999999829
 31
0.0
  0
LINE
  5
F93B5
  8
CENTER
 10
129.9999999999998
 20
-219.0
 30
0.0
 11
129.9999999999998
 21
-281.0
 31
0.0
  0
LINE
  5
F93B6
  8
HIDDEN
 10
-123.0
 20
-234.0
 30
0.0
 11
-123.0
 21
-266.0
 31
0.0
  0
LINE
  5
F93B7
  8
HIDDEN
 10
-137.0
 20
-234.0
 30
0.0
 11
-137.0
 21
-266.0
 31
0.0
  0
LINE
  5
F93B8
  8
CENTER
 10
-129.9999999999998
 20
-219.0
 30
0.0
 11
-129.9999999999998
 21
-281.0
 31
0.0
  0
LINE
  5
F93B9
  8
CENTER
 10
-130.0
 20
-25.199999999999829
 30
0.0
 11
-129.9999999999998
 21
25.199999999999829
 31
0.0
  0
LINE
  5
F940C
  8
HIDDEN
 10
863.0
 20
-234.0
 30
0.0
 11
863.0
 21
-266.0
 31
0.0
  0
LINE
  5
F940D
  8
HIDDEN
 10
877.00000000000011
 20
-234.0
 30
0.0
 11
877.00000000000011
 21
-266.0
 31
0.0
  0
LINE
  5
F940E
  8
HIDDEN
 10
1123.0
 20
-234.0
 30
0.0
 11
1123.0
 21
-266.0
 31
0.0
  0
LINE
  5
F940F
  8
HIDDEN
 10
1137.0
 20
-234.0
 30
0.0
 11
1137.0
 21
-266.0
 31
0.0
  0
LINE
  5
F9410
  8
CENTER
 10
1129.9999999999991
 20
-219.0
 30
0.0
 11
1129.9999999999991
 21
-281.0
 31
0.0
  0
LINE
  5
F9411
  8
CENTER
 10
870.00000000000011
 20
-219.0
 30
0.0
 11
870.00000000000011
 21
-281.0
 31
0.0
  0
LINE
  5
F941A
  8
CENTER
 10
870.0
 20
-25.0
 30
0.0
 11
870.00000000000011
 21
25.0
 31
0.0
  0
LINE
  5
F941B
  8
CENTER
 10
1130.0
 20
-25.0
 30
0.0
 11
1130.0
 21
25.0
 31
0.0
  0
LINE
  5
F9421
  8
CENTER
 10
1860.0
 20
-25.199999999999829
 30
0.0
 11
1860.0
 21
25.199999999999829
 31
0.0
  0
LINE
  5
F9422
  8
CENTER
 10
2140.0
 20
-25.199999999999829
 30
0.0
 11
2140.0
 21
25.199999999999829
 31
0.0
  0
LINE
  5
F9423
  8
HIDDEN
 10
2133.0
 20
-234.0
 30
0.0
 11
2133.0
 21
-266.0
 31
0.0
  0
LINE
  5
F9424
  8
HIDDEN
 10
2147.0
 20
-234.0
 30
0.0
 11
2147.0
 21
-266.0
 31
0.0
  0
LINE
  5
F9425
  8
CENTER
 10
2140.0
 20
-219.0
 30
0.0
 11
2140.0
 21
-281.0
 31
0.0
  0
LINE
  5
F9426
  8
HIDDEN
 10
1853.0
 20
-234.0
 30
0.0
 11
1853.0
 21
-266.0
 31
0.0
  0
LINE
  5
F9427
  8
HIDDEN
 10
1867.0
 20
-234.0
 30
0.0
 11
1867.0
 21
-266.0
 31
0.0
  0
LINE
  5
F9428
  8
CENTER
 10
1860.0
 20
-219.0
 30
0.0
 11
1860.0
 21
-281.0
 31
0.0
  0
LINE
  5
F9431
  8
HIDDEN
 10
2853.0
 20
-234.0
 30
0.0
 11
2853.0
 21
-266.0
 31
0.0
  0
LINE
  5
F9432
  8
HIDDEN
 10
2867.0
 20
-234.0
 30
0.0
 11
2867.0
 21
-266.0
 31
0.0
  0
LINE
  5
F9433
  8
CENTER
 10
2860.0
 20
-219.0
 30
0.0
 11
2860.0
 21
-281.0
 31
0.0
  0
LINE
  5
F9434
  8
HIDDEN
 10
3133.0
 20
-234.0
 30
0.0
 11
3133.0
 21
-266.0
 31
0.0
  0
LINE
  5
F9435
  8
HIDDEN
 10
3147.0
 20
-234.0
 30
0.0
 11
3147.0
 21
-266.0
 31
0.0
  0
LINE
  5
F9436
  8
CENTER
 10
3140.0
 20
-219.0
 30
0.0
 11
3140.0
 21
-281.0
 31
0.0
  0
LINE
  5
F9437
  8
CENTER
 10
2860.0
 20
-25.0
 30
0.0
 11
2860.0
 21
25.0
 31
0.0
  0
LINE
  5
F9438
  8
CENTER
 10
3140.0000000000009
 20
-25.0
 30
0.0
 11
3140.0000000000009
 21
25.0
 31
0.0
  0
LINE
  5
FB47E
  8
HIDDEN
 10
-59.499999999999972
 20
-266.0
 30
0.0
 11
-59.5
 21
-234.0
 31
0.0
  0
LINE
  5
FB47F
  8
HIDDEN
 10
59.499999999999972
 20
-266.0
 30
0.0
 11
59.5
 21
-234.0
 31
0.0
  0
LINE
  5
FB480
  8
HIDDEN
 10
940.49999999999989
 20
-266.0
 30
0.0
 11
940.49999999999989
 21
-234.0
 31
0.0
  0
LINE
  5
FB481
  8
HIDDEN
 10
1059.5
 20
-266.0
 30
0.0
 11
1059.5
 21
-234.0
 31
0.0
  0
LINE
  5
FB482
  8
HIDDEN
 10
1928.0
 20
-266.0
 30
0.0
 11
1928.0
 21
-234.0
 31
0.0
  0
LINE
  5
FB483
  8
HIDDEN
 10
2072.0
 20
-266.0
 30
0.0
 11
2072.0
 21
-234.0
 31
0.0
  0
LINE
  5
FB484
  8
HIDDEN
 10
2928.0
 20
-266.0
 30
0.0
 11
2928.0
 21
-234.0
 31
0.0
  0
LINE
  5
FB485
  8
HIDDEN
 10
3072.0
 20
-266.0
 30
0.0
 11
3072.0
 21
-234.0
 31
0.0
  0
LINE
  5
FBD2F
  8
OBJECT
 10
59.056496022657711
 20
-992.74877406738767
 30
0.0
 11
67.195374466116476
 21
-991.74944545146468
 31
0.0
  0
LINE
  5
FBD30
  8
OBJECT
 10
-59.05649602265818
 20
-992.74877406738767
 30
0.0
 11
-67.195374466116931
 21
-991.74944545146468
 31
0.0
  0
ARC
  5
FBD31
  8
OBJECT
 10
-0.0000000000002132
 20
-1000.0
 30
0.0
 40
62.5
 50
172.999999999994
 51
178.62476924796181
  0
ARC
  5
FBD32
  8
OBJECT
 10
-0.0000000000002132
 20
-1000.0
 30
0.0
 40
65.700000000000003
 50
172.999999999994
 51
175.89771110941339
  0
ARC
  5
FBD33
  8
OBJECT
 10
-0.0000000000002132
 20
-1000.0
 30
0.0
 40
59.5
 50
186.99999999997971
 51
353.00000000002018
  0
ARC
  5
FBD34
  8
OBJECT
 10
-0.0000000000002132
 20
-1000.0
 30
0.0
 40
67.700000000000003
 50
186.99999999997971
 51
353.00000000002018
  0
ARC
  5
FBD35
  8
OBJECT
 10
-0.0000000000002132
 20
-1000.0
 30
0.0
 40
62.5
 50
352.99999999996783
 51
358.62476924796181
  0
ARC
  5
FBD36
  8
OBJECT
 10
-0.0000000000002132
 20
-1000.0
 30
0.0
 40
65.700000000000003
 50
352.99999999996783
 51
355.89771110941348
  0
ARC
  5
FBD37
  8
HIDDEN
 10
-0.000000000000228
 20
-1000.0
 30
0.0
 40
62.5
 50
186.99999999997971
 51
353.00000000002018
  0
ARC
  5
FBD38
  8
HIDDEN
 10
-0.000000000000228
 20
-1000.0
 30
0.0
 40
65.700000000000017
 50
186.99999999997971
 51
353.00000000002018
  0
LINE
  5
FBD39
  8
OBJECT
 10
59.056496022657711
 20
-1007.251225932612
 30
0.0
 11
67.195374466116476
 21
-1008.250554548535
 31
0.0
  0
LINE
  5
FBD3A
  8
OBJECT
 10
-59.05649602265818
 20
-1007.251225932612
 30
0.0
 11
-67.195374466116931
 21
-1008.250554548535
 31
0.0
  0
ARC
  5
FBD3B
  8
OBJECT
 10
-0.0000000000002132
 20
-1000.0
 30
0.0
 40
62.5
 50
181.37523075203799
 51
187.0000000000322
  0
ARC
  5
FBD3C
  8
OBJECT
 10
-0.0000000000002132
 20
-1000.0
 30
0.0
 40
65.700000000000003
 50
184.10228889058641
 51
187.0000000000322
  0
LINE
  5
FBD44
  8
OBJECT
 10
65.531671732082486
 20
-1235.9999999999991
 30
0.0
 11
65.531671732084206
 21
-1264.0
 31
0.0
  0
LINE
  5
FBD45
  8
OBJECT
 10
67.195374466116405
 20
-1264.0
 30
0.0
 11
67.195374466116391
 21
-1269.0
 31
0.0
  0
LINE
  5
FBD46
  8
OBJECT
 10
67.195374466116419
 20
-1236.0
 30
0.0
 11
67.195374466116419
 21
-1231.0
 31
0.0
  0
LINE
  5
FBD47
  8
HIDDEN
 10
122.9999999999997
 20
-1234.0
 30
0.0
 11
122.9999999999997
 21
-1266.0
 31
0.0
  0
LINE
  5
FBD48
  8
HIDDEN
 10
136.99999999999969
 20
-1234.0
 30
0.0
 11
136.99999999999969
 21
-1266.0
 31
0.0
  0
LINE
  5
FBD49
  8
HIDDEN
 10
-123.0000000000002
 20
-1234.0
 30
0.0
 11
-123.0000000000002
 21
-1266.0
 31
0.0
  0
LINE
  5
FBD4A
  8
HIDDEN
 10
-137.0000000000002
 20
-1234.0
 30
0.0
 11
-137.0000000000002
 21
-1266.0
 31
0.0
  0
LINE
  5
FBD4B
  8
HIDDEN
 10
-59.500000000000227
 20
-1269.0
 30
0.0
 11
-59.500000000000249
 21
-1231.0
 31
0.0
  0
LINE
  5
FBD4C
  8
HIDDEN
 10
59.499999999999702
 20
-1269.0
 30
0.0
 11
59.499999999999737
 21
-1231.0
 31
0.0
  0
LINE
  5
FBD4D
  8
CENTER
 10
129.9999999999996
 20
-1219.0
 30
0.0
 11
129.9999999999996
 21
-1281.0
 31
0.0
  0
LINE
  5
FBD4E
  8
CENTER
 10
-130.00000000000011
 20
-1219.0
 30
0.0
 11
-130.00000000000011
 21
-1281.0
 31
0.0
  0
LINE
  5
FC080
  8
OBJECT
 10
2071.6055764665148
 20
-1007.526049355271
 30
0.0
 11
2079.7606560085342
 21
-1008.383182754077
 31
0.0
  0
LINE
  5
FC081
  8
OBJECT
 10
2071.6055764665148
 20
-992.47395064472903
 30
0.0
 11
2079.7606560085351
 21
-991.61681724593427
 31
0.0
  0
LINE
  5
FC082
  8
OBJECT
 10
1920.239343991464
 20
-991.61681724593427
 30
0.0
 11
1928.394423533485
 21
-992.47395064471834
 31
0.0
  0
LINE
  5
FC083
  8
OBJECT
 10
1928.3944235334841
 20
-1007.526049355271
 30
0.0
 11
1920.2393439914649
 21
-1008.383182754077
 31
0.0
  0
LINE
  5
FC0EC
  8
HIDDEN
 10
2133.0
 20
-1234.0
 30
0.0
 11
2133.0
 21
-1266.0
 31
0.0
  0
LINE
  5
FC0ED
  8
HIDDEN
 10
2147.0
 20
-1234.0
 30
0.0
 11
2147.0
 21
-1266.0
 31
0.0
  0
LINE
  5
FC0EE
  8
HIDDEN
 10
1852.9999999999991
 20
-1234.0
 30
0.0
 11
1852.9999999999991
 21
-1266.0
 31
0.0
  0
LINE
  5
FC0EF
  8
HIDDEN
 10
1867.0
 20
-1234.0
 30
0.0
 11
1867.0
 21
-1266.0
 31
0.0
  0
LINE
  5
FC0F4
  8
HIDDEN
 10
1928.0
 20
-1269.0
 30
0.0
 11
1928.0
 21
-1230.9999999999991
 31
0.0
  0
LINE
  5
FC0F5
  8
HIDDEN
 10
2072.0
 20
-1269.0
 30
0.0
 11
2072.0
 21
-1230.9999999999991
 31
0.0
  0
LINE
  5
FC11A
  8
OBJECT
 10
3905.5204199400159
 20
-990.06979598955661
 30
0.0
 11
3914.9683779460138
 21
-991.0628163906016
 31
0.0
  0
LINE
  5
FC11B
  8
OBJECT
 10
4085.0316220539848
 20
-991.0628163906016
 30
0.0
 11
4094.4795800599841
 21
-990.06979598955661
 31
0.0
  0
ARC
  5
FC11C
  8
OBJECT
 10
4000.0
 20
-1000.0
 30
0.0
 40
85.5
 50
186.00000000003439
 51
353.9999999999655
  0
ARC
  5
FC11D
  8
OBJECT
 10
4000.0
 20
-1000.0
 30
0.0
 40
88.499999999999986
 50
353.9999999999655
 51
359.0288385910282
  0
ARC
  5
FC11E
  8
OBJECT
 10
4000.0
 20
-1000.0
 30
0.0
 40
88.499999999999986
 50
180.9711614089718
 51
186.00000000003439
  0
ARC
  5
FC11F
  8
OBJECT
 10
4000.0
 20
-1000.0
 30
0.0
 40
93.0
 50
353.9999999999655
 51
356.30092893683832
  0
ARC
  5
FC120
  8
OBJECT
 10
4000.0
 20
-1000.0
 30
0.0
 40
93.0
 50
183.6990710631616
 51
186.00000000003439
  0
ARC
  5
FC121
  8
OBJECT
 10
4000.0
 20
-1000.0
 30
0.0
 40
95.0
 50
186.00000000003439
 51
353.9999999999655
  0
ARC
  5
FC122
  8
HIDDEN
 10
4000.0
 20
-1000.0
 30
0.0
 40
88.499999999999901
 50
186.00000000003439
 51
353.9999999999655
  0
ARC
  5
FC123
  8
HIDDEN
 10
4000.0
 20
-1000.0
 30
0.0
 40
92.999999999999901
 50
186.00000000003439
 51
353.9999999999655
  0
LINE
  5
FC124
  8
OBJECT
 10
3905.5204199400159
 20
-1009.930204010443
 30
0.0
 11
3914.9683779460138
 21
-1008.9371836093979
 31
0.0
  0
LINE
  5
FC125
  8
OBJECT
 10
4085.0316220539848
 20
-1008.9371836093979
 30
0.0
 11
4094.4795800599841
 21
-1009.930204010443
 31
0.0
  0
LINE
  5
FC131
  8
OBJECT
 10
4906.0176808877004
 20
-990.12206022119085
 30
0.0
 11
4914.9683779460138
 21
-991.0628163906016
 31
0.0
  0
LINE
  5
FC132
  8
OBJECT
 10
5085.0316220539862
 20
-991.0628163906016
 30
0.0
 11
5093.9823191122987
 21
-990.12206022119085
 31
0.0
  0
ARC
  5
FC133
  8
OBJECT
 10
5000.0
 20
-1000.0
 30
0.0
 40
85.5
 50
186.00000000003439
 51
353.9999999999655
  0
ARC
  5
FC134
  8
OBJECT
 10
5000.0
 20
-1000.0
 30
0.0
 40
88.499999999999986
 50
353.9999999999655
 51
359.0288385910282
  0
ARC
  5
FC135
  8
OBJECT
 10
5000.0
 20
-1000.0
 30
0.0
 40
88.499999999999986
 50
180.9711614089718
 51
186.00000000003439
  0
ARC
  5
FC136
  8
OBJECT
 10
5000.0
 20
-1000.0
 30
0.0
 40
92.5
 50
353.9999999999655
 51
356.59121331890748
  0
ARC
  5
FC137
  8
OBJECT
 10
5000.0
 20
-1000.0
 30
0.0
 40
92.5
 50
183.40878668109249
 51
186.00000000003439
  0
ARC
  5
FC138
  8
OBJECT
 10
5000.0
 20
-1000.0
 30
0.0
 40
94.500000000000014
 50
186.00000000003439
 51
353.9999999999655
  0
ARC
  5
FC139
  8
HIDDEN
 10
5000.0
 20
-1000.0
 30
0.0
 40
88.500000000000128
 50
186.00000000003439
 51
353.9999999999655
  0
ARC
  5
FC13A
  8
HIDDEN
 10
5000.0
 20
-1000.0
 30
0.0
 40
92.499999999999872
 50
186.00000000003439
 51
353.9999999999655
  0
LINE
  5
FC13B
  8
OBJECT
 10
4906.0176808877004
 20
-1009.877939778809
 30
0.0
 11
4914.9683779460138
 21
-1008.9371836093979
 31
0.0
  0
LINE
  5
FC13C
  8
OBJECT
 10
5085.0316220539862
 20
-1008.9371836093979
 30
0.0
 11
5093.9823191122987
 21
-1009.877939778809
 31
0.0
  0
LINE
  5
FC146
  8
HIDDEN
 10
3826.5
 20
-1231.0
 30
0.0
 11
3826.5
 21
-1269.0
 31
0.0
  0
LINE
  5
FC147
  8
HIDDEN
 10
3843.5
 20
-1231.0
 30
0.0
 11
3843.5
 21
-1269.0
 31
0.0
  0
LINE
  5
FC148
  8
HIDDEN
 10
3914.5
 20
-1272.0
 30
0.0
 11
3914.5
 21
-1228.0
 31
0.0
  0
LINE
  5
FC149
  8
HIDDEN
 10
4085.5
 20
-1272.0
 30
0.0
 11
4085.5
 21
-1228.0
 31
0.0
  0
LINE
  5
FC14A
  8
HIDDEN
 10
4156.5
 20
-1231.0
 30
0.0
 11
4156.5
 21
-1269.0
 31
0.0
  0
LINE
  5
FC14B
  8
HIDDEN
 10
4173.4999999999991
 20
-1231.0
 30
0.0
 11
4173.4999999999991
 21
-1269.0
 31
0.0
  0
LINE
  5
FC151
  8
HIDDEN
 10
4826.5
 20
-1231.0
 30
0.0
 11
4826.5
 21
-1269.0
 31
0.0
  0
LINE
  5
FC152
  8
HIDDEN
 10
4843.5
 20
-1231.0
 30
0.0
 11
4843.5
 21
-1269.0
 31
0.0
  0
LINE
  5
FC153
  8
HIDDEN
 10
4914.5
 20
-1272.0
 30
0.0
 11
4914.5
 21
-1228.0
 31
0.0
  0
LINE
  5
FC154
  8
HIDDEN
 10
5085.5
 20
-1272.0
 30
0.0
 11
5085.5
 21
-1228.0
 31
0.0
  0
LINE
  5
FC155
  8
HIDDEN
 10
5156.5
 20
-1231.0
 30
0.0
 11
5156.5
 21
-1269.0
 31
0.0
  0
LINE
  5
FC156
  8
HIDDEN
 10
5173.5
 20
-1231.0
 30
0.0
 11
5173.5
 21
-1269.0
 31
0.0
  0
LINE
  5
FC15F
  8
CENTER
 10
130.00000000000011
 20
-1025.2
 30
0.0
 11
130.0
 21
-974.79999999999995
 31
0.0
  0
LINE
  5
FC160
  8
CENTER
 10
-130.0
 20
-1025.2
 30
0.0
 11
-129.9999999999998
 21
-974.79999999999995
 31
0.0
  0
LINE
  5
FC163
  8
CENTER
 10
1860.0
 20
-1025.2
 30
0.0
 11
1860.0
 21
-974.79999999999995
 31
0.0
  0
LINE
  5
FC164
  8
CENTER
 10
2140.0
 20
-1025.2
 30
0.0
 11
2140.0
 21
-974.79999999999995
 31
0.0
  0
LINE
  5
FC167
  8
CENTER
 10
3835.0
 20
-1028.0
 30
0.0
 11
3835.0
 21
-972.0
 31
0.0
  0
LINE
  5
FC168
  8
CENTER
 10
4165.0
 20
-1028.0
 30
0.0
 11
4165.0
 21
-972.0
 31
0.0
  0
LINE
  5
FC169
  8
CENTER
 10
4835.0
 20
-1027.5
 30
0.0
 11
4835.0
 21
-972.49999999999989
 31
0.0
  0
LINE
  5
FC16A
  8
CENTER
 10
5165.0
 20
-1027.5
 30
0.0
 11
5165.0
 21
-972.49999999999989
 31
0.0
  0
TEXT
  5
FDBB8
  8
SLIM
 10
-78.499999999999986
 20
-457.69999999999987
 30
0.0
 40
20.0
  1
（鋼、電気めっき）
 41
0.75
 72
     4
 11
0.0000000000000142
 21
-447.69999999999982
 31
0.0
  0
TEXT
  5
FDC04
  8
SLIM
 10
-63.357142857142961
 20
-1422.7
 30
0.0
 40
20.0
  1
3SL用、ゴム付
 41
0.75
 72
     4
 11
-0.0000000000001137
 21
-1412.7
 31
0.0
  0
TEXT
  5
FDC05
  8
SLIM
 10
-78.500000000000114
 20
-1457.7
 30
0.0
 40
20.0
  1
（鋼、電気めっき）
 41
0.75
 72
     4
 11
-0.0000000000001137
 21
-1447.7
 31
0.0
  0
TEXT
  5
FDC0C
  8
SLIM
 10
973.14285714285711
 20
-422.69999999999982
 30
0.0
 40
20.0
  1
3SL用
 41
0.75
 72
     4
 11
1000.0
 21
-412.69999999999982
 31
0.0
  0
TEXT
  5
FDC0D
  8
SLIM
 10
940.92857142857133
 20
-457.69999999999987
 30
0.0
 40
20.0
  1
（SUS304）
 41
0.75
 72
     4
 11
1000.0
 21
-447.69999999999982
 31
0.0
  0
TEXT
  5
FEA71
  8
SLIM
 10
1973.1428571428571
 20
-422.69999999999982
 30
0.0
 40
20.0
  1
4SL用
 41
0.75
 72
     4
 11
2000.0
 21
-412.69999999999982
 31
0.0
  0
TEXT
  5
FEA72
  8
SLIM
 10
1921.5
 20
-457.69999999999987
 30
0.0
 40
20.0
  1
（鋼、電気めっき）
 41
0.75
 72
     4
 11
2000.0
 21
-447.69999999999982
 31
0.0
  0
TEXT
  5
FEA73
  8
SLIM
 10
1936.6428571428571
 20
-1422.7
 30
0.0
 40
20.0
  1
4SL用、ゴム付
 41
0.75
 72
     4
 11
2000.0
 21
-1412.7
 31
0.0
  0
TEXT
  5
FEA74
  8
SLIM
 10
1921.5
 20
-1457.7
 30
0.0
 40
20.0
  1
（鋼、電気めっき）
 41
0.75
 72
     4
 11
2000.0
 21
-1447.7
 31
0.0
  0
TEXT
  5
FEA7B
  8
SLIM
 10
2973.1428571428569
 20
-422.69999999999982
 30
0.0
 40
20.0
  1
4SL用
 41
0.75
 72
     4
 11
3000.0
 21
-412.69999999999982
 31
0.0
  0
TEXT
  5
FEA7C
  8
SLIM
 10
2940.9285714285711
 20
-457.69999999999987
 30
0.0
 40
20.0
  1
（SUS304）
 41
0.75
 72
     4
 11
3000.0
 21
-447.69999999999982
 31
0.0
  0
LINE
  5
FEC52
  8
CENTER
 10
2140.0
 20
-1219.0
 30
0.0
 11
2140.0
 21
-1281.0
 31
0.0
  0
LINE
  5
FEC53
  8
CENTER
 10
1859.9999999999991
 20
-1219.0
 30
0.0
 11
1859.9999999999991
 21
-1281.0
 31
0.0
  0
LINE
  5
FF5BC
  8
CENTER
 10
3834.9999999999991
 20
-1216.0
 30
0.0
 11
3834.9999999999991
 21
-1284.0
 31
0.0
  0
LINE
  5
FF5C4
  8
CENTER
 10
4165.0
 20
-1216.0
 30
0.0
 11
4165.0
 21
-1284.0
 31
0.0
  0
LINE
  5
FF5C5
  8
CENTER
 10
4835.0
 20
-1216.0
 30
0.0
 11
4835.0
 21
-1284.0
 31
0.0
  0
LINE
  5
FF5C6
  8
CENTER
 10
5165.0
 20
-1216.0
 30
0.0
 11
5165.0
 21
-1284.0
 31
0.0
  0
TEXT
  5
FF5D9
  8
SLIM
 10
3841.3571428571431
 20
-1422.7
 30
0.0
 40
20.0
  1
5HF／コンパクト5Lベンド用、ゴム付
 41
0.75
 72
     4
 11
4000.0
 21
-1412.7
 31
0.0
  0
TEXT
  5
FF5DA
  8
SLIM
 10
3921.5
 20
-1457.7
 30
0.0
 40
20.0
  1
（鋼、電気めっき）
 41
0.75
 72
     4
 11
4000.0
 21
-1447.7
 31
0.0
  0
TEXT
  5
FF5E2
  8
SLIM
 10
4841.3571428571431
 20
-1422.7
 30
0.0
 40
20.0
  1
5HF／コンパクト5Lベンド用、ゴム付
 41
0.75
 72
     4
 11
5000.0
 21
-1412.7
 31
0.0
  0
TEXT
  5
FF5E3
  8
SLIM
 10
4940.9285714285706
 20
-1457.7
 30
0.0
 40
20.0
  1
（SUS304）
 41
0.75
 72
     4
 11
5000.0
 21
-1447.7
 31
0.0
  0
VIEWPORT
  5
FFECF
 67
     1
  8
0
 10
143.60523986816401
 20
100.10775232315061
 30
0.0
 40
407.30664751466441
 41
222.19657968139651
 68
     1
 69
     1
1001
ACAD
1000
MVIEW
1002
{
1070
    16
1010
0.0
1020
0.0
1030
0.0
1010
0.0
1020
0.0
1030
1.0
1040
0.0
1040
222.19657968139651
1040
143.60523986816401
1040
100.10775232315061
1040
50.0
1040
0.0
1040
0.0
1070
     0
1070
     0
1070
     1
1070
     1
1070
     0
1070
     0
1070
     0
1070
     0
1040
0.0
1040
0.0
1040
0.0
1040
10.0
1040
10.0
1040
10.0
1040
10.0
1070
     0
1002
{
1002
}
1002
}
  0
VIEWPORT
  5
FFED3
 67
     1
  8
OBJECT
 10
143.6052539348602
 20
100.1077511310577
 30
0.0
 40
229.76840629577629
 41
160.1724018096923
 68
     2
 69
     2
1001
ACAD
1000
MVIEW
1002
{
1070
    16
1010
0.0
1020
0.0
1030
0.0
1010
0.0
1020
0.0
1030
1.0
1040
0.0
1040
4933.1359306726754
1040
2475.3377741515901
1040
-4820.6129266796397
1040
50.0
1040
0.0
1040
0.0
1070
     0
1070
   600
1070
     1
1070
     1
1070
     0
1070
     0
1070
     0
1070
     1
1040
0.0
1040
0.0
1040
0.0
1040
1.0
1040
1.0
1040
0.0
1040
0.0
1070
     0
1002
{
1002
}
1002
}
  0
ENDSEC
  0
EOF
