  0
SECTION
  2
HEADER
  9
$ACADVER
  1
AC1009
  9
$INSBASE
 10
0.0
 20
0.0
 30
0.0
  9
$EXTMIN
 10
-180.0
 20
-657.7000000000005
 30
0.0
  9
$EXTMAX
 10
4230.0
 20
110.0
 30
0.0
  9
$LIMMIN
 10
0.0
 20
0.0
  9
$LIMMAX
 10
210.0
 20
297.0
  9
$ORTHOMODE
 70
     0
  9
$REGENMODE
 70
     1
  9
$FILLMODE
 70
     1
  9
$QTEXTMODE
 70
     0
  9
$MIRRTEXT
 70
     0
  9
$DRAGMODE
 70
     2
  9
$LTSCALE
 40
1.0
  9
$OSMODE
 70
   125
  9
$ATTMODE
 70
     1
  9
$TEXTSIZE
 40
39.008254181735531
  9
$TRACEWID
 40
0.05
  9
$TEXTSTYLE
  7
STANDARD
  9
$CLAYER
  8
OBJECT
  9
$CELTYPE
  6
BYLAYER
  9
$CECOLOR
 62
   256
  9
$DIMSCALE
 40
10.0
  9
$DIMASZ
 40
1.0
  9
$DIMEXO
 40
0.5
  9
$DIMDLI
 40
5.0
  9
$DIMRND
 40
0.0
  9
$DIMDLE
 40
0.0
  9
$DIMEXE
 40
0.5
  9
$DIMTP
 40
0.0
  9
$DIMTM
 40
0.0
  9
$DIMTXT
 40
1.6000000000000001
  9
$DIMCEN
 40
0.0
  9
$DIMTSZ
 40
0.0
  9
$DIMTOL
 70
     0
  9
$DIMLIM
 70
     0
  9
$DIMTIH
 70
     0
  9
$DIMTOH
 70
     0
  9
$DIMSE1
 70
     0
  9
$DIMSE2
 70
     0
  9
$DIMTAD
 70
     1
  9
$DIMZIN
 70
     8
  9
$DIMBLK
  1
OPEN30
  9
$DIMASO
 70
     1
  9
$DIMSHO
 70
     1
  9
$DIMPOST
  1

  9
$DIMAPOST
  1

  9
$DIMALT
 70
     0
  9
$DIMALTD
 70
     2
  9
$DIMALTF
 40
25.399999999999999
  9
$DIMLFAC
 40
1.0
  9
$DIMTOFL
 70
     1
  9
$DIMTVP
 40
0.0
  9
$DIMTIX
 70
     0
  9
$DIMSOXD
 70
     0
  9
$DIMSAH
 70
     0
  9
$DIMBLK1
  1

  9
$DIMBLK2
  1

  9
$DIMSTYLE
  2
S10
  9
$DIMCLRD
 70
   256
  9
$DIMCLRE
 70
   256
  9
$DIMCLRT
 70
   256
  9
$DIMTFAC
 40
1.0
  9
$DIMGAP
 40
0.45
  9
$LUNITS
 70
     2
  9
$LUPREC
 70
     2
  9
$SKETCHINC
 40
0.1
  9
$FILLETRAD
 40
0.0
  9
$AUNITS
 70
     0
  9
$AUPREC
 70
     2
  9
$MENU
  1
ACAD
  9
$ELEVATION
 40
0.0
  9
$PELEVATION
 40
0.0
  9
$THICKNESS
 40
0.0
  9
$LIMCHECK
 70
     0
  9
$BLIPMODE
 70
     0
  9
$CHAMFERA
 40
2.0
  9
$CHAMFERB
 40
2.0
  9
$SKPOLY
 70
     0
  9
$TDCREATE
 40
2453095.4929404748
  9
$TDUPDATE
 40
2456757.6403638888
  9
$TDINDWG
 40
27.174604236099999
  9
$TDUSRTIMER
 40
27.174603588
  9
$USRTIMER
 70
     1
  9
$ANGBASE
 50
0.0
  9
$ANGDIR
 70
     0
  9
$PDMODE
 70
    35
  9
$PDSIZE
 40
2.0
  9
$PLINEWID
 40
0.0
  9
$COORDS
 70
     1
  9
$SPLFRAME
 70
     0
  9
$SPLINETYPE
 70
     6
  9
$SPLINESEGS
 70
     8
  9
$ATTDIA
 70
     1
  9
$ATTREQ
 70
     1
  9
$HANDLING
 70
     1
  9
$HANDSEED
  5
100199
  9
$SURFTAB1
 70
     6
  9
$SURFTAB2
 70
     6
  9
$SURFTYPE
 70
     6
  9
$SURFU
 70
     6
  9
$SURFV
 70
     6
  9
$UCSNAME
  2

  9
$UCSORG
 10
0.0
 20
0.0
 30
0.0
  9
$UCSXDIR
 10
1.0
 20
0.0
 30
0.0
  9
$UCSYDIR
 10
0.0
 20
1.0
 30
0.0
  9
$PUCSNAME
  2

  9
$PUCSORG
 10
0.0
 20
0.0
 30
0.0
  9
$PUCSXDIR
 10
1.0
 20
0.0
 30
0.0
  9
$PUCSYDIR
 10
0.0
 20
1.0
 30
0.0
  9
$USERI1
 70
     0
  9
$USERI2
 70
     0
  9
$USERI3
 70
     0
  9
$USERI4
 70
     0
  9
$USERI5
 70
     0
  9
$USERR1
 40
0.0
  9
$USERR2
 40
0.0
  9
$USERR3
 40
0.0
  9
$USERR4
 40
0.0
  9
$USERR5
 40
0.0
  9
$WORLDVIEW
 70
     1
  9
$SHADEDGE
 70
     3
  9
$SHADEDIF
 70
    70
  9
$TILEMODE
 70
     1
  9
$MAXACTVP
 70
    64
  9
$PLIMCHECK
 70
     0
  9
$PEXTMIN
 10
28.721050786972061
 20
20.021550226211559
 30
0.0
  9
$PEXTMAX
 10
258.4894570827484
 20
180.19395203590389
 30
0.0
  9
$PLIMMIN
 10
-4.90008544921875
 20
-4.9000830650329581
  9
$PLIMMAX
 10
292.11056518554688
 20
205.1155877113342
  9
$UNITMODE
 70
     0
  9
$VISRETAIN
 70
     1
  9
$PLINEGEN
 70
     0
  9
$PSLTSCALE
 70
     1
  0
ENDSEC
  0
SECTION
  2
TABLES
  0
TABLE
  2
VPORT
 70
     1
  0
VPORT
  2
*ACTIVE
 70
     0
 10
0.0
 20
0.0
 11
1.0
 21
1.0
 12
1618.148578437083
 22
-342.80061881345591
 13
0.0
 23
0.0
 14
1.0
 24
1.0
 15
0.0
 25
0.0
 16
0.0
 26
0.0
 36
1.0
 17
0.0
 27
0.0
 37
0.0
 40
3372.0739447160149
 41
1.8330914368650211
 42
50.0
 43
0.0
 44
0.0
 50
0.0
 51
0.0
 71
     0
 72
   600
 73
     1
 74
     1
 75
     0
 76
     0
 77
     0
 78
     1
  0
ENDTAB
  0
TABLE
  2
LTYPE
 70
     3
  0
LTYPE
  2
CONTINUOUS
 70
     0
  3
Solid line
 72
    65
 73
     0
 40
0.0
  0
LTYPE
  2
ACAD_ISO08W100
 70
     0
  3
ISO long-dash short-dash ____ __ ____ __ ____ _
 72
    65
 73
     4
 40
36.0
 49
24.0
 49
-3.0
 49
6.0
 49
-3.0
  0
LTYPE
  2
ACAD_ISO02W100
 70
     0
  3
ISO dash __ __ __ __ __ __ __ __ __ __ __ __ __
 72
    65
 73
     2
 40
15.0
 49
12.0
 49
-3.0
  0
ENDTAB
  0
TABLE
  2
LAYER
 70
     6
  0
LAYER
  2
0
 70
     0
 62
     7
  6
CONTINUOUS
  0
LAYER
  2
OBJECT
 70
     0
 62
     4
  6
CONTINUOUS
  0
LAYER
  2
DEFPOINTS
 70
     0
 62
     7
  6
CONTINUOUS
  0
LAYER
  2
HIDDEN
 70
     0
 62
     2
  6
ACAD_ISO02W100
  0
LAYER
  2
CENTER
 70
     0
 62
     2
  6
ACAD_ISO08W100
  0
LAYER
  2
SLIM
 70
     0
 62
     2
  6
CONTINUOUS
  0
ENDTAB
  0
TABLE
  2
STYLE
 70
     2
  0
STYLE
  2
STANDARD
 70
     0
 40
0.0
 41
0.75
 50
0.0
 71
     0
 42
39.008254181735531
  3
simplex.shx
  4
bigfont.shx
  0
ENDTAB
  0
TABLE
  2
VIEW
 70
     0
  0
ENDTAB
  0
TABLE
  2
UCS
 70
     0
  0
ENDTAB
  0
TABLE
  2
APPID
 70
    21
  0
APPID
  2
ACAD
 70
     0
  0
APPID
  2
ACADANNOTATIVE
 70
     0
  0
APPID
  2
ACAD_PSEXT
 70
     0
  0
APPID
  2
ACAD_EXEMPT_FROM_CAD_STANDARDS
 70
     0
  0
APPID
  2
ACAECLAYERSTANDARD
 70
     0
  0
APPID
  2
ACAUTHENVIRON
 70
     0
  0
APPID
  2
ACDBDYNAMICBLOCKTRUENAME
 70
     0
  0
APPID
  2
ACDBDYNAMICBLOCKGUID
 70
     0
  0
APPID
  2
ACDBBLOCKREPETAG
 70
     0
  0
APPID
  2
ACDBBLOCKREPBTAG
 70
     0
  0
APPID
  2
ACAD_NAV_VCDISPLAY
 70
     0
  0
APPID
  2
ACAD_DSTYLE_DIMRADIAL_EXTENSION
 70
     0
  0
APPID
  2
ACAD_DSTYLE_DIMJAG
 70
     0
  0
APPID
  2
ACAD_DSTYLE_DIMTALN
 70
     0
  0
APPID
  2
GRADIENTCOLOR1ACI
 70
     0
  0
APPID
  2
GRADIENTCOLOR2ACI
 70
     0
  0
APPID
  2
ACADANNOAV
 70
     0
  0
APPID
  2
SIGMA
 70
     0
  0
APPID
  2
ACAD_DSTYLE_DIMJOGGED_JOGA
 70
     0
  0
APPID
  2
ACAD_DSTYLE_DIMBREAK
 70
     0
  0
APPID
  2
ACAD_MLEADERVER
 70
     0
  0
ENDTAB
  0
TABLE
  2
DIMSTYLE
 70
     3
  0
DIMSTYLE
  2
STANDARD
 70
     0
  3

  4

  5

  6

  7

 40
1.0
 41
0.18
 42
0.0625
 43
0.38
 44
0.18
 45
0.0
 46
0.0
 47
0.0
 48
0.0
140
0.18
141
0.09
142
0.0
143
25.399999999999999
144
1.0
145
0.0
146
1.0
147
0.09
 71
     0
 72
     0
 73
     1
 74
     1
 75
     0
 76
     0
 77
     0
 78
     0
170
     0
171
     2
172
     0
173
     0
174
     0
175
     0
176
     0
177
     0
178
     0
  0
DIMSTYLE
  2
S10
 70
     0
  3

  4

  5

  6

  7

 40
10.0
 41
1.0
 42
0.5
 43
5.0
 44
0.5
 45
0.0
 46
0.0
 47
0.0
 48
0.0
140
1.6000000000000001
141
0.0
142
0.0
143
25.399999999999999
144
1.0
145
0.0
146
1.0
147
0.45
 71
     0
 72
     0
 73
     0
 74
     0
 75
     0
 76
     0
 77
     1
 78
     8
170
     0
171
     2
172
     1
173
     0
174
     0
175
     0
176
   256
177
   256
178
   256
  0
ENDTAB
  0
ENDSEC
  0
SECTION
  2
BLOCKS
  0
BLOCK
  8
0
  2
$MODEL_SPACE
 70
     0
 10
0.0
 20
0.0
 30
0.0
  3
$MODEL_SPACE
  1

  0
ENDBLK
  5
100086
  8
0
  0
BLOCK
 67
     1
  8
0
  2
$PAPER_SPACE
 70
     0
 10
0.0
 20
0.0
 30
0.0
  3
$PAPER_SPACE
  1

  0
ENDBLK
  5
100082
 67
     1
  8
0
  0
BLOCK
  8
0
  2
_OPEN30
 70
     0
 10
0.0
 20
0.0
 30
0.0
  3
_OPEN30
  1

  0
LINE
  5
202
  8
0
  6
BYBLOCK
 62
     0
 10
-1.0
 20
0.26794919
 30
0.0
 11
0.0
 21
0.0
 31
0.0
  0
LINE
  5
203
  8
0
  6
BYBLOCK
 62
     0
 10
0.0
 20
0.0
 30
0.0
 11
-1.0
 21
-0.26794919
 31
0.0
  0
LINE
  5
204
  8
0
  6
BYBLOCK
 62
     0
 10
0.0
 20
0.0
 30
0.0
 11
-1.0
 21
0.0
 31
0.0
  0
ENDBLK
  5
206
  8
0
  0
ENDSEC
  0
SECTION
  2
ENTITIES
  0
LINE
  5
F7ABA
  8
CENTER
 10
-180.0
 20
0.0
 30
0.0
 11
180.0
 21
0.0
 31
0.0
  0
LINE
  5
F7ABB
  8
OBJECT
 10
62.481997407253218
 20
-1.5000000000009091
 30
0.0
 11
110.0
 21
-1.5000000000009091
 31
0.0
  0
LINE
  5
F7ABC
  8
OBJECT
 10
65.531671732073335
 20
-4.6999999999998172
 30
0.0
 11
110.0
 21
-4.6999999999998172
 31
0.0
  0
LINE
  5
F7ABD
  8
OBJECT
 10
62.48199740725326
 20
1.5
 30
0.0
 11
117.086828429855
 21
1.5
 31
0.0
  0
LINE
  5
F7ABE
  8
OBJECT
 10
65.531671732073406
 20
4.6999999999998172
 30
0.0
 11
117.8793564527292
 21
4.7000000000007267
 31
0.0
  0
LINE
  5
F7ABF
  8
CENTER
 10
0.0000000000000224
 20
82.699999999999804
 30
0.0
 11
-0.0000000000000187
 21
-82.699999999999804
 31
0.0
  0
LINE
  5
F7AC9
  8
OBJECT
 10
110.0
 20
-1.5000000000009091
 30
0.0
 11
110.0
 21
-4.6999999999998172
 31
0.0
  0
LINE
  5
F7ACA
  8
OBJECT
 10
-62.481997407253189
 20
1.5000000000009091
 30
0.0
 11
-110.0
 21
1.5000000000009091
 31
0.0
  0
LINE
  5
F7ACB
  8
OBJECT
 10
-65.531671732073391
 20
4.6999999999998172
 30
0.0
 11
-109.9999999999999
 21
4.6999999999998172
 31
0.0
  0
LINE
  5
F7ACC
  8
OBJECT
 10
-62.481997407253253
 20
-1.5
 30
0.0
 11
-117.086828429855
 21
-1.5
 31
0.0
  0
LINE
  5
F7ACD
  8
OBJECT
 10
-65.531671732073377
 20
-4.6999999999998172
 30
0.0
 11
-117.879356452729
 21
-4.6999999999998172
 31
0.0
  0
ARC
  5
F7ACE
  8
HIDDEN
 10
-129.9999999999998
 20
0.0
 30
0.0
 40
7.0
 50
0.0
 51
347.62637488383422
  0
ARC
  5
F7ACF
  8
HIDDEN
 10
-130.0
 20
0.0
 30
0.0
 40
10.20000000000004
 50
0.0
 51
332.56227057882001
  0
LINE
  5
F7AD0
  8
HIDDEN
 10
-119.7999999999999
 20
0.0
 30
0.0
 11
-122.9999999999999
 21
0.0
 31
0.0
  0
LINE
  5
F7AD1
  8
OBJECT
 10
-109.9999999999999
 20
1.5000000000009091
 30
0.0
 11
-109.9999999999999
 21
4.6999999999998172
 31
0.0
  0
LINE
  5
F7AD4
  8
OBJECT
 10
-140.2000000000001
 20
-304.0
 30
0.0
 11
-140.2000000000001
 21
-272.0
 31
0.0
  0
LINE
  5
F7AD5
  8
OBJECT
 10
-140.2000000000001
 20
-272.0
 30
0.0
 11
-67.283281727335392
 21
-272.0
 31
0.0
  0
LINE
  5
F7AD6
  8
OBJECT
 10
67.283281727328898
 20
-272.0
 30
0.0
 11
140.2000000000001
 21
-272.0
 31
0.0
  0
LINE
  5
F7AD7
  8
OBJECT
 10
140.2000000000001
 20
-272.0
 30
0.0
 11
140.2000000000001
 21
-304.0
 31
0.0
  0
LINE
  5
F7AD8
  8
OBJECT
 10
140.2000000000001
 20
-304.0
 30
0.0
 11
67.283281727328898
 21
-304.0
 31
0.0
  0
LINE
  5
F7AD9
  8
OBJECT
 10
-67.283281727335392
 20
-304.0
 30
0.0
 11
-140.2000000000001
 21
-304.0
 31
0.0
  0
LINE
  5
F7ADA
  8
OBJECT
 10
-120.94737607099449
 20
-272.0
 30
0.0
 11
-120.94737607099449
 21
-304.0
 31
0.0
  0
LINE
  5
F7ADB
  8
OBJECT
 10
110.0
 20
-272.0
 30
0.0
 11
110.0
 21
-304.0
 31
0.0
  0
LINE
  5
F7ADC
  8
OBJECT
 10
119.7999999999999
 20
-272.0
 30
0.0
 11
119.7999999999999
 21
-304.0
 31
0.0
  0
LINE
  5
F7ADD
  8
CENTER
 10
-155.2000000000001
 20
-288.0
 30
0.0
 11
155.19999999999999
 21
-288.0
 31
0.0
  0
POLYLINE
  5
F7C85
  8
SLIM
 66
     1
 10
0.0
 20
0.0
 30
0.0
 70
     1
  0
VERTEX
  5
1000C9
  8
SLIM
 10
90.092522711888265
 20
-279.5
 30
0.0
  0
VERTEX
  5
1000CA
  8
SLIM
 10
85.185045423776245
 20
-288.0
 30
0.0
  0
VERTEX
  5
1000CB
  8
SLIM
 10
90.092522711888265
 20
-296.5
 30
0.0
  0
VERTEX
  5
1000CC
  8
SLIM
 10
99.907477288111764
 20
-296.5
 30
0.0
  0
VERTEX
  5
1000CD
  8
SLIM
 10
104.8149545762237
 20
-288.0
 30
0.0
  0
VERTEX
  5
1000CE
  8
SLIM
 10
99.907477288111764
 20
-279.5
 30
0.0
  0
SEQEND
  5
1000CF
  8
SLIM
  0
POLYLINE
  5
F7C87
  8
SLIM
 66
     1
 10
0.0
 20
0.0
 30
0.0
 70
     1
  0
VERTEX
  5
1000D0
  8
SLIM
 10
-99.907477288111764
 20
-279.5
 30
0.0
  0
VERTEX
  5
1000D1
  8
SLIM
 10
-104.8149545762237
 20
-288.0
 30
0.0
  0
VERTEX
  5
1000D2
  8
SLIM
 10
-99.907477288111764
 20
-296.5
 30
0.0
  0
VERTEX
  5
1000D3
  8
SLIM
 10
-90.092522711888265
 20
-296.5
 30
0.0
  0
VERTEX
  5
1000D4
  8
SLIM
 10
-85.185045423776245
 20
-288.0
 30
0.0
  0
VERTEX
  5
1000D5
  8
SLIM
 10
-90.092522711888265
 20
-279.5
 30
0.0
  0
SEQEND
  5
1000D6
  8
SLIM
  0
LINE
  5
F7D01
  8
OBJECT
 10
104.8149545762237
 20
-4.7000000000007267
 30
0.0
 11
104.8149545762237
 21
-11.70000000000072
 31
0.0
  0
LINE
  5
F7D02
  8
OBJECT
 10
104.8149545762237
 20
-11.70000000000072
 30
0.0
 11
85.185045423776245
 21
-11.70000000000072
 31
0.0
  0
LINE
  5
F7D03
  8
OBJECT
 10
85.185045423776245
 20
-11.70000000000072
 30
0.0
 11
85.185045423776245
 21
-4.7000000000007267
 31
0.0
  0
LINE
  5
F7D05
  8
OBJECT
 10
99.907477288111764
 20
-4.7000000000007267
 30
0.0
 11
99.907477288111764
 21
-11.70000000000072
 31
0.0
  0
LINE
  5
F7D06
  8
OBJECT
 10
100.0
 20
-1.5000000000018181
 30
0.0
 11
100.0000000000002
 21
1.5
 31
0.0
  0
LINE
  5
F7D07
  8
OBJECT
 10
100.0
 20
12.69999999999891
 30
0.0
 11
100.0
 21
25.299999999999269
 31
0.0
  0
LINE
  5
F7D08
  8
OBJECT
 10
89.99999999999973
 20
-1.5000000000018181
 30
0.0
 11
90.000000000000213
 21
1.5
 31
0.0
  0
LINE
  5
F7D09
  8
OBJECT
 10
90.0
 20
12.69999999999891
 30
0.0
 11
90.0
 21
25.299999999999269
 31
0.0
  0
LINE
  5
F7D0A
  8
OBJECT
 10
100.0
 20
25.299999999999269
 30
0.0
 11
90.0
 21
25.299999999999269
 31
0.0
  0
LINE
  5
F7D0B
  8
OBJECT
 10
90.092522711888265
 20
-4.7000000000007267
 30
0.0
 11
90.092522711888265
 21
-11.70000000000072
 31
0.0
  0
LINE
  5
F7D0C
  8
OBJECT
 10
104.8149545762237
 20
12.69999999999891
 30
0.0
 11
104.8149545762237
 21
4.6999999999989068
 31
0.0
  0
LINE
  5
F7D0E
  8
OBJECT
 10
85.185045423776245
 20
4.6999999999989068
 30
0.0
 11
85.185045423776245
 21
12.69999999999891
 31
0.0
  0
LINE
  5
F7D0F
  8
OBJECT
 10
85.185045423776245
 20
12.69999999999891
 30
0.0
 11
104.8149545762237
 21
12.69999999999891
 31
0.0
  0
LINE
  5
F7D10
  8
OBJECT
 10
99.907477288111764
 20
12.69999999999891
 30
0.0
 11
99.907477288111764
 21
4.6999999999989068
 31
0.0
  0
LINE
  5
F7D11
  8
OBJECT
 10
90.092522711888265
 20
12.69999999999891
 30
0.0
 11
90.092522711888265
 21
4.6999999999989068
 31
0.0
  0
LINE
  5
F7D15
  8
OBJECT
 10
-85.185045423776245
 20
-4.7000000000007267
 30
0.0
 11
-85.185045423776245
 21
-11.70000000000072
 31
0.0
  0
LINE
  5
F7D16
  8
OBJECT
 10
-85.185045423776245
 20
-11.70000000000072
 30
0.0
 11
-104.8149545762237
 21
-11.70000000000072
 31
0.0
  0
LINE
  5
F7D17
  8
OBJECT
 10
-104.8149545762237
 20
-11.70000000000072
 30
0.0
 11
-104.8149545762237
 21
-4.7000000000007267
 31
0.0
  0
LINE
  5
F7D19
  8
OBJECT
 10
-90.092522711888265
 20
-4.7000000000007267
 30
0.0
 11
-90.092522711888265
 21
-11.70000000000072
 31
0.0
  0
LINE
  5
F7D1A
  8
OBJECT
 10
-90.0
 20
-1.5000000000018181
 30
0.0
 11
-89.99999999999973
 21
1.5
 31
0.0
  0
LINE
  5
F7D1B
  8
OBJECT
 10
-90.0
 20
12.69999999999891
 30
0.0
 11
-90.0
 21
25.299999999999269
 31
0.0
  0
LINE
  5
F7D1C
  8
OBJECT
 10
-100.0000000000002
 20
-1.5000000000018181
 30
0.0
 11
-99.999999999999787
 21
1.5
 31
0.0
  0
LINE
  5
F7D1D
  8
OBJECT
 10
-100.0
 20
12.69999999999891
 30
0.0
 11
-100.0
 21
25.299999999999269
 31
0.0
  0
LINE
  5
F7D1E
  8
OBJECT
 10
-90.0
 20
25.299999999999269
 30
0.0
 11
-100.0
 21
25.299999999999269
 31
0.0
  0
LINE
  5
F7D1F
  8
OBJECT
 10
-99.907477288111764
 20
-4.7000000000007267
 30
0.0
 11
-99.907477288111764
 21
-11.70000000000072
 31
0.0
  0
LINE
  5
F7D20
  8
OBJECT
 10
-85.185045423776245
 20
12.69999999999891
 30
0.0
 11
-85.185045423776245
 21
4.6999999999989068
 31
0.0
  0
LINE
  5
F7D22
  8
OBJECT
 10
-104.8149545762237
 20
4.6999999999989068
 30
0.0
 11
-104.8149545762237
 21
12.69999999999891
 31
0.0
  0
LINE
  5
F7D23
  8
OBJECT
 10
-104.8149545762237
 20
12.69999999999891
 30
0.0
 11
-85.185045423776245
 21
12.69999999999891
 31
0.0
  0
LINE
  5
F7D24
  8
OBJECT
 10
-90.092522711888265
 20
12.69999999999891
 30
0.0
 11
-90.092522711888265
 21
4.6999999999989068
 31
0.0
  0
LINE
  5
F7D25
  8
OBJECT
 10
-99.907477288111764
 20
12.69999999999891
 30
0.0
 11
-99.907477288111764
 21
4.6999999999989068
 31
0.0
  0
LINE
  5
F7D69
  8
OBJECT
 62
     6
 10
-123.6500000000006
 20
-389.80000000000013
 30
0.0
 11
-123.6500000000006
 21
-316.29999999999922
 31
0.0
  0
LINE
  5
F7D6A
  8
OBJECT
 62
     6
 10
-136.3500000000046
 20
-389.80000000000013
 30
0.0
 11
-136.35000000000039
 21
-316.29999999999922
 31
0.0
  0
LINE
  5
F7D6B
  8
OBJECT
 62
     6
 10
-117.00000000000099
 20
-272.0
 30
0.0
 11
-117.00000000000099
 21
-269.69999999999987
 31
0.0
  0
LINE
  5
F7D6C
  8
OBJECT
 62
     6
 10
-117.00000000000099
 20
-269.69999999999987
 30
0.0
 11
-143.00000000000099
 21
-269.69999999999987
 31
0.0
  0
LINE
  5
F7D6D
  8
OBJECT
 62
     6
 10
-143.00000000000099
 20
-272.0
 30
0.0
 11
-143.00000000000099
 21
-269.69999999999987
 31
0.0
  0
LINE
  5
F7D6E
  8
OBJECT
 62
     6
 10
-117.00000000000099
 20
-272.0
 30
0.0
 11
-143.00000000000099
 21
-272.0
 31
0.0
  0
LINE
  5
F7D6F
  8
OBJECT
 62
     6
 10
-117.87564434701839
 20
-259.69999999999987
 30
0.0
 11
-142.1243556529835
 21
-259.69999999999987
 31
0.0
  0
LINE
  5
F7D70
  8
OBJECT
 62
     6
 10
-142.1243556529835
 20
-259.69999999999987
 30
0.0
 11
-142.1243556529835
 21
-269.69999999999987
 31
0.0
  0
LINE
  5
F7D72
  8
OBJECT
 62
     6
 10
-117.87564434701839
 20
-269.69999999999987
 30
0.0
 11
-117.87564434701839
 21
-259.69999999999987
 31
0.0
  0
LINE
  5
F7D73
  8
OBJECT
 62
     6
 10
-123.9378221735097
 20
-259.69999999999987
 30
0.0
 11
-123.9378221735097
 21
-269.69999999999987
 31
0.0
  0
LINE
  5
F7D74
  8
OBJECT
 62
     6
 10
-136.0621778264923
 20
-259.69999999999987
 30
0.0
 11
-136.0621778264923
 21
-269.69999999999987
 31
0.0
  0
LINE
  5
F7D75
  8
OBJECT
 62
     6
 10
-117.00000000000099
 20
-304.0
 30
0.0
 11
-117.00000000000099
 21
-306.30000000000018
 31
0.0
  0
LINE
  5
F7D76
  8
OBJECT
 62
     6
 10
-117.00000000000099
 20
-306.30000000000018
 30
0.0
 11
-143.00000000000099
 21
-306.30000000000018
 31
0.0
  0
LINE
  5
F7D77
  8
OBJECT
 62
     6
 10
-143.00000000000099
 20
-304.0
 30
0.0
 11
-143.00000000000099
 21
-306.30000000000018
 31
0.0
  0
LINE
  5
F7D78
  8
OBJECT
 62
     6
 10
-117.00000000000099
 20
-304.0
 30
0.0
 11
-143.00000000000099
 21
-304.0
 31
0.0
  0
LINE
  5
F7D79
  8
OBJECT
 62
     6
 10
-117.87564434701839
 20
-316.30000000000018
 30
0.0
 11
-142.1243556529835
 21
-316.30000000000018
 31
0.0
  0
LINE
  5
F7D7A
  8
OBJECT
 62
     6
 10
-142.1243556529835
 20
-316.30000000000018
 30
0.0
 11
-142.1243556529835
 21
-306.30000000000018
 31
0.0
  0
LINE
  5
F7D7C
  8
OBJECT
 62
     6
 10
-117.87564434701839
 20
-306.30000000000018
 30
0.0
 11
-117.87564434701839
 21
-316.30000000000018
 31
0.0
  0
LINE
  5
F7D7D
  8
OBJECT
 62
     6
 10
-123.9378221735097
 20
-316.30000000000018
 30
0.0
 11
-123.9378221735097
 21
-306.30000000000018
 31
0.0
  0
LINE
  5
F7D7E
  8
OBJECT
 62
     6
 10
-136.0621778264923
 20
-316.30000000000018
 30
0.0
 11
-136.0621778264923
 21
-306.30000000000018
 31
0.0
  0
LINE
  5
F7D7F
  8
OBJECT
 62
     6
 10
-123.6500000000006
 20
-259.69999999999987
 30
0.0
 11
-123.6500000000006
 21
-199.799999999992
 31
0.0
  0
LINE
  5
F7D80
  8
OBJECT
 62
     6
 10
-136.3500000000013
 20
-259.69999999999987
 30
0.0
 11
-136.35000000000039
 21
-199.80000000000001
 31
0.0
  0
LINE
  5
F7D81
  8
OBJECT
 62
     6
 10
-136.35000000000039
 20
-199.80000000000001
 30
0.0
 11
-123.6500000000006
 21
-199.80000000000001
 31
0.0
  0
LINE
  5
F7D82
  8
CENTER
 10
-129.9999999999998
 20
-184.80000000000021
 30
0.0
 11
-130.0
 21
-468.0
 31
0.0
  0
LINE
  5
F7D83
  8
OBJECT
 62
     6
 10
-119.030344885397
 20
-399.80000000000013
 30
0.0
 11
-119.030344885397
 21
-449.80000000000013
 31
0.0
  0
LINE
  5
F7D85
  8
OBJECT
 62
     6
 10
-140.9696551146028
 20
-449.80000000000013
 30
0.0
 11
-140.9696551146028
 21
-399.80000000000013
 31
0.0
  0
LINE
  5
F7D87
  8
OBJECT
 62
     6
 10
-124.5151724426985
 20
-399.80000000000013
 30
0.0
 11
-124.5151724426985
 21
-449.80000000000013
 31
0.0
  0
LINE
  5
F7D88
  8
OBJECT
 62
     6
 10
-135.4848275573014
 20
-399.80000000000013
 30
0.0
 11
-135.4848275573014
 21
-449.80000000000013
 31
0.0
  0
LINE
  5
F7D8F
  8
OBJECT
 62
     6
 10
-117.87564434701849
 20
-399.80000000000013
 30
0.0
 11
-142.12435565298361
 21
-399.80000000000013
 31
0.0
  0
LINE
  5
F7D90
  8
OBJECT
 62
     6
 10
-142.12435565298361
 20
-399.80000000000013
 30
0.0
 11
-142.12435565298361
 21
-389.80000000000013
 31
0.0
  0
LINE
  5
F7D91
  8
OBJECT
 62
     6
 10
-142.12435565298361
 20
-389.80000000000013
 30
0.0
 11
-117.87564434701849
 21
-389.80000000000013
 31
0.0
  0
LINE
  5
F7D92
  8
OBJECT
 62
     6
 10
-117.87564434701849
 20
-389.80000000000013
 30
0.0
 11
-117.87564434701849
 21
-399.80000000000013
 31
0.0
  0
LINE
  5
F7D93
  8
OBJECT
 62
     6
 10
-123.9378221735097
 20
-399.80000000000013
 30
0.0
 11
-123.9378221735097
 21
-389.80000000000013
 31
0.0
  0
LINE
  5
F7D94
  8
OBJECT
 62
     6
 10
-136.0621778264923
 20
-399.80000000000013
 30
0.0
 11
-136.0621778264923
 21
-389.80000000000013
 31
0.0
  0
LINE
  5
F7D95
  8
OBJECT
 62
     6
 10
-165.0
 20
-449.80000000000013
 30
0.0
 11
-115.0
 21
-449.80000000000013
 31
0.0
  0
LINE
  5
F7D96
  8
OBJECT
 62
     6
 10
-115.0
 20
-449.80000000000013
 30
0.0
 11
-115.0
 21
-453.0
 31
0.0
  0
LINE
  5
F7D97
  8
OBJECT
 62
     6
 10
-115.0
 20
-453.0
 30
0.0
 11
-165.0
 21
-453.0
 31
0.0
  0
LINE
  5
F7D98
  8
OBJECT
 62
     6
 10
-140.0
 20
-453.0
 30
0.0
 11
-140.0
 21
-449.80000000000013
 31
0.0
  0
LINE
  5
F7D99
  8
OBJECT
 62
     6
 10
-165.0
 20
-453.0
 30
0.0
 11
-165.0
 21
-449.80000000000013
 31
0.0
  0
CIRCLE
  5
F7DA1
  8
OBJECT
 62
     6
 10
-130.0
 20
0.0
 30
0.0
 40
13.0
  0
LINE
  5
F7DA7
  8
OBJECT
 62
     6
 10
-115.0
 20
-40.0
 30
0.0
 11
-140.0
 21
-40.0
 31
0.0
  0
LINE
  5
F7DA8
  8
OBJECT
 62
     6
 10
-140.0
 20
-40.0
 30
0.0
 11
-140.0
 21
-12.5
 31
0.0
  0
LINE
  5
F7DA9
  8
OBJECT
 62
     6
 10
-140.0
 20
-12.5
 30
0.0
 11
-165.0
 21
-12.5
 31
0.0
  0
LINE
  5
F7DAA
  8
OBJECT
 62
     6
 10
-165.0
 20
-12.5
 30
0.0
 11
-165.0
 21
12.5
 31
0.0
  0
LINE
  5
F7DAB
  8
OBJECT
 62
     6
 10
-165.0
 20
12.5
 30
0.0
 11
-140.0
 21
12.5
 31
0.0
  0
LINE
  5
F7DAD
  8
OBJECT
 62
     6
 10
-140.0
 20
12.5
 30
0.0
 11
-140.0
 21
40.0
 31
0.0
  0
LINE
  5
F7DAE
  8
OBJECT
 62
     6
 10
-140.0
 20
40.0
 30
0.0
 11
-115.0
 21
40.0
 31
0.0
  0
LINE
  5
F7DAF
  8
OBJECT
 62
     6
 10
-115.0
 20
40.0
 30
0.0
 11
-115.0000000000001
 21
-1.5
 31
0.0
  0
LINE
  5
F7DB0
  8
HIDDEN
 10
-117.0868284298549
 20
-1.5
 30
0.0
 11
-123.16260283441061
 21
-1.4999999999972711
 31
0.0
  0
LINE
  5
F7DB1
  8
HIDDEN
 10
-117.8793564527291
 20
-4.7000000000007267
 30
0.0
 11
-120.94737607099469
 21
-4.7000000000007267
 31
0.0
  0
LINE
  5
F7DB2
  8
OBJECT
 62
     6
 10
-115.0000000000001
 20
-4.7000000000007267
 30
0.0
 11
-115.0
 21
-40.0
 31
0.0
  0
CIRCLE
  5
F7DB3
  8
OBJECT
 62
     6
 10
-152.5
 20
0.0
 30
0.0
 40
2.75
  0
CIRCLE
  5
F7DBA
  8
OBJECT
 62
     6
 10
-127.5
 20
27.5
 30
0.0
 40
2.75
  0
CIRCLE
  5
F7DBB
  8
OBJECT
 62
     6
 10
-127.5
 20
-27.5
 30
0.0
 40
2.75
  0
LINE
  5
F7DC8
  8
CENTER
 10
-127.5
 20
35.25
 30
0.0
 11
-127.5
 21
19.75
 31
0.0
  0
LINE
  5
F7DD1
  8
CENTER
 10
-135.25
 20
27.5
 30
0.0
 11
-119.75
 21
27.5
 31
0.0
  0
LINE
  5
F7DD2
  8
CENTER
 10
-127.5
 20
-19.75
 30
0.0
 11
-127.5
 21
-35.25
 31
0.0
  0
LINE
  5
F7DD3
  8
CENTER
 10
-135.25
 20
-27.5
 30
0.0
 11
-119.75
 21
-27.5
 31
0.0
  0
LINE
  5
F7DD4
  8
CENTER
 10
-152.5
 20
7.75
 30
0.0
 11
-152.5
 21
-7.75
 31
0.0
  0
LINE
  5
F7DD5
  8
CENTER
 10
-130.0
 20
18.0
 30
0.0
 11
-130.0
 21
-18.0
 31
0.0
  0
LINE
  5
F7DDB
  8
CENTER
 10
819.99999999999966
 20
0.0
 30
0.0
 11
1180.0
 21
0.0
 31
0.0
  0
LINE
  5
F7DDC
  8
OBJECT
 10
1062.4819974072529
 20
-1.5000000000009091
 30
0.0
 11
1110.0
 21
-1.5000000000009091
 31
0.0
  0
LINE
  5
F7DDD
  8
OBJECT
 10
1065.345237010818
 20
-4.5000000000009077
 30
0.0
 11
1110.0
 21
-4.5000000000009077
 31
0.0
  0
LINE
  5
F7DDE
  8
OBJECT
 10
1062.4819974072529
 20
1.5
 30
0.0
 11
1117.086828429854
 21
1.4999999999972711
 31
0.0
  0
LINE
  5
F7DDF
  8
OBJECT
 10
1065.345237010818
 20
4.5
 30
0.0
 11
1117.80368908235
 21
4.5000000000018172
 31
0.0
  0
LINE
  5
F7DF0
  8
OBJECT
 10
937.5180025927466
 20
1.5000000000009091
 30
0.0
 11
889.99999999999955
 21
1.5000000000009091
 31
0.0
  0
LINE
  5
F7DF1
  8
OBJECT
 10
934.65476298918168
 20
4.5000000000009077
 30
0.0
 11
889.99999999999955
 21
4.5000000000009077
 31
0.0
  0
LINE
  5
F7DF2
  8
OBJECT
 10
937.5180025927466
 20
-1.5
 30
0.0
 11
882.91317157014498
 21
-1.4999999999972711
 31
0.0
  0
LINE
  5
F7DF3
  8
OBJECT
 10
934.65476298918168
 20
-4.4999999999990887
 30
0.0
 11
882.19631091765041
 21
-4.5
 31
0.0
  0
LINE
  5
F7DF7
  8
OBJECT
 10
860.0
 20
-304.0
 30
0.0
 11
860.0
 21
-272.0
 31
0.0
  0
LINE
  5
F7DF8
  8
OBJECT
 10
860.0
 20
-272.0
 30
0.0
 11
932.91796067500627
 21
-272.0
 31
0.0
  0
LINE
  5
F7DF9
  8
OBJECT
 10
1067.082039324994
 20
-272.0
 30
0.0
 11
1140.0
 21
-272.0
 31
0.0
  0
LINE
  5
F7DFA
  8
OBJECT
 10
1140.0
 20
-272.0
 30
0.0
 11
1140.0
 21
-304.0
 31
0.0
  0
LINE
  5
F7DFB
  8
OBJECT
 10
1140.0
 20
-304.0
 30
0.0
 11
1067.082039324994
 21
-304.0
 31
0.0
  0
LINE
  5
F7DFC
  8
OBJECT
 10
932.91796067500627
 20
-304.0
 30
0.0
 11
860.0
 21
-304.0
 31
0.0
  0
LINE
  5
F7DFD
  8
OBJECT
 10
1110.0
 20
-272.0
 30
0.0
 11
1110.0
 21
-304.0
 31
0.0
  0
LINE
  5
F7DFE
  8
CENTER
 10
845.0
 20
-288.0
 30
0.0
 11
1155.0
 21
-288.0
 31
0.0
  0
LINE
  5
F7DFF
  8
OBJECT
 10
889.99999999999955
 20
1.5000000000009091
 30
0.0
 11
889.99999999999955
 21
4.5000000000009077
 31
0.0
  0
LINE
  5
F7E01
  8
OBJECT
 10
1110.0
 20
-1.5000000000009091
 30
0.0
 11
1110.0
 21
-4.5000000000009077
 31
0.0
  0
LINE
  5
F7E03
  8
OBJECT
 10
878.93028554974615
 20
-272.0
 30
0.0
 11
878.93028554974615
 21
-304.0
 31
0.0
  0
LINE
  5
F7E04
  8
OBJECT
 10
1110.0
 20
-272.0
 30
0.0
 11
1110.0
 21
-304.0
 31
0.0
  0
LINE
  5
F7E05
  8
OBJECT
 10
1120.0
 20
-272.0
 30
0.0
 11
1120.0
 21
-304.0
 31
0.0
  0
LINE
  5
F7E06
  8
CENTER
 10
1810.0
 20
0.0
 30
0.0
 11
2190.0000000000009
 21
0.0
 31
0.0
  0
LINE
  5
F7E07
  8
OBJECT
 10
2074.9849984996999
 20
-1.5000000000009091
 30
0.0
 11
2120.0
 21
-1.5000000000009091
 31
0.0
  0
LINE
  5
F7E08
  8
OBJECT
 10
2078.0586318096871
 20
-4.7000000000007267
 30
0.0
 11
2120.0
 21
-4.7000000000007267
 31
0.0
  0
LINE
  5
F7E09
  8
OBJECT
 10
2074.9849984996999
 20
1.5
 30
0.0
 11
2127.0868284298549
 21
1.4999999999972711
 31
0.0
  0
LINE
  5
F7E0A
  8
OBJECT
 10
2078.0586318096871
 20
4.6999999999989068
 30
0.0
 11
2127.87935645273
 21
4.7000000000007267
 31
0.0
  0
LINE
  5
F7E1B
  8
OBJECT
 10
1925.0150015003001
 20
1.5000000000009091
 30
0.0
 11
1880.0
 21
1.5000000000009091
 31
0.0
  0
LINE
  5
F7E1C
  8
OBJECT
 10
1921.9413681903129
 20
4.7000000000007267
 30
0.0
 11
1880.0
 21
4.7000000000007267
 31
0.0
  0
LINE
  5
F7E1D
  8
OBJECT
 10
1925.0150015003001
 20
-1.5
 30
0.0
 11
1872.913171570144
 21
-1.5
 31
0.0
  0
LINE
  5
F7E1E
  8
OBJECT
 10
1921.941368190325
 20
-4.6999999999998172
 30
0.0
 11
1872.12064354727
 21
-4.7000000000007267
 31
0.0
  0
LINE
  5
F7E21
  8
CENTER
 10
2810.0
 20
0.0
 30
0.0
 11
3190.0000000000009
 21
0.0
 31
0.0
  0
LINE
  5
F7E22
  8
OBJECT
 10
3074.984998499699
 20
-1.5000000000009091
 30
0.0
 11
3120.0
 21
-1.5000000000009091
 31
0.0
  0
LINE
  5
F7E23
  8
OBJECT
 10
3077.8700841145051
 20
-4.5000000000009077
 30
0.0
 11
3120.0
 21
-4.5000000000009077
 31
0.0
  0
LINE
  5
F7E24
  8
OBJECT
 10
3074.984998499699
 20
1.5
 30
0.0
 11
3127.0868284298549
 21
1.4999999999972711
 31
0.0
  0
LINE
  5
F7E25
  8
OBJECT
 10
3077.8700841145051
 20
4.5
 30
0.0
 11
3127.80368908235
 21
4.5000000000018172
 31
0.0
  0
LINE
  5
F7E36
  8
OBJECT
 10
2925.0150015003001
 20
1.5000000000009091
 30
0.0
 11
2880.0
 21
1.5000000000009091
 31
0.0
  0
LINE
  5
F7E37
  8
OBJECT
 10
2922.1299158854972
 20
4.5000000000009077
 30
0.0
 11
2880.0
 21
4.5000000000009077
 31
0.0
  0
LINE
  5
F7E38
  8
OBJECT
 10
2925.0150015003001
 20
-1.5
 30
0.0
 11
2872.9131715701451
 21
-1.5
 31
0.0
  0
LINE
  5
F7E39
  8
OBJECT
 10
2922.1299158854949
 20
-4.499999999998181
 30
0.0
 11
2872.1963109176509
 21
-4.4999999999990887
 31
0.0
  0
LINE
  5
F7E3D
  8
OBJECT
 10
2850.0
 20
-304.0
 30
0.0
 11
2850.0
 21
-272.0
 31
0.0
  0
LINE
  5
F7E3E
  8
OBJECT
 10
2850.0
 20
-272.0
 30
0.0
 11
2920.3523383896299
 21
-272.0
 31
0.0
  0
LINE
  5
F7E3F
  8
OBJECT
 10
3079.647661610371
 20
-272.0
 30
0.0
 11
3150.0
 21
-272.0
 31
0.0
  0
LINE
  5
F7E40
  8
OBJECT
 10
3150.0
 20
-272.0
 30
0.0
 11
3150.0
 21
-304.0
 31
0.0
  0
LINE
  5
F7E41
  8
OBJECT
 10
3150.0
 20
-304.0
 30
0.0
 11
3079.647661610371
 21
-304.0
 31
0.0
  0
LINE
  5
F7E42
  8
OBJECT
 10
2920.3523383896299
 20
-304.0
 30
0.0
 11
2850.0
 21
-304.0
 31
0.0
  0
LINE
  5
F7E43
  8
CENTER
 10
2835.0000000000018
 20
-288.0
 30
0.0
 11
3165.0
 21
-288.0
 31
0.0
  0
LINE
  5
F7E44
  8
OBJECT
 10
2868.9302855497458
 20
-272.0
 30
0.0
 11
2868.9302855497458
 21
-304.0
 31
0.0
  0
LINE
  5
F7E45
  8
OBJECT
 10
3130.0
 20
-272.0
 30
0.0
 11
3130.0
 21
-304.0
 31
0.0
  0
LINE
  5
F7E46
  8
OBJECT
 10
3120.0
 20
-1.5000000000009091
 30
0.0
 11
3120.0
 21
-4.5000000000009077
 31
0.0
  0
LINE
  5
F7E48
  8
OBJECT
 10
2880.0
 20
4.5000000000009077
 30
0.0
 11
2880.0
 21
1.5000000000009091
 31
0.0
  0
LINE
  5
F7E4B
  8
OBJECT
 10
1880.0
 20
1.5000000000009091
 30
0.0
 11
1880.0
 21
4.7000000000007267
 31
0.0
  0
LINE
  5
F7E4C
  8
OBJECT
 10
2120.0
 20
-1.5000000000009091
 30
0.0
 11
2120.0
 21
-4.7000000000007267
 31
0.0
  0
LINE
  5
F7E4E
  8
OBJECT
 10
1849.8
 20
-304.0
 30
0.0
 11
1849.8
 21
-272.0
 31
0.0
  0
LINE
  5
F7E4F
  8
OBJECT
 10
1849.8
 20
-272.0
 30
0.0
 11
1920.1514558680001
 21
-272.0
 31
0.0
  0
LINE
  5
F7E50
  8
OBJECT
 10
2079.848544131994
 20
-272.0
 30
0.0
 11
2150.1999999999998
 21
-272.0
 31
0.0
  0
LINE
  5
F7E51
  8
OBJECT
 10
2150.1999999999998
 20
-272.0
 30
0.0
 11
2150.1999999999998
 21
-304.0
 31
0.0
  0
LINE
  5
F7E52
  8
OBJECT
 10
2150.1999999999998
 20
-304.0
 30
0.0
 11
2079.848544131994
 21
-304.0
 31
0.0
  0
LINE
  5
F7E53
  8
OBJECT
 10
1920.1514558679989
 20
-304.0
 30
0.0
 11
1849.8
 21
-304.0
 31
0.0
  0
LINE
  5
F7E54
  8
OBJECT
 10
1869.052623929005
 20
-272.0
 30
0.0
 11
1869.052623929005
 21
-304.0
 31
0.0
  0
LINE
  5
F7E55
  8
OBJECT
 10
2120.0
 20
-272.0
 30
0.0
 11
2120.0
 21
-304.0
 31
0.0
  0
LINE
  5
F7E56
  8
OBJECT
 10
2129.8000000000002
 20
-272.0
 30
0.0
 11
2129.8000000000002
 21
-304.0
 31
0.0
  0
LINE
  5
F7E57
  8
CENTER
 10
1834.8
 20
-288.0
 30
0.0
 11
2165.1999999999998
 21
-288.0
 31
0.0
  0
LINE
  5
F7E84
  8
CENTER
 10
3770.0
 20
0.0
 30
0.0
 11
4230.0
 21
0.0
 31
0.0
  0
LINE
  5
F7E85
  8
OBJECT
 10
4088.4872872225151
 20
-1.5000000000009091
 30
0.0
 11
4135.0
 21
-1.5000000000009091
 31
0.0
  0
LINE
  5
F7E86
  8
OBJECT
 10
4092.8062497895489
 20
-6.0000000000009077
 30
0.0
 11
4135.0
 21
-6.0000000000009077
 31
0.0
  0
LINE
  5
F7E87
  8
OBJECT
 10
4088.4872872225151
 20
1.5
 30
0.0
 11
4146.0593030751243
 21
1.4999999999990901
 31
0.0
  0
LINE
  5
F7E88
  8
OBJECT
 10
4092.8062497895489
 20
6.0
 30
0.0
 11
4146.9722436226803
 21
6.0
 31
0.0
  0
LINE
  5
F7E99
  8
OBJECT
 10
3911.5127127774849
 20
1.5000000000018181
 30
0.0
 11
3865.0
 21
1.5000000000009091
 31
0.0
  0
LINE
  5
F7E9A
  8
OBJECT
 10
3907.1937502104529
 20
6.0000000000018172
 30
0.0
 11
3865.0
 21
6.0000000000009077
 31
0.0
  0
LINE
  5
F7E9B
  8
OBJECT
 10
3911.5127127774849
 20
-1.4999999999990901
 30
0.0
 11
3853.9406969248762
 21
-1.5
 31
0.0
  0
LINE
  5
F7E9C
  8
OBJECT
 10
3907.1937502104529
 20
-5.9999999999990887
 30
0.0
 11
3853.0277563773211
 21
-6.0
 31
0.0
  0
ARC
  5
F7E9D
  8
HIDDEN
 10
3835.0
 20
0.0
 30
0.0
 40
8.5
 50
0.0
 51
349.83575137828592
  0
ARC
  5
F7E9E
  8
HIDDEN
 10
3835.0
 20
0.0
 30
0.0
 40
13.0
 50
0.0
 51
332.51357374963669
  0
LINE
  5
F7E9F
  8
OBJECT
 10
3879.0
 20
34.000000000000909
 30
0.0
 11
3879.0
 21
16.000000000001819
 31
0.0
  0
LINE
  5
F7EA0
  8
OBJECT
 10
3879.0
 20
1.5000000000009091
 30
0.0
 11
3879.0
 21
-1.5
 31
0.0
  0
LINE
  5
F7EA1
  8
OBJECT
 10
3891.0
 20
34.000000000000909
 30
0.0
 11
3891.0
 21
16.000000000000909
 31
0.0
  0
LINE
  5
F7EA2
  8
OBJECT
 10
3891.0
 20
1.5000000000018181
 30
0.0
 11
3891.0
 21
-1.5
 31
0.0
  0
LINE
  5
F7EA3
  8
OBJECT
 10
3822.0
 20
-315.0
 30
0.0
 11
3822.0
 21
-277.0
 31
0.0
  0
LINE
  5
F7EA4
  8
OBJECT
 10
3822.0
 20
-277.0
 30
0.0
 11
3905.527781861545
 21
-277.0
 31
0.0
  0
LINE
  5
F7EA5
  8
OBJECT
 10
4094.4722181384559
 20
-277.0
 30
0.0
 11
4178.0
 21
-277.0
 31
0.0
  0
LINE
  5
F7EA6
  8
OBJECT
 10
4178.0
 20
-277.0
 30
0.0
 11
4178.0
 21
-315.0
 31
0.0
  0
LINE
  5
F7EA7
  8
OBJECT
 10
4178.0
 20
-315.0
 30
0.0
 11
4094.4722181384559
 21
-315.0
 31
0.0
  0
LINE
  5
F7EA8
  8
OBJECT
 10
3905.527781861545
 20
-315.0
 30
0.0
 11
3822.0
 21
-315.0
 31
0.0
  0
LINE
  5
F7EA9
  8
CENTER
 10
3807.0000000000018
 20
-296.0
 30
0.0
 11
4193.0
 21
-296.0
 31
0.0
  0
LINE
  5
F7EAA
  8
OBJECT
 10
3846.5325625946712
 20
-277.0
 30
0.0
 11
3846.5325625946712
 21
-315.0
 31
0.0
  0
LINE
  5
F7EAB
  8
OBJECT
 10
4152.0
 20
-277.0
 30
0.0
 11
4152.0
 21
-315.0
 31
0.0
  0
LINE
  5
F7EBB
  8
OBJECT
 10
3120.0
 20
-272.0
 30
0.0
 11
3120.0
 21
-304.0
 31
0.0
  0
LINE
  5
F7EF0
  8
OBJECT
 10
4135.0
 20
-1.5000000000009091
 30
0.0
 11
4135.0
 21
-6.0000000000009077
 31
0.0
  0
LINE
  5
F7EF2
  8
OBJECT
 10
3865.0
 20
6.0000000000009077
 30
0.0
 11
3865.0
 21
1.5000000000009091
 31
0.0
  0
LINE
  5
F7EF3
  8
HIDDEN
 10
3843.5
 20
0.0
 30
0.0
 11
3848.0
 21
0.0
 31
0.0
  0
LINE
  5
F7EF4
  8
OBJECT
 10
4135.0
 20
-277.0
 30
0.0
 11
4135.0
 21
-315.0
 31
0.0
  0
POLYLINE
  5
F7EFA
  8
SLIM
 66
     1
 10
0.0
 20
0.0
 30
0.0
 70
     1
  0
VERTEX
  5
1000D7
  8
SLIM
 10
3879.5151724427001
 20
-286.5
 30
0.0
  0
VERTEX
  5
1000D8
  8
SLIM
 10
3874.0303448853961
 20
-296.0
 30
0.0
  0
VERTEX
  5
1000D9
  8
SLIM
 10
3879.5151724427001
 20
-305.5
 30
0.0
  0
VERTEX
  5
1000DA
  8
SLIM
 10
3890.4848275573008
 20
-305.5
 30
0.0
  0
VERTEX
  5
1000DB
  8
SLIM
 10
3895.9696551146039
 20
-296.0
 30
0.0
  0
VERTEX
  5
1000DC
  8
SLIM
 10
3890.4848275573008
 20
-286.5
 30
0.0
  0
SEQEND
  5
1000DD
  8
SLIM
  0
POLYLINE
  5
F7EFC
  8
SLIM
 66
     1
 10
0.0
 20
0.0
 30
0.0
 70
     1
  0
VERTEX
  5
1000DE
  8
SLIM
 10
4109.5151724426987
 20
-286.5
 30
0.0
  0
VERTEX
  5
1000DF
  8
SLIM
 10
4104.0303448853974
 20
-296.0
 30
0.0
  0
VERTEX
  5
1000E0
  8
SLIM
 10
4109.5151724426987
 20
-305.5
 30
0.0
  0
VERTEX
  5
1000E1
  8
SLIM
 10
4120.4848275573013
 20
-305.5
 30
0.0
  0
VERTEX
  5
1000E2
  8
SLIM
 10
4125.9696551146026
 20
-296.0
 30
0.0
  0
VERTEX
  5
1000E3
  8
SLIM
 10
4120.4848275573013
 20
-286.5
 30
0.0
  0
SEQEND
  5
1000E4
  8
SLIM
  0
LINE
  5
F7F02
  8
OBJECT
 10
3874.0303448853961
 20
-5.9999999999990887
 30
0.0
 11
3874.0303448853961
 21
-13.999999999999091
 31
0.0
  0
LINE
  5
F7F03
  8
OBJECT
 10
3874.0303448853961
 20
-13.999999999999091
 30
0.0
 11
3895.9696551146039
 21
-13.999999999999091
 31
0.0
  0
LINE
  5
F7F04
  8
OBJECT
 10
3895.9696551146039
 20
-13.999999999999091
 30
0.0
 11
3895.9696551146039
 21
-5.9999999999990887
 31
0.0
  0
LINE
  5
F7F06
  8
OBJECT
 10
3891.0
 20
34.000000000000909
 30
0.0
 11
3879.0
 21
34.000000000000909
 31
0.0
  0
LINE
  5
F7F07
  8
OBJECT
 10
3879.5151724427001
 20
-5.9999999999990887
 30
0.0
 11
3879.5151724427001
 21
-13.999999999999091
 31
0.0
  0
LINE
  5
F7F08
  8
OBJECT
 10
3890.4848275573008
 20
-5.9999999999990887
 30
0.0
 11
3890.4848275573008
 21
-13.999999999999091
 31
0.0
  0
LINE
  5
F7F0B
  8
OBJECT
 10
3874.0303448853961
 20
16.000000000000909
 30
0.0
 11
3874.0303448853961
 21
6.0000000000009077
 31
0.0
  0
LINE
  5
F7F0D
  8
OBJECT
 10
3895.9696551146039
 20
6.0000000000009077
 30
0.0
 11
3895.9696551146039
 21
16.000000000000909
 31
0.0
  0
LINE
  5
F7F0E
  8
OBJECT
 10
3895.9696551146039
 20
16.000000000000909
 30
0.0
 11
3874.0303448853961
 21
16.000000000000909
 31
0.0
  0
LINE
  5
F7F0F
  8
OBJECT
 10
3879.5151724427001
 20
16.000000000000909
 30
0.0
 11
3879.5151724427001
 21
6.0000000000009077
 31
0.0
  0
LINE
  5
F7F10
  8
OBJECT
 10
3890.4848275573008
 20
16.000000000000909
 30
0.0
 11
3890.4848275573008
 21
6.0000000000009077
 31
0.0
  0
LINE
  5
F7F12
  8
OBJECT
 10
4121.0
 20
34.000000000000909
 30
0.0
 11
4121.0
 21
16.000000000001819
 31
0.0
  0
LINE
  5
F7F13
  8
OBJECT
 10
4121.0
 20
1.5000000000009091
 30
0.0
 11
4121.0
 21
-1.5
 31
0.0
  0
LINE
  5
F7F14
  8
OBJECT
 10
4109.0
 20
34.000000000000909
 30
0.0
 11
4109.0
 21
16.000000000000909
 31
0.0
  0
LINE
  5
F7F15
  8
OBJECT
 10
4109.0
 20
1.5000000000018181
 30
0.0
 11
4109.0
 21
-1.5
 31
0.0
  0
LINE
  5
F7F16
  8
OBJECT
 10
4125.9696551146026
 20
-5.9999999999990887
 30
0.0
 11
4125.9696551146026
 21
-13.999999999999091
 31
0.0
  0
LINE
  5
F7F17
  8
OBJECT
 10
4125.9696551146026
 20
-13.999999999999091
 30
0.0
 11
4104.0303448853974
 21
-13.999999999999091
 31
0.0
  0
LINE
  5
F7F18
  8
OBJECT
 10
4104.0303448853974
 20
-13.999999999999091
 30
0.0
 11
4104.0303448853974
 21
-5.9999999999990887
 31
0.0
  0
LINE
  5
F7F1A
  8
OBJECT
 10
4109.0
 20
34.000000000000909
 30
0.0
 11
4121.0
 21
34.000000000000909
 31
0.0
  0
LINE
  5
F7F1B
  8
OBJECT
 10
4120.4848275573013
 20
-5.9999999999990887
 30
0.0
 11
4120.4848275573013
 21
-13.999999999999091
 31
0.0
  0
LINE
  5
F7F1C
  8
OBJECT
 10
4109.5151724426969
 20
-5.9999999999990887
 30
0.0
 11
4109.5151724426969
 21
-13.999999999999091
 31
0.0
  0
LINE
  5
F7F1F
  8
OBJECT
 10
4125.9696551146026
 20
16.000000000000909
 30
0.0
 11
4125.9696551146026
 21
6.0000000000009077
 31
0.0
  0
LINE
  5
F7F21
  8
OBJECT
 10
4104.0303448853974
 20
6.0000000000009077
 30
0.0
 11
4104.0303448853974
 21
16.000000000000909
 31
0.0
  0
LINE
  5
F7F22
  8
OBJECT
 10
4104.0303448853974
 20
16.000000000000909
 30
0.0
 11
4125.9696551146026
 21
16.000000000000909
 31
0.0
  0
LINE
  5
F7F23
  8
OBJECT
 10
4120.4848275573013
 20
16.000000000000909
 30
0.0
 11
4120.4848275573013
 21
6.0000000000009077
 31
0.0
  0
LINE
  5
F7F24
  8
OBJECT
 10
4109.5151724426969
 20
16.000000000000909
 30
0.0
 11
4109.5151724426969
 21
6.0000000000009077
 31
0.0
  0
POLYLINE
  5
F7F5B
  8
SLIM
 66
     1
 10
0.0
 20
0.0
 30
0.0
 70
     1
  0
VERTEX
  5
1000E5
  8
SLIM
 10
3100.0925227118878
 20
-279.5
 30
0.0
  0
VERTEX
  5
1000E6
  8
SLIM
 10
3095.185045423776
 20
-288.0
 30
0.0
  0
VERTEX
  5
1000E7
  8
SLIM
 10
3100.0925227118878
 20
-296.5
 30
0.0
  0
VERTEX
  5
1000E8
  8
SLIM
 10
3109.9074772881131
 20
-296.5
 30
0.0
  0
VERTEX
  5
1000E9
  8
SLIM
 10
3114.814954576224
 20
-288.0
 30
0.0
  0
VERTEX
  5
1000EA
  8
SLIM
 10
3109.9074772881131
 20
-279.5
 30
0.0
  0
SEQEND
  5
1000EB
  8
SLIM
  0
POLYLINE
  5
F7F5D
  8
SLIM
 66
     1
 10
0.0
 20
0.0
 30
0.0
 70
     1
  0
VERTEX
  5
1000EC
  8
SLIM
 10
2890.0925227118878
 20
-279.5
 30
0.0
  0
VERTEX
  5
1000ED
  8
SLIM
 10
2885.185045423776
 20
-288.0
 30
0.0
  0
VERTEX
  5
1000EE
  8
SLIM
 10
2890.0925227118878
 20
-296.5
 30
0.0
  0
VERTEX
  5
1000EF
  8
SLIM
 10
2899.9074772881122
 20
-296.5
 30
0.0
  0
VERTEX
  5
1000F0
  8
SLIM
 10
2904.814954576224
 20
-288.0
 30
0.0
  0
VERTEX
  5
1000F1
  8
SLIM
 10
2899.9074772881122
 20
-279.5
 30
0.0
  0
SEQEND
  5
1000F2
  8
SLIM
  0
POLYLINE
  5
F7F5F
  8
SLIM
 66
     1
 10
0.0
 20
0.0
 30
0.0
 70
     1
  0
VERTEX
  5
1000F3
  8
SLIM
 10
2100.0925227118878
 20
-279.5
 30
0.0
  0
VERTEX
  5
1000F4
  8
SLIM
 10
2095.185045423776
 20
-288.0
 30
0.0
  0
VERTEX
  5
1000F5
  8
SLIM
 10
2100.0925227118878
 20
-296.5
 30
0.0
  0
VERTEX
  5
1000F6
  8
SLIM
 10
2109.9074772881122
 20
-296.5
 30
0.0
  0
VERTEX
  5
1000F7
  8
SLIM
 10
2114.814954576223
 20
-288.0
 30
0.0
  0
VERTEX
  5
1000F8
  8
SLIM
 10
2109.9074772881122
 20
-279.5
 30
0.0
  0
SEQEND
  5
1000F9
  8
SLIM
  0
POLYLINE
  5
F7F61
  8
SLIM
 66
     1
 10
0.0
 20
0.0
 30
0.0
 70
     1
  0
VERTEX
  5
1000FA
  8
SLIM
 10
1890.092522711888
 20
-279.5
 30
0.0
  0
VERTEX
  5
1000FB
  8
SLIM
 10
1885.185045423776
 20
-288.0
 30
0.0
  0
VERTEX
  5
1000FC
  8
SLIM
 10
1890.092522711888
 20
-296.5
 30
0.0
  0
VERTEX
  5
1000FD
  8
SLIM
 10
1899.9074772881111
 20
-296.5
 30
0.0
  0
VERTEX
  5
1000FE
  8
SLIM
 10
1904.814954576224
 20
-288.0
 30
0.0
  0
VERTEX
  5
1000FF
  8
SLIM
 10
1899.9074772881111
 20
-279.5
 30
0.0
  0
SEQEND
  5
100100
  8
SLIM
  0
POLYLINE
  5
F7F63
  8
SLIM
 66
     1
 10
0.0
 20
0.0
 30
0.0
 70
     1
  0
VERTEX
  5
100101
  8
SLIM
 10
1090.092522711888
 20
-279.5
 30
0.0
  0
VERTEX
  5
100102
  8
SLIM
 10
1085.185045423776
 20
-288.0
 30
0.0
  0
VERTEX
  5
100103
  8
SLIM
 10
1090.092522711888
 20
-296.5
 30
0.0
  0
VERTEX
  5
100104
  8
SLIM
 10
1099.9074772881111
 20
-296.5
 30
0.0
  0
VERTEX
  5
100105
  8
SLIM
 10
1104.814954576224
 20
-288.0
 30
0.0
  0
VERTEX
  5
100106
  8
SLIM
 10
1099.9074772881111
 20
-279.5
 30
0.0
  0
SEQEND
  5
100107
  8
SLIM
  0
POLYLINE
  5
F7F65
  8
SLIM
 66
     1
 10
0.0
 20
0.0
 30
0.0
 70
     1
  0
VERTEX
  5
100108
  8
SLIM
 10
900.09252271188825
 20
-279.5
 30
0.0
  0
VERTEX
  5
100109
  8
SLIM
 10
895.18504542377605
 20
-288.0
 30
0.0
  0
VERTEX
  5
10010A
  8
SLIM
 10
900.09252271188825
 20
-296.5
 30
0.0
  0
VERTEX
  5
10010B
  8
SLIM
 10
909.90747728811152
 20
-296.5
 30
0.0
  0
VERTEX
  5
10010C
  8
SLIM
 10
914.8149545762235
 20
-288.0
 30
0.0
  0
VERTEX
  5
10010D
  8
SLIM
 10
909.90747728811152
 20
-279.5
 30
0.0
  0
SEQEND
  5
10010E
  8
SLIM
  0
LINE
  5
F7F67
  8
OBJECT
 10
3095.185045423776
 20
-4.5000000000009077
 30
0.0
 11
3095.185045423776
 21
-11.500000000000901
 31
0.0
  0
LINE
  5
F7F68
  8
OBJECT
 10
3095.185045423776
 20
-11.500000000000901
 30
0.0
 11
3114.814954576224
 21
-11.500000000000901
 31
0.0
  0
LINE
  5
F7F69
  8
OBJECT
 10
3114.814954576224
 20
-11.500000000000901
 30
0.0
 11
3114.814954576224
 21
-4.5000000000009077
 31
0.0
  0
LINE
  5
F7F6B
  8
OBJECT
 10
3100.0925227118878
 20
-4.5000000000009077
 30
0.0
 11
3100.0925227118878
 21
-11.500000000000901
 31
0.0
  0
LINE
  5
F7F6C
  8
OBJECT
 10
3100.0
 20
-1.5000000000009091
 30
0.0
 11
3100.0
 21
1.5
 31
0.0
  0
LINE
  5
F7F6D
  8
OBJECT
 10
3100.0
 20
12.5
 30
0.0
 11
3100.0
 21
25.499999999999091
 31
0.0
  0
LINE
  5
F7F6E
  8
OBJECT
 10
3110.0000000000018
 20
-1.5000000000009091
 30
0.0
 11
3110.0
 21
1.5
 31
0.0
  0
LINE
  5
F7F6F
  8
OBJECT
 10
3110.0
 20
12.5
 30
0.0
 11
3110.0
 21
25.499999999999091
 31
0.0
  0
LINE
  5
F7F70
  8
OBJECT
 10
3100.0
 20
25.499999999999091
 30
0.0
 11
3110.0
 21
25.499999999999091
 31
0.0
  0
LINE
  5
F7F71
  8
OBJECT
 10
3109.9074772881131
 20
-4.5000000000009077
 30
0.0
 11
3109.9074772881131
 21
-11.500000000000901
 31
0.0
  0
LINE
  5
F7F72
  8
OBJECT
 10
3095.185045423776
 20
12.5
 30
0.0
 11
3095.185045423776
 21
4.5
 31
0.0
  0
LINE
  5
F7F74
  8
OBJECT
 10
3114.814954576224
 20
4.5
 30
0.0
 11
3114.814954576224
 21
12.5
 31
0.0
  0
LINE
  5
F7F75
  8
OBJECT
 10
3114.814954576224
 20
12.5
 30
0.0
 11
3095.185045423776
 21
12.5
 31
0.0
  0
LINE
  5
F7F76
  8
OBJECT
 10
3100.0925227118878
 20
12.5
 30
0.0
 11
3100.0925227118878
 21
4.5
 31
0.0
  0
LINE
  5
F7F77
  8
OBJECT
 10
3109.9074772881131
 20
12.5
 30
0.0
 11
3109.9074772881131
 21
4.5
 31
0.0
  0
LINE
  5
F7F7B
  8
OBJECT
 10
2904.814954576224
 20
-4.5000000000009077
 30
0.0
 11
2904.814954576224
 21
-11.500000000000901
 31
0.0
  0
LINE
  5
F7F7C
  8
OBJECT
 10
2904.814954576224
 20
-11.500000000000901
 30
0.0
 11
2885.185045423776
 21
-11.500000000000901
 31
0.0
  0
LINE
  5
F7F7D
  8
OBJECT
 10
2885.185045423776
 20
-11.500000000000901
 30
0.0
 11
2885.185045423776
 21
-4.5000000000009077
 31
0.0
  0
LINE
  5
F7F7F
  8
OBJECT
 10
2899.9074772881122
 20
-4.5000000000009077
 30
0.0
 11
2899.9074772881122
 21
-11.500000000000901
 31
0.0
  0
LINE
  5
F7F80
  8
OBJECT
 10
2900.0
 20
-1.5000000000009091
 30
0.0
 11
2900.0
 21
1.5
 31
0.0
  0
LINE
  5
F7F81
  8
OBJECT
 10
2900.0
 20
12.5
 30
0.0
 11
2900.0
 21
25.499999999999091
 31
0.0
  0
LINE
  5
F7F82
  8
OBJECT
 10
2890.0
 20
-1.5000000000009091
 30
0.0
 11
2890.0
 21
1.5
 31
0.0
  0
LINE
  5
F7F83
  8
OBJECT
 10
2890.0
 20
12.5
 30
0.0
 11
2890.0
 21
25.499999999999091
 31
0.0
  0
LINE
  5
F7F84
  8
OBJECT
 10
2900.0
 20
25.499999999999091
 30
0.0
 11
2890.0
 21
25.499999999999091
 31
0.0
  0
LINE
  5
F7F85
  8
OBJECT
 10
2890.0925227118878
 20
-4.5000000000009077
 30
0.0
 11
2890.0925227118878
 21
-11.500000000000901
 31
0.0
  0
LINE
  5
F7F86
  8
OBJECT
 10
2904.814954576224
 20
12.5
 30
0.0
 11
2904.814954576224
 21
4.5
 31
0.0
  0
LINE
  5
F7F88
  8
OBJECT
 10
2885.185045423776
 20
4.5
 30
0.0
 11
2885.185045423776
 21
12.5
 31
0.0
  0
LINE
  5
F7F89
  8
OBJECT
 10
2885.185045423776
 20
12.5
 30
0.0
 11
2904.814954576224
 21
12.5
 31
0.0
  0
LINE
  5
F7F8A
  8
OBJECT
 10
2899.9074772881122
 20
12.5
 30
0.0
 11
2899.9074772881122
 21
4.5
 31
0.0
  0
LINE
  5
F7F8B
  8
OBJECT
 10
2890.0925227118878
 20
12.5
 30
0.0
 11
2890.0925227118878
 21
4.5
 31
0.0
  0
LINE
  5
F7F8F
  8
OBJECT
 10
1104.814954576224
 20
-4.5000000000009077
 30
0.0
 11
1104.814954576224
 21
-11.500000000000901
 31
0.0
  0
LINE
  5
F7F90
  8
OBJECT
 10
1104.814954576224
 20
-11.500000000000901
 30
0.0
 11
1085.185045423776
 21
-11.500000000000901
 31
0.0
  0
LINE
  5
F7F91
  8
OBJECT
 10
1085.185045423776
 20
-11.500000000000901
 30
0.0
 11
1085.185045423776
 21
-4.5000000000009077
 31
0.0
  0
LINE
  5
F7F93
  8
OBJECT
 10
1099.9074772881111
 20
-4.5000000000009077
 30
0.0
 11
1099.9074772881111
 21
-11.500000000000901
 31
0.0
  0
LINE
  5
F7F94
  8
OBJECT
 10
1100.0
 20
-1.5000000000009091
 30
0.0
 11
1100.0
 21
1.5
 31
0.0
  0
LINE
  5
F7F95
  8
OBJECT
 10
1100.0
 20
12.5
 30
0.0
 11
1100.0
 21
25.499999999999091
 31
0.0
  0
LINE
  5
F7F96
  8
OBJECT
 10
1090.0
 20
-1.5000000000009091
 30
0.0
 11
1090.0
 21
1.5
 31
0.0
  0
LINE
  5
F7F97
  8
OBJECT
 10
1090.0
 20
12.5
 30
0.0
 11
1090.0
 21
25.499999999999091
 31
0.0
  0
LINE
  5
F7F98
  8
OBJECT
 10
1100.0
 20
25.499999999999091
 30
0.0
 11
1090.0
 21
25.499999999999091
 31
0.0
  0
LINE
  5
F7F99
  8
OBJECT
 10
1090.092522711888
 20
-4.5000000000009077
 30
0.0
 11
1090.092522711888
 21
-11.500000000000901
 31
0.0
  0
LINE
  5
F7F9A
  8
OBJECT
 10
1104.814954576224
 20
12.5
 30
0.0
 11
1104.814954576224
 21
4.5
 31
0.0
  0
LINE
  5
F7F9C
  8
OBJECT
 10
1085.185045423776
 20
4.5
 30
0.0
 11
1085.185045423776
 21
12.5
 31
0.0
  0
LINE
  5
F7F9D
  8
OBJECT
 10
1085.185045423776
 20
12.5
 30
0.0
 11
1104.814954576224
 21
12.5
 31
0.0
  0
LINE
  5
F7F9E
  8
OBJECT
 10
1099.9074772881111
 20
12.5
 30
0.0
 11
1099.9074772881111
 21
4.5
 31
0.0
  0
LINE
  5
F7F9F
  8
OBJECT
 10
1090.092522711888
 20
12.5
 30
0.0
 11
1090.092522711888
 21
4.5
 31
0.0
  0
LINE
  5
F7FA3
  8
OBJECT
 10
914.8149545762235
 20
-4.5
 30
0.0
 11
914.8149545762235
 21
-11.5
 31
0.0
  0
LINE
  5
F7FA4
  8
OBJECT
 10
914.8149545762235
 20
-11.5
 30
0.0
 11
895.18504542377605
 21
-11.5
 31
0.0
  0
LINE
  5
F7FA5
  8
OBJECT
 10
895.18504542377605
 20
-11.5
 30
0.0
 11
895.18504542377605
 21
-4.5
 31
0.0
  0
LINE
  5
F7FA7
  8
OBJECT
 10
909.90747728811152
 20
-4.5
 30
0.0
 11
909.90747728811152
 21
-11.5
 31
0.0
  0
LINE
  5
F7FA8
  8
OBJECT
 10
910.0
 20
-1.5
 30
0.0
 11
910.0
 21
1.5000000000018181
 31
0.0
  0
LINE
  5
F7FA9
  8
OBJECT
 10
910.0
 20
12.500000000000909
 30
0.0
 11
910.0
 21
25.5
 31
0.0
  0
LINE
  5
F7FAA
  8
OBJECT
 10
899.99999999999955
 20
-1.5
 30
0.0
 11
900.00000000000011
 21
1.5000000000018181
 31
0.0
  0
LINE
  5
F7FAB
  8
OBJECT
 10
899.99999999999955
 20
12.500000000000909
 30
0.0
 11
899.99999999999955
 21
25.5
 31
0.0
  0
LINE
  5
F7FAC
  8
OBJECT
 10
910.0
 20
25.5
 30
0.0
 11
899.99999999999955
 21
25.5
 31
0.0
  0
LINE
  5
F7FAD
  8
OBJECT
 10
900.09252271188825
 20
-4.5
 30
0.0
 11
900.09252271188825
 21
-11.5
 31
0.0
  0
LINE
  5
F7FAE
  8
OBJECT
 10
914.8149545762235
 20
12.500000000000909
 30
0.0
 11
914.8149545762235
 21
4.5000000000009077
 31
0.0
  0
LINE
  5
F7FB0
  8
OBJECT
 10
895.18504542377605
 20
4.5000000000009077
 30
0.0
 11
895.18504542377605
 21
12.500000000000909
 31
0.0
  0
LINE
  5
F7FB1
  8
OBJECT
 10
895.18504542377605
 20
12.500000000000909
 30
0.0
 11
914.8149545762235
 21
12.500000000000909
 31
0.0
  0
LINE
  5
F7FB2
  8
OBJECT
 10
909.90747728811152
 20
12.500000000000909
 30
0.0
 11
909.90747728811152
 21
4.5000000000009077
 31
0.0
  0
LINE
  5
F7FB3
  8
OBJECT
 10
900.09252271188825
 20
12.500000000000909
 30
0.0
 11
900.09252271188825
 21
4.5000000000009077
 31
0.0
  0
LINE
  5
F7FB7
  8
OBJECT
 10
2114.814954576224
 20
-4.7000000000007267
 30
0.0
 11
2114.814954576224
 21
-11.70000000000072
 31
0.0
  0
LINE
  5
F7FB8
  8
OBJECT
 10
2114.814954576224
 20
-11.70000000000072
 30
0.0
 11
2095.185045423776
 21
-11.70000000000072
 31
0.0
  0
LINE
  5
F7FB9
  8
OBJECT
 10
2095.185045423776
 20
-11.70000000000072
 30
0.0
 11
2095.185045423776
 21
-4.7000000000007267
 31
0.0
  0
LINE
  5
F7FBB
  8
OBJECT
 10
2109.9074772881122
 20
-4.7000000000007267
 30
0.0
 11
2109.9074772881122
 21
-11.70000000000072
 31
0.0
  0
LINE
  5
F7FBC
  8
OBJECT
 10
2110.0
 20
-1.5000000000018181
 30
0.0
 11
2110.0000000000009
 21
1.5
 31
0.0
  0
LINE
  5
F7FBD
  8
OBJECT
 10
2110.0
 20
12.69999999999891
 30
0.0
 11
2110.0
 21
25.299999999999269
 31
0.0
  0
LINE
  5
F7FBE
  8
OBJECT
 10
2100.0
 20
-1.5000000000018181
 30
0.0
 11
2100.0
 21
1.5
 31
0.0
  0
LINE
  5
F7FBF
  8
OBJECT
 10
2100.0
 20
12.69999999999891
 30
0.0
 11
2100.0
 21
25.299999999999269
 31
0.0
  0
LINE
  5
F7FC0
  8
OBJECT
 10
2110.0
 20
25.299999999999269
 30
0.0
 11
2100.0
 21
25.299999999999269
 31
0.0
  0
LINE
  5
F7FC1
  8
OBJECT
 10
2100.0925227118878
 20
-4.7000000000007267
 30
0.0
 11
2100.0925227118878
 21
-11.70000000000072
 31
0.0
  0
LINE
  5
F7FC2
  8
OBJECT
 10
2114.814954576224
 20
12.69999999999891
 30
0.0
 11
2114.814954576224
 21
4.6999999999989068
 31
0.0
  0
LINE
  5
F7FC4
  8
OBJECT
 10
2095.185045423776
 20
4.6999999999989068
 30
0.0
 11
2095.185045423776
 21
12.69999999999891
 31
0.0
  0
LINE
  5
F7FC5
  8
OBJECT
 10
2095.185045423776
 20
12.69999999999891
 30
0.0
 11
2114.814954576224
 21
12.69999999999891
 31
0.0
  0
LINE
  5
F7FC6
  8
OBJECT
 10
2109.9074772881122
 20
12.69999999999891
 30
0.0
 11
2109.9074772881122
 21
4.6999999999989068
 31
0.0
  0
LINE
  5
F7FC7
  8
OBJECT
 10
2100.0925227118878
 20
12.69999999999891
 30
0.0
 11
2100.0925227118878
 21
4.6999999999989068
 31
0.0
  0
LINE
  5
F7FCB
  8
OBJECT
 10
1904.814954576224
 20
-4.6999999999989068
 30
0.0
 11
1904.814954576224
 21
-11.69999999999891
 31
0.0
  0
LINE
  5
F7FCC
  8
OBJECT
 10
1904.814954576224
 20
-11.69999999999891
 30
0.0
 11
1885.185045423776
 21
-11.69999999999891
 31
0.0
  0
LINE
  5
F7FCD
  8
OBJECT
 10
1885.185045423776
 20
-11.69999999999891
 30
0.0
 11
1885.185045423776
 21
-4.6999999999989068
 31
0.0
  0
LINE
  5
F7FCF
  8
OBJECT
 10
1899.9074772881111
 20
-4.6999999999989068
 30
0.0
 11
1899.9074772881111
 21
-11.69999999999891
 31
0.0
  0
LINE
  5
F7FD0
  8
OBJECT
 10
1900.0
 20
-1.5
 30
0.0
 11
1900.0
 21
1.5000000000009091
 31
0.0
  0
LINE
  5
F7FD1
  8
OBJECT
 10
1900.0
 20
12.700000000000729
 30
0.0
 11
1900.0
 21
25.300000000000178
 31
0.0
  0
LINE
  5
F7FD2
  8
OBJECT
 10
1890.0
 20
-1.5
 30
0.0
 11
1890.0
 21
1.5000000000009091
 31
0.0
  0
LINE
  5
F7FD3
  8
OBJECT
 10
1890.0
 20
12.700000000000729
 30
0.0
 11
1890.0
 21
25.300000000000178
 31
0.0
  0
LINE
  5
F7FD4
  8
OBJECT
 10
1900.0
 20
25.300000000000178
 30
0.0
 11
1890.0
 21
25.300000000000178
 31
0.0
  0
LINE
  5
F7FD5
  8
OBJECT
 10
1890.092522711888
 20
-4.6999999999989068
 30
0.0
 11
1890.092522711888
 21
-11.69999999999891
 31
0.0
  0
LINE
  5
F7FD6
  8
OBJECT
 10
1904.814954576224
 20
12.700000000000729
 30
0.0
 11
1904.814954576224
 21
4.7000000000007267
 31
0.0
  0
LINE
  5
F7FD8
  8
OBJECT
 10
1885.185045423776
 20
4.7000000000007267
 30
0.0
 11
1885.185045423776
 21
12.700000000000729
 31
0.0
  0
LINE
  5
F7FD9
  8
OBJECT
 10
1885.185045423776
 20
12.700000000000729
 30
0.0
 11
1904.814954576224
 21
12.700000000000729
 31
0.0
  0
LINE
  5
F7FDA
  8
OBJECT
 10
1899.9074772881111
 20
12.700000000000729
 30
0.0
 11
1899.9074772881111
 21
4.7000000000007267
 31
0.0
  0
LINE
  5
F7FDB
  8
OBJECT
 10
1890.092522711888
 20
12.700000000000729
 30
0.0
 11
1890.092522711888
 21
4.7000000000007267
 31
0.0
  0
ARC
  5
F800E
  8
HIDDEN
 10
129.9999999999998
 20
0.0
 30
0.0
 40
7.0
 50
180.0
 51
167.6263748838343
  0
ARC
  5
F800F
  8
HIDDEN
 10
130.0
 20
0.0
 30
0.0
 40
10.20000000000004
 50
180.0
 51
152.56227057881981
  0
LINE
  5
F8010
  8
HIDDEN
 10
119.7999999999999
 20
0.0
 30
0.0
 11
122.9999999999999
 21
0.0
 31
0.0
  0
CIRCLE
  5
F8013
  8
OBJECT
 62
     6
 10
130.0
 20
0.0
 30
0.0
 40
13.0
  0
LINE
  5
F8014
  8
OBJECT
 62
     6
 10
115.0
 20
40.0
 30
0.0
 11
140.0
 21
40.0
 31
0.0
  0
LINE
  5
F8015
  8
OBJECT
 62
     6
 10
140.0
 20
40.0
 30
0.0
 11
140.0
 21
12.5
 31
0.0
  0
LINE
  5
F8016
  8
OBJECT
 62
     6
 10
140.0
 20
12.5
 30
0.0
 11
165.0
 21
12.5
 31
0.0
  0
LINE
  5
F8017
  8
OBJECT
 62
     6
 10
165.0
 20
12.5
 30
0.0
 11
165.0
 21
-12.5
 31
0.0
  0
LINE
  5
F8018
  8
OBJECT
 62
     6
 10
165.0
 20
-12.5
 30
0.0
 11
140.0
 21
-12.5
 31
0.0
  0
LINE
  5
F8019
  8
OBJECT
 62
     6
 10
140.0
 20
-12.5
 30
0.0
 11
140.0
 21
-40.0
 31
0.0
  0
LINE
  5
F801A
  8
OBJECT
 62
     6
 10
140.0
 20
-40.0
 30
0.0
 11
115.0
 21
-40.0
 31
0.0
  0
LINE
  5
F801B
  8
OBJECT
 62
     6
 10
115.0
 20
-40.0
 30
0.0
 11
115.0000000000001
 21
1.5
 31
0.0
  0
LINE
  5
F801C
  8
OBJECT
 62
     6
 10
115.0000000000001
 20
4.7000000000007267
 30
0.0
 11
115.0
 21
40.0
 31
0.0
  0
LINE
  5
F801D
  8
HIDDEN
 10
117.0868284298549
 20
1.5
 30
0.0
 11
123.16260283441061
 21
1.4999999999972711
 31
0.0
  0
LINE
  5
F801E
  8
HIDDEN
 10
117.8793564527291
 20
4.7000000000007267
 30
0.0
 11
120.94737607099469
 21
4.7000000000007267
 31
0.0
  0
CIRCLE
  5
F801F
  8
OBJECT
 62
     6
 10
152.5
 20
0.0
 30
0.0
 40
2.75
  0
CIRCLE
  5
F8020
  8
OBJECT
 62
     6
 10
127.5
 20
-27.5
 30
0.0
 40
2.75
  0
CIRCLE
  5
F8021
  8
OBJECT
 62
     6
 10
127.5
 20
27.5
 30
0.0
 40
2.75
  0
LINE
  5
F8022
  8
CENTER
 10
127.5
 20
-35.25
 30
0.0
 11
127.5
 21
-19.75
 31
0.0
  0
LINE
  5
F8023
  8
CENTER
 10
135.25
 20
-27.5
 30
0.0
 11
119.75
 21
-27.5
 31
0.0
  0
LINE
  5
F8024
  8
CENTER
 10
127.5
 20
19.75
 30
0.0
 11
127.5
 21
35.25
 31
0.0
  0
LINE
  5
F8025
  8
CENTER
 10
135.25
 20
27.5
 30
0.0
 11
119.75
 21
27.5
 31
0.0
  0
LINE
  5
F8026
  8
CENTER
 10
152.5
 20
-7.75
 30
0.0
 11
152.5
 21
7.75
 31
0.0
  0
LINE
  5
F8027
  8
CENTER
 10
130.0
 20
-18.0
 30
0.0
 11
130.0
 21
18.0
 31
0.0
  0
LINE
  5
F8057
  8
OBJECT
 62
     6
 10
123.6500000000005
 20
-389.80000000000013
 30
0.0
 11
123.6500000000005
 21
-316.29999999999922
 31
0.0
  0
LINE
  5
F8058
  8
OBJECT
 62
     6
 10
136.35000000000451
 20
-389.80000000000013
 30
0.0
 11
136.35000000000039
 21
-316.29999999999922
 31
0.0
  0
LINE
  5
F8059
  8
OBJECT
 62
     6
 10
117.0000000000009
 20
-272.0
 30
0.0
 11
117.0000000000009
 21
-269.69999999999987
 31
0.0
  0
LINE
  5
F805A
  8
OBJECT
 62
     6
 10
117.0000000000009
 20
-269.69999999999987
 30
0.0
 11
143.00000000000091
 21
-269.69999999999987
 31
0.0
  0
LINE
  5
F805B
  8
OBJECT
 62
     6
 10
143.00000000000091
 20
-272.0
 30
0.0
 11
143.00000000000091
 21
-269.69999999999987
 31
0.0
  0
LINE
  5
F805C
  8
OBJECT
 62
     6
 10
117.0000000000009
 20
-272.0
 30
0.0
 11
143.00000000000091
 21
-272.0
 31
0.0
  0
LINE
  5
F805D
  8
OBJECT
 62
     6
 10
117.87564434701839
 20
-259.69999999999987
 30
0.0
 11
142.1243556529835
 21
-259.69999999999987
 31
0.0
  0
LINE
  5
F805E
  8
OBJECT
 62
     6
 10
142.1243556529835
 20
-259.69999999999987
 30
0.0
 11
142.1243556529835
 21
-269.69999999999987
 31
0.0
  0
LINE
  5
F8060
  8
OBJECT
 62
     6
 10
117.87564434701839
 20
-269.69999999999987
 30
0.0
 11
117.87564434701839
 21
-259.69999999999987
 31
0.0
  0
LINE
  5
F8061
  8
OBJECT
 62
     6
 10
123.9378221735096
 20
-259.69999999999987
 30
0.0
 11
123.9378221735096
 21
-269.69999999999987
 31
0.0
  0
LINE
  5
F8062
  8
OBJECT
 62
     6
 10
136.06217782649219
 20
-259.69999999999987
 30
0.0
 11
136.06217782649219
 21
-269.69999999999987
 31
0.0
  0
LINE
  5
F8063
  8
OBJECT
 62
     6
 10
117.0000000000009
 20
-304.0
 30
0.0
 11
117.0000000000009
 21
-306.30000000000018
 31
0.0
  0
LINE
  5
F8064
  8
OBJECT
 62
     6
 10
117.0000000000009
 20
-306.30000000000018
 30
0.0
 11
143.00000000000091
 21
-306.30000000000018
 31
0.0
  0
LINE
  5
F8065
  8
OBJECT
 62
     6
 10
143.00000000000091
 20
-304.0
 30
0.0
 11
143.00000000000091
 21
-306.30000000000018
 31
0.0
  0
LINE
  5
F8066
  8
OBJECT
 62
     6
 10
117.0000000000009
 20
-304.0
 30
0.0
 11
143.00000000000091
 21
-304.0
 31
0.0
  0
LINE
  5
F8067
  8
OBJECT
 62
     6
 10
117.87564434701839
 20
-316.30000000000018
 30
0.0
 11
142.1243556529835
 21
-316.30000000000018
 31
0.0
  0
LINE
  5
F8068
  8
OBJECT
 62
     6
 10
142.1243556529835
 20
-316.30000000000018
 30
0.0
 11
142.1243556529835
 21
-306.30000000000018
 31
0.0
  0
LINE
  5
F806A
  8
OBJECT
 62
     6
 10
117.87564434701839
 20
-306.30000000000018
 30
0.0
 11
117.87564434701839
 21
-316.30000000000018
 31
0.0
  0
LINE
  5
F806B
  8
OBJECT
 62
     6
 10
123.9378221735096
 20
-316.30000000000018
 30
0.0
 11
123.9378221735096
 21
-306.30000000000018
 31
0.0
  0
LINE
  5
F806C
  8
OBJECT
 62
     6
 10
136.06217782649219
 20
-316.30000000000018
 30
0.0
 11
136.06217782649219
 21
-306.30000000000018
 31
0.0
  0
LINE
  5
F806D
  8
OBJECT
 62
     6
 10
123.6500000000005
 20
-259.69999999999987
 30
0.0
 11
123.6500000000005
 21
-199.799999999992
 31
0.0
  0
LINE
  5
F806E
  8
OBJECT
 62
     6
 10
136.3500000000013
 20
-259.69999999999987
 30
0.0
 11
136.35000000000039
 21
-199.80000000000001
 31
0.0
  0
LINE
  5
F806F
  8
OBJECT
 62
     6
 10
136.35000000000039
 20
-199.80000000000001
 30
0.0
 11
123.6500000000005
 21
-199.80000000000001
 31
0.0
  0
LINE
  5
F8070
  8
CENTER
 10
129.9999999999998
 20
-184.80000000000021
 30
0.0
 11
130.0
 21
-468.0
 31
0.0
  0
LINE
  5
F8078
  8
OBJECT
 62
     6
 10
142.1243556529835
 20
-399.80000000000013
 30
0.0
 11
142.1243556529835
 21
-389.80000000000013
 31
0.0
  0
LINE
  5
F8079
  8
OBJECT
 62
     6
 10
142.1243556529835
 20
-389.80000000000013
 30
0.0
 11
117.87564434701839
 21
-389.80000000000013
 31
0.0
  0
LINE
  5
F807A
  8
OBJECT
 62
     6
 10
117.87564434701839
 20
-389.80000000000013
 30
0.0
 11
117.87564434701839
 21
-399.80000000000013
 31
0.0
  0
LINE
  5
F807B
  8
OBJECT
 62
     6
 10
123.9378221735097
 20
-399.80000000000013
 30
0.0
 11
123.9378221735097
 21
-389.80000000000013
 31
0.0
  0
LINE
  5
F807C
  8
OBJECT
 62
     6
 10
136.0621778264923
 20
-399.80000000000013
 30
0.0
 11
136.0621778264923
 21
-389.80000000000013
 31
0.0
  0
LINE
  5
F807D
  8
OBJECT
 62
     6
 10
165.0
 20
-449.80000000000013
 30
0.0
 11
115.0
 21
-449.80000000000013
 31
0.0
  0
LINE
  5
F807E
  8
OBJECT
 62
     6
 10
115.0
 20
-449.80000000000013
 30
0.0
 11
115.0
 21
-453.0
 31
0.0
  0
LINE
  5
F807F
  8
OBJECT
 62
     6
 10
115.0
 20
-453.0
 30
0.0
 11
165.0
 21
-453.0
 31
0.0
  0
LINE
  5
F8080
  8
OBJECT
 62
     6
 10
140.0
 20
-453.0
 30
0.0
 11
140.0
 21
-449.80000000000013
 31
0.0
  0
LINE
  5
F8081
  8
OBJECT
 62
     6
 10
165.0
 20
-453.0
 30
0.0
 11
165.0
 21
-449.80000000000013
 31
0.0
  0
ARC
  5
F8082
  8
HIDDEN
 10
870.0
 20
0.0
 30
0.0
 40
7.0
 50
0.0
 51
347.62637488383422
  0
LINE
  5
F8084
  8
HIDDEN
 10
880.0
 20
0.0
 30
0.0
 11
877.0
 21
0.0
 31
0.0
  0
CIRCLE
  5
F8087
  8
OBJECT
 62
     6
 10
870.0
 20
0.0
 30
0.0
 40
13.0
  0
LINE
  5
F8088
  8
OBJECT
 62
     6
 10
884.99999999999955
 20
-40.0
 30
0.0
 11
859.99999999999955
 21
-40.0
 31
0.0
  0
LINE
  5
F8089
  8
OBJECT
 62
     6
 10
859.99999999999955
 20
-40.0
 30
0.0
 11
859.99999999999955
 21
-12.5
 31
0.0
  0
LINE
  5
F808A
  8
OBJECT
 62
     6
 10
859.99999999999955
 20
-12.5
 30
0.0
 11
834.99999999999955
 21
-12.5
 31
0.0
  0
LINE
  5
F808B
  8
OBJECT
 62
     6
 10
834.99999999999955
 20
-12.5
 30
0.0
 11
834.99999999999955
 21
12.5
 31
0.0
  0
LINE
  5
F808C
  8
OBJECT
 62
     6
 10
834.99999999999955
 20
12.5
 30
0.0
 11
859.99999999999955
 21
12.5
 31
0.0
  0
LINE
  5
F808D
  8
OBJECT
 62
     6
 10
859.99999999999955
 20
12.5
 30
0.0
 11
859.99999999999955
 21
40.0
 31
0.0
  0
LINE
  5
F808E
  8
OBJECT
 62
     6
 10
859.99999999999955
 20
40.0
 30
0.0
 11
884.99999999999955
 21
40.0
 31
0.0
  0
LINE
  5
F808F
  8
OBJECT
 62
     6
 10
884.99999999999955
 20
40.0
 30
0.0
 11
884.99999999999955
 21
-1.5
 31
0.0
  0
LINE
  5
F8090
  8
OBJECT
 62
     6
 10
884.99999999999955
 20
-4.5
 30
0.0
 11
884.99999999999955
 21
-40.0
 31
0.0
  0
LINE
  5
F8091
  8
HIDDEN
 10
882.91317157014464
 20
-1.5
 30
0.0
 11
876.83739716558898
 21
-1.4999999999972711
 31
0.0
  0
CIRCLE
  5
F8093
  8
OBJECT
 62
     6
 10
847.49999999999955
 20
0.0
 30
0.0
 40
2.75
  0
CIRCLE
  5
F8094
  8
OBJECT
 62
     6
 10
872.49999999999955
 20
27.5
 30
0.0
 40
2.75
  0
CIRCLE
  5
F8095
  8
OBJECT
 62
     6
 10
872.49999999999955
 20
-27.5
 30
0.0
 40
2.75
  0
LINE
  5
F8096
  8
CENTER
 10
872.49999999999955
 20
35.25
 30
0.0
 11
872.49999999999955
 21
19.75
 31
0.0
  0
LINE
  5
F8097
  8
CENTER
 10
864.74999999999966
 20
27.5
 30
0.0
 11
880.24999999999955
 21
27.5
 31
0.0
  0
LINE
  5
F8098
  8
CENTER
 10
872.49999999999955
 20
-19.75
 30
0.0
 11
872.49999999999955
 21
-35.25
 31
0.0
  0
LINE
  5
F8099
  8
CENTER
 10
864.74999999999966
 20
-27.5
 30
0.0
 11
880.24999999999955
 21
-27.5
 31
0.0
  0
LINE
  5
F809A
  8
CENTER
 10
847.49999999999955
 20
7.75
 30
0.0
 11
847.49999999999955
 21
-7.75
 31
0.0
  0
LINE
  5
F809B
  8
CENTER
 10
870.0
 20
18.0
 30
0.0
 11
870.0
 21
-18.0
 31
0.0
  0
ARC
  5
F80A1
  8
HIDDEN
 10
870.0
 20
0.0
 30
0.0
 40
10.0
 50
0.0
 51
333.25631604960751
  0
LINE
  5
F80A2
  8
HIDDEN
 10
882.19631091765018
 20
-4.5000000000018172
 30
0.0
 11
878.93028554974546
 21
-4.5
 31
0.0
  0
ARC
  5
F80DE
  8
HIDDEN
 10
1129.9999999999991
 20
0.0
 30
0.0
 40
7.0
 50
180.0
 51
167.6263748838343
  0
ARC
  5
F80DF
  8
HIDDEN
 10
1129.9999999999991
 20
0.0
 30
0.0
 40
10.0
 50
180.0
 51
153.2563160496083
  0
LINE
  5
F80E0
  8
HIDDEN
 10
1120.0
 20
0.0
 30
0.0
 11
1123.0
 21
0.0
 31
0.0
  0
CIRCLE
  5
F80E2
  8
OBJECT
 62
     6
 10
1129.9999999999991
 20
0.0
 30
0.0
 40
13.0
  0
LINE
  5
F80E3
  8
OBJECT
 62
     6
 10
1115.0
 20
40.0
 30
0.0
 11
1140.0
 21
40.0
 31
0.0
  0
LINE
  5
F80E4
  8
OBJECT
 62
     6
 10
1140.0
 20
40.0
 30
0.0
 11
1140.0
 21
12.5
 31
0.0
  0
LINE
  5
F80E5
  8
OBJECT
 62
     6
 10
1140.0
 20
12.5
 30
0.0
 11
1165.0
 21
12.5
 31
0.0
  0
LINE
  5
F80E6
  8
OBJECT
 62
     6
 10
1165.0
 20
12.5
 30
0.0
 11
1165.0
 21
-12.5
 31
0.0
  0
LINE
  5
F80E7
  8
OBJECT
 62
     6
 10
1165.0
 20
-12.5
 30
0.0
 11
1140.0
 21
-12.5
 31
0.0
  0
LINE
  5
F80E8
  8
OBJECT
 62
     6
 10
1140.0
 20
-12.5
 30
0.0
 11
1140.0
 21
-40.0
 31
0.0
  0
LINE
  5
F80E9
  8
OBJECT
 62
     6
 10
1140.0
 20
-40.0
 30
0.0
 11
1115.0
 21
-40.0
 31
0.0
  0
LINE
  5
F80EA
  8
OBJECT
 62
     6
 10
1115.0
 20
-40.0
 30
0.0
 11
1115.0
 21
1.5
 31
0.0
  0
LINE
  5
F80EB
  8
OBJECT
 62
     6
 10
1115.0
 20
4.5
 30
0.0
 11
1115.0
 21
40.0
 31
0.0
  0
LINE
  5
F80EC
  8
HIDDEN
 10
1117.086828429854
 20
1.5
 30
0.0
 11
1123.1626028344101
 21
1.4999999999972711
 31
0.0
  0
CIRCLE
  5
F80ED
  8
OBJECT
 62
     6
 10
1152.5
 20
0.0
 30
0.0
 40
2.75
  0
CIRCLE
  5
F80EE
  8
OBJECT
 62
     6
 10
1127.5
 20
-27.5
 30
0.0
 40
2.75
  0
CIRCLE
  5
F80EF
  8
OBJECT
 62
     6
 10
1127.5
 20
27.5
 30
0.0
 40
2.75
  0
LINE
  5
F80F0
  8
CENTER
 10
1127.5
 20
-35.25
 30
0.0
 11
1127.5
 21
-19.75
 31
0.0
  0
LINE
  5
F80F1
  8
CENTER
 10
1135.25
 20
-27.5
 30
0.0
 11
1119.75
 21
-27.5
 31
0.0
  0
LINE
  5
F80F2
  8
CENTER
 10
1127.5
 20
19.75
 30
0.0
 11
1127.5
 21
35.25
 31
0.0
  0
LINE
  5
F80F3
  8
CENTER
 10
1135.25
 20
27.5
 30
0.0
 11
1119.75
 21
27.5
 31
0.0
  0
LINE
  5
F80F4
  8
CENTER
 10
1152.5
 20
-7.75
 30
0.0
 11
1152.5
 21
7.75
 31
0.0
  0
LINE
  5
F80F5
  8
CENTER
 10
1129.9999999999991
 20
-18.0
 30
0.0
 11
1129.9999999999991
 21
18.0
 31
0.0
  0
LINE
  5
F80F6
  8
HIDDEN
 10
1117.803689082348
 20
4.5000000000018172
 30
0.0
 11
1121.069714450254
 21
4.5
 31
0.0
  0
LINE
  5
F80F7
  8
OBJECT
 62
     6
 10
876.34999999999889
 20
-390.0
 30
0.0
 11
876.34999999999889
 21
-315.99999999999898
 31
0.0
  0
LINE
  5
F80F8
  8
OBJECT
 62
     6
 10
863.64999999999532
 20
-390.0
 30
0.0
 11
863.64999999999941
 21
-315.99999999999898
 31
0.0
  0
LINE
  5
F80F9
  8
OBJECT
 62
     6
 10
882.99999999999875
 20
-272.0
 30
0.0
 11
882.99999999999875
 21
-270.0
 31
0.0
  0
LINE
  5
F80FA
  8
OBJECT
 62
     6
 10
882.99999999999875
 20
-270.0
 30
0.0
 11
856.99999999999875
 21
-270.0
 31
0.0
  0
LINE
  5
F80FB
  8
OBJECT
 62
     6
 10
856.99999999999875
 20
-272.0
 30
0.0
 11
856.99999999999875
 21
-270.0
 31
0.0
  0
LINE
  5
F80FC
  8
OBJECT
 62
     6
 10
882.99999999999875
 20
-272.0
 30
0.0
 11
856.99999999999875
 21
-272.0
 31
0.0
  0
LINE
  5
F80FD
  8
OBJECT
 62
     6
 10
882.12435565298154
 20
-260.0
 30
0.0
 11
857.8756443470163
 21
-260.0
 31
0.0
  0
LINE
  5
F80FE
  8
OBJECT
 62
     6
 10
857.8756443470163
 20
-260.0
 30
0.0
 11
857.8756443470163
 21
-270.0
 31
0.0
  0
LINE
  5
F8100
  8
OBJECT
 62
     6
 10
882.12435565298154
 20
-270.0
 30
0.0
 11
882.12435565298154
 21
-260.0
 31
0.0
  0
LINE
  5
F8101
  8
OBJECT
 62
     6
 10
876.06217782649014
 20
-260.0
 30
0.0
 11
876.06217782649014
 21
-270.0
 31
0.0
  0
LINE
  5
F8102
  8
OBJECT
 62
     6
 10
863.93782217350736
 20
-260.0
 30
0.0
 11
863.93782217350736
 21
-270.0
 31
0.0
  0
LINE
  5
F8103
  8
OBJECT
 62
     6
 10
882.99999999999875
 20
-304.0
 30
0.0
 11
882.99999999999875
 21
-306.0
 31
0.0
  0
LINE
  5
F8104
  8
OBJECT
 62
     6
 10
882.99999999999875
 20
-306.0
 30
0.0
 11
856.99999999999875
 21
-306.0
 31
0.0
  0
LINE
  5
F8105
  8
OBJECT
 62
     6
 10
856.99999999999875
 20
-304.0
 30
0.0
 11
856.99999999999875
 21
-306.0
 31
0.0
  0
LINE
  5
F8106
  8
OBJECT
 62
     6
 10
882.99999999999875
 20
-304.0
 30
0.0
 11
856.99999999999875
 21
-304.0
 31
0.0
  0
LINE
  5
F8107
  8
OBJECT
 62
     6
 10
882.12435565298154
 20
-316.0
 30
0.0
 11
857.8756443470163
 21
-316.0
 31
0.0
  0
LINE
  5
F8108
  8
OBJECT
 62
     6
 10
857.8756443470163
 20
-316.0
 30
0.0
 11
857.8756443470163
 21
-306.0
 31
0.0
  0
LINE
  5
F810A
  8
OBJECT
 62
     6
 10
882.12435565298154
 20
-306.0
 30
0.0
 11
882.12435565298154
 21
-316.0
 31
0.0
  0
LINE
  5
F810B
  8
OBJECT
 62
     6
 10
876.06217782649014
 20
-316.0
 30
0.0
 11
876.06217782649014
 21
-306.0
 31
0.0
  0
LINE
  5
F810C
  8
OBJECT
 62
     6
 10
863.93782217350736
 20
-316.0
 30
0.0
 11
863.93782217350736
 21
-306.0
 31
0.0
  0
LINE
  5
F810D
  8
OBJECT
 62
     6
 10
876.34999999999889
 20
-260.0
 30
0.0
 11
876.34999999999889
 21
-199.9999999999917
 31
0.0
  0
LINE
  5
F810E
  8
OBJECT
 62
     6
 10
863.6499999999985
 20
-260.0
 30
0.0
 11
863.64999999999941
 21
-200.0
 31
0.0
  0
LINE
  5
F810F
  8
OBJECT
 62
     6
 10
863.64999999999941
 20
-200.0
 30
0.0
 11
876.34999999999889
 21
-200.0
 31
0.0
  0
LINE
  5
F8110
  8
CENTER
 10
870.0
 20
-185.0
 30
0.0
 11
869.99999999999966
 21
-468.0
 31
0.0
  0
LINE
  5
F8122
  8
OBJECT
 62
     6
 10
1123.6500000000001
 20
-390.0
 30
0.0
 11
1123.6500000000001
 21
-315.99999999999898
 31
0.0
  0
LINE
  5
F8123
  8
OBJECT
 62
     6
 10
1136.350000000004
 20
-390.0
 30
0.0
 11
1136.3499999999999
 21
-315.99999999999898
 31
0.0
  0
LINE
  5
F8124
  8
OBJECT
 62
     6
 10
1117.0
 20
-272.0
 30
0.0
 11
1117.0
 21
-270.0
 31
0.0
  0
LINE
  5
F8125
  8
OBJECT
 62
     6
 10
1117.0
 20
-270.0
 30
0.0
 11
1143.0
 21
-270.0
 31
0.0
  0
LINE
  5
F8126
  8
OBJECT
 62
     6
 10
1143.0
 20
-272.0
 30
0.0
 11
1143.0
 21
-270.0
 31
0.0
  0
LINE
  5
F8127
  8
OBJECT
 62
     6
 10
1117.0
 20
-272.0
 30
0.0
 11
1143.0
 21
-272.0
 31
0.0
  0
LINE
  5
F8128
  8
OBJECT
 62
     6
 10
1117.8756443470179
 20
-260.0
 30
0.0
 11
1142.124355652983
 21
-260.0
 31
0.0
  0
LINE
  5
F8129
  8
OBJECT
 62
     6
 10
1142.124355652983
 20
-260.0
 30
0.0
 11
1142.124355652983
 21
-270.0
 31
0.0
  0
LINE
  5
F812B
  8
OBJECT
 62
     6
 10
1117.8756443470179
 20
-270.0
 30
0.0
 11
1117.8756443470179
 21
-260.0
 31
0.0
  0
LINE
  5
F812C
  8
OBJECT
 62
     6
 10
1123.9378221735089
 20
-260.0
 30
0.0
 11
1123.9378221735089
 21
-270.0
 31
0.0
  0
LINE
  5
F812D
  8
OBJECT
 62
     6
 10
1136.062177826492
 20
-260.0
 30
0.0
 11
1136.062177826492
 21
-270.0
 31
0.0
  0
LINE
  5
F812E
  8
OBJECT
 62
     6
 10
1117.0
 20
-304.0
 30
0.0
 11
1117.0
 21
-306.0
 31
0.0
  0
LINE
  5
F812F
  8
OBJECT
 62
     6
 10
1117.0
 20
-306.0
 30
0.0
 11
1143.0
 21
-306.0
 31
0.0
  0
LINE
  5
F8130
  8
OBJECT
 62
     6
 10
1143.0
 20
-304.0
 30
0.0
 11
1143.0
 21
-306.0
 31
0.0
  0
LINE
  5
F8131
  8
OBJECT
 62
     6
 10
1117.0
 20
-304.0
 30
0.0
 11
1143.0
 21
-304.0
 31
0.0
  0
LINE
  5
F8132
  8
OBJECT
 62
     6
 10
1117.8756443470179
 20
-316.0
 30
0.0
 11
1142.124355652983
 21
-316.0
 31
0.0
  0
LINE
  5
F8133
  8
OBJECT
 62
     6
 10
1142.124355652983
 20
-316.0
 30
0.0
 11
1142.124355652983
 21
-306.0
 31
0.0
  0
LINE
  5
F8135
  8
OBJECT
 62
     6
 10
1117.8756443470179
 20
-306.0
 30
0.0
 11
1117.8756443470179
 21
-316.0
 31
0.0
  0
LINE
  5
F8136
  8
OBJECT
 62
     6
 10
1123.9378221735089
 20
-316.0
 30
0.0
 11
1123.9378221735089
 21
-306.0
 31
0.0
  0
LINE
  5
F8137
  8
OBJECT
 62
     6
 10
1136.062177826492
 20
-316.0
 30
0.0
 11
1136.062177826492
 21
-306.0
 31
0.0
  0
LINE
  5
F8138
  8
OBJECT
 62
     6
 10
1123.6500000000001
 20
-260.0
 30
0.0
 11
1123.6500000000001
 21
-199.9999999999917
 31
0.0
  0
LINE
  5
F8139
  8
OBJECT
 62
     6
 10
1136.350000000001
 20
-260.0
 30
0.0
 11
1136.3499999999999
 21
-200.0
 31
0.0
  0
LINE
  5
F813A
  8
OBJECT
 62
     6
 10
1136.3499999999999
 20
-200.0
 30
0.0
 11
1123.6500000000001
 21
-200.0
 31
0.0
  0
LINE
  5
F813B
  8
CENTER
 10
1129.9999999999991
 20
-185.0
 30
0.0
 11
1130.0
 21
-468.0
 31
0.0
  0
ARC
  5
F815A
  8
HIDDEN
 10
1860.0
 20
0.0
 30
0.0
 40
7.0
 50
0.0
 51
347.62637488383422
  0
ARC
  5
F815B
  8
HIDDEN
 10
1860.0
 20
0.0
 30
0.0
 40
10.20000000000004
 50
0.0
 51
332.56227057882001
  0
LINE
  5
F815C
  8
HIDDEN
 10
1870.2
 20
0.0
 30
0.0
 11
1867.0
 21
0.0
 31
0.0
  0
CIRCLE
  5
F815F
  8
OBJECT
 62
     6
 10
1860.0
 20
0.0
 30
0.0
 40
13.0
  0
LINE
  5
F8160
  8
OBJECT
 62
     6
 10
1875.0
 20
-40.0
 30
0.0
 11
1849.9999999999991
 21
-40.0
 31
0.0
  0
LINE
  5
F8161
  8
OBJECT
 62
     6
 10
1849.9999999999991
 20
-40.0
 30
0.0
 11
1849.9999999999991
 21
-12.5
 31
0.0
  0
LINE
  5
F8162
  8
OBJECT
 62
     6
 10
1849.9999999999991
 20
-12.5
 30
0.0
 11
1825.0
 21
-12.5
 31
0.0
  0
LINE
  5
F8163
  8
OBJECT
 62
     6
 10
1825.0
 20
-12.5
 30
0.0
 11
1825.0
 21
12.5
 31
0.0
  0
LINE
  5
F8164
  8
OBJECT
 62
     6
 10
1825.0
 20
12.5
 30
0.0
 11
1849.9999999999991
 21
12.5
 31
0.0
  0
LINE
  5
F8165
  8
OBJECT
 62
     6
 10
1849.9999999999991
 20
12.5
 30
0.0
 11
1849.9999999999991
 21
40.0
 31
0.0
  0
LINE
  5
F8166
  8
OBJECT
 62
     6
 10
1849.9999999999991
 20
40.0
 30
0.0
 11
1875.0
 21
40.0
 31
0.0
  0
LINE
  5
F8167
  8
OBJECT
 62
     6
 10
1875.0
 20
40.0
 30
0.0
 11
1875.0
 21
-1.5
 31
0.0
  0
LINE
  5
F8168
  8
OBJECT
 62
     6
 10
1875.0
 20
-4.7000000000007267
 30
0.0
 11
1875.0
 21
-40.0
 31
0.0
  0
LINE
  5
F8169
  8
HIDDEN
 10
1872.913171570144
 20
-1.5
 30
0.0
 11
1866.837397165589
 21
-1.4999999999972711
 31
0.0
  0
LINE
  5
F816A
  8
HIDDEN
 10
1872.12064354727
 20
-4.7000000000007267
 30
0.0
 11
1869.052623929005
 21
-4.7000000000007267
 31
0.0
  0
CIRCLE
  5
F816B
  8
OBJECT
 62
     6
 10
1837.5
 20
0.0
 30
0.0
 40
2.75
  0
CIRCLE
  5
F816C
  8
OBJECT
 62
     6
 10
1862.5
 20
27.5
 30
0.0
 40
2.75
  0
CIRCLE
  5
F816D
  8
OBJECT
 62
     6
 10
1862.5
 20
-27.5
 30
0.0
 40
2.75
  0
LINE
  5
F816E
  8
CENTER
 10
1862.5
 20
35.25
 30
0.0
 11
1862.5
 21
19.75
 31
0.0
  0
LINE
  5
F816F
  8
CENTER
 10
1854.75
 20
27.5
 30
0.0
 11
1870.25
 21
27.5
 31
0.0
  0
LINE
  5
F8170
  8
CENTER
 10
1862.5
 20
-19.75
 30
0.0
 11
1862.5
 21
-35.25
 31
0.0
  0
LINE
  5
F8171
  8
CENTER
 10
1854.75
 20
-27.5
 30
0.0
 11
1870.25
 21
-27.5
 31
0.0
  0
LINE
  5
F8172
  8
CENTER
 10
1837.5
 20
7.75
 30
0.0
 11
1837.5
 21
-7.75
 31
0.0
  0
LINE
  5
F8173
  8
CENTER
 10
1860.0
 20
18.0
 30
0.0
 11
1860.0
 21
-18.0
 31
0.0
  0
ARC
  5
F81B3
  8
HIDDEN
 10
2140.0000000000009
 20
0.0
 30
0.0
 40
7.0
 50
180.0
 51
167.6263748838343
  0
ARC
  5
F81B4
  8
HIDDEN
 10
2140.0000000000009
 20
0.0
 30
0.0
 40
10.20000000000004
 50
180.0
 51
152.56227057882001
  0
LINE
  5
F81B5
  8
HIDDEN
 10
2129.8000000000002
 20
0.0
 30
0.0
 11
2133.0
 21
0.0
 31
0.0
  0
CIRCLE
  5
F81B8
  8
OBJECT
 62
     6
 10
2140.0000000000009
 20
0.0
 30
0.0
 40
13.0
  0
LINE
  5
F81B9
  8
OBJECT
 62
     6
 10
2125.0
 20
40.0
 30
0.0
 11
2150.0
 21
40.0
 31
0.0
  0
LINE
  5
F81BA
  8
OBJECT
 62
     6
 10
2150.0
 20
40.0
 30
0.0
 11
2150.0
 21
12.5
 31
0.0
  0
LINE
  5
F81BB
  8
OBJECT
 62
     6
 10
2150.0
 20
12.5
 30
0.0
 11
2175.0
 21
12.5
 31
0.0
  0
LINE
  5
F81BC
  8
OBJECT
 62
     6
 10
2175.0
 20
12.5
 30
0.0
 11
2175.0
 21
-12.5
 31
0.0
  0
LINE
  5
F81BD
  8
OBJECT
 62
     6
 10
2175.0
 20
-12.5
 30
0.0
 11
2150.0
 21
-12.5
 31
0.0
  0
LINE
  5
F81BE
  8
OBJECT
 62
     6
 10
2150.0
 20
-12.5
 30
0.0
 11
2150.0
 21
-40.0
 31
0.0
  0
LINE
  5
F81BF
  8
OBJECT
 62
     6
 10
2150.0
 20
-40.0
 30
0.0
 11
2125.0
 21
-40.0
 31
0.0
  0
LINE
  5
F81C0
  8
OBJECT
 62
     6
 10
2125.0
 20
-40.0
 30
0.0
 11
2125.0
 21
1.5
 31
0.0
  0
LINE
  5
F81C1
  8
OBJECT
 62
     6
 10
2125.0
 20
4.7000000000007267
 30
0.0
 11
2125.0
 21
40.0
 31
0.0
  0
LINE
  5
F81C2
  8
HIDDEN
 10
2127.0868284298558
 20
1.5
 30
0.0
 11
2133.1626028344108
 21
1.4999999999972711
 31
0.0
  0
LINE
  5
F81C3
  8
HIDDEN
 10
2127.8793564527291
 20
4.7000000000007267
 30
0.0
 11
2130.9473760709948
 21
4.7000000000007267
 31
0.0
  0
CIRCLE
  5
F81C4
  8
OBJECT
 62
     6
 10
2162.5
 20
0.0
 30
0.0
 40
2.75
  0
CIRCLE
  5
F81C5
  8
OBJECT
 62
     6
 10
2137.5000000000009
 20
-27.5
 30
0.0
 40
2.75
  0
CIRCLE
  5
F81C6
  8
OBJECT
 62
     6
 10
2137.5000000000009
 20
27.5
 30
0.0
 40
2.75
  0
LINE
  5
F81C7
  8
CENTER
 10
2137.5000000000009
 20
-35.25
 30
0.0
 11
2137.5000000000009
 21
-19.75
 31
0.0
  0
LINE
  5
F81C8
  8
CENTER
 10
2145.25
 20
-27.5
 30
0.0
 11
2129.7500000000009
 21
-27.5
 31
0.0
  0
LINE
  5
F81C9
  8
CENTER
 10
2137.5000000000009
 20
19.75
 30
0.0
 11
2137.5000000000009
 21
35.25
 31
0.0
  0
LINE
  5
F81CA
  8
CENTER
 10
2145.25
 20
27.5
 30
0.0
 11
2129.7500000000009
 21
27.5
 31
0.0
  0
LINE
  5
F81CB
  8
CENTER
 10
2162.5
 20
-7.75
 30
0.0
 11
2162.5
 21
7.75
 31
0.0
  0
LINE
  5
F81CC
  8
CENTER
 10
2140.0000000000009
 20
-18.0
 30
0.0
 11
2140.0000000000009
 21
18.0
 31
0.0
  0
LINE
  5
F81CD
  8
OBJECT
 62
     6
 10
1866.349999999999
 20
-389.80000000000013
 30
0.0
 11
1866.349999999999
 21
-316.29999999999922
 31
0.0
  0
LINE
  5
F81CE
  8
OBJECT
 62
     6
 10
1853.6499999999951
 20
-389.80000000000013
 30
0.0
 11
1853.649999999999
 21
-316.29999999999922
 31
0.0
  0
LINE
  5
F81CF
  8
OBJECT
 62
     6
 10
1872.9999999999991
 20
-272.0
 30
0.0
 11
1872.9999999999991
 21
-269.69999999999987
 31
0.0
  0
LINE
  5
F81D0
  8
OBJECT
 62
     6
 10
1872.9999999999991
 20
-269.69999999999987
 30
0.0
 11
1846.9999999999991
 21
-269.69999999999987
 31
0.0
  0
LINE
  5
F81D1
  8
OBJECT
 62
     6
 10
1846.9999999999991
 20
-272.0
 30
0.0
 11
1846.9999999999991
 21
-269.69999999999987
 31
0.0
  0
LINE
  5
F81D2
  8
OBJECT
 62
     6
 10
1872.9999999999991
 20
-272.0
 30
0.0
 11
1846.9999999999991
 21
-272.0
 31
0.0
  0
LINE
  5
F81D3
  8
OBJECT
 62
     6
 10
1872.124355652981
 20
-259.69999999999987
 30
0.0
 11
1847.8756443470161
 21
-259.69999999999987
 31
0.0
  0
LINE
  5
F81D4
  8
OBJECT
 62
     6
 10
1847.8756443470161
 20
-259.69999999999987
 30
0.0
 11
1847.8756443470161
 21
-269.69999999999987
 31
0.0
  0
LINE
  5
F81D6
  8
OBJECT
 62
     6
 10
1872.124355652981
 20
-269.69999999999987
 30
0.0
 11
1872.124355652981
 21
-259.69999999999987
 31
0.0
  0
LINE
  5
F81D7
  8
OBJECT
 62
     6
 10
1866.062177826489
 20
-259.69999999999987
 30
0.0
 11
1866.062177826489
 21
-269.69999999999987
 31
0.0
  0
LINE
  5
F81D8
  8
OBJECT
 62
     6
 10
1853.937822173508
 20
-259.69999999999987
 30
0.0
 11
1853.937822173508
 21
-269.69999999999987
 31
0.0
  0
LINE
  5
F81D9
  8
OBJECT
 62
     6
 10
1872.9999999999991
 20
-304.0
 30
0.0
 11
1872.9999999999991
 21
-306.30000000000018
 31
0.0
  0
LINE
  5
F81DA
  8
OBJECT
 62
     6
 10
1872.9999999999991
 20
-306.30000000000018
 30
0.0
 11
1846.9999999999991
 21
-306.30000000000018
 31
0.0
  0
LINE
  5
F81DB
  8
OBJECT
 62
     6
 10
1846.9999999999991
 20
-304.0
 30
0.0
 11
1846.9999999999991
 21
-306.30000000000018
 31
0.0
  0
LINE
  5
F81DC
  8
OBJECT
 62
     6
 10
1872.9999999999991
 20
-304.0
 30
0.0
 11
1846.9999999999991
 21
-304.0
 31
0.0
  0
LINE
  5
F81DD
  8
OBJECT
 62
     6
 10
1872.124355652981
 20
-316.30000000000018
 30
0.0
 11
1847.8756443470161
 21
-316.30000000000018
 31
0.0
  0
LINE
  5
F81DE
  8
OBJECT
 62
     6
 10
1847.8756443470161
 20
-316.30000000000018
 30
0.0
 11
1847.8756443470161
 21
-306.30000000000018
 31
0.0
  0
LINE
  5
F81E0
  8
OBJECT
 62
     6
 10
1872.124355652981
 20
-306.30000000000018
 30
0.0
 11
1872.124355652981
 21
-316.30000000000018
 31
0.0
  0
LINE
  5
F81E1
  8
OBJECT
 62
     6
 10
1866.062177826489
 20
-316.30000000000018
 30
0.0
 11
1866.062177826489
 21
-306.30000000000018
 31
0.0
  0
LINE
  5
F81E2
  8
OBJECT
 62
     6
 10
1853.937822173508
 20
-316.30000000000018
 30
0.0
 11
1853.937822173508
 21
-306.30000000000018
 31
0.0
  0
LINE
  5
F81E3
  8
OBJECT
 62
     6
 10
1866.349999999999
 20
-259.69999999999987
 30
0.0
 11
1866.349999999999
 21
-199.799999999992
 31
0.0
  0
LINE
  5
F81E4
  8
OBJECT
 62
     6
 10
1853.649999999998
 20
-259.69999999999987
 30
0.0
 11
1853.649999999999
 21
-199.80000000000001
 31
0.0
  0
LINE
  5
F81E5
  8
OBJECT
 62
     6
 10
1853.649999999999
 20
-199.80000000000001
 30
0.0
 11
1866.349999999999
 21
-199.80000000000001
 31
0.0
  0
LINE
  5
F81E6
  8
CENTER
 10
1860.0
 20
-184.80000000000021
 30
0.0
 11
1860.0
 21
-468.0
 31
0.0
  0
LINE
  5
F81F8
  8
OBJECT
 62
     6
 10
2133.650000000001
 20
-389.80000000000013
 30
0.0
 11
2133.650000000001
 21
-316.29999999999922
 31
0.0
  0
LINE
  5
F81F9
  8
OBJECT
 62
     6
 10
2146.3500000000049
 20
-389.80000000000013
 30
0.0
 11
2146.3500000000008
 21
-316.29999999999922
 31
0.0
  0
LINE
  5
F81FA
  8
OBJECT
 62
     6
 10
2127.0000000000018
 20
-272.0
 30
0.0
 11
2127.0000000000018
 21
-269.69999999999987
 31
0.0
  0
LINE
  5
F81FB
  8
OBJECT
 62
     6
 10
2127.0000000000018
 20
-269.69999999999987
 30
0.0
 11
2153.0000000000018
 21
-269.69999999999987
 31
0.0
  0
LINE
  5
F81FC
  8
OBJECT
 62
     6
 10
2153.0000000000018
 20
-272.0
 30
0.0
 11
2153.0000000000018
 21
-269.69999999999987
 31
0.0
  0
LINE
  5
F81FD
  8
OBJECT
 62
     6
 10
2127.0000000000018
 20
-272.0
 30
0.0
 11
2153.0000000000018
 21
-272.0
 31
0.0
  0
LINE
  5
F81FE
  8
OBJECT
 62
     6
 10
2127.8756443470188
 20
-259.69999999999987
 30
0.0
 11
2152.1243556529839
 21
-259.69999999999987
 31
0.0
  0
LINE
  5
F81FF
  8
OBJECT
 62
     6
 10
2152.1243556529839
 20
-259.69999999999987
 30
0.0
 11
2152.1243556529839
 21
-269.69999999999987
 31
0.0
  0
LINE
  5
F8201
  8
OBJECT
 62
     6
 10
2127.8756443470188
 20
-269.69999999999987
 30
0.0
 11
2127.8756443470188
 21
-259.69999999999987
 31
0.0
  0
LINE
  5
F8202
  8
OBJECT
 62
     6
 10
2133.9378221735101
 20
-259.69999999999987
 30
0.0
 11
2133.9378221735101
 21
-269.69999999999987
 31
0.0
  0
LINE
  5
F8203
  8
OBJECT
 62
     6
 10
2146.0621778264931
 20
-259.69999999999987
 30
0.0
 11
2146.0621778264931
 21
-269.69999999999987
 31
0.0
  0
LINE
  5
F8204
  8
OBJECT
 62
     6
 10
2127.0000000000018
 20
-304.0
 30
0.0
 11
2127.0000000000018
 21
-306.30000000000018
 31
0.0
  0
LINE
  5
F8205
  8
OBJECT
 62
     6
 10
2127.0000000000018
 20
-306.30000000000018
 30
0.0
 11
2153.0000000000018
 21
-306.30000000000018
 31
0.0
  0
LINE
  5
F8206
  8
OBJECT
 62
     6
 10
2153.0000000000018
 20
-304.0
 30
0.0
 11
2153.0000000000018
 21
-306.30000000000018
 31
0.0
  0
LINE
  5
F8207
  8
OBJECT
 62
     6
 10
2127.0000000000018
 20
-304.0
 30
0.0
 11
2153.0000000000018
 21
-304.0
 31
0.0
  0
LINE
  5
F8208
  8
OBJECT
 62
     6
 10
2127.8756443470188
 20
-316.30000000000018
 30
0.0
 11
2152.1243556529839
 21
-316.30000000000018
 31
0.0
  0
LINE
  5
F8209
  8
OBJECT
 62
     6
 10
2152.1243556529839
 20
-316.30000000000018
 30
0.0
 11
2152.1243556529839
 21
-306.30000000000018
 31
0.0
  0
LINE
  5
F820B
  8
OBJECT
 62
     6
 10
2127.8756443470188
 20
-306.30000000000018
 30
0.0
 11
2127.8756443470188
 21
-316.30000000000018
 31
0.0
  0
LINE
  5
F820C
  8
OBJECT
 62
     6
 10
2133.9378221735101
 20
-316.30000000000018
 30
0.0
 11
2133.9378221735101
 21
-306.30000000000018
 31
0.0
  0
LINE
  5
F820D
  8
OBJECT
 62
     6
 10
2146.0621778264931
 20
-316.30000000000018
 30
0.0
 11
2146.0621778264931
 21
-306.30000000000018
 31
0.0
  0
LINE
  5
F820E
  8
OBJECT
 62
     6
 10
2133.650000000001
 20
-259.69999999999987
 30
0.0
 11
2133.650000000001
 21
-199.799999999992
 31
0.0
  0
LINE
  5
F820F
  8
OBJECT
 62
     6
 10
2146.3500000000031
 20
-259.69999999999987
 30
0.0
 11
2146.3500000000008
 21
-199.80000000000001
 31
0.0
  0
LINE
  5
F8210
  8
OBJECT
 62
     6
 10
2146.3500000000008
 20
-199.80000000000001
 30
0.0
 11
2133.650000000001
 21
-199.80000000000001
 31
0.0
  0
LINE
  5
F8211
  8
CENTER
 10
2140.0000000000009
 20
-184.80000000000021
 30
0.0
 11
2140.0000000000009
 21
-468.0
 31
0.0
  0
ARC
  5
F8224
  8
HIDDEN
 10
2860.0
 20
0.0
 30
0.0
 40
7.0
 50
0.0
 51
347.62637488383422
  0
ARC
  5
F8225
  8
HIDDEN
 10
2860.0
 20
0.0
 30
0.0
 40
10.0
 50
0.0
 51
333.25631604960751
  0
LINE
  5
F8226
  8
HIDDEN
 10
2870.0
 20
0.0
 30
0.0
 11
2867.0
 21
0.0
 31
0.0
  0
CIRCLE
  5
F8228
  8
OBJECT
 62
     6
 10
2860.0
 20
0.0
 30
0.0
 40
13.0
  0
LINE
  5
F8229
  8
OBJECT
 62
     6
 10
2875.0
 20
-40.0
 30
0.0
 11
2850.0
 21
-40.0
 31
0.0
  0
LINE
  5
F822A
  8
OBJECT
 62
     6
 10
2850.0
 20
-40.0
 30
0.0
 11
2850.0
 21
-12.5
 31
0.0
  0
LINE
  5
F822B
  8
OBJECT
 62
     6
 10
2850.0
 20
-12.5
 30
0.0
 11
2825.0
 21
-12.5
 31
0.0
  0
LINE
  5
F822C
  8
OBJECT
 62
     6
 10
2825.0
 20
-12.5
 30
0.0
 11
2825.0
 21
12.5
 31
0.0
  0
LINE
  5
F822D
  8
OBJECT
 62
     6
 10
2825.0
 20
12.5
 30
0.0
 11
2850.0
 21
12.5
 31
0.0
  0
LINE
  5
F822E
  8
OBJECT
 62
     6
 10
2850.0
 20
12.5
 30
0.0
 11
2850.0
 21
40.0
 31
0.0
  0
LINE
  5
F822F
  8
OBJECT
 62
     6
 10
2850.0
 20
40.0
 30
0.0
 11
2875.0
 21
40.0
 31
0.0
  0
LINE
  5
F8230
  8
OBJECT
 62
     6
 10
2875.0
 20
40.0
 30
0.0
 11
2875.0
 21
-1.5
 31
0.0
  0
LINE
  5
F8231
  8
OBJECT
 62
     6
 10
2875.0
 20
-4.5
 30
0.0
 11
2875.0
 21
-40.0
 31
0.0
  0
LINE
  5
F8232
  8
HIDDEN
 10
2872.9131715701451
 20
-1.5
 30
0.0
 11
2866.8373971655892
 21
-1.4999999999972711
 31
0.0
  0
CIRCLE
  5
F8233
  8
OBJECT
 62
     6
 10
2837.5
 20
0.0
 30
0.0
 40
2.75
  0
CIRCLE
  5
F8234
  8
OBJECT
 62
     6
 10
2862.5
 20
27.5
 30
0.0
 40
2.75
  0
CIRCLE
  5
F8235
  8
OBJECT
 62
     6
 10
2862.5
 20
-27.5
 30
0.0
 40
2.75
  0
LINE
  5
F8236
  8
CENTER
 10
2862.5
 20
35.25
 30
0.0
 11
2862.5
 21
19.75
 31
0.0
  0
LINE
  5
F8237
  8
CENTER
 10
2854.75
 20
27.5
 30
0.0
 11
2870.25
 21
27.5
 31
0.0
  0
LINE
  5
F8238
  8
CENTER
 10
2862.5
 20
-19.75
 30
0.0
 11
2862.5
 21
-35.25
 31
0.0
  0
LINE
  5
F8239
  8
CENTER
 10
2854.75
 20
-27.5
 30
0.0
 11
2870.25
 21
-27.5
 31
0.0
  0
LINE
  5
F823A
  8
CENTER
 10
2837.5
 20
7.75
 30
0.0
 11
2837.5
 21
-7.75
 31
0.0
  0
LINE
  5
F823B
  8
CENTER
 10
2860.0
 20
18.0
 30
0.0
 11
2860.0
 21
-18.0
 31
0.0
  0
LINE
  5
F823C
  8
HIDDEN
 10
2872.1963109176509
 20
-4.5000000000018172
 30
0.0
 11
2868.9302855497458
 21
-4.5
 31
0.0
  0
ARC
  5
F825E
  8
HIDDEN
 10
3140.0
 20
0.0
 30
0.0
 40
7.0
 50
180.0
 51
167.6263748838343
  0
ARC
  5
F825F
  8
HIDDEN
 10
3140.0
 20
0.0
 30
0.0
 40
10.0
 50
180.0
 51
153.25631604960901
  0
LINE
  5
F8260
  8
HIDDEN
 10
3130.0
 20
0.0
 30
0.0
 11
3133.0
 21
0.0
 31
0.0
  0
CIRCLE
  5
F8262
  8
OBJECT
 62
     6
 10
3140.0
 20
0.0
 30
0.0
 40
13.0
  0
LINE
  5
F8263
  8
OBJECT
 62
     6
 10
3125.0
 20
40.0
 30
0.0
 11
3150.0
 21
40.0
 31
0.0
  0
LINE
  5
F8264
  8
OBJECT
 62
     6
 10
3150.0
 20
40.0
 30
0.0
 11
3150.0
 21
12.5
 31
0.0
  0
LINE
  5
F8265
  8
OBJECT
 62
     6
 10
3150.0
 20
12.5
 30
0.0
 11
3175.0
 21
12.5
 31
0.0
  0
LINE
  5
F8266
  8
OBJECT
 62
     6
 10
3175.0
 20
12.5
 30
0.0
 11
3175.0
 21
-12.5
 31
0.0
  0
LINE
  5
F8267
  8
OBJECT
 62
     6
 10
3175.0
 20
-12.5
 30
0.0
 11
3150.0
 21
-12.5
 31
0.0
  0
LINE
  5
F8268
  8
OBJECT
 62
     6
 10
3150.0
 20
-12.5
 30
0.0
 11
3150.0
 21
-40.0
 31
0.0
  0
LINE
  5
F8269
  8
OBJECT
 62
     6
 10
3150.0
 20
-40.0
 30
0.0
 11
3125.0
 21
-40.0
 31
0.0
  0
LINE
  5
F826A
  8
OBJECT
 62
     6
 10
3125.0
 20
-40.0
 30
0.0
 11
3125.0
 21
1.5
 31
0.0
  0
LINE
  5
F826B
  8
OBJECT
 62
     6
 10
3125.0
 20
4.5
 30
0.0
 11
3125.0
 21
40.0
 31
0.0
  0
LINE
  5
F826C
  8
HIDDEN
 10
3127.0868284298549
 20
1.5
 30
0.0
 11
3133.1626028344108
 21
1.4999999999972711
 31
0.0
  0
CIRCLE
  5
F826D
  8
OBJECT
 62
     6
 10
3162.5
 20
0.0
 30
0.0
 40
2.75
  0
CIRCLE
  5
F826E
  8
OBJECT
 62
     6
 10
3137.5
 20
-27.5
 30
0.0
 40
2.75
  0
CIRCLE
  5
F826F
  8
OBJECT
 62
     6
 10
3137.5
 20
27.5
 30
0.0
 40
2.75
  0
LINE
  5
F8270
  8
CENTER
 10
3137.5
 20
-35.25
 30
0.0
 11
3137.5
 21
-19.75
 31
0.0
  0
LINE
  5
F8271
  8
CENTER
 10
3145.25
 20
-27.5
 30
0.0
 11
3129.75
 21
-27.5
 31
0.0
  0
LINE
  5
F8272
  8
CENTER
 10
3137.5
 20
19.75
 30
0.0
 11
3137.5
 21
35.25
 31
0.0
  0
LINE
  5
F8273
  8
CENTER
 10
3145.25
 20
27.5
 30
0.0
 11
3129.75
 21
27.5
 31
0.0
  0
LINE
  5
F8274
  8
CENTER
 10
3162.5
 20
-7.75
 30
0.0
 11
3162.5
 21
7.75
 31
0.0
  0
LINE
  5
F8275
  8
CENTER
 10
3140.0
 20
-18.0
 30
0.0
 11
3140.0
 21
18.0
 31
0.0
  0
LINE
  5
F8276
  8
HIDDEN
 10
3127.80368908235
 20
4.5000000000018172
 30
0.0
 11
3131.0697144502551
 21
4.5
 31
0.0
  0
LINE
  5
F8277
  8
OBJECT
 62
     6
 10
2866.349999999999
 20
-390.0
 30
0.0
 11
2866.349999999999
 21
-315.99999999999898
 31
0.0
  0
LINE
  5
F8278
  8
OBJECT
 62
     6
 10
2853.649999999996
 20
-390.0
 30
0.0
 11
2853.6500000000001
 21
-315.99999999999898
 31
0.0
  0
LINE
  5
F8279
  8
OBJECT
 62
     6
 10
2872.9999999999991
 20
-272.0
 30
0.0
 11
2872.9999999999991
 21
-270.0
 31
0.0
  0
LINE
  5
F827A
  8
OBJECT
 62
     6
 10
2872.9999999999991
 20
-270.0
 30
0.0
 11
2846.9999999999991
 21
-270.0
 31
0.0
  0
LINE
  5
F827B
  8
OBJECT
 62
     6
 10
2846.9999999999991
 20
-272.0
 30
0.0
 11
2846.9999999999991
 21
-270.0
 31
0.0
  0
LINE
  5
F827C
  8
OBJECT
 62
     6
 10
2872.9999999999991
 20
-272.0
 30
0.0
 11
2846.9999999999991
 21
-272.0
 31
0.0
  0
LINE
  5
F827D
  8
OBJECT
 62
     6
 10
2872.1243556529821
 20
-260.0
 30
0.0
 11
2847.8756443470161
 21
-260.0
 31
0.0
  0
LINE
  5
F827E
  8
OBJECT
 62
     6
 10
2847.8756443470161
 20
-260.0
 30
0.0
 11
2847.8756443470161
 21
-270.0
 31
0.0
  0
LINE
  5
F8280
  8
OBJECT
 62
     6
 10
2872.1243556529821
 20
-270.0
 30
0.0
 11
2872.1243556529821
 21
-260.0
 31
0.0
  0
LINE
  5
F8281
  8
OBJECT
 62
     6
 10
2866.0621778264899
 20
-260.0
 30
0.0
 11
2866.0621778264899
 21
-270.0
 31
0.0
  0
LINE
  5
F8282
  8
OBJECT
 62
     6
 10
2853.9378221735078
 20
-260.0
 30
0.0
 11
2853.9378221735078
 21
-270.0
 31
0.0
  0
LINE
  5
F8283
  8
OBJECT
 62
     6
 10
2872.9999999999991
 20
-304.0
 30
0.0
 11
2872.9999999999991
 21
-306.0
 31
0.0
  0
LINE
  5
F8284
  8
OBJECT
 62
     6
 10
2872.9999999999991
 20
-306.0
 30
0.0
 11
2846.9999999999991
 21
-306.0
 31
0.0
  0
LINE
  5
F8285
  8
OBJECT
 62
     6
 10
2846.9999999999991
 20
-304.0
 30
0.0
 11
2846.9999999999991
 21
-306.0
 31
0.0
  0
LINE
  5
F8286
  8
OBJECT
 62
     6
 10
2872.9999999999991
 20
-304.0
 30
0.0
 11
2846.9999999999991
 21
-304.0
 31
0.0
  0
LINE
  5
F8287
  8
OBJECT
 62
     6
 10
2872.1243556529821
 20
-316.0
 30
0.0
 11
2847.8756443470161
 21
-316.0
 31
0.0
  0
LINE
  5
F8288
  8
OBJECT
 62
     6
 10
2847.8756443470161
 20
-316.0
 30
0.0
 11
2847.8756443470161
 21
-306.0
 31
0.0
  0
LINE
  5
F828A
  8
OBJECT
 62
     6
 10
2872.1243556529821
 20
-306.0
 30
0.0
 11
2872.1243556529821
 21
-316.0
 31
0.0
  0
LINE
  5
F828B
  8
OBJECT
 62
     6
 10
2866.0621778264899
 20
-316.0
 30
0.0
 11
2866.0621778264899
 21
-306.0
 31
0.0
  0
LINE
  5
F828C
  8
OBJECT
 62
     6
 10
2853.9378221735078
 20
-316.0
 30
0.0
 11
2853.9378221735078
 21
-306.0
 31
0.0
  0
LINE
  5
F828D
  8
OBJECT
 62
     6
 10
2866.349999999999
 20
-260.0
 30
0.0
 11
2866.349999999999
 21
-199.9999999999917
 31
0.0
  0
LINE
  5
F828E
  8
OBJECT
 62
     6
 10
2853.6499999999978
 20
-260.0
 30
0.0
 11
2853.6500000000001
 21
-200.0
 31
0.0
  0
LINE
  5
F828F
  8
OBJECT
 62
     6
 10
2853.6500000000001
 20
-200.0
 30
0.0
 11
2866.349999999999
 21
-200.0
 31
0.0
  0
LINE
  5
F8290
  8
CENTER
 10
2860.0
 20
-185.0
 30
0.0
 11
2859.9999999999991
 21
-468.0
 31
0.0
  0
LINE
  5
F82A2
  8
OBJECT
 62
     6
 10
3133.650000000001
 20
-390.0
 30
0.0
 11
3133.650000000001
 21
-315.99999999999898
 31
0.0
  0
LINE
  5
F82A3
  8
OBJECT
 62
     6
 10
3146.3500000000049
 20
-390.0
 30
0.0
 11
3146.3500000000022
 21
-315.99999999999898
 31
0.0
  0
LINE
  5
F82A4
  8
OBJECT
 62
     6
 10
3127.0000000000018
 20
-272.0
 30
0.0
 11
3127.0000000000018
 21
-270.0
 31
0.0
  0
LINE
  5
F82A5
  8
OBJECT
 62
     6
 10
3127.0000000000018
 20
-270.0
 30
0.0
 11
3153.0000000000018
 21
-270.0
 31
0.0
  0
LINE
  5
F82A6
  8
OBJECT
 62
     6
 10
3153.0000000000018
 20
-272.0
 30
0.0
 11
3153.0000000000018
 21
-270.0
 31
0.0
  0
LINE
  5
F82A7
  8
OBJECT
 62
     6
 10
3127.0000000000018
 20
-272.0
 30
0.0
 11
3153.0000000000018
 21
-272.0
 31
0.0
  0
LINE
  5
F82A8
  8
OBJECT
 62
     6
 10
3127.8756443470202
 20
-260.0
 30
0.0
 11
3152.1243556529839
 21
-260.0
 31
0.0
  0
LINE
  5
F82A9
  8
OBJECT
 62
     6
 10
3152.1243556529839
 20
-260.0
 30
0.0
 11
3152.1243556529839
 21
-270.0
 31
0.0
  0
LINE
  5
F82AB
  8
OBJECT
 62
     6
 10
3127.8756443470202
 20
-270.0
 30
0.0
 11
3127.8756443470202
 21
-260.0
 31
0.0
  0
LINE
  5
F82AC
  8
OBJECT
 62
     6
 10
3133.937822173511
 20
-260.0
 30
0.0
 11
3133.937822173511
 21
-270.0
 31
0.0
  0
LINE
  5
F82AD
  8
OBJECT
 62
     6
 10
3146.062177826494
 20
-260.0
 30
0.0
 11
3146.062177826494
 21
-270.0
 31
0.0
  0
LINE
  5
F82AE
  8
OBJECT
 62
     6
 10
3127.0000000000018
 20
-304.0
 30
0.0
 11
3127.0000000000018
 21
-306.0
 31
0.0
  0
LINE
  5
F82AF
  8
OBJECT
 62
     6
 10
3127.0000000000018
 20
-306.0
 30
0.0
 11
3153.0000000000018
 21
-306.0
 31
0.0
  0
LINE
  5
F82B0
  8
OBJECT
 62
     6
 10
3153.0000000000018
 20
-304.0
 30
0.0
 11
3153.0000000000018
 21
-306.0
 31
0.0
  0
LINE
  5
F82B1
  8
OBJECT
 62
     6
 10
3127.0000000000018
 20
-304.0
 30
0.0
 11
3153.0000000000018
 21
-304.0
 31
0.0
  0
LINE
  5
F82B2
  8
OBJECT
 62
     6
 10
3127.8756443470202
 20
-316.0
 30
0.0
 11
3152.1243556529839
 21
-316.0
 31
0.0
  0
LINE
  5
F82B3
  8
OBJECT
 62
     6
 10
3152.1243556529839
 20
-316.0
 30
0.0
 11
3152.1243556529839
 21
-306.0
 31
0.0
  0
LINE
  5
F82B5
  8
OBJECT
 62
     6
 10
3127.8756443470202
 20
-306.0
 30
0.0
 11
3127.8756443470202
 21
-316.0
 31
0.0
  0
LINE
  5
F82B6
  8
OBJECT
 62
     6
 10
3133.937822173511
 20
-316.0
 30
0.0
 11
3133.937822173511
 21
-306.0
 31
0.0
  0
LINE
  5
F82B7
  8
OBJECT
 62
     6
 10
3146.062177826494
 20
-316.0
 30
0.0
 11
3146.062177826494
 21
-306.0
 31
0.0
  0
LINE
  5
F82B8
  8
OBJECT
 62
     6
 10
3133.650000000001
 20
-260.0
 30
0.0
 11
3133.650000000001
 21
-199.9999999999917
 31
0.0
  0
LINE
  5
F82B9
  8
OBJECT
 62
     6
 10
3146.3500000000031
 20
-260.0
 30
0.0
 11
3146.3500000000022
 21
-200.0
 31
0.0
  0
LINE
  5
F82BA
  8
OBJECT
 62
     6
 10
3146.3500000000022
 20
-200.0
 30
0.0
 11
3133.650000000001
 21
-200.0
 31
0.0
  0
LINE
  5
F82BB
  8
CENTER
 10
3140.0
 20
-185.0
 30
0.0
 11
3140.0000000000009
 21
-468.0
 31
0.0
  0
LINE
  5
F8359
  8
CENTER
 10
3835.0
 20
-183.5
 30
0.0
 11
3834.9999999999991
 21
-468.0
 31
0.0
  0
POLYLINE
  5
F835A
  8
SLIM
 66
     1
 10
0.0
 20
0.0
 30
0.0
 70
     1
  0
VERTEX
  5
10010F
  8
SLIM
 10
3827.494446500536
 20
13.0
 30
0.0
  0
VERTEX
  5
100110
  8
SLIM
 10
3819.9888930010711
 20
0.0
 30
0.0
  0
VERTEX
  5
100111
  8
SLIM
 10
3827.494446500536
 20
-13.0
 30
0.0
  0
VERTEX
  5
100112
  8
SLIM
 10
3842.5055534994649
 20
-13.0
 30
0.0
  0
VERTEX
  5
100113
  8
SLIM
 10
3850.0111069989298
 20
0.0
 30
0.0
  0
VERTEX
  5
100114
  8
SLIM
 10
3842.5055534994649
 20
13.0
 30
0.0
  0
SEQEND
  5
100115
  8
SLIM
  0
CIRCLE
  5
F835B
  8
OBJECT
 62
     6
 10
3835.0
 20
0.0
 30
0.0
 40
19.0
  0
LINE
  5
F835C
  8
HIDDEN
 10
3853.9406969248762
 20
-1.5
 30
0.0
 11
3843.3666002653408
 21
-1.5
 31
0.0
  0
LINE
  5
F835D
  8
HIDDEN
 10
3853.0277563773211
 20
-6.0
 30
0.0
 11
3846.5325625946712
 21
-6.0
 31
0.0
  0
LINE
  5
F835F
  8
OBJECT
 62
     6
 10
3860.0
 20
-50.0
 30
0.0
 11
3859.9999999999991
 21
-5.999999999998181
 31
0.0
  0
LINE
  5
F8360
  8
OBJECT
 62
     6
 10
3860.0
 20
50.0
 30
0.0
 11
3810.0
 21
50.0
 31
0.0
  0
LINE
  5
F8361
  8
OBJECT
 62
     6
 10
3810.0
 20
50.0
 30
0.0
 11
3810.0
 21
25.0
 31
0.0
  0
LINE
  5
F8362
  8
OBJECT
 62
     6
 10
3810.0
 20
25.0
 30
0.0
 11
3785.0
 21
25.0
 31
0.0
  0
LINE
  5
F8363
  8
OBJECT
 62
     6
 10
3785.0
 20
25.0
 30
0.0
 11
3785.0
 21
-25.0
 31
0.0
  0
LINE
  5
F8364
  8
OBJECT
 62
     6
 10
3785.0
 20
-25.0
 30
0.0
 11
3810.0
 21
-25.0
 31
0.0
  0
LINE
  5
F8365
  8
OBJECT
 62
     6
 10
3810.0
 20
-25.0
 30
0.0
 11
3810.0
 21
-50.0
 31
0.0
  0
LINE
  5
F8366
  8
OBJECT
 62
     6
 10
3810.0
 20
-50.0
 30
0.0
 11
3860.0
 21
-50.0
 31
0.0
  0
CIRCLE
  5
F8369
  8
OBJECT
 62
     6
 10
3797.5
 20
0.0
 30
0.0
 40
2.75
  0
LINE
  5
F836A
  8
CENTER
 10
3797.5
 20
-7.75
 30
0.0
 11
3797.5
 21
7.75
 31
0.0
  0
CIRCLE
  5
F8374
  8
OBJECT
 62
     6
 10
3835.0
 20
-37.5
 30
0.0
 40
2.75
  0
LINE
  5
F8375
  8
CENTER
 10
3842.75
 20
-37.5
 30
0.0
 11
3827.25
 21
-37.5
 31
0.0
  0
CIRCLE
  5
F837E
  8
OBJECT
 62
     6
 10
3835.0
 20
37.5
 30
0.0
 40
2.75
  0
LINE
  5
F837F
  8
CENTER
 10
3827.25
 20
37.5
 30
0.0
 11
3842.75
 21
37.5
 31
0.0
  0
LINE
  5
F8380
  8
CENTER
 10
3835.0
 20
-45.25
 30
0.0
 11
3835.0
 21
-29.75
 31
0.0
  0
LINE
  5
F8381
  8
CENTER
 10
3835.0
 20
29.75
 30
0.0
 11
3835.0
 21
45.25
 31
0.0
  0
LINE
  5
F8382
  8
OBJECT
 62
     6
 10
3860.0
 20
-1.5
 30
0.0
 11
3860.0
 21
50.0
 31
0.0
  0
ARC
  5
F83B1
  8
HIDDEN
 10
4165.0
 20
0.0
 30
0.0
 40
8.5
 50
180.0
 51
169.83575137828581
  0
ARC
  5
F83B2
  8
HIDDEN
 10
4165.0
 20
0.0
 30
0.0
 40
13.0
 50
180.0
 51
152.51357374963541
  0
LINE
  5
F83B3
  8
HIDDEN
 10
4156.5
 20
0.0
 30
0.0
 11
4152.0
 21
0.0
 31
0.0
  0
POLYLINE
  5
F83B5
  8
SLIM
 66
     1
 10
0.0
 20
0.0
 30
0.0
 70
     1
  0
VERTEX
  5
100116
  8
SLIM
 10
4172.5055534994653
 20
-13.0
 30
0.0
  0
VERTEX
  5
100117
  8
SLIM
 10
4180.0111069989298
 20
0.0
 30
0.0
  0
VERTEX
  5
100118
  8
SLIM
 10
4172.5055534994653
 20
13.0
 30
0.0
  0
VERTEX
  5
100119
  8
SLIM
 10
4157.4944465005347
 20
13.0
 30
0.0
  0
VERTEX
  5
10011A
  8
SLIM
 10
4149.9888930010684
 20
0.0
 30
0.0
  0
VERTEX
  5
10011B
  8
SLIM
 10
4157.4944465005347
 20
-13.0
 30
0.0
  0
SEQEND
  5
10011C
  8
SLIM
  0
CIRCLE
  5
F83B6
  8
OBJECT
 62
     6
 10
4165.0
 20
0.0
 30
0.0
 40
19.0
  0
LINE
  5
F83B7
  8
HIDDEN
 10
4146.0593030751234
 20
1.5
 30
0.0
 11
4156.6333997346583
 21
1.5
 31
0.0
  0
LINE
  5
F83B8
  8
HIDDEN
 10
4146.9722436226803
 20
6.0
 30
0.0
 11
4153.4674374053266
 21
6.0
 31
0.0
  0
LINE
  5
F83B9
  8
OBJECT
 62
     6
 10
4140.0
 20
50.0
 30
0.0
 11
4140.0
 21
5.999999999998181
 31
0.0
  0
LINE
  5
F83BA
  8
OBJECT
 62
     6
 10
4140.0
 20
1.5
 30
0.0
 11
4140.0
 21
-50.0
 31
0.0
  0
LINE
  5
F83BB
  8
OBJECT
 62
     6
 10
4140.0
 20
-50.0
 30
0.0
 11
4190.0
 21
-50.0
 31
0.0
  0
LINE
  5
F83BC
  8
OBJECT
 62
     6
 10
4190.0
 20
-50.0
 30
0.0
 11
4190.0
 21
-25.0
 31
0.0
  0
LINE
  5
F83BD
  8
OBJECT
 62
     6
 10
4190.0
 20
-25.0
 30
0.0
 11
4215.0
 21
-25.0
 31
0.0
  0
LINE
  5
F83BE
  8
OBJECT
 62
     6
 10
4215.0
 20
-25.0
 30
0.0
 11
4215.0
 21
25.0
 31
0.0
  0
LINE
  5
F83BF
  8
OBJECT
 62
     6
 10
4215.0
 20
25.0
 30
0.0
 11
4190.0
 21
25.0
 31
0.0
  0
LINE
  5
F83C0
  8
OBJECT
 62
     6
 10
4190.0
 20
25.0
 30
0.0
 11
4190.0
 21
50.0
 31
0.0
  0
LINE
  5
F83C1
  8
OBJECT
 62
     6
 10
4190.0
 20
50.0
 30
0.0
 11
4140.0
 21
50.0
 31
0.0
  0
CIRCLE
  5
F83C2
  8
OBJECT
 62
     6
 10
4202.4999999999991
 20
0.0
 30
0.0
 40
2.75
  0
LINE
  5
F83C3
  8
CENTER
 10
4202.4999999999991
 20
7.75
 30
0.0
 11
4202.4999999999991
 21
-7.75
 31
0.0
  0
CIRCLE
  5
F83C4
  8
OBJECT
 62
     6
 10
4165.0
 20
37.5
 30
0.0
 40
2.75
  0
LINE
  5
F83C5
  8
CENTER
 10
4157.25
 20
37.5
 30
0.0
 11
4172.7499999999991
 21
37.5
 31
0.0
  0
CIRCLE
  5
F83C6
  8
OBJECT
 62
     6
 10
4165.0
 20
-37.5
 30
0.0
 40
2.75
  0
LINE
  5
F83C7
  8
CENTER
 10
4172.7499999999991
 20
-37.5
 30
0.0
 11
4157.25
 21
-37.5
 31
0.0
  0
LINE
  5
F83C8
  8
CENTER
 10
4165.0
 20
45.25
 30
0.0
 11
4165.0
 21
29.75
 31
0.0
  0
LINE
  5
F83C9
  8
CENTER
 10
4165.0
 20
-29.75
 30
0.0
 11
4165.0
 21
-45.25
 31
0.0
  0
LINE
  5
F83CC
  8
CENTER
 10
3835.0
 20
-24.0
 30
0.0
 11
3835.0
 21
24.0
 31
0.0
  0
LINE
  5
F83CD
  8
CENTER
 10
4165.0
 20
-24.0
 30
0.0
 11
4165.0
 21
24.0
 31
0.0
  0
LINE
  5
F8434
  8
OBJECT
 62
     6
 10
3827.0625
 20
-198.5
 30
0.0
 11
3827.0625
 21
-261.69999999999987
 31
0.0
  0
LINE
  5
F8435
  8
OBJECT
 62
     6
 10
3842.9375
 20
-198.5
 30
0.0
 11
3842.9375000000009
 21
-261.69999999999987
 31
0.0
  0
LINE
  5
F843B
  8
OBJECT
 62
     6
 10
3819.9888930010711
 20
-274.69999999999987
 30
0.0
 11
3819.9888930010711
 21
-261.69999999999987
 31
0.0
  0
LINE
  5
F843C
  8
OBJECT
 62
     6
 10
3819.9888930010711
 20
-261.69999999999987
 30
0.0
 11
3850.0111069989298
 21
-261.69999999999987
 31
0.0
  0
LINE
  5
F843D
  8
OBJECT
 62
     6
 10
3850.0111069989298
 20
-261.69999999999987
 30
0.0
 11
3850.0111069989298
 21
-274.69999999999987
 31
0.0
  0
LINE
  5
F843E
  8
OBJECT
 62
     6
 10
3842.5055534994649
 20
-261.69999999999987
 30
0.0
 11
3842.5055534994649
 21
-274.69999999999987
 31
0.0
  0
LINE
  5
F843F
  8
OBJECT
 62
     6
 10
3827.494446500536
 20
-261.69999999999987
 30
0.0
 11
3827.494446500536
 21
-274.69999999999987
 31
0.0
  0
LINE
  5
F8442
  8
OBJECT
 62
     6
 10
3816.0
 20
-277.0
 30
0.0
 11
3854.0
 21
-277.0
 31
0.0
  0
LINE
  5
F8443
  8
OBJECT
 62
     6
 10
3854.0
 20
-277.0
 30
0.0
 11
3854.0
 21
-274.69999999999987
 31
0.0
  0
LINE
  5
F8444
  8
OBJECT
 62
     6
 10
3854.0
 20
-274.69999999999987
 30
0.0
 11
3816.0
 21
-274.69999999999987
 31
0.0
  0
LINE
  5
F8445
  8
OBJECT
 62
     6
 10
3816.0
 20
-274.69999999999987
 30
0.0
 11
3816.0
 21
-277.0
 31
0.0
  0
LINE
  5
F8448
  8
OBJECT
 62
     6
 10
3819.9888930010711
 20
-317.30000000000018
 30
0.0
 11
3819.9888930010711
 21
-330.30000000000018
 31
0.0
  0
LINE
  5
F8449
  8
OBJECT
 62
     6
 10
3819.9888930010711
 20
-330.30000000000018
 30
0.0
 11
3850.0111069989298
 21
-330.30000000000018
 31
0.0
  0
LINE
  5
F844A
  8
OBJECT
 62
     6
 10
3850.0111069989298
 20
-330.30000000000018
 30
0.0
 11
3850.0111069989298
 21
-317.30000000000018
 31
0.0
  0
LINE
  5
F844B
  8
OBJECT
 62
     6
 10
3842.5055534994649
 20
-330.30000000000018
 30
0.0
 11
3842.5055534994649
 21
-317.30000000000018
 31
0.0
  0
LINE
  5
F844C
  8
OBJECT
 62
     6
 10
3827.494446500536
 20
-330.30000000000018
 30
0.0
 11
3827.494446500536
 21
-317.30000000000018
 31
0.0
  0
LINE
  5
F844D
  8
OBJECT
 62
     6
 10
3816.0
 20
-315.0
 30
0.0
 11
3854.0
 21
-315.0
 31
0.0
  0
LINE
  5
F844E
  8
OBJECT
 62
     6
 10
3854.0
 20
-315.0
 30
0.0
 11
3854.0
 21
-317.30000000000018
 31
0.0
  0
LINE
  5
F844F
  8
OBJECT
 62
     6
 10
3854.0
 20
-317.30000000000018
 30
0.0
 11
3816.0
 21
-317.30000000000018
 31
0.0
  0
LINE
  5
F8450
  8
OBJECT
 62
     6
 10
3816.0
 20
-317.30000000000018
 30
0.0
 11
3816.0
 21
-315.0
 31
0.0
  0
LINE
  5
F8451
  8
OBJECT
 62
     6
 10
3827.0625
 20
-330.30000000000109
 30
0.0
 11
3827.0625
 21
-385.5
 31
0.0
  0
LINE
  5
F8452
  8
OBJECT
 62
     6
 10
3842.9375
 20
-330.30000000000109
 30
0.0
 11
3842.9375
 21
-385.5
 31
0.0
  0
CIRCLE
  5
F8453
  8
SLIM
 10
-130.0
 20
0.0
 30
0.0
 40
6.3499999999999979
  0
CIRCLE
  5
F8454
  8
SLIM
 10
130.0
 20
0.0
 30
0.0
 40
6.3499999999999979
  0
CIRCLE
  5
F8455
  8
SLIM
 10
870.0
 20
0.0
 30
0.0
 40
6.3499999999999979
  0
CIRCLE
  5
F8456
  8
SLIM
 10
1129.9999999999991
 20
0.0
 30
0.0
 40
6.3499999999999979
  0
CIRCLE
  5
F8457
  8
SLIM
 10
1860.0
 20
0.0
 30
0.0
 40
6.3499999999999979
  0
CIRCLE
  5
F8458
  8
SLIM
 10
2140.0000000000009
 20
0.0
 30
0.0
 40
6.3499999999999979
  0
CIRCLE
  5
F8459
  8
SLIM
 10
2860.0
 20
0.0
 30
0.0
 40
6.3499999999999979
  0
CIRCLE
  5
F845A
  8
SLIM
 10
3140.0
 20
0.0
 30
0.0
 40
6.3499999999999979
  0
CIRCLE
  5
F845B
  8
SLIM
 10
3835.0
 20
0.0
 30
0.0
 40
7.9375
  0
CIRCLE
  5
F845C
  8
SLIM
 10
4165.0
 20
0.0
 30
0.0
 40
7.9375
  0
LINE
  5
F846D
  8
OBJECT
 62
     6
 10
3850.0111069989298
 20
-385.5
 30
0.0
 11
3819.9888930010711
 21
-385.5
 31
0.0
  0
LINE
  5
F846E
  8
OBJECT
 62
     6
 10
3819.9888930010711
 20
-385.5
 30
0.0
 11
3819.9888930010711
 21
-398.5
 31
0.0
  0
LINE
  5
F846F
  8
OBJECT
 62
     6
 10
3819.9888930010711
 20
-398.5
 30
0.0
 11
3850.0111069989298
 21
-398.5
 31
0.0
  0
LINE
  5
F8470
  8
OBJECT
 62
     6
 10
3850.0111069989298
 20
-398.5
 30
0.0
 11
3850.0111069989298
 21
-385.5
 31
0.0
  0
LINE
  5
F8471
  8
OBJECT
 62
     6
 10
3842.5055534994649
 20
-398.5
 30
0.0
 11
3842.5055534994649
 21
-385.5
 31
0.0
  0
LINE
  5
F8472
  8
OBJECT
 62
     6
 10
3827.494446500536
 20
-398.5
 30
0.0
 11
3827.494446500536
 21
-385.5
 31
0.0
  0
LINE
  5
F847A
  8
OBJECT
 62
     6
 10
3848.2790561913612
 20
-398.5
 30
0.0
 11
3848.2790561913612
 21
-448.5
 31
0.0
  0
LINE
  5
F847C
  8
OBJECT
 62
     6
 10
3821.7209438086388
 20
-448.5
 30
0.0
 11
3821.7209438086388
 21
-398.5
 31
0.0
  0
LINE
  5
F847D
  8
OBJECT
 62
     6
 10
3828.3604719043192
 20
-398.5
 30
0.0
 11
3828.3604719043192
 21
-448.5
 31
0.0
  0
LINE
  5
F847E
  8
OBJECT
 62
     6
 10
3841.6395280956822
 20
-398.5
 30
0.0
 11
3841.6395280956822
 21
-448.5
 31
0.0
  0
LINE
  5
F847F
  8
OBJECT
 62
     6
 10
3827.0625
 20
-198.5
 30
0.0
 11
3842.9375
 21
-198.5
 31
0.0
  0
LINE
  5
F8483
  8
OBJECT
 62
     6
 10
3860.0
 20
-448.5
 30
0.0
 11
3785.0
 21
-448.5
 31
0.0
  0
LINE
  5
F8484
  8
OBJECT
 62
     6
 10
3785.0
 20
-448.5
 30
0.0
 11
3785.0
 21
-453.0
 31
0.0
  0
LINE
  5
F8485
  8
OBJECT
 62
     6
 10
3785.0
 20
-453.0
 30
0.0
 11
3860.0
 21
-453.0
 31
0.0
  0
LINE
  5
F8486
  8
OBJECT
 62
     6
 10
3860.0
 20
-453.0
 30
0.0
 11
3860.0
 21
-448.5
 31
0.0
  0
LINE
  5
F8487
  8
OBJECT
 62
     6
 10
3810.0
 20
-448.5
 30
0.0
 11
3810.0
 21
-453.0
 31
0.0
  0
LINE
  5
F8488
  8
CENTER
 10
4165.0
 20
-183.5
 30
0.0
 11
4165.0
 21
-468.0
 31
0.0
  0
LINE
  5
F8489
  8
OBJECT
 62
     6
 10
4157.0625
 20
-198.5
 30
0.0
 11
4157.0624999999991
 21
-261.69999999999987
 31
0.0
  0
LINE
  5
F848A
  8
OBJECT
 62
     6
 10
4157.0625
 20
-330.30000000000109
 30
0.0
 11
4157.0625
 21
-385.5
 31
0.0
  0
LINE
  5
F848B
  8
OBJECT
 62
     6
 10
4172.9374999999982
 20
-198.5
 30
0.0
 11
4172.9374999999982
 21
-261.69999999999987
 31
0.0
  0
LINE
  5
F848C
  8
OBJECT
 62
     6
 10
4172.9374999999982
 20
-330.30000000000109
 30
0.0
 11
4172.9374999999982
 21
-385.5
 31
0.0
  0
LINE
  5
F848E
  8
OBJECT
 62
     6
 10
4180.0111069989298
 20
-274.69999999999987
 30
0.0
 11
4180.0111069989298
 21
-261.69999999999987
 31
0.0
  0
LINE
  5
F848F
  8
OBJECT
 62
     6
 10
4180.0111069989298
 20
-261.69999999999987
 30
0.0
 11
4149.9888930010684
 21
-261.69999999999987
 31
0.0
  0
LINE
  5
F8490
  8
OBJECT
 62
     6
 10
4149.9888930010684
 20
-261.69999999999987
 30
0.0
 11
4149.9888930010684
 21
-274.69999999999987
 31
0.0
  0
LINE
  5
F8491
  8
OBJECT
 62
     6
 10
4157.4944465005347
 20
-261.69999999999987
 30
0.0
 11
4157.4944465005347
 21
-274.69999999999987
 31
0.0
  0
LINE
  5
F8492
  8
OBJECT
 62
     6
 10
4172.5055534994653
 20
-261.69999999999987
 30
0.0
 11
4172.5055534994653
 21
-274.69999999999987
 31
0.0
  0
LINE
  5
F8493
  8
OBJECT
 62
     6
 10
4184.0
 20
-277.0
 30
0.0
 11
4146.0
 21
-277.0
 31
0.0
  0
LINE
  5
F8494
  8
OBJECT
 62
     6
 10
4146.0
 20
-277.0
 30
0.0
 11
4146.0
 21
-274.69999999999987
 31
0.0
  0
LINE
  5
F8495
  8
OBJECT
 62
     6
 10
4146.0
 20
-274.69999999999987
 30
0.0
 11
4184.0
 21
-274.69999999999987
 31
0.0
  0
LINE
  5
F8496
  8
OBJECT
 62
     6
 10
4184.0
 20
-274.69999999999987
 30
0.0
 11
4184.0
 21
-277.0
 31
0.0
  0
LINE
  5
F8498
  8
OBJECT
 62
     6
 10
4180.0111069989298
 20
-317.30000000000018
 30
0.0
 11
4180.0111069989298
 21
-330.30000000000018
 31
0.0
  0
LINE
  5
F8499
  8
OBJECT
 62
     6
 10
4180.0111069989298
 20
-330.30000000000018
 30
0.0
 11
4149.9888930010684
 21
-330.30000000000018
 31
0.0
  0
LINE
  5
F849A
  8
OBJECT
 62
     6
 10
4149.9888930010684
 20
-330.30000000000018
 30
0.0
 11
4149.9888930010684
 21
-317.30000000000018
 31
0.0
  0
LINE
  5
F849B
  8
OBJECT
 62
     6
 10
4157.4944465005347
 20
-330.30000000000018
 30
0.0
 11
4157.4944465005347
 21
-317.30000000000018
 31
0.0
  0
LINE
  5
F849C
  8
OBJECT
 62
     6
 10
4172.5055534994653
 20
-330.30000000000018
 30
0.0
 11
4172.5055534994653
 21
-317.30000000000018
 31
0.0
  0
LINE
  5
F849D
  8
OBJECT
 62
     6
 10
4184.0
 20
-315.0
 30
0.0
 11
4146.0
 21
-315.0
 31
0.0
  0
LINE
  5
F849E
  8
OBJECT
 62
     6
 10
4146.0
 20
-315.0
 30
0.0
 11
4146.0
 21
-317.30000000000018
 31
0.0
  0
LINE
  5
F849F
  8
OBJECT
 62
     6
 10
4146.0
 20
-317.30000000000018
 30
0.0
 11
4184.0
 21
-317.30000000000018
 31
0.0
  0
LINE
  5
F84A0
  8
OBJECT
 62
     6
 10
4184.0
 20
-317.30000000000018
 30
0.0
 11
4184.0
 21
-315.0
 31
0.0
  0
LINE
  5
F84A1
  8
OBJECT
 62
     6
 10
4149.9888930010684
 20
-385.5
 30
0.0
 11
4180.0111069989298
 21
-385.5
 31
0.0
  0
LINE
  5
F84A2
  8
OBJECT
 62
     6
 10
4180.0111069989298
 20
-385.5
 30
0.0
 11
4180.0111069989298
 21
-398.5
 31
0.0
  0
LINE
  5
F84A3
  8
OBJECT
 62
     6
 10
4180.0111069989298
 20
-398.5
 30
0.0
 11
4149.9888930010684
 21
-398.5
 31
0.0
  0
LINE
  5
F84A4
  8
OBJECT
 62
     6
 10
4149.9888930010684
 20
-398.5
 30
0.0
 11
4149.9888930010684
 21
-385.5
 31
0.0
  0
LINE
  5
F84A5
  8
OBJECT
 62
     6
 10
4157.4944465005347
 20
-398.5
 30
0.0
 11
4157.4944465005347
 21
-385.5
 31
0.0
  0
LINE
  5
F84A6
  8
OBJECT
 62
     6
 10
4172.5055534994653
 20
-398.5
 30
0.0
 11
4172.5055534994653
 21
-385.5
 31
0.0
  0
LINE
  5
F84A8
  8
OBJECT
 62
     6
 10
4151.7209438086384
 20
-398.5
 30
0.0
 11
4151.7209438086384
 21
-448.5
 31
0.0
  0
LINE
  5
F84AA
  8
OBJECT
 62
     6
 10
4178.2790561913589
 20
-448.5
 30
0.0
 11
4178.2790561913589
 21
-398.5
 31
0.0
  0
LINE
  5
F84AB
  8
OBJECT
 62
     6
 10
4171.6395280956804
 20
-398.5
 30
0.0
 11
4171.6395280956804
 21
-448.5
 31
0.0
  0
LINE
  5
F84AC
  8
OBJECT
 62
     6
 10
4158.3604719043187
 20
-398.5
 30
0.0
 11
4158.3604719043187
 21
-448.5
 31
0.0
  0
LINE
  5
F84AD
  8
OBJECT
 62
     6
 10
4172.9374999999982
 20
-198.5
 30
0.0
 11
4157.0625
 21
-198.5
 31
0.0
  0
LINE
  5
F84AE
  8
OBJECT
 62
     6
 10
4140.0
 20
-448.5
 30
0.0
 11
4215.0
 21
-448.5
 31
0.0
  0
LINE
  5
F84AF
  8
OBJECT
 62
     6
 10
4215.0
 20
-448.5
 30
0.0
 11
4215.0
 21
-453.0
 31
0.0
  0
LINE
  5
F84B0
  8
OBJECT
 62
     6
 10
4215.0
 20
-453.0
 30
0.0
 11
4140.0
 21
-453.0
 31
0.0
  0
LINE
  5
F84B1
  8
OBJECT
 62
     6
 10
4140.0
 20
-453.0
 30
0.0
 11
4140.0
 21
-448.5
 31
0.0
  0
LINE
  5
F84B2
  8
OBJECT
 62
     6
 10
4190.0
 20
-448.5
 30
0.0
 11
4190.0
 21
-453.0
 31
0.0
  0
ARC
  5
FC326
  8
OBJECT
 10
0.0000000000000148
 20
0.0
 30
0.0
 40
59.5
 50
6.9999999999801199
 51
172.99999999996811
  0
ARC
  5
FC327
  8
OBJECT
 10
0.0000000000000148
 20
0.0
 30
0.0
 40
67.700000000000003
 50
6.9999999999801199
 51
172.99999999996811
  0
LINE
  5
FC328
  8
CENTER
 10
-0.0000000000000136
 20
-254.0
 30
0.0
 11
-0.0000000000000506
 21
-322.0
 31
0.0
  0
LINE
  5
FC329
  8
OBJECT
 10
-65.531671732082771
 20
-274.0
 30
0.0
 11
-65.531671732084504
 21
-302.0
 31
0.0
  0
LINE
  5
FC32A
  8
OBJECT
 10
-67.195374466116704
 20
-302.0
 30
0.0
 11
-67.195374466116704
 21
-307.0
 31
0.0
  0
LINE
  5
FC32B
  8
OBJECT
 10
-67.195374466116704
 20
-307.0
 30
0.0
 11
67.195374466116618
 21
-307.0
 31
0.0
  0
LINE
  5
FC32C
  8
OBJECT
 10
67.195374466116633
 20
-302.0
 30
0.0
 11
-67.195374466116704
 21
-302.0
 31
0.0
  0
LINE
  5
FC32D
  8
OBJECT
 10
-67.195374466116704
 20
-274.0
 30
0.0
 11
-67.195374466116704
 21
-269.0
 31
0.0
  0
LINE
  5
FC32E
  8
OBJECT
 10
-67.195374466116704
 20
-269.0
 30
0.0
 11
67.195374466116647
 21
-269.0
 31
0.0
  0
LINE
  5
FC32F
  8
OBJECT
 10
67.195374466116647
 20
-274.0
 30
0.0
 11
-67.195374466116704
 21
-274.0
 31
0.0
  0
ARC
  5
FC330
  8
OBJECT
 10
0.0000000000000148
 20
0.0
 30
0.0
 40
62.5
 50
1.375230752038165
 51
6.9999999999801199
  0
ARC
  5
FC331
  8
OBJECT
 10
0.0000000000000148
 20
0.0
 30
0.0
 40
65.700000000000003
 50
4.1022888905865882
 51
6.9999999999801199
  0
ARC
  5
FC332
  8
HIDDEN
 10
0.0
 20
0.0
 30
0.0
 40
62.5
 50
6.9999999999801199
 51
172.99999999996811
  0
ARC
  5
FC333
  8
HIDDEN
 10
0.0
 20
0.0
 30
0.0
 40
65.700000000000017
 50
6.9999999999801199
 51
172.99999999996811
  0
LINE
  5
FC334
  8
OBJECT
 10
59.056496022657939
 20
7.2512259326122139
 30
0.0
 11
67.195374466116704
 21
8.2505545485346374
 31
0.0
  0
LINE
  5
FC335
  8
OBJECT
 10
-59.056496022657939
 20
7.2512259326122139
 30
0.0
 11
-67.195374466116704
 21
8.2505545485346374
 31
0.0
  0
ARC
  5
FC336
  8
OBJECT
 10
0.0000000000000148
 20
0.0
 30
0.0
 40
62.5
 50
172.99999999996811
 51
178.62476924796181
  0
ARC
  5
FC337
  8
OBJECT
 10
0.0000000000000148
 20
0.0
 30
0.0
 40
65.700000000000003
 50
172.99999999996811
 51
175.89771110941339
  0
ARC
  5
FC338
  8
OBJECT
 10
0.0000000000000148
 20
0.0
 30
0.0
 40
59.5
 50
186.99999999997971
 51
353.00000000002018
  0
ARC
  5
FC339
  8
OBJECT
 10
0.0000000000000148
 20
0.0
 30
0.0
 40
67.700000000000003
 50
186.99999999997971
 51
353.00000000002018
  0
ARC
  5
FC33A
  8
OBJECT
 10
0.0000000000000148
 20
0.0
 30
0.0
 40
62.5
 50
352.99999999996783
 51
358.62476924796181
  0
ARC
  5
FC33B
  8
OBJECT
 10
0.0000000000000148
 20
0.0
 30
0.0
 40
65.700000000000003
 50
352.99999999996783
 51
355.89771110941348
  0
ARC
  5
FC33C
  8
HIDDEN
 10
0.0
 20
0.0
 30
0.0
 40
62.5
 50
186.99999999997971
 51
353.00000000002018
  0
ARC
  5
FC33D
  8
HIDDEN
 10
0.0
 20
0.0
 30
0.0
 40
65.700000000000017
 50
186.99999999997971
 51
353.00000000002018
  0
LINE
  5
FC33E
  8
OBJECT
 10
59.056496022657939
 20
-7.2512259326122139
 30
0.0
 11
67.195374466116704
 21
-8.2505545485346374
 31
0.0
  0
LINE
  5
FC33F
  8
OBJECT
 10
-59.056496022657939
 20
-7.2512259326122139
 30
0.0
 11
-67.195374466116704
 21
-8.2505545485346374
 31
0.0
  0
ARC
  5
FC340
  8
OBJECT
 10
0.0000000000000148
 20
0.0
 30
0.0
 40
62.5
 50
181.37523075203799
 51
187.0000000000322
  0
ARC
  5
FC341
  8
OBJECT
 10
0.0000000000000148
 20
0.0
 30
0.0
 40
65.700000000000003
 50
184.10228889058641
 51
187.0000000000322
  0
LINE
  5
FC342
  8
OBJECT
 10
65.531671732082714
 20
-274.0
 30
0.0
 11
65.531671732084433
 21
-302.0
 31
0.0
  0
LINE
  5
FC343
  8
OBJECT
 10
67.195374466116633
 20
-302.0
 30
0.0
 11
67.195374466116618
 21
-307.0
 31
0.0
  0
LINE
  5
FC344
  8
OBJECT
 10
67.195374466116647
 20
-274.0
 30
0.0
 11
67.195374466116647
 21
-269.0
 31
0.0
  0
LINE
  5
FC345
  8
HIDDEN
 10
-59.5
 20
-307.0
 30
0.0
 11
-59.500000000000021
 21
-269.0
 31
0.0
  0
LINE
  5
FC346
  8
HIDDEN
 10
59.499999999999929
 20
-307.0
 30
0.0
 11
59.499999999999972
 21
-269.0
 31
0.0
  0
POLYLINE
  5
FC350
  8
CENTER
 66
     1
 10
0.0
 20
0.0
 30
0.0
 70
     1
  0
VERTEX
  5
10011D
  8
CENTER
 10
-136.06217782649111
 20
10.5
 30
0.0
  0
VERTEX
  5
10011E
  8
CENTER
 10
-142.1243556529821
 20
0.0
 30
0.0
  0
VERTEX
  5
10011F
  8
CENTER
 10
-136.06217782649111
 20
-10.5
 30
0.0
  0
VERTEX
  5
100120
  8
CENTER
 10
-123.93782217350891
 20
-10.5
 30
0.0
  0
VERTEX
  5
100121
  8
CENTER
 10
-117.8756443470178
 20
0.0
 30
0.0
  0
VERTEX
  5
100122
  8
CENTER
 10
-123.93782217350891
 20
10.5
 30
0.0
  0
SEQEND
  5
100123
  8
CENTER
  0
POLYLINE
  5
FC351
  8
CENTER
 66
     1
 10
0.0
 20
0.0
 30
0.0
 70
     1
  0
VERTEX
  5
100124
  8
CENTER
 10
123.93782217350881
 20
10.5
 30
0.0
  0
VERTEX
  5
100125
  8
CENTER
 10
117.8756443470178
 20
0.0
 30
0.0
  0
VERTEX
  5
100126
  8
CENTER
 10
123.93782217350881
 20
-10.5
 30
0.0
  0
VERTEX
  5
100127
  8
CENTER
 10
136.06217782649099
 20
-10.5
 30
0.0
  0
VERTEX
  5
100128
  8
CENTER
 10
142.1243556529821
 20
0.0
 30
0.0
  0
VERTEX
  5
100129
  8
CENTER
 10
136.06217782649099
 20
10.5
 30
0.0
  0
SEQEND
  5
10012A
  8
CENTER
  0
POLYLINE
  5
FC352
  8
CENTER
 66
     1
 10
0.0
 20
0.0
 30
0.0
 70
     1
  0
VERTEX
  5
10012B
  8
CENTER
 10
863.93782217350861
 20
10.5
 30
0.0
  0
VERTEX
  5
10012C
  8
CENTER
 10
857.87564434701778
 20
0.0
 30
0.0
  0
VERTEX
  5
10012D
  8
CENTER
 10
863.93782217350861
 20
-10.5
 30
0.0
  0
VERTEX
  5
10012E
  8
CENTER
 10
876.06217782649082
 20
-10.5
 30
0.0
  0
VERTEX
  5
10012F
  8
CENTER
 10
882.12435565298222
 20
0.0
 30
0.0
  0
VERTEX
  5
100130
  8
CENTER
 10
876.06217782649082
 20
10.5
 30
0.0
  0
SEQEND
  5
100131
  8
CENTER
  0
POLYLINE
  5
FC353
  8
CENTER
 66
     1
 10
0.0
 20
0.0
 30
0.0
 70
     1
  0
VERTEX
  5
100132
  8
CENTER
 10
1123.9378221735089
 20
10.5
 30
0.0
  0
VERTEX
  5
100133
  8
CENTER
 10
1117.875644347017
 20
0.0
 30
0.0
  0
VERTEX
  5
100134
  8
CENTER
 10
1123.9378221735089
 20
-10.5
 30
0.0
  0
VERTEX
  5
100135
  8
CENTER
 10
1136.0621778264911
 20
-10.5
 30
0.0
  0
VERTEX
  5
100136
  8
CENTER
 10
1142.1243556529821
 20
0.0
 30
0.0
  0
VERTEX
  5
100137
  8
CENTER
 10
1136.0621778264911
 20
10.5
 30
0.0
  0
SEQEND
  5
100138
  8
CENTER
  0
POLYLINE
  5
FC354
  8
CENTER
 66
     1
 10
0.0
 20
0.0
 30
0.0
 70
     1
  0
VERTEX
  5
100139
  8
CENTER
 10
1853.937822173508
 20
10.5
 30
0.0
  0
VERTEX
  5
10013A
  8
CENTER
 10
1847.875644347017
 20
0.0
 30
0.0
  0
VERTEX
  5
10013B
  8
CENTER
 10
1853.937822173508
 20
-10.5
 30
0.0
  0
VERTEX
  5
10013C
  8
CENTER
 10
1866.062177826489
 20
-10.5
 30
0.0
  0
VERTEX
  5
10013D
  8
CENTER
 10
1872.1243556529821
 20
0.0
 30
0.0
  0
VERTEX
  5
10013E
  8
CENTER
 10
1866.062177826489
 20
10.5
 30
0.0
  0
SEQEND
  5
10013F
  8
CENTER
  0
POLYLINE
  5
FC355
  8
CENTER
 66
     1
 10
0.0
 20
0.0
 30
0.0
 70
     1
  0
VERTEX
  5
100140
  8
CENTER
 10
2133.9378221735092
 20
10.5
 30
0.0
  0
VERTEX
  5
100141
  8
CENTER
 10
2127.875644347017
 20
0.0
 30
0.0
  0
VERTEX
  5
100142
  8
CENTER
 10
2133.9378221735092
 20
-10.5
 30
0.0
  0
VERTEX
  5
100143
  8
CENTER
 10
2146.0621778264908
 20
-10.5
 30
0.0
  0
VERTEX
  5
100144
  8
CENTER
 10
2152.124355652983
 20
0.0
 30
0.0
  0
VERTEX
  5
100145
  8
CENTER
 10
2146.0621778264908
 20
10.5
 30
0.0
  0
SEQEND
  5
100146
  8
CENTER
  0
POLYLINE
  5
FC356
  8
CENTER
 66
     1
 10
0.0
 20
0.0
 30
0.0
 70
     1
  0
VERTEX
  5
100147
  8
CENTER
 10
2853.9378221735092
 20
10.5
 30
0.0
  0
VERTEX
  5
100148
  8
CENTER
 10
2847.875644347017
 20
0.0
 30
0.0
  0
VERTEX
  5
100149
  8
CENTER
 10
2853.9378221735092
 20
-10.5
 30
0.0
  0
VERTEX
  5
10014A
  8
CENTER
 10
2866.0621778264922
 20
-10.5
 30
0.0
  0
VERTEX
  5
10014B
  8
CENTER
 10
2872.124355652983
 20
0.0
 30
0.0
  0
VERTEX
  5
10014C
  8
CENTER
 10
2866.0621778264922
 20
10.5
 30
0.0
  0
SEQEND
  5
10014D
  8
CENTER
  0
POLYLINE
  5
FC357
  8
CENTER
 66
     1
 10
0.0
 20
0.0
 30
0.0
 70
     1
  0
VERTEX
  5
10014E
  8
CENTER
 10
3133.9378221735092
 20
10.5
 30
0.0
  0
VERTEX
  5
10014F
  8
CENTER
 10
3127.875644347017
 20
0.0
 30
0.0
  0
VERTEX
  5
100150
  8
CENTER
 10
3133.9378221735092
 20
-10.5
 30
0.0
  0
VERTEX
  5
100151
  8
CENTER
 10
3146.0621778264908
 20
-10.5
 30
0.0
  0
VERTEX
  5
100152
  8
CENTER
 10
3152.124355652983
 20
0.0
 30
0.0
  0
VERTEX
  5
100153
  8
CENTER
 10
3146.0621778264908
 20
10.5
 30
0.0
  0
SEQEND
  5
100154
  8
CENTER
  0
LINE
  5
FC364
  8
OBJECT
 62
     6
 10
119.0303448853969
 20
-399.80000000000013
 30
0.0
 11
119.0303448853969
 21
-449.80000000000013
 31
0.0
  0
LINE
  5
FC366
  8
OBJECT
 62
     6
 10
140.96965511460249
 20
-449.80000000000013
 30
0.0
 11
140.96965511460269
 21
-399.80000000000013
 31
0.0
  0
LINE
  5
FC368
  8
OBJECT
 62
     6
 10
124.5151724426984
 20
-399.80000000000013
 30
0.0
 11
124.5151724426983
 21
-449.80000000000013
 31
0.0
  0
LINE
  5
FC369
  8
OBJECT
 62
     6
 10
135.48482755730129
 20
-399.80000000000013
 30
0.0
 11
135.4848275573012
 21
-449.80000000000013
 31
0.0
  0
LINE
  5
FC36A
  8
OBJECT
 62
     6
 10
117.87564434701829
 20
-399.80000000000013
 30
0.0
 11
142.12435565298341
 21
-399.80000000000013
 31
0.0
  0
LINE
  5
FC372
  8
CENTER
 10
999.99999999999955
 20
82.5
 30
0.0
 11
999.99999999999955
 21
-82.5
 31
0.0
  0
ARC
  5
FC373
  8
OBJECT
 10
999.99999999999955
 20
0.0
 30
0.0
 40
62.5
 50
1.375230752038153
 51
6.9999999999801199
  0
ARC
  5
FC374
  8
OBJECT
 10
999.99999999999955
 20
0.0
 30
0.0
 40
59.5
 50
6.9999999999801199
 51
172.99999999996811
  0
ARC
  5
FC375
  8
OBJECT
 10
999.99999999999955
 20
0.0
 30
0.0
 40
65.5
 50
3.9394544593776462
 51
6.9999999999801199
  0
ARC
  5
FC376
  8
OBJECT
 10
999.99999999999955
 20
0.0
 30
0.0
 40
67.5
 50
6.9999999999801199
 51
173.00000000002001
  0
ARC
  5
FC377
  8
OBJECT
 10
999.99999999999955
 20
0.0
 30
0.0
 40
62.5
 50
181.37523075203799
 51
186.99999999997999
  0
ARC
  5
FC378
  8
OBJECT
 10
999.99999999999955
 20
0.0
 30
0.0
 40
59.5
 50
186.99999999997999
 51
353.00000000002001
  0
ARC
  5
FC379
  8
OBJECT
 10
999.99999999999955
 20
0.0
 30
0.0
 40
65.5
 50
183.9394544593776
 51
186.99999999997999
  0
ARC
  5
FC37A
  8
OBJECT
 10
999.99999999999955
 20
0.0
 30
0.0
 40
67.5
 50
186.99999999997999
 51
353.00000000002001
  0
LINE
  5
FC37B
  8
CENTER
 10
999.99999999999955
 20
-254.0
 30
0.0
 11
999.99999999999955
 21
-322.0
 31
0.0
  0
LINE
  5
FC37C
  8
CENTER
 10
2000.0
 20
95.199999999999804
 30
0.0
 11
2000.0
 21
-95.199999999999804
 31
0.0
  0
ARC
  5
FC37D
  8
OBJECT
 10
2000.0
 20
0.0
 30
0.0
 40
75.0
 50
1.145991998413598
 51
5.9999999999823919
  0
ARC
  5
FC37E
  8
OBJECT
 10
2000.0
 20
0.0
 30
0.0
 40
75.0
 50
173.99999999996581
 51
178.85400800158641
  0
ARC
  5
FC37F
  8
OBJECT
 10
2000.0
 20
0.0
 30
0.0
 40
72.0
 50
5.9999999999823919
 51
173.99999999996581
  0
ARC
  5
FC380
  8
OBJECT
 10
2000.0
 20
0.0
 30
0.0
 40
78.200000000000003
 50
3.4456848256591042
 51
5.9999999999823919
  0
ARC
  5
FC381
  8
OBJECT
 10
2000.0
 20
0.0
 30
0.0
 40
78.200000000000003
 50
173.99999999996581
 51
176.55431517439291
  0
ARC
  5
FC382
  8
OBJECT
 10
2000.0
 20
0.0
 30
0.0
 40
80.200000000000017
 50
5.9999999999823919
 51
173.99999999996581
  0
ARC
  5
FC383
  8
OBJECT
 10
2000.0
 20
0.0
 30
0.0
 40
75.0
 50
181.1459919983615
 51
185.99999999998241
  0
ARC
  5
FC384
  8
OBJECT
 10
2000.0
 20
0.0
 30
0.0
 40
75.0
 50
353.99999999996572
 51
358.85400800158641
  0
ARC
  5
FC385
  8
OBJECT
 10
2000.0
 20
0.0
 30
0.0
 40
72.0
 50
185.99999999998241
 51
353.99999999996572
  0
ARC
  5
FC386
  8
OBJECT
 10
2000.0
 20
0.0
 30
0.0
 40
78.200000000000003
 50
183.44568482560709
 51
185.99999999998241
  0
ARC
  5
FC387
  8
OBJECT
 10
2000.0
 20
0.0
 30
0.0
 40
78.200000000000003
 50
353.99999999996572
 51
356.5543151743409
  0
ARC
  5
FC388
  8
OBJECT
 10
2000.0
 20
0.0
 30
0.0
 40
80.200000000000017
 50
185.99999999998241
 51
353.99999999996572
  0
LINE
  5
FC389
  8
CENTER
 10
3000.0
 20
95.0
 30
0.0
 11
3000.0
 21
-95.0
 31
0.0
  0
ARC
  5
FC38A
  8
OBJECT
 10
3000.0
 20
0.0
 30
0.0
 40
75.0
 50
1.145991998413598
 51
5.9999999999823919
  0
ARC
  5
FC38B
  8
OBJECT
 10
3000.0
 20
0.0
 30
0.0
 40
75.0
 50
173.99999999996581
 51
178.85400800158641
  0
ARC
  5
FC38C
  8
OBJECT
 10
3000.0
 20
0.0
 30
0.0
 40
72.0
 50
5.9999999999823919
 51
173.99999999996581
  0
ARC
  5
FC38D
  8
OBJECT
 10
3000.0
 20
0.0
 30
0.0
 40
78.0
 50
3.30736217967483
 51
5.9999999999823919
  0
ARC
  5
FC38E
  8
OBJECT
 10
3000.0
 20
0.0
 30
0.0
 40
78.0
 50
173.99999999996581
 51
176.69263782032499
  0
ARC
  5
FC38F
  8
OBJECT
 10
3000.0
 20
0.0
 30
0.0
 40
80.0
 50
5.9999999999823919
 51
173.99999999996581
  0
LINE
  5
FC390
  8
OBJECT
 10
934.65476298918156
 20
-274.0
 30
0.0
 11
934.6547629891794
 21
-302.0
 31
0.0
  0
LINE
  5
FC391
  8
OBJECT
 10
1065.345237010818
 20
-274.0
 30
0.0
 11
1065.345237010818
 21
-302.0
 31
0.0
  0
LINE
  5
FC392
  8
OBJECT
 10
933.0031347642115
 20
-302.0
 30
0.0
 11
933.0031347642115
 21
-307.0
 31
0.0
  0
LINE
  5
FC393
  8
OBJECT
 10
933.0031347642115
 20
-307.0
 30
0.0
 11
1066.9968652357891
 21
-307.0
 31
0.0
  0
LINE
  5
FC394
  8
OBJECT
 10
1066.9968652357891
 20
-307.0
 30
0.0
 11
1066.9968652357891
 21
-302.0
 31
0.0
  0
LINE
  5
FC395
  8
OBJECT
 10
1066.9968652357891
 20
-302.0
 30
0.0
 11
933.0031347642115
 21
-302.0
 31
0.0
  0
LINE
  5
FC396
  8
OBJECT
 10
933.0031347642115
 20
-274.0
 30
0.0
 11
933.0031347642115
 21
-269.0
 31
0.0
  0
LINE
  5
FC397
  8
OBJECT
 10
933.0031347642115
 20
-269.0
 30
0.0
 11
1066.9968652357891
 21
-269.0
 31
0.0
  0
LINE
  5
FC398
  8
OBJECT
 10
1066.9968652357891
 20
-269.0
 30
0.0
 11
1066.9968652357891
 21
-274.0
 31
0.0
  0
LINE
  5
FC399
  8
OBJECT
 10
1066.9968652357891
 20
-274.0
 30
0.0
 11
933.0031347642115
 21
-274.0
 31
0.0
  0
LINE
  5
FC39A
  8
CENTER
 10
2000.0
 20
-254.0
 30
0.0
 11
2000.0
 21
-322.0
 31
0.0
  0
LINE
  5
FC39B
  8
OBJECT
 10
1921.9413681903141
 20
-274.0
 30
0.0
 11
1921.9413681903129
 21
-302.0
 31
0.0
  0
LINE
  5
FC39C
  8
OBJECT
 10
1920.2393439914649
 20
-302.0
 30
0.0
 11
1920.2393439914649
 21
-307.0
 31
0.0
  0
LINE
  5
FC39D
  8
OBJECT
 10
1920.2393439914649
 20
-307.0
 30
0.0
 11
2079.7606560085342
 21
-307.0
 31
0.0
  0
LINE
  5
FC39E
  8
OBJECT
 10
2079.7606560085342
 20
-302.0
 30
0.0
 11
1920.2393439914649
 21
-302.0
 31
0.0
  0
LINE
  5
FC39F
  8
OBJECT
 10
1920.2393439914649
 20
-274.0
 30
0.0
 11
1920.2393439914649
 21
-269.0
 31
0.0
  0
LINE
  5
FC3A0
  8
OBJECT
 10
1920.2393439914649
 20
-269.0
 30
0.0
 11
2079.7606560085342
 21
-269.0
 31
0.0
  0
LINE
  5
FC3A1
  8
OBJECT
 10
2079.7606560085342
 20
-274.0
 30
0.0
 11
1920.2393439914649
 21
-274.0
 31
0.0
  0
LINE
  5
FC3A2
  8
CENTER
 10
3000.0
 20
-254.0
 30
0.0
 11
3000.0
 21
-322.0
 31
0.0
  0
LINE
  5
FC3A3
  8
OBJECT
 10
2922.1299158854981
 20
-274.0
 30
0.0
 11
2922.1299158854972
 21
-302.0
 31
0.0
  0
LINE
  5
FC3A4
  8
OBJECT
 10
3077.8700841145051
 20
-274.0
 30
0.0
 11
3077.8700841145051
 21
-302.0
 31
0.0
  0
LINE
  5
FC3A5
  8
OBJECT
 10
2920.438248370544
 20
-302.0
 30
0.0
 11
2920.438248370544
 21
-307.0
 31
0.0
  0
LINE
  5
FC3A6
  8
OBJECT
 10
2920.438248370544
 20
-307.0
 30
0.0
 11
3079.561751629461
 21
-307.0
 31
0.0
  0
LINE
  5
FC3A7
  8
OBJECT
 10
3079.561751629461
 20
-307.0
 30
0.0
 11
3079.561751629461
 21
-302.0
 31
0.0
  0
LINE
  5
FC3A8
  8
OBJECT
 10
3079.561751629461
 20
-302.0
 30
0.0
 11
2920.438248370544
 21
-302.0
 31
0.0
  0
LINE
  5
FC3A9
  8
OBJECT
 10
2920.438248370544
 20
-274.0
 30
0.0
 11
2920.438248370544
 21
-269.0
 31
0.0
  0
LINE
  5
FC3AA
  8
OBJECT
 10
2920.438248370544
 20
-269.0
 30
0.0
 11
3079.561751629461
 21
-269.0
 31
0.0
  0
LINE
  5
FC3AB
  8
OBJECT
 10
3079.561751629461
 20
-269.0
 30
0.0
 11
3079.561751629461
 21
-274.0
 31
0.0
  0
LINE
  5
FC3AC
  8
OBJECT
 10
3079.561751629461
 20
-274.0
 30
0.0
 11
2920.438248370544
 21
-274.0
 31
0.0
  0
LINE
  5
FC3AD
  8
OBJECT
 10
2078.0586318096848
 20
-274.0
 30
0.0
 11
2078.0586318096871
 21
-302.0
 31
0.0
  0
LINE
  5
FC3AE
  8
OBJECT
 10
2079.7606560085342
 20
-302.0
 30
0.0
 11
2079.7606560085342
 21
-307.0
 31
0.0
  0
LINE
  5
FC3AF
  8
OBJECT
 10
2079.7606560085342
 20
-274.0
 30
0.0
 11
2079.7606560085342
 21
-269.0
 31
0.0
  0
ARC
  5
FC3B0
  8
HIDDEN
 10
999.99999999999955
 20
0.0
 30
0.0
 40
62.5
 50
186.99999999997999
 51
353.00000000002001
  0
ARC
  5
FC3B1
  8
HIDDEN
 10
999.99999999999955
 20
0.0
 30
0.0
 40
62.5
 50
6.9999999999801199
 51
172.99999999996811
  0
ARC
  5
FC3B2
  8
HIDDEN
 10
999.99999999999955
 20
0.0
 30
0.0
 40
65.5
 50
186.99999999997999
 51
353.00000000002001
  0
ARC
  5
FC3B3
  8
HIDDEN
 10
999.99999999999955
 20
0.0
 30
0.0
 40
65.5
 50
6.9999999999801199
 51
173.00000000002001
  0
ARC
  5
FC3B4
  8
HIDDEN
 10
2000.0
 20
0.0
 30
0.0
 40
75.0
 50
185.99999999998241
 51
353.99999999996572
  0
ARC
  5
FC3B5
  8
HIDDEN
 10
2000.0
 20
0.0
 30
0.0
 40
75.0
 50
5.9999999999823919
 51
173.99999999996581
  0
ARC
  5
FC3B6
  8
HIDDEN
 10
2000.0
 20
0.0
 30
0.0
 40
78.200000000000003
 50
185.99999999998241
 51
353.99999999996572
  0
ARC
  5
FC3B7
  8
HIDDEN
 10
2000.0
 20
0.0
 30
0.0
 40
78.200000000000003
 50
5.9999999999823919
 51
173.99999999996581
  0
ARC
  5
FC3B8
  8
HIDDEN
 10
3000.0
 20
0.0
 30
0.0
 40
75.000000000000071
 50
5.9999999999823919
 51
173.99999999996581
  0
ARC
  5
FC3B9
  8
HIDDEN
 10
3000.0
 20
0.0
 30
0.0
 40
77.999999999999957
 50
5.9999999999823919
 51
173.99999999996581
  0
LINE
  5
FC3BA
  8
HIDDEN
 10
940.49999999999989
 20
-307.0
 30
0.0
 11
940.49999999999989
 21
-269.0
 31
0.0
  0
LINE
  5
FC3BF
  8
OBJECT
 10
933.00313476421081
 20
-8.2261806798469461
 30
0.0
 11
940.94350397734195
 21
-7.2512259326122139
 31
0.0
  0
LINE
  5
FC3C0
  8
OBJECT
 10
1059.0564960226579
 20
7.251225932606757
 30
0.0
 11
1066.9968652357891
 21
8.2261806798469461
 31
0.0
  0
ARC
  5
FC3C1
  8
OBJECT
 10
999.99999999999955
 20
0.0
 30
0.0
 40
62.5
 50
353.00000000002018
 51
358.62476924796181
  0
ARC
  5
FC3C2
  8
OBJECT
 10
999.99999999999955
 20
0.0
 30
0.0
 40
65.5
 50
353.00000000002018
 51
356.06054554062217
  0
ARC
  5
FC3C3
  8
OBJECT
 10
999.99999999999955
 20
0.0
 30
0.0
 40
62.5
 50
173.00000000002021
 51
178.62476924796181
  0
ARC
  5
FC3C4
  8
OBJECT
 10
999.99999999999955
 20
0.0
 30
0.0
 40
65.5
 50
173.00000000002021
 51
176.06054554062229
  0
LINE
  5
FC3C5
  8
OBJECT
 10
933.00313476421081
 20
8.2261806798469461
 30
0.0
 11
940.94350397734195
 21
7.2512259326122139
 31
0.0
  0
LINE
  5
FC3C6
  8
OBJECT
 10
1059.0564960226579
 20
-7.251225932606757
 30
0.0
 11
1066.9968652357891
 21
-8.2261806798469461
 31
0.0
  0
LINE
  5
FC3C7
  8
HIDDEN
 10
1059.4999999999991
 20
-307.0
 30
0.0
 11
1059.4999999999991
 21
-269.0
 31
0.0
  0
LINE
  5
FC3C8
  8
OBJECT
 10
2071.6055764665161
 20
-7.5260493552705139
 30
0.0
 11
2079.7606560085342
 21
-8.3831827540770973
 31
0.0
  0
LINE
  5
FC3C9
  8
OBJECT
 10
2071.6055764665161
 20
7.5260493552705139
 30
0.0
 11
2079.760656008536
 21
8.3831827540652721
 31
0.0
  0
LINE
  5
FC3CA
  8
OBJECT
 10
1920.239343991464
 20
8.3831827540652721
 30
0.0
 11
1928.394423533485
 21
7.526049355281426
 31
0.0
  0
LINE
  5
FC3CB
  8
OBJECT
 10
1928.3944235334841
 20
-7.5260493552705139
 30
0.0
 11
1920.2393439914649
 21
-8.3831827540770973
 31
0.0
  0
LINE
  5
FC3D0
  8
HIDDEN
 10
1928.0
 20
-307.0
 30
0.0
 11
1928.0
 21
-269.0
 31
0.0
  0
LINE
  5
FC3D1
  8
HIDDEN
 10
2072.0
 20
-307.0
 30
0.0
 11
2072.0
 21
-268.99999999999909
 31
0.0
  0
LINE
  5
FC3D2
  8
OBJECT
 10
2920.438248370539
 20
8.3622770614119872
 30
0.0
 11
2928.3944235334861
 21
7.5260493552705139
 31
0.0
  0
LINE
  5
FC3D3
  8
OBJECT
 10
3071.6055764665161
 20
7.5260493552705139
 30
0.0
 11
3079.561751629461
 21
8.3622770614256297
 31
0.0
  0
ARC
  5
FC3D4
  8
OBJECT
 10
3000.0
 20
0.0
 30
0.0
 40
75.0
 50
353.9999999999655
 51
358.85400800158641
  0
ARC
  5
FC3D5
  8
OBJECT
 10
3000.0
 20
0.0
 30
0.0
 40
75.0
 50
181.14599199841359
 51
186.00000000003439
  0
ARC
  5
FC3D6
  8
OBJECT
 10
3000.0
 20
0.0
 30
0.0
 40
72.0
 50
186.00000000003439
 51
353.9999999999655
  0
ARC
  5
FC3D7
  8
OBJECT
 10
3000.0
 20
0.0
 30
0.0
 40
78.0
 50
353.9999999999655
 51
356.6926378203251
  0
ARC
  5
FC3D8
  8
OBJECT
 10
3000.0
 20
0.0
 30
0.0
 40
78.0
 50
183.30736217967481
 51
186.00000000003439
  0
ARC
  5
FC3D9
  8
OBJECT
 10
3000.0
 20
0.0
 30
0.0
 40
80.0
 50
186.00000000003439
 51
353.9999999999655
  0
ARC
  5
FC3DA
  8
HIDDEN
 10
3000.0
 20
0.0
 30
0.0
 40
75.000000000000071
 50
186.00000000003439
 51
353.9999999999655
  0
ARC
  5
FC3DB
  8
HIDDEN
 10
3000.0
 20
0.0
 30
0.0
 40
77.999999999999957
 50
186.00000000003439
 51
353.9999999999655
  0
LINE
  5
FC3DC
  8
OBJECT
 10
2920.438248370539
 20
-8.3622770614119872
 30
0.0
 11
2928.3944235334861
 21
-7.5260493552705139
 31
0.0
  0
LINE
  5
FC3DD
  8
OBJECT
 10
3071.6055764665161
 20
-7.5260493552705139
 30
0.0
 11
3079.561751629461
 21
-8.3622770614256297
 31
0.0
  0
LINE
  5
FC3E2
  8
HIDDEN
 10
2928.0000000000018
 20
-307.0
 30
0.0
 11
2928.0000000000018
 21
-269.0
 31
0.0
  0
LINE
  5
FC3E3
  8
HIDDEN
 10
3072.0000000000009
 20
-307.0
 30
0.0
 11
3072.0000000000009
 21
-269.0
 31
0.0
  0
LINE
  5
FC428
  8
OBJECT
 62
     6
 10
880.96965511460292
 20
-400.0
 30
0.0
 11
880.96965511460292
 21
-450.0
 31
0.0
  0
LINE
  5
FC42A
  8
OBJECT
 62
     6
 10
859.03034488539708
 20
-450.0
 30
0.0
 11
859.03034488539708
 21
-400.0
 31
0.0
  0
LINE
  5
FC42C
  8
OBJECT
 62
     6
 10
875.48482755730117
 20
-400.0
 30
0.0
 11
875.48482755730117
 21
-450.0
 31
0.0
  0
LINE
  5
FC42D
  8
OBJECT
 62
     6
 10
864.51517244269814
 20
-400.0
 30
0.0
 11
864.51517244269814
 21
-450.0
 31
0.0
  0
LINE
  5
FC42E
  8
OBJECT
 62
     6
 10
882.12435565298154
 20
-400.0
 30
0.0
 11
857.8756443470163
 21
-400.0
 31
0.0
  0
LINE
  5
FC42F
  8
OBJECT
 62
     6
 10
857.8756443470163
 20
-400.0
 30
0.0
 11
857.8756443470163
 21
-390.0
 31
0.0
  0
LINE
  5
FC430
  8
OBJECT
 62
     6
 10
857.8756443470163
 20
-390.0
 30
0.0
 11
882.12435565298154
 21
-390.0
 31
0.0
  0
LINE
  5
FC431
  8
OBJECT
 62
     6
 10
882.12435565298154
 20
-390.0
 30
0.0
 11
882.12435565298154
 21
-400.0
 31
0.0
  0
LINE
  5
FC432
  8
OBJECT
 62
     6
 10
876.06217782649026
 20
-400.0
 30
0.0
 11
876.06217782649026
 21
-390.0
 31
0.0
  0
LINE
  5
FC433
  8
OBJECT
 62
     6
 10
863.9378221735077
 20
-400.0
 30
0.0
 11
863.9378221735077
 21
-390.0
 31
0.0
  0
LINE
  5
FC434
  8
OBJECT
 62
     6
 10
835.0
 20
-450.0
 30
0.0
 11
885.0
 21
-450.0
 31
0.0
  0
LINE
  5
FC435
  8
OBJECT
 62
     6
 10
885.0
 20
-450.0
 30
0.0
 11
885.0
 21
-453.0
 31
0.0
  0
LINE
  5
FC436
  8
OBJECT
 62
     6
 10
885.0
 20
-453.0
 30
0.0
 11
835.0
 21
-453.0
 31
0.0
  0
LINE
  5
FC437
  8
OBJECT
 62
     6
 10
860.0
 20
-453.0
 30
0.0
 11
860.0
 21
-450.0
 31
0.0
  0
LINE
  5
FC438
  8
OBJECT
 62
     6
 10
835.0
 20
-453.0
 30
0.0
 11
835.0
 21
-450.0
 31
0.0
  0
LINE
  5
FC439
  8
OBJECT
 62
     6
 10
1142.124355652983
 20
-400.0
 30
0.0
 11
1142.124355652983
 21
-390.0
 31
0.0
  0
LINE
  5
FC43A
  8
OBJECT
 62
     6
 10
1142.124355652983
 20
-390.0
 30
0.0
 11
1117.8756443470179
 21
-390.0
 31
0.0
  0
LINE
  5
FC43B
  8
OBJECT
 62
     6
 10
1117.8756443470179
 20
-390.0
 30
0.0
 11
1117.8756443470179
 21
-400.0
 31
0.0
  0
LINE
  5
FC43C
  8
OBJECT
 62
     6
 10
1123.9378221735089
 20
-400.0
 30
0.0
 11
1123.9378221735089
 21
-390.0
 31
0.0
  0
LINE
  5
FC43D
  8
OBJECT
 62
     6
 10
1136.062177826492
 20
-400.0
 30
0.0
 11
1136.062177826492
 21
-390.0
 31
0.0
  0
LINE
  5
FC43E
  8
OBJECT
 62
     6
 10
1165.0
 20
-450.0
 30
0.0
 11
1115.0
 21
-450.0
 31
0.0
  0
LINE
  5
FC43F
  8
OBJECT
 62
     6
 10
1115.0
 20
-450.0
 30
0.0
 11
1115.0
 21
-453.0
 31
0.0
  0
LINE
  5
FC440
  8
OBJECT
 62
     6
 10
1115.0
 20
-453.0
 30
0.0
 11
1165.0
 21
-453.0
 31
0.0
  0
LINE
  5
FC441
  8
OBJECT
 62
     6
 10
1140.0
 20
-453.0
 30
0.0
 11
1140.0
 21
-450.0
 31
0.0
  0
LINE
  5
FC442
  8
OBJECT
 62
     6
 10
1165.0
 20
-453.0
 30
0.0
 11
1165.0
 21
-450.0
 31
0.0
  0
LINE
  5
FC443
  8
OBJECT
 62
     6
 10
1119.030344885397
 20
-400.0
 30
0.0
 11
1119.030344885397
 21
-450.0
 31
0.0
  0
LINE
  5
FC445
  8
OBJECT
 62
     6
 10
1140.9696551146019
 20
-450.0
 30
0.0
 11
1140.969655114603
 21
-400.0
 31
0.0
  0
LINE
  5
FC447
  8
OBJECT
 62
     6
 10
1124.515172442698
 20
-400.0
 30
0.0
 11
1124.515172442698
 21
-450.0
 31
0.0
  0
LINE
  5
FC448
  8
OBJECT
 62
     6
 10
1135.4848275573011
 20
-400.0
 30
0.0
 11
1135.4848275573011
 21
-450.0
 31
0.0
  0
LINE
  5
FC449
  8
OBJECT
 62
     6
 10
1117.8756443470179
 20
-400.0
 30
0.0
 11
1142.124355652983
 21
-400.0
 31
0.0
  0
LINE
  5
FC44C
  8
OBJECT
 62
     6
 10
1870.969655114603
 20
-399.80000000000013
 30
0.0
 11
1870.969655114603
 21
-449.80000000000013
 31
0.0
  0
LINE
  5
FC44E
  8
OBJECT
 62
     6
 10
1849.030344885397
 20
-449.80000000000013
 30
0.0
 11
1849.030344885397
 21
-399.80000000000013
 31
0.0
  0
LINE
  5
FC450
  8
OBJECT
 62
     6
 10
1865.4848275573011
 20
-399.80000000000013
 30
0.0
 11
1865.4848275573011
 21
-449.80000000000013
 31
0.0
  0
LINE
  5
FC451
  8
OBJECT
 62
     6
 10
1854.515172442698
 20
-399.80000000000013
 30
0.0
 11
1854.515172442698
 21
-449.80000000000013
 31
0.0
  0
LINE
  5
FC452
  8
OBJECT
 62
     6
 10
1872.124355652981
 20
-399.80000000000013
 30
0.0
 11
1847.8756443470161
 21
-399.80000000000013
 31
0.0
  0
LINE
  5
FC453
  8
OBJECT
 62
     6
 10
1847.8756443470161
 20
-399.80000000000013
 30
0.0
 11
1847.8756443470161
 21
-389.80000000000013
 31
0.0
  0
LINE
  5
FC454
  8
OBJECT
 62
     6
 10
1847.8756443470161
 20
-389.80000000000013
 30
0.0
 11
1872.124355652981
 21
-389.80000000000013
 31
0.0
  0
LINE
  5
FC455
  8
OBJECT
 62
     6
 10
1872.124355652981
 20
-389.80000000000013
 30
0.0
 11
1872.124355652981
 21
-399.80000000000013
 31
0.0
  0
LINE
  5
FC456
  8
OBJECT
 62
     6
 10
1866.062177826489
 20
-399.80000000000013
 30
0.0
 11
1866.062177826489
 21
-389.80000000000013
 31
0.0
  0
LINE
  5
FC457
  8
OBJECT
 62
     6
 10
1853.9378221735069
 20
-399.80000000000013
 30
0.0
 11
1853.9378221735069
 21
-389.80000000000013
 31
0.0
  0
LINE
  5
FC458
  8
OBJECT
 62
     6
 10
1825.0
 20
-449.80000000000013
 30
0.0
 11
1875.0
 21
-449.80000000000013
 31
0.0
  0
LINE
  5
FC459
  8
OBJECT
 62
     6
 10
1875.0
 20
-449.80000000000013
 30
0.0
 11
1875.0
 21
-453.0
 31
0.0
  0
LINE
  5
FC45A
  8
OBJECT
 62
     6
 10
1875.0
 20
-453.0
 30
0.0
 11
1825.0
 21
-453.0
 31
0.0
  0
LINE
  5
FC45B
  8
OBJECT
 62
     6
 10
1849.9999999999991
 20
-453.0
 30
0.0
 11
1849.9999999999991
 21
-449.80000000000013
 31
0.0
  0
LINE
  5
FC45C
  8
OBJECT
 62
     6
 10
1825.0
 20
-453.0
 30
0.0
 11
1825.0
 21
-449.80000000000013
 31
0.0
  0
LINE
  5
FC45D
  8
OBJECT
 62
     6
 10
2152.1243556529839
 20
-399.80000000000013
 30
0.0
 11
2152.1243556529839
 21
-389.80000000000013
 31
0.0
  0
LINE
  5
FC45E
  8
OBJECT
 62
     6
 10
2152.1243556529839
 20
-389.80000000000013
 30
0.0
 11
2127.875644347017
 21
-389.80000000000013
 31
0.0
  0
LINE
  5
FC45F
  8
OBJECT
 62
     6
 10
2127.875644347017
 20
-389.80000000000013
 30
0.0
 11
2127.875644347017
 21
-399.80000000000013
 31
0.0
  0
LINE
  5
FC460
  8
OBJECT
 62
     6
 10
2133.9378221735101
 20
-399.80000000000013
 30
0.0
 11
2133.9378221735101
 21
-389.80000000000013
 31
0.0
  0
LINE
  5
FC461
  8
OBJECT
 62
     6
 10
2146.0621778264922
 20
-399.80000000000013
 30
0.0
 11
2146.0621778264922
 21
-389.80000000000013
 31
0.0
  0
LINE
  5
FC462
  8
OBJECT
 62
     6
 10
2175.0
 20
-449.80000000000013
 30
0.0
 11
2125.0
 21
-449.80000000000013
 31
0.0
  0
LINE
  5
FC463
  8
OBJECT
 62
     6
 10
2125.0
 20
-449.80000000000013
 30
0.0
 11
2125.0
 21
-453.0
 31
0.0
  0
LINE
  5
FC464
  8
OBJECT
 62
     6
 10
2125.0
 20
-453.0
 30
0.0
 11
2175.0
 21
-453.0
 31
0.0
  0
LINE
  5
FC465
  8
OBJECT
 62
     6
 10
2150.0
 20
-453.0
 30
0.0
 11
2150.0
 21
-449.80000000000013
 31
0.0
  0
LINE
  5
FC466
  8
OBJECT
 62
     6
 10
2175.0
 20
-453.0
 30
0.0
 11
2175.0
 21
-449.80000000000013
 31
0.0
  0
LINE
  5
FC467
  8
OBJECT
 62
     6
 10
2129.030344885397
 20
-399.80000000000013
 30
0.0
 11
2129.030344885397
 21
-449.80000000000013
 31
0.0
  0
LINE
  5
FC469
  8
OBJECT
 62
     6
 10
2150.9696551146021
 20
-449.80000000000013
 30
0.0
 11
2150.9696551146021
 21
-399.80000000000013
 31
0.0
  0
LINE
  5
FC46B
  8
OBJECT
 62
     6
 10
2134.5151724426969
 20
-399.80000000000013
 30
0.0
 11
2134.5151724426969
 21
-449.80000000000013
 31
0.0
  0
LINE
  5
FC46C
  8
OBJECT
 62
     6
 10
2145.4848275573008
 20
-399.80000000000013
 30
0.0
 11
2145.4848275573008
 21
-449.80000000000013
 31
0.0
  0
LINE
  5
FC46D
  8
OBJECT
 62
     6
 10
2127.875644347017
 20
-399.80000000000013
 30
0.0
 11
2152.1243556529839
 21
-399.80000000000013
 31
0.0
  0
LINE
  5
FC46E
  8
OBJECT
 62
     6
 10
2870.9696551146039
 20
-400.0
 30
0.0
 11
2870.9696551146039
 21
-450.0
 31
0.0
  0
LINE
  5
FC470
  8
OBJECT
 62
     6
 10
2849.030344885397
 20
-450.0
 30
0.0
 11
2849.030344885397
 21
-400.0
 31
0.0
  0
LINE
  5
FC472
  8
OBJECT
 62
     6
 10
2865.4848275573008
 20
-400.0
 30
0.0
 11
2865.4848275573008
 21
-450.0
 31
0.0
  0
LINE
  5
FC473
  8
OBJECT
 62
     6
 10
2854.5151724426992
 20
-400.0
 30
0.0
 11
2854.5151724426992
 21
-450.0
 31
0.0
  0
LINE
  5
FC474
  8
OBJECT
 62
     6
 10
2872.1243556529821
 20
-400.0
 30
0.0
 11
2847.875644347017
 21
-400.0
 31
0.0
  0
LINE
  5
FC475
  8
OBJECT
 62
     6
 10
2847.875644347017
 20
-400.0
 30
0.0
 11
2847.875644347017
 21
-390.0
 31
0.0
  0
LINE
  5
FC476
  8
OBJECT
 62
     6
 10
2847.875644347017
 20
-390.0
 30
0.0
 11
2872.1243556529821
 21
-390.0
 31
0.0
  0
LINE
  5
FC477
  8
OBJECT
 62
     6
 10
2872.1243556529821
 20
-390.0
 30
0.0
 11
2872.1243556529821
 21
-400.0
 31
0.0
  0
LINE
  5
FC478
  8
OBJECT
 62
     6
 10
2866.0621778264922
 20
-400.0
 30
0.0
 11
2866.0621778264922
 21
-390.0
 31
0.0
  0
LINE
  5
FC479
  8
OBJECT
 62
     6
 10
2853.9378221735078
 20
-400.0
 30
0.0
 11
2853.9378221735078
 21
-390.0
 31
0.0
  0
LINE
  5
FC47A
  8
OBJECT
 62
     6
 10
2825.0
 20
-450.0
 30
0.0
 11
2875.0
 21
-450.0
 31
0.0
  0
LINE
  5
FC47B
  8
OBJECT
 62
     6
 10
2875.0
 20
-450.0
 30
0.0
 11
2875.0
 21
-453.0
 31
0.0
  0
LINE
  5
FC47C
  8
OBJECT
 62
     6
 10
2875.0
 20
-453.0
 30
0.0
 11
2825.0
 21
-453.0
 31
0.0
  0
LINE
  5
FC47D
  8
OBJECT
 62
     6
 10
2850.0
 20
-453.0
 30
0.0
 11
2850.0
 21
-450.0
 31
0.0
  0
LINE
  5
FC47E
  8
OBJECT
 62
     6
 10
2825.0
 20
-453.0
 30
0.0
 11
2825.0
 21
-450.0
 31
0.0
  0
LINE
  5
FC47F
  8
OBJECT
 62
     6
 10
3152.1243556529839
 20
-400.0
 30
0.0
 11
3152.1243556529839
 21
-390.0
 31
0.0
  0
LINE
  5
FC480
  8
OBJECT
 62
     6
 10
3152.1243556529839
 20
-390.0
 30
0.0
 11
3127.875644347017
 21
-390.0
 31
0.0
  0
LINE
  5
FC481
  8
OBJECT
 62
     6
 10
3127.875644347017
 20
-390.0
 30
0.0
 11
3127.875644347017
 21
-400.0
 31
0.0
  0
LINE
  5
FC482
  8
OBJECT
 62
     6
 10
3133.937822173511
 20
-400.0
 30
0.0
 11
3133.937822173511
 21
-390.0
 31
0.0
  0
LINE
  5
FC483
  8
OBJECT
 62
     6
 10
3146.0621778264922
 20
-400.0
 30
0.0
 11
3146.0621778264922
 21
-390.0
 31
0.0
  0
LINE
  5
FC484
  8
OBJECT
 62
     6
 10
3175.0
 20
-450.0
 30
0.0
 11
3125.0
 21
-450.0
 31
0.0
  0
LINE
  5
FC485
  8
OBJECT
 62
     6
 10
3125.0
 20
-450.0
 30
0.0
 11
3125.0
 21
-453.0
 31
0.0
  0
LINE
  5
FC486
  8
OBJECT
 62
     6
 10
3125.0
 20
-453.0
 30
0.0
 11
3175.0
 21
-453.0
 31
0.0
  0
LINE
  5
FC487
  8
OBJECT
 62
     6
 10
3150.0
 20
-453.0
 30
0.0
 11
3150.0
 21
-450.0
 31
0.0
  0
LINE
  5
FC488
  8
OBJECT
 62
     6
 10
3175.0
 20
-453.0
 30
0.0
 11
3175.0
 21
-450.0
 31
0.0
  0
LINE
  5
FC489
  8
OBJECT
 62
     6
 10
3129.030344885397
 20
-400.0
 30
0.0
 11
3129.030344885397
 21
-450.0
 31
0.0
  0
LINE
  5
FC48B
  8
OBJECT
 62
     6
 10
3150.9696551146021
 20
-450.0
 30
0.0
 11
3150.9696551146039
 21
-400.0
 31
0.0
  0
LINE
  5
FC48D
  8
OBJECT
 62
     6
 10
3134.5151724426992
 20
-400.0
 30
0.0
 11
3134.5151724426992
 21
-450.0
 31
0.0
  0
LINE
  5
FC48E
  8
OBJECT
 62
     6
 10
3145.4848275573008
 20
-400.0
 30
0.0
 11
3145.4848275573008
 21
-450.0
 31
0.0
  0
LINE
  5
FC48F
  8
OBJECT
 62
     6
 10
3127.875644347017
 20
-400.0
 30
0.0
 11
3152.1243556529839
 21
-400.0
 31
0.0
  0
LINE
  5
FC4A9
  8
CENTER
 10
4000.0
 20
110.0
 30
0.0
 11
4000.0
 21
-110.0
 31
0.0
  0
ARC
  5
FC4AA
  8
OBJECT
 10
4000.0
 20
0.0
 30
0.0
 40
85.5
 50
5.9999999999823919
 51
173.99999999996581
  0
ARC
  5
FC4AB
  8
OBJECT
 10
4000.0
 20
0.0
 30
0.0
 40
88.499999999999986
 50
0.9711614089718079
 51
5.9999999999823919
  0
ARC
  5
FC4AC
  8
OBJECT
 10
4000.0
 20
0.0
 30
0.0
 40
88.499999999999986
 50
173.99999999996581
 51
179.0288385910282
  0
ARC
  5
FC4AD
  8
OBJECT
 10
4000.0
 20
0.0
 30
0.0
 40
93.0
 50
3.6990710631616661
 51
5.9999999999823919
  0
ARC
  5
FC4AE
  8
OBJECT
 10
4000.0
 20
0.0
 30
0.0
 40
93.0
 50
173.99999999996581
 51
176.3009289368382
  0
ARC
  5
FC4AF
  8
OBJECT
 10
4000.0
 20
0.0
 30
0.0
 40
95.0
 50
5.9999999999823919
 51
173.99999999996581
  0
LINE
  5
FC4B0
  8
CENTER
 10
4000.0
 20
-258.0
 30
0.0
 11
4000.0
 21
-332.0
 31
0.0
  0
LINE
  5
FC4B1
  8
OBJECT
 10
3907.1937502104529
 20
-279.0
 30
0.0
 11
3907.1937502104511
 21
-311.0
 31
0.0
  0
LINE
  5
FC4B2
  8
OBJECT
 10
4092.8062497895489
 20
-279.0
 30
0.0
 11
4092.8062497895489
 21
-311.0
 31
0.0
  0
LINE
  5
FC4B3
  8
OBJECT
 10
3905.5204199400209
 20
-311.0
 30
0.0
 11
3905.5204199400209
 21
-317.0
 31
0.0
  0
LINE
  5
FC4B4
  8
OBJECT
 10
3905.5204199400209
 20
-317.0
 30
0.0
 11
4094.4795800600059
 21
-317.0
 31
0.0
  0
LINE
  5
FC4B5
  8
OBJECT
 10
4094.4795800600059
 20
-317.0
 30
0.0
 11
4094.4795800600059
 21
-311.0
 31
0.0
  0
LINE
  5
FC4B6
  8
OBJECT
 10
4094.4795800600059
 20
-311.0
 30
0.0
 11
3905.5204199400209
 21
-311.0
 31
0.0
  0
LINE
  5
FC4B7
  8
OBJECT
 10
3905.5204199400209
 20
-279.0
 30
0.0
 11
3905.5204199400209
 21
-273.0
 31
0.0
  0
LINE
  5
FC4B8
  8
OBJECT
 10
3905.5204199400209
 20
-273.0
 30
0.0
 11
4094.4795800600059
 21
-273.0
 31
0.0
  0
LINE
  5
FC4B9
  8
OBJECT
 10
4094.4795800600059
 20
-273.0
 30
0.0
 11
4094.4795800600059
 21
-279.0
 31
0.0
  0
LINE
  5
FC4BA
  8
OBJECT
 10
4094.4795800600059
 20
-279.0
 30
0.0
 11
3905.5204199400209
 21
-279.0
 31
0.0
  0
ARC
  5
FC4BB
  8
HIDDEN
 10
4000.0
 20
0.0
 30
0.0
 40
88.499999999999901
 50
5.9999999999823919
 51
173.99999999996581
  0
ARC
  5
FC4BC
  8
HIDDEN
 10
4000.0
 20
0.0
 30
0.0
 40
92.999999999999901
 50
5.9999999999823919
 51
173.99999999996581
  0
LINE
  5
FC4BD
  8
OBJECT
 10
3905.5204199400168
 20
9.9302040104430471
 30
0.0
 11
3914.9683779460161
 21
8.9371836093978327
 31
0.0
  0
LINE
  5
FC4BE
  8
OBJECT
 10
4085.0316220539848
 20
8.9371836093978327
 30
0.0
 11
4094.4795800599841
 21
9.9302040104430471
 31
0.0
  0
ARC
  5
FC4BF
  8
OBJECT
 10
4000.0
 20
0.0
 30
0.0
 40
85.5
 50
186.00000000003439
 51
353.9999999999655
  0
ARC
  5
FC4C0
  8
OBJECT
 10
4000.0
 20
0.0
 30
0.0
 40
88.499999999999986
 50
353.9999999999655
 51
359.0288385910282
  0
ARC
  5
FC4C1
  8
OBJECT
 10
4000.0
 20
0.0
 30
0.0
 40
88.499999999999986
 50
180.9711614089718
 51
186.00000000003439
  0
ARC
  5
FC4C2
  8
OBJECT
 10
4000.0
 20
0.0
 30
0.0
 40
93.0
 50
353.9999999999655
 51
356.30092893683832
  0
ARC
  5
FC4C3
  8
OBJECT
 10
4000.0
 20
0.0
 30
0.0
 40
93.0
 50
183.6990710631616
 51
186.00000000003439
  0
ARC
  5
FC4C4
  8
OBJECT
 10
4000.0
 20
0.0
 30
0.0
 40
95.0
 50
186.00000000003439
 51
353.9999999999655
  0
ARC
  5
FC4C5
  8
HIDDEN
 10
4000.0
 20
0.0
 30
0.0
 40
88.499999999999901
 50
186.00000000003439
 51
353.9999999999655
  0
ARC
  5
FC4C6
  8
HIDDEN
 10
4000.0
 20
0.0
 30
0.0
 40
92.999999999999901
 50
186.00000000003439
 51
353.9999999999655
  0
LINE
  5
FC4C7
  8
OBJECT
 10
3905.5204199400168
 20
-9.9302040104430471
 30
0.0
 11
3914.9683779460161
 21
-8.9371836093978327
 31
0.0
  0
LINE
  5
FC4C8
  8
OBJECT
 10
4085.0316220539848
 20
-8.9371836093978327
 30
0.0
 11
4094.4795800599841
 21
-9.9302040104430471
 31
0.0
  0
LINE
  5
FC4C9
  8
HIDDEN
 10
3914.5
 20
-317.0
 30
0.0
 11
3914.5
 21
-273.0
 31
0.0
  0
LINE
  5
FC4CA
  8
HIDDEN
 10
4085.5
 20
-317.0
 30
0.0
 11
4085.5
 21
-273.0
 31
0.0
  0
TEXT
  5
FDC06
  8
SLIM
 10
-157.57142857142861
 20
-622.69999999999982
 30
0.0
 40
20.0
  1
3SL／首長4Lベンド用、ゴム付、足付
 41
0.75
 72
     4
 11
-0.0000000000001131
 21
-612.69999999999982
 31
0.0
  0
TEXT
  5
FDC07
  8
SLIM
 10
-78.500000000000114
 20
-657.69999999999982
 30
0.0
 40
20.0
  1
（鋼、電気めっき）
 41
0.75
 72
     4
 11
-0.0000000000001131
 21
-647.69999999999982
 31
0.0
  0
TEXT
  5
FDC10
  8
SLIM
 10
842.42857142857099
 20
-622.69999999999982
 30
0.0
 40
20.0
  1
3SL／首長4Lベンド用、ゴム付、足付
 41
0.75
 72
     4
 11
999.99999999999955
 21
-612.69999999999982
 31
0.0
  0
TEXT
  5
FDC11
  8
SLIM
 10
940.92857142857122
 20
-657.69999999999982
 30
0.0
 40
20.0
  1
（SUS304）
 41
0.75
 72
     4
 11
999.99999999999955
 21
-647.69999999999982
 31
0.0
  0
TEXT
  5
FEA75
  8
SLIM
 10
1842.4285714285711
 20
-622.69999999999982
 30
0.0
 40
20.0
  1
4SL／首長5Lベンド用、ゴム付、足付
 41
0.75
 72
     4
 11
2000.0
 21
-612.69999999999982
 31
0.0
  0
TEXT
  5
FEA76
  8
SLIM
 10
1921.5
 20
-657.69999999999982
 30
0.0
 40
20.0
  1
（鋼、電気めっき）
 41
0.75
 72
     4
 11
2000.0
 21
-647.69999999999982
 31
0.0
  0
TEXT
  5
FEA7D
  8
SLIM
 10
2842.428571428572
 20
-622.69999999999982
 30
0.0
 40
20.0
  1
4SL／首長5Lベンド用、ゴム付、足付
 41
0.75
 72
     4
 11
3000.0
 21
-612.69999999999982
 31
0.0
  0
TEXT
  5
FEA7E
  8
SLIM
 10
2940.9285714285711
 20
-657.69999999999982
 30
0.0
 40
20.0
  1
（SUS304）
 41
0.75
 72
     4
 11
3000.0
 21
-647.69999999999982
 31
0.0
  0
TEXT
  5
FF5DB
  8
SLIM
 10
3908.571428571428
 20
-622.69999999999982
 30
0.0
 40
20.0
  1
5HF用、ゴム付、足付
 41
0.75
 72
     4
 11
4000.0
 21
-612.69999999999982
 31
0.0
  0
TEXT
  5
FF5DC
  8
SLIM
 10
3921.5
 20
-657.69999999999982
 30
0.0
 40
20.0
  1
（鋼、電気めっき）
 41
0.75
 72
     4
 11
4000.0
 21
-647.69999999999982
 31
0.0
  0
VIEWPORT
  5
FFECF
 67
     1
  8
0
 10
143.60523986816401
 20
100.10775232315061
 30
0.0
 40
407.30664751466441
 41
222.19657968139651
 68
     1
 69
     1
1001
ACAD
1000
MVIEW
1002
{
1070
    16
1010
0.0
1020
0.0
1030
0.0
1010
0.0
1020
0.0
1030
1.0
1040
0.0
1040
222.19657968139651
1040
143.60523986816401
1040
100.10775232315061
1040
50.0
1040
0.0
1040
0.0
1070
     0
1070
     0
1070
     1
1070
     1
1070
     0
1070
     0
1070
     0
1070
     0
1040
0.0
1040
0.0
1040
0.0
1040
10.0
1040
10.0
1040
10.0
1040
10.0
1070
     0
1002
{
1002
}
1002
}
  0
VIEWPORT
  5
FFED3
 67
     1
  8
OBJECT
 10
143.6052539348602
 20
100.1077511310577
 30
0.0
 40
229.76840629577629
 41
160.1724018096923
 68
     2
 69
     2
1001
ACAD
1000
MVIEW
1002
{
1070
    16
1010
0.0
1020
0.0
1030
0.0
1010
0.0
1020
0.0
1030
1.0
1040
0.0
1040
4933.1359306726754
1040
2475.3377741515901
1040
-4820.6129266796397
1040
50.0
1040
0.0
1040
0.0
1070
     0
1070
   600
1070
     1
1070
     1
1070
     0
1070
     0
1070
     0
1070
     1
1040
0.0
1040
0.0
1040
0.0
1040
1.0
1040
1.0
1040
0.0
1040
0.0
1070
     0
1002
{
1002
}
1002
}
  0
ENDSEC
  0
EOF
