  0
SECTION
  2
HEADER
  9
$ACADVER
  1
AC1009
  9
$INSBASE
 10
0.0
 20
0.0
 30
0.0
  9
$EXTMIN
 10
-107.9391949999999
 20
-523.5953659999999
 30
0.0
  9
$EXTMAX
 10
2099.5
 20
1484.5
 30
0.0
  9
$LIMMIN
 10
0.0
 20
0.0
  9
$LIMMAX
 10
2100.0
 20
1485.0
  9
$ORTHOMODE
 70
     0
  9
$REGENMODE
 70
     1
  9
$FILLMODE
 70
     1
  9
$QTEXTMODE
 70
     0
  9
$MIRRTEXT
 70
     0
  9
$DRAGMODE
 70
     2
  9
$LTSCALE
 40
1.0
  9
$OSMODE
 70
   125
  9
$ATTMODE
 70
     1
  9
$TEXTSIZE
 40
0.2
  9
$TRACEWID
 40
0.05
  9
$TEXTSTYLE
  7
KANJI
  9
$CLAYER
  8
0
  9
$CELTYPE
  6
BYLAYER
  9
$CECOLOR
 62
   256
  9
$DIMSCALE
 40
1.0
  9
$DIMASZ
 40
22.5
  9
$DIMEXO
 40
5.0
  9
$DIMDLI
 40
40.0
  9
$DIMRND
 40
0.0
  9
$DIMDLE
 40
0.0
  9
$DIMEXE
 40
5.0
  9
$DIMTP
 40
0.0
  9
$DIMTM
 40
0.0
  9
$DIMTXT
 40
16.0
  9
$DIMCEN
 40
0.09
  9
$DIMTSZ
 40
0.0
  9
$DIMTOL
 70
     0
  9
$DIMLIM
 70
     0
  9
$DIMTIH
 70
     0
  9
$DIMTOH
 70
     0
  9
$DIMSE1
 70
     0
  9
$DIMSE2
 70
     0
  9
$DIMTAD
 70
     1
  9
$DIMZIN
 70
     0
  9
$DIMBLK
  1

  9
$DIMASO
 70
     1
  9
$DIMSHO
 70
     0
  9
$DIMPOST
  1

  9
$DIMAPOST
  1

  9
$DIMALT
 70
     0
  9
$DIMALTD
 70
     2
  9
$DIMALTF
 40
25.399999999999999
  9
$DIMLFAC
 40
1.0
  9
$DIMTOFL
 70
     0
  9
$DIMTVP
 40
0.0
  9
$DIMTIX
 70
     0
  9
$DIMSOXD
 70
     0
  9
$DIMSAH
 70
     0
  9
$DIMBLK1
  1

  9
$DIMBLK2
  1

  9
$DIMSTYLE
  2
STANDARD
  9
$DIMCLRD
 70
     0
  9
$DIMCLRE
 70
     0
  9
$DIMCLRT
 70
     0
  9
$DIMTFAC
 40
1.0
  9
$DIMGAP
 40
0.09
  9
$LUNITS
 70
     2
  9
$LUPREC
 70
     2
  9
$SKETCHINC
 40
0.1
  9
$FILLETRAD
 40
0.0
  9
$AUNITS
 70
     1
  9
$AUPREC
 70
     2
  9
$MENU
  1
ACAD
  9
$ELEVATION
 40
0.0
  9
$PELEVATION
 40
0.0
  9
$THICKNESS
 40
0.0
  9
$LIMCHECK
 70
     0
  9
$BLIPMODE
 70
     0
  9
$CHAMFERA
 40
0.0
  9
$CHAMFERB
 40
0.0
  9
$SKPOLY
 70
     0
  9
$TDCREATE
 40
2457134.7240452892
  9
$TDUPDATE
 40
2457134.7400107528
  9
$TDINDWG
 40
0.0159675116
  9
$TDUSRTIMER
 40
0.0159675116
  9
$USRTIMER
 70
     1
  9
$ANGBASE
 50
0.0
  9
$ANGDIR
 70
     0
  9
$PDMODE
 70
     0
  9
$PDSIZE
 40
0.0
  9
$PLINEWID
 40
0.0
  9
$COORDS
 70
     1
  9
$SPLFRAME
 70
     0
  9
$SPLINETYPE
 70
     6
  9
$SPLINESEGS
 70
     8
  9
$ATTDIA
 70
     1
  9
$ATTREQ
 70
     1
  9
$HANDLING
 70
     1
  9
$HANDSEED
  5
2D7
  9
$SURFTAB1
 70
     6
  9
$SURFTAB2
 70
     6
  9
$SURFTYPE
 70
     6
  9
$SURFU
 70
     6
  9
$SURFV
 70
     6
  9
$UCSNAME
  2

  9
$UCSORG
 10
0.0
 20
0.0
 30
0.0
  9
$UCSXDIR
 10
1.0
 20
0.0
 30
0.0
  9
$UCSYDIR
 10
0.0
 20
1.0
 30
0.0
  9
$PUCSNAME
  2

  9
$PUCSORG
 10
0.0
 20
0.0
 30
0.0
  9
$PUCSXDIR
 10
1.0
 20
0.0
 30
0.0
  9
$PUCSYDIR
 10
0.0
 20
1.0
 30
0.0
  9
$USERI1
 70
     0
  9
$USERI2
 70
     0
  9
$USERI3
 70
     0
  9
$USERI4
 70
     0
  9
$USERI5
 70
     0
  9
$USERR1
 40
0.0
  9
$USERR2
 40
0.0
  9
$USERR3
 40
0.0
  9
$USERR4
 40
0.0
  9
$USERR5
 40
0.0
  9
$WORLDVIEW
 70
     1
  9
$SHADEDGE
 70
     3
  9
$SHADEDIF
 70
    70
  9
$TILEMODE
 70
     1
  9
$MAXACTVP
 70
    64
  9
$PLIMCHECK
 70
     0
  9
$PEXTMIN
 10
1.0000000000000000E+020
 20
1.0000000000000000E+020
 30
1.0000000000000000E+020
  9
$PEXTMAX
 10
-1.0000000000000000E+020
 20
-1.0000000000000000E+020
 30
-1.0000000000000000E+020
  9
$PLIMMIN
 10
0.0
 20
0.0
  9
$PLIMMAX
 10
12.0
 20
9.0
  9
$UNITMODE
 70
     0
  9
$VISRETAIN
 70
     1
  9
$PLINEGEN
 70
     0
  9
$PSLTSCALE
 70
     1
  0
ENDSEC
  0
SECTION
  2
TABLES
  0
TABLE
  2
VPORT
 70
     1
  0
VPORT
  2
*ACTIVE
 70
     0
 10
0.0
 20
0.0
 11
1.0
 21
1.0
 12
54.933004087100237
 22
-206.02970107903661
 13
0.0
 23
0.0
 14
1.0
 24
1.0
 15
0.0
 25
0.0
 16
0.0
 26
0.0
 36
1.0
 17
0.0
 27
0.0
 37
0.0
 40
979.39584784153476
 41
1.8188302425106979
 42
50.0
 43
0.0
 44
0.0
 50
0.0
 51
0.0
 71
     0
 72
   100
 73
     1
 74
     1
 75
     0
 76
     0
 77
     0
 78
     0
  0
ENDTAB
  0
TABLE
  2
LTYPE
 70
     9
  0
LTYPE
  2
CONTINUOUS
 70
     0
  3
Solid line
 72
    65
 73
     0
 40
0.0
  0
LTYPE
  2
DASHED
 70
     0
  3
__ __ __ __ __ __ __ __ __ __ __ __ __ __ __
 72
    65
 73
     2
 40
0.75
 49
0.5
 49
-0.25
  0
LTYPE
  2
HIDDEN
 70
     0
  3
_ _ _ _ _ _ _ _ _ _ _ _ _ _ _ _ _ _ _ _ _ _ _
 72
    65
 73
     2
 40
0.375
 49
0.25
 49
-0.125
  0
LTYPE
  2
CENTER
 70
     0
  3
____ _ ____ _ ____ _ ____ _ ____ _ ____ _ ____
 72
    65
 73
     4
 40
2.0
 49
1.25
 49
-0.25
 49
0.25
 49
-0.25
  0
LTYPE
  2
PHANTOM
 70
     0
  3
_____ _ _ _____ _ _ _____ _ _ _____ _ _ ____
 72
    65
 73
     6
 40
2.5
 49
1.25
 49
-0.25
 49
0.25
 49
-0.25
 49
0.25
 49
-0.25
  0
LTYPE
  2
DOT
 70
     0
  3
...............................................
 72
    65
 73
     2
 40
0.25
 49
0.0
 49
-0.25
  0
LTYPE
  2
DASHDOT
 70
     0
  3
__ . __ . __ . __ . __ . __ . __ . __ . __ . __
 72
    65
 73
     4
 40
1.0
 49
0.5
 49
-0.25
 49
0.0
 49
-0.25
  0
LTYPE
  2
BORDER
 70
     0
  3
__ __ . __ __ . __ __ . __ __ . __ __ . __ __
 72
    65
 73
     6
 40
1.75
 49
0.5
 49
-0.25
 49
0.5
 49
-0.25
 49
0.0
 49
-0.25
  0
LTYPE
  2
DIVIDE
 70
     0
  3
__ . . __ . . __ . . __ . . __ . . __ . . __
 72
    65
 73
     6
 40
1.25
 49
0.5
 49
-0.25
 49
0.0
 49
-0.25
 49
0.0
 49
-0.25
  0
ENDTAB
  0
TABLE
  2
LAYER
 70
   100
  0
LAYER
  2
0
 70
     0
 62
     3
  6
CONTINUOUS
  0
LAYER
  2
1
 70
     0
 62
     3
  6
CONTINUOUS
  0
LAYER
  2
2
 70
     0
 62
     3
  6
CONTINUOUS
  0
LAYER
  2
3
 70
     0
 62
     3
  6
CONTINUOUS
  0
LAYER
  2
4
 70
     0
 62
     3
  6
CONTINUOUS
  0
LAYER
  2
5
 70
     0
 62
     3
  6
CONTINUOUS
  0
LAYER
  2
6
 70
     0
 62
     3
  6
CONTINUOUS
  0
LAYER
  2
7
 70
     0
 62
     3
  6
CONTINUOUS
  0
LAYER
  2
8
 70
     0
 62
     3
  6
CONTINUOUS
  0
LAYER
  2
9
 70
     0
 62
     3
  6
CONTINUOUS
  0
LAYER
  2
10
 70
     0
 62
     3
  6
CONTINUOUS
  0
LAYER
  2
11
 70
     0
 62
     3
  6
CONTINUOUS
  0
LAYER
  2
12
 70
     0
 62
     3
  6
CONTINUOUS
  0
LAYER
  2
13
 70
     0
 62
     3
  6
CONTINUOUS
  0
LAYER
  2
14
 70
     0
 62
     3
  6
CONTINUOUS
  0
LAYER
  2
15
 70
     0
 62
     3
  6
CONTINUOUS
  0
LAYER
  2
16
 70
     0
 62
     3
  6
CONTINUOUS
  0
LAYER
  2
17
 70
     0
 62
     3
  6
CONTINUOUS
  0
LAYER
  2
18
 70
     0
 62
     3
  6
CONTINUOUS
  0
LAYER
  2
19
 70
     0
 62
     3
  6
CONTINUOUS
  0
LAYER
  2
20
 70
     0
 62
     3
  6
CONTINUOUS
  0
LAYER
  2
21
 70
     0
 62
     3
  6
CONTINUOUS
  0
LAYER
  2
22
 70
     0
 62
     3
  6
CONTINUOUS
  0
LAYER
  2
23
 70
     0
 62
     3
  6
CONTINUOUS
  0
LAYER
  2
24
 70
     0
 62
     3
  6
CONTINUOUS
  0
LAYER
  2
25
 70
     0
 62
     3
  6
CONTINUOUS
  0
LAYER
  2
26
 70
     0
 62
     3
  6
CONTINUOUS
  0
LAYER
  2
27
 70
     0
 62
     3
  6
CONTINUOUS
  0
LAYER
  2
28
 70
     0
 62
     3
  6
CONTINUOUS
  0
LAYER
  2
29
 70
     0
 62
     3
  6
CONTINUOUS
  0
LAYER
  2
30
 70
     0
 62
     3
  6
CONTINUOUS
  0
LAYER
  2
31
 70
     0
 62
     3
  6
CONTINUOUS
  0
LAYER
  2
32
 70
     0
 62
     3
  6
CONTINUOUS
  0
LAYER
  2
33
 70
     0
 62
     3
  6
CONTINUOUS
  0
LAYER
  2
34
 70
     0
 62
     3
  6
CONTINUOUS
  0
LAYER
  2
35
 70
     0
 62
     3
  6
CONTINUOUS
  0
LAYER
  2
36
 70
     0
 62
     3
  6
CONTINUOUS
  0
LAYER
  2
37
 70
     0
 62
     3
  6
CONTINUOUS
  0
LAYER
  2
38
 70
     0
 62
     3
  6
CONTINUOUS
  0
LAYER
  2
39
 70
     0
 62
     3
  6
CONTINUOUS
  0
LAYER
  2
40
 70
     0
 62
     3
  6
CONTINUOUS
  0
LAYER
  2
41
 70
     0
 62
     3
  6
CONTINUOUS
  0
LAYER
  2
42
 70
     0
 62
     3
  6
CONTINUOUS
  0
LAYER
  2
43
 70
     0
 62
     3
  6
CONTINUOUS
  0
LAYER
  2
44
 70
     0
 62
     3
  6
CONTINUOUS
  0
LAYER
  2
45
 70
     0
 62
     3
  6
CONTINUOUS
  0
LAYER
  2
46
 70
     0
 62
     3
  6
CONTINUOUS
  0
LAYER
  2
47
 70
     0
 62
     3
  6
CONTINUOUS
  0
LAYER
  2
48
 70
     0
 62
     3
  6
CONTINUOUS
  0
LAYER
  2
49
 70
     0
 62
     3
  6
CONTINUOUS
  0
LAYER
  2
50
 70
     0
 62
     3
  6
CONTINUOUS
  0
LAYER
  2
51
 70
     0
 62
     3
  6
CONTINUOUS
  0
LAYER
  2
52
 70
     0
 62
     3
  6
CONTINUOUS
  0
LAYER
  2
53
 70
     0
 62
     3
  6
CONTINUOUS
  0
LAYER
  2
54
 70
     0
 62
     3
  6
CONTINUOUS
  0
LAYER
  2
55
 70
     0
 62
     3
  6
CONTINUOUS
  0
LAYER
  2
56
 70
     0
 62
     3
  6
CONTINUOUS
  0
LAYER
  2
57
 70
     0
 62
     3
  6
CONTINUOUS
  0
LAYER
  2
58
 70
     0
 62
     3
  6
CONTINUOUS
  0
LAYER
  2
59
 70
     0
 62
     3
  6
CONTINUOUS
  0
LAYER
  2
60
 70
     0
 62
     3
  6
CONTINUOUS
  0
LAYER
  2
61
 70
     0
 62
     3
  6
CONTINUOUS
  0
LAYER
  2
62
 70
     0
 62
     3
  6
CONTINUOUS
  0
LAYER
  2
63
 70
     0
 62
     3
  6
CONTINUOUS
  0
LAYER
  2
64
 70
     0
 62
     3
  6
CONTINUOUS
  0
LAYER
  2
65
 70
     0
 62
     3
  6
CONTINUOUS
  0
LAYER
  2
66
 70
     0
 62
     3
  6
CONTINUOUS
  0
LAYER
  2
67
 70
     0
 62
     3
  6
CONTINUOUS
  0
LAYER
  2
68
 70
     0
 62
     3
  6
CONTINUOUS
  0
LAYER
  2
69
 70
     0
 62
     3
  6
CONTINUOUS
  0
LAYER
  2
70
 70
     0
 62
     3
  6
CONTINUOUS
  0
LAYER
  2
71
 70
     0
 62
     3
  6
CONTINUOUS
  0
LAYER
  2
72
 70
     0
 62
     3
  6
CONTINUOUS
  0
LAYER
  2
73
 70
     0
 62
     3
  6
CONTINUOUS
  0
LAYER
  2
74
 70
     0
 62
     3
  6
CONTINUOUS
  0
LAYER
  2
75
 70
     0
 62
     3
  6
CONTINUOUS
  0
LAYER
  2
76
 70
     0
 62
     3
  6
CONTINUOUS
  0
LAYER
  2
77
 70
     0
 62
     3
  6
CONTINUOUS
  0
LAYER
  2
78
 70
     0
 62
     3
  6
CONTINUOUS
  0
LAYER
  2
79
 70
     0
 62
     3
  6
CONTINUOUS
  0
LAYER
  2
80
 70
     0
 62
     3
  6
CONTINUOUS
  0
LAYER
  2
81
 70
     0
 62
     3
  6
CONTINUOUS
  0
LAYER
  2
82
 70
     0
 62
     3
  6
CONTINUOUS
  0
LAYER
  2
83
 70
     0
 62
     3
  6
CONTINUOUS
  0
LAYER
  2
84
 70
     0
 62
     3
  6
CONTINUOUS
  0
LAYER
  2
85
 70
     0
 62
     3
  6
CONTINUOUS
  0
LAYER
  2
86
 70
     0
 62
     3
  6
CONTINUOUS
  0
LAYER
  2
87
 70
     0
 62
     3
  6
CONTINUOUS
  0
LAYER
  2
88
 70
     0
 62
     3
  6
CONTINUOUS
  0
LAYER
  2
89
 70
     0
 62
     3
  6
CONTINUOUS
  0
LAYER
  2
90
 70
     0
 62
     3
  6
CONTINUOUS
  0
LAYER
  2
91
 70
     0
 62
     3
  6
CONTINUOUS
  0
LAYER
  2
92
 70
     0
 62
     3
  6
CONTINUOUS
  0
LAYER
  2
93
 70
     0
 62
     3
  6
CONTINUOUS
  0
LAYER
  2
94
 70
     0
 62
     3
  6
CONTINUOUS
  0
LAYER
  2
95
 70
     0
 62
     3
  6
CONTINUOUS
  0
LAYER
  2
96
 70
     0
 62
     3
  6
CONTINUOUS
  0
LAYER
  2
97
 70
     0
 62
     3
  6
CONTINUOUS
  0
LAYER
  2
98
 70
     0
 62
     3
  6
CONTINUOUS
  0
LAYER
  2
99
 70
     0
 62
     3
  6
CONTINUOUS
  0
ENDTAB
  0
TABLE
  2
STYLE
 70
     3
  0
STYLE
  2
STANDARD
 70
     0
 40
0.0
 41
1.0
 50
0.0
 71
     0
 42
0.2
  3
TXT
  4
BIGFONT
  0
STYLE
  2
ANNOTATIVE
 70
     0
 40
0.0
 41
1.0
 50
0.0
 71
     0
 42
0.2
  3
txt
  4

  0
STYLE
  2
KANJI
 70
     0
 40
4.5
 41
1.0
 50
0.0
 71
     0
 42
0.2
  3
TXT
  4
BIGFONT
  0
ENDTAB
  0
TABLE
  2
VIEW
 70
     0
  0
ENDTAB
  0
TABLE
  2
UCS
 70
     0
  0
ENDTAB
  0
TABLE
  2
APPID
 70
     4
  0
APPID
  2
ACAD
 70
     0
  0
APPID
  2
ACADANNOTATIVE
 70
     0
  0
APPID
  2
ACAD_NAV_VCDISPLAY
 70
     0
  0
APPID
  2
ACAD_MLEADERVER
 70
     0
  0
ENDTAB
  0
TABLE
  2
DIMSTYLE
 70
     2
  0
DIMSTYLE
  2
STANDARD
 70
     0
  3

  4

  5

  6

  7

 40
1.0
 41
0.18
 42
0.0625
 43
0.38
 44
0.18
 45
0.0
 46
0.0
 47
0.0
 48
0.0
140
0.18
141
0.09
142
0.0
143
25.399999999999999
144
1.0
145
0.0
146
1.0
147
0.09
 71
     0
 72
     0
 73
     1
 74
     1
 75
     0
 76
     0
 77
     0
 78
     0
170
     0
171
     2
172
     0
173
     0
174
     0
175
     0
176
     0
177
     0
178
     0
  0
DIMSTYLE
  2
ANNOTATIVE
 70
     0
  3

  4

  5

  6

  7

 40
1.0
 41
0.18
 42
0.0625
 43
0.38
 44
0.18
 45
0.0
 46
0.0
 47
0.0
 48
0.0
140
0.18
141
0.09
142
0.0
143
25.399999999999999
144
1.0
145
0.0
146
1.0
147
0.09
 71
     0
 72
     0
 73
     1
 74
     1
 75
     0
 76
     0
 77
     0
 78
     0
170
     0
171
     2
172
     0
173
     0
174
     0
175
     0
176
     0
177
     0
178
     0
  0
ENDTAB
  0
ENDSEC
  0
SECTION
  2
BLOCKS
  0
BLOCK
  8
0
  2
$MODEL_SPACE
 70
     0
 10
0.0
 20
0.0
 30
0.0
  3
$MODEL_SPACE
  1

  0
ENDBLK
  5
71
  8
0
  0
BLOCK
 67
     1
  8
0
  2
$PAPER_SPACE
 70
     0
 10
0.0
 20
0.0
 30
0.0
  3
$PAPER_SPACE
  1

  0
ENDBLK
  5
6D
 67
     1
  8
0
  0
BLOCK
  8
0
  2
D0
 70
     0
 10
0.0
 20
0.0
 30
0.0
  3
D0
  1

  0
TEXT
  5
E4
  8
0
 62
     7
 10
1148.060432
 20
740.14884500000005
 30
0.0
 40
16.0
  1
134
 50
90.0
 41
0.7500000000000001
 72
     5
 11
1148.060432
 21
768.14884500000005
 31
0.0
  0
LINE
  5
E5
  8
0
  6
CONTINUOUS
 62
     7
 10
1119.5
 20
687.14884500000005
 30
0.0
 11
1152.6604319999999
 21
687.14884500000005
 31
0.0
  0
LINE
  5
E6
  8
0
  6
CONTINUOUS
 62
     7
 10
1119.5
 20
821.14884500000005
 30
0.0
 11
1152.6604319999999
 21
821.14884500000005
 31
0.0
  0
LINE
  5
E7
  8
0
  6
CONTINUOUS
 62
     7
 10
1149.6604319999999
 20
821.14884500000005
 30
0.0
 11
1149.6604319999999
 21
687.14884500000005
 31
0.0
  0
LINE
  5
E8
  8
0
  6
CONTINUOUS
 62
     7
 10
1149.6604319999999
 20
821.14884500000005
 30
0.0
 11
1155.4838609999999
 21
799.41551399999992
 31
0.0
  0
LINE
  5
E9
  8
0
  6
CONTINUOUS
 62
     7
 10
1149.6604319999999
 20
821.14884500000005
 30
0.0
 11
1143.8370030000001
 21
799.41551399999992
 31
0.0
  0
LINE
  5
EA
  8
0
  6
CONTINUOUS
 62
     7
 10
1149.6604319999999
 20
687.14884500000005
 30
0.0
 11
1143.8370030000001
 21
708.88217599999996
 31
0.0
  0
LINE
  5
EB
  8
0
  6
CONTINUOUS
 62
     7
 10
1149.6604319999999
 20
687.14884500000005
 30
0.0
 11
1155.4838609999999
 21
708.88217599999996
 31
0.0
  0
ENDBLK
  5
EC
  8
0
  0
ENDSEC
  0
SECTION
  2
ENTITIES
  0
POINT
  5
ED
  8
0
 62
     1
 10
0.5
 20
0.5
 30
0.0
  0
TEXT
  5
EE
  8
0
 62
     6
 10
236.96090799999999
 20
-523.5953659999999
 30
0.0
 40
22.5
  1
\U+03C6７５　Ｓ
 41
0.8095238095238094
  7
KANJI
 72
     5
 11
338.96090800000002
 21
-523.5953659999999
 31
0.0
  0
TEXT
  5
EF
  8
0
 62
     6
 10
221.96090799999999
 20
-481.72501999999997
 30
0.0
 40
22.5
  1
メカニカル形（Ｓ＝１／５）
 41
0.75
  7
KANJI
 72
     5
 11
471.71090800000002
 21
-481.72501999999997
 31
0.0
  0
ARC
  5
F1
  8
0
  6
CONTINUOUS
 62
     2
 10
-74.31370800000002
 20
-153.87096799999989
 30
0.0
 40
11.0
 50
180.0
 51
270.0
  0
ARC
  5
F2
  8
0
  6
CONTINUOUS
 62
     2
 10
64.0
 20
-153.87096799999989
 30
0.0
 40
11.0
 50
180.0
 51
270.0
  0
ARC
  5
F3
  8
0
  6
CONTINUOUS
 62
     2
 10
26.0
 20
-153.87096799999989
 30
0.0
 40
11.0
 50
270.0
 51
0.0
  0
LINE
  5
F4
  8
0
  6
CONTINUOUS
 62
     2
 10
31.000038000000131
 20
-178.87096799999989
 30
0.0
 11
-57.0
 21
-178.87096799999989
 31
0.0
  0
LINE
  5
F5
  8
0
  6
CONTINUOUS
 62
     6
 10
57.5
 20
-178.99999999999989
 30
0.0
 11
57.0
 21
-178.87096799999989
 31
0.0
  0
LINE
  5
F6
  8
0
  6
CONTINUOUS
 62
     2
 10
57.0
 20
-178.87096799999989
 30
0.0
 11
43.000038000000131
 21
-178.87096799999989
 31
0.0
  0
LINE
  5
F7
  8
0
  6
CONTINUOUS
 62
     6
 10
-57.5
 20
-178.99999999999989
 30
0.0
 11
-57.5
 21
-179.99999999999989
 31
0.0
  0
LINE
  5
F8
  8
0
  6
CONTINUOUS
 62
     6
 10
-57.5
 20
-178.99999999999989
 30
0.0
 11
-57.0
 21
-178.87096799999989
 31
0.0
  0
LINE
  5
F9
  8
0
  6
CONTINUOUS
 62
     6
 10
57.5
 20
-178.99999999999989
 30
0.0
 11
57.5
 21
-179.99999999999989
 31
0.0
  0
LINE
  5
FA
  8
0
  6
CONTINUOUS
 62
     2
 10
26.0
 20
-164.87096799999989
 30
0.0
 11
-74.31370800000002
 21
-164.87096799999989
 31
0.0
  0
LINE
  5
FB
  8
0
  6
CONTINUOUS
 62
     2
 10
54.0
 20
-153.87096799999989
 30
0.0
 11
67.0
 21
-164.87096799999989
 31
0.0
  0
LINE
  5
FC
  8
0
  6
CONTINUOUS
 62
     2
 10
-57.0
 20
-178.87096799999989
 30
0.0
 11
-57.0
 21
-172.87096799999989
 31
0.0
  0
LINE
  5
FD
  8
0
  6
CONTINUOUS
 62
     2
 10
57.0
 20
-178.87096799999989
 30
0.0
 11
57.0
 21
-172.87096799999989
 31
0.0
  0
ARC
  5
FE
  8
0
  6
CONTINUOUS
 62
     3
 10
28.78753800000004
 20
-148.765219
 30
0.0
 40
4.8942740000000002
 50
55.990722000003551
 51
124.0092769999972
  0
ARC
  5
FF
  8
0
  6
CONTINUOUS
 62
     3
 10
37.000038000000131
 20
-162.19275599999989
 30
0.0
 40
18.321788000000002
 50
72.612983000005002
 51
107.3870159999973
  0
ARC
  5
100
  8
0
  6
CONTINUOUS
 62
     3
 10
45.212537999999988
 20
-148.765219
 30
0.0
 40
4.8942740000000002
 50
55.990723000002738
 51
124.0092779999964
  0
LINE
  5
101
  8
0
  6
CONTINUOUS
 62
     3
 10
45.197796000000153
 20
-143.87096799999989
 30
0.0
 11
28.802278999999999
 21
-143.87096799999989
 31
0.0
  0
LINE
  5
102
  8
0
  6
CONTINUOUS
 62
     3
 10
47.95003800000017
 20
-153.87096799999989
 30
0.0
 11
47.95003800000017
 21
-144.70812599999999
 31
0.0
  0
LINE
  5
103
  8
0
  6
CONTINUOUS
 62
     3
 10
42.47503800000004
 20
-153.87096799999989
 30
0.0
 11
42.47503800000004
 21
-144.70812599999999
 31
0.0
  0
LINE
  5
104
  8
0
  6
CONTINUOUS
 62
     3
 10
31.525037999999999
 20
-153.87096799999989
 30
0.0
 11
31.525037999999999
 21
-144.70812599999999
 31
0.0
  0
LINE
  5
105
  8
0
  6
CONTINUOUS
 62
     3
 10
26.05003800000009
 20
-153.87096799999989
 30
0.0
 11
26.05003800000009
 21
-144.70812599999999
 31
0.0
  0
LINE
  5
106
  8
0
  6
CONTINUOUS
 62
     3
 10
31.94703800000002
 20
-133.0
 30
0.0
 11
31.94703800000002
 21
-143.87096799999989
 31
0.0
  0
LINE
  5
107
  8
0
  6
CONTINUOUS
 62
     3
 10
42.053038000000022
 20
-133.0
 30
0.0
 11
42.053038000000022
 21
-143.87096799999989
 31
0.0
  0
LINE
  5
108
  8
0
  6
CONTINUOUS
 62
     3
 10
43.000038000000131
 20
-169.87096799999989
 30
0.0
 11
43.000038000000131
 21
-179.99999999999989
 31
0.0
  0
LINE
  5
109
  8
0
  6
CONTINUOUS
 62
     3
 10
43.000038000000131
 20
-133.0
 30
0.0
 11
43.000038000000131
 21
-143.87096799999989
 31
0.0
  0
LINE
  5
10A
  8
0
  6
CONTINUOUS
 62
     3
 10
31.000038000000131
 20
-169.87096799999989
 30
0.0
 11
31.000038000000131
 21
-179.99999999999989
 31
0.0
  0
LINE
  5
10B
  8
0
  6
CONTINUOUS
 62
     3
 10
31.000038000000131
 20
-133.0
 30
0.0
 11
31.000038000000131
 21
-143.87096799999989
 31
0.0
  0
ARC
  5
10C
  8
0
  6
CONTINUOUS
 62
     3
 10
37.000038000000131
 20
-141.0
 30
0.0
 40
10.0
 50
53.13010300000338
 51
126.8698980000058
  0
LINE
  5
10D
  8
0
  6
CONTINUOUS
 62
     3
 10
43.000038000000131
 20
-133.0
 30
0.0
 11
31.000038000000131
 21
-133.0
 31
0.0
  0
ARC
  5
10E
  8
0
  6
CONTINUOUS
 62
     3
 10
-82.712499999999977
 20
-148.765219
 30
0.0
 40
4.8942740000000002
 50
55.990722000003551
 51
124.0092769999972
  0
ARC
  5
10F
  8
0
  6
CONTINUOUS
 62
     3
 10
-74.5
 20
-162.19275599999989
 30
0.0
 40
18.321788000000002
 50
72.612983000005002
 51
107.3870159999973
  0
ARC
  5
110
  8
0
  6
CONTINUOUS
 62
     3
 10
-66.287500000000023
 20
-148.765219
 30
0.0
 40
4.8942740000000002
 50
55.990723000002738
 51
124.0092779999964
  0
LINE
  5
111
  8
0
  6
CONTINUOUS
 62
     3
 10
21.875643999999969
 20
-207.99999999999989
 30
0.0
 11
52.124356000000027
 21
-207.99999999999989
 31
0.0
  0
LINE
  5
112
  8
0
  6
CONTINUOUS
 62
     3
 10
52.124356000000027
 20
-195.99999999999989
 30
0.0
 11
52.124356000000027
 21
-207.99999999999989
 31
0.0
  0
LINE
  5
113
  8
0
  6
CONTINUOUS
 62
     3
 10
27.875643999999969
 20
-195.99999999999989
 30
0.0
 11
27.875643999999969
 21
-207.99999999999989
 31
0.0
  0
LINE
  5
114
  8
0
  6
CONTINUOUS
 62
     3
 10
21.875643999999969
 20
-195.99999999999989
 30
0.0
 11
21.875643999999969
 21
-207.99999999999989
 31
0.0
  0
LINE
  5
115
  8
0
  6
CONTINUOUS
 62
     3
 10
-66.302240999999981
 20
-143.87096799999989
 30
0.0
 11
-82.697759000000019
 21
-143.87096799999989
 31
0.0
  0
LINE
  5
116
  8
0
  6
CONTINUOUS
 62
     3
 10
-63.549999999999947
 20
-153.87096799999989
 30
0.0
 11
-63.549999999999947
 21
-144.70812599999999
 31
0.0
  0
LINE
  5
117
  8
0
  6
CONTINUOUS
 62
     3
 10
-69.024999999999977
 20
-153.87096799999989
 30
0.0
 11
-69.024999999999977
 21
-144.70812599999999
 31
0.0
  0
LINE
  5
118
  8
0
  6
CONTINUOUS
 62
     3
 10
-79.975000000000023
 20
-153.87096799999989
 30
0.0
 11
-79.975000000000023
 21
-144.70812599999999
 31
0.0
  0
LINE
  5
119
  8
0
  6
CONTINUOUS
 62
     3
 10
-85.450000000000045
 20
-153.87096799999989
 30
0.0
 11
-85.450000000000045
 21
-144.70812599999999
 31
0.0
  0
LINE
  5
11A
  8
0
  6
CONTINUOUS
 62
     3
 10
-79.552999999999997
 20
-133.0
 30
0.0
 11
-79.552999999999997
 21
-143.87096799999989
 31
0.0
  0
LINE
  5
11B
  8
0
  6
CONTINUOUS
 62
     3
 10
-69.447000000000003
 20
-133.0
 30
0.0
 11
-69.447000000000003
 21
-143.87096799999989
 31
0.0
  0
LINE
  5
11C
  8
0
  6
CONTINUOUS
 62
     3
 10
-68.5
 20
-169.87096799999989
 30
0.0
 11
-68.5
 21
-179.99999999999989
 31
0.0
  0
LINE
  5
11D
  8
0
  6
CONTINUOUS
 62
     3
 10
-68.5
 20
-133.0
 30
0.0
 11
-68.5
 21
-143.87096799999989
 31
0.0
  0
LINE
  5
11E
  8
0
  6
CONTINUOUS
 62
     3
 10
-80.5
 20
-169.87096799999989
 30
0.0
 11
-80.5
 21
-179.99999999999989
 31
0.0
  0
LINE
  5
11F
  8
0
  6
CONTINUOUS
 62
     3
 10
-80.5
 20
-133.0
 30
0.0
 11
-80.5
 21
-143.87096799999989
 31
0.0
  0
LINE
  5
120
  8
0
  6
CONTINUOUS
 62
     3
 10
-68.5
 20
-195.99999999999989
 30
0.0
 11
-68.5
 21
-207.99999999999989
 31
0.0
  0
LINE
  5
121
  8
0
  6
CONTINUOUS
 62
     3
 10
-80.5
 20
-195.99999999999989
 30
0.0
 11
-80.5
 21
-207.99999999999989
 31
0.0
  0
LINE
  5
122
  8
0
  6
CONTINUOUS
 62
     2
 10
-90.0
 20
-153.87096799999989
 30
0.0
 11
-90.0
 21
-169.87096799999989
 31
0.0
  0
LINE
  5
123
  8
0
  6
CONTINUOUS
 62
     2
 10
67.0
 20
-169.87096799999989
 30
0.0
 11
67.0
 21
-164.87096799999989
 31
0.0
  0
LINE
  5
124
  8
0
  6
CONTINUOUS
 62
     2
 10
-90.0
 20
-153.87096799999989
 30
0.0
 11
54.0
 21
-153.87096799999989
 31
0.0
  0
LINE
  5
125
  8
0
  6
CONTINUOUS
 62
     2
 10
-90.0
 20
-169.87096799999989
 30
0.0
 11
67.0
 21
-169.87096799999989
 31
0.0
  0
ARC
  5
126
  8
0
  6
CONTINUOUS
 62
     2
 10
60.0
 20
-172.87096799999989
 30
0.0
 40
3.0
 50
90.0
 51
180.0
  0
ARC
  5
127
  8
0
  6
CONTINUOUS
 62
     2
 10
-60.0
 20
-172.87096799999989
 30
0.0
 40
3.0
 50
0.0
 51
90.0
  0
ARC
  5
128
  8
0
  6
CONTINUOUS
 62
     3
 10
-74.5
 20
-141.0
 30
0.0
 40
10.0
 50
53.13010300000338
 51
126.8698980000058
  0
LINE
  5
129
  8
0
  6
CONTINUOUS
 62
     3
 10
-68.5
 20
-133.0
 30
0.0
 11
-80.5
 21
-133.0
 31
0.0
  0
LINE
  5
12A
  8
0
  6
CONTINUOUS
 62
     3
 10
-68.5
 20
-207.99999999999989
 30
0.0
 11
-80.5
 21
-207.99999999999989
 31
0.0
  0
LINE
  5
12B
  8
2
  6
CENTER
 62
     2
 10
37.000038000000131
 20
-214.21102099999999
 30
0.0
 11
37.000038000000131
 21
-125.66109899999979
 31
0.0
  0
LINE
  5
12C
  8
2
  6
CENTER
 62
     2
 10
-74.5
 20
-214.21102099999999
 30
0.0
 11
-74.5
 21
-125.66109899999979
 31
0.0
  0
ARC
  5
12D
  8
0
  6
CONTINUOUS
 62
     2
 10
-74.31370800000002
 20
-340.12903299999988
 30
0.0
 40
11.0
 50
90.0
 51
180.0
  0
ARC
  5
12E
  8
0
  6
CONTINUOUS
 62
     2
 10
64.0
 20
-340.12903299999988
 30
0.0
 40
11.0
 50
90.0
 51
180.0
  0
ARC
  5
12F
  8
0
  6
CONTINUOUS
 62
     2
 10
26.0
 20
-340.12903299999988
 30
0.0
 40
11.0
 50
0.0
 51
90.0
  0
LINE
  5
130
  8
0
  6
CONTINUOUS
 62
     2
 10
31.000038000000131
 20
-315.12903299999988
 30
0.0
 11
-57.0
 21
-315.12903299999988
 31
0.0
  0
LINE
  5
131
  8
0
  6
CONTINUOUS
 62
     6
 10
57.5
 20
-314.99999999999989
 30
0.0
 11
57.0
 21
-315.12903299999988
 31
0.0
  0
LINE
  5
132
  8
0
  6
CONTINUOUS
 62
     2
 10
57.0
 20
-315.12903299999988
 30
0.0
 11
43.000038000000131
 21
-315.12903299999988
 31
0.0
  0
LINE
  5
133
  8
0
  6
CONTINUOUS
 62
     6
 10
-57.5
 20
-314.99999999999989
 30
0.0
 11
-57.5
 21
-313.99999999999989
 31
0.0
  0
LINE
  5
134
  8
0
  6
CONTINUOUS
 62
     6
 10
-57.5
 20
-314.99999999999989
 30
0.0
 11
-57.0
 21
-315.12903299999988
 31
0.0
  0
LINE
  5
135
  8
0
  6
CONTINUOUS
 62
     6
 10
57.5
 20
-314.99999999999989
 30
0.0
 11
57.5
 21
-313.99999999999989
 31
0.0
  0
LINE
  5
136
  8
0
  6
CONTINUOUS
 62
     2
 10
26.0
 20
-329.12903299999988
 30
0.0
 11
-74.31370800000002
 21
-329.12903299999988
 31
0.0
  0
LINE
  5
137
  8
0
  6
CONTINUOUS
 62
     2
 10
54.0
 20
-340.12903299999988
 30
0.0
 11
67.0
 21
-329.12903299999988
 31
0.0
  0
LINE
  5
138
  8
0
  6
CONTINUOUS
 62
     2
 10
-57.0
 20
-315.12903299999988
 30
0.0
 11
-57.0
 21
-321.12903299999988
 31
0.0
  0
LINE
  5
139
  8
0
  6
CONTINUOUS
 62
     2
 10
57.0
 20
-315.12903299999988
 30
0.0
 11
57.0
 21
-321.12903299999988
 31
0.0
  0
ARC
  5
13A
  8
0
  6
CONTINUOUS
 62
     3
 10
28.78753800000004
 20
-345.234781
 30
0.0
 40
4.8942740000000002
 50
235.9907230000027
 51
304.00927799999653
  0
ARC
  5
13B
  8
0
  6
CONTINUOUS
 62
     3
 10
37.000038000000131
 20
-331.80724500000002
 30
0.0
 40
18.321788000000002
 50
252.61298400000271
 51
287.38701699999501
  0
ARC
  5
13C
  8
0
  6
CONTINUOUS
 62
     3
 10
45.212537999999988
 20
-345.234781
 30
0.0
 40
4.8942740000000002
 50
235.99072200000359
 51
304.00927699999733
  0
LINE
  5
13D
  8
0
  6
CONTINUOUS
 62
     3
 10
45.197796000000153
 20
-350.12903299999988
 30
0.0
 11
28.802278999999999
 21
-350.12903299999988
 31
0.0
  0
LINE
  5
13E
  8
0
  6
CONTINUOUS
 62
     3
 10
47.95003800000017
 20
-340.12903299999988
 30
0.0
 11
47.95003800000017
 21
-349.29187499999989
 31
0.0
  0
LINE
  5
13F
  8
0
  6
CONTINUOUS
 62
     3
 10
42.47503800000004
 20
-340.12903299999988
 30
0.0
 11
42.47503800000004
 21
-349.29187499999989
 31
0.0
  0
LINE
  5
140
  8
0
  6
CONTINUOUS
 62
     3
 10
31.525037999999999
 20
-340.12903299999988
 30
0.0
 11
31.525037999999999
 21
-349.29187499999989
 31
0.0
  0
LINE
  5
141
  8
0
  6
CONTINUOUS
 62
     3
 10
26.05003800000009
 20
-340.12903299999988
 30
0.0
 11
26.05003800000009
 21
-349.29187499999989
 31
0.0
  0
LINE
  5
142
  8
0
  6
CONTINUOUS
 62
     3
 10
31.94703800000002
 20
-360.99999999999989
 30
0.0
 11
31.94703800000002
 21
-350.12903299999988
 31
0.0
  0
LINE
  5
143
  8
0
  6
CONTINUOUS
 62
     3
 10
42.053038000000022
 20
-360.99999999999989
 30
0.0
 11
42.053038000000022
 21
-350.12903299999988
 31
0.0
  0
LINE
  5
144
  8
0
  6
CONTINUOUS
 62
     3
 10
43.000038000000131
 20
-324.12903299999988
 30
0.0
 11
43.000038000000131
 21
-313.99999999999989
 31
0.0
  0
LINE
  5
145
  8
0
  6
CONTINUOUS
 62
     3
 10
43.000038000000131
 20
-360.99999999999989
 30
0.0
 11
43.000038000000131
 21
-350.12903299999988
 31
0.0
  0
LINE
  5
146
  8
0
  6
CONTINUOUS
 62
     3
 10
31.000038000000131
 20
-324.12903299999988
 30
0.0
 11
31.000038000000131
 21
-313.99999999999989
 31
0.0
  0
LINE
  5
147
  8
0
  6
CONTINUOUS
 62
     3
 10
31.000038000000131
 20
-360.99999999999989
 30
0.0
 11
31.000038000000131
 21
-350.12903299999988
 31
0.0
  0
ARC
  5
148
  8
0
  6
CONTINUOUS
 62
     3
 10
37.000038000000131
 20
-352.99999999999989
 30
0.0
 40
10.0
 50
233.13010199999411
 51
306.86989699999663
  0
LINE
  5
149
  8
0
  6
CONTINUOUS
 62
     3
 10
43.000038000000131
 20
-360.99999999999989
 30
0.0
 11
31.000038000000131
 21
-360.99999999999989
 31
0.0
  0
ARC
  5
14A
  8
0
  6
CONTINUOUS
 62
     3
 10
-82.712499999999977
 20
-345.234781
 30
0.0
 40
4.8942740000000002
 50
235.9907230000027
 51
304.00927799999653
  0
ARC
  5
14B
  8
0
  6
CONTINUOUS
 62
     3
 10
-74.5
 20
-331.80724500000002
 30
0.0
 40
18.321788000000002
 50
252.61298400000271
 51
287.38701699999501
  0
ARC
  5
14C
  8
0
  6
CONTINUOUS
 62
     3
 10
-66.287500000000023
 20
-345.234781
 30
0.0
 40
4.8942740000000002
 50
235.99072200000359
 51
304.00927699999733
  0
LINE
  5
14D
  8
0
  6
CONTINUOUS
 62
     3
 10
21.875643999999969
 20
-285.99999999999989
 30
0.0
 11
52.124356000000027
 21
-285.99999999999989
 31
0.0
  0
LINE
  5
14E
  8
0
  6
CONTINUOUS
 62
     3
 10
52.124356000000027
 20
-297.99999999999989
 30
0.0
 11
52.124356000000027
 21
-285.99999999999989
 31
0.0
  0
LINE
  5
14F
  8
0
  6
CONTINUOUS
 62
     3
 10
27.875643999999969
 20
-297.99999999999989
 30
0.0
 11
27.875643999999969
 21
-285.99999999999989
 31
0.0
  0
LINE
  5
150
  8
0
  6
CONTINUOUS
 62
     3
 10
21.875643999999969
 20
-297.99999999999989
 30
0.0
 11
21.875643999999969
 21
-285.99999999999989
 31
0.0
  0
LINE
  5
151
  8
0
  6
CONTINUOUS
 62
     3
 10
-66.302240999999981
 20
-350.12903299999988
 30
0.0
 11
-82.697759000000019
 21
-350.12903299999988
 31
0.0
  0
LINE
  5
152
  8
0
  6
CONTINUOUS
 62
     3
 10
-63.549999999999947
 20
-340.12903299999988
 30
0.0
 11
-63.549999999999947
 21
-349.29187499999989
 31
0.0
  0
LINE
  5
153
  8
0
  6
CONTINUOUS
 62
     3
 10
-69.024999999999977
 20
-340.12903299999988
 30
0.0
 11
-69.024999999999977
 21
-349.29187499999989
 31
0.0
  0
LINE
  5
154
  8
0
  6
CONTINUOUS
 62
     3
 10
-79.975000000000023
 20
-340.12903299999988
 30
0.0
 11
-79.975000000000023
 21
-349.29187499999989
 31
0.0
  0
LINE
  5
155
  8
0
  6
CONTINUOUS
 62
     3
 10
-85.450000000000045
 20
-340.12903299999988
 30
0.0
 11
-85.450000000000045
 21
-349.29187499999989
 31
0.0
  0
LINE
  5
156
  8
0
  6
CONTINUOUS
 62
     3
 10
-79.552999999999997
 20
-360.99999999999989
 30
0.0
 11
-79.552999999999997
 21
-350.12903299999988
 31
0.0
  0
LINE
  5
157
  8
0
  6
CONTINUOUS
 62
     3
 10
-69.447000000000003
 20
-360.99999999999989
 30
0.0
 11
-69.447000000000003
 21
-350.12903299999988
 31
0.0
  0
LINE
  5
158
  8
0
  6
CONTINUOUS
 62
     3
 10
-68.5
 20
-324.12903299999988
 30
0.0
 11
-68.5
 21
-313.99999999999989
 31
0.0
  0
LINE
  5
159
  8
0
  6
CONTINUOUS
 62
     3
 10
-68.5
 20
-360.99999999999989
 30
0.0
 11
-68.5
 21
-350.12903299999988
 31
0.0
  0
LINE
  5
15A
  8
0
  6
CONTINUOUS
 62
     3
 10
-80.5
 20
-324.12903299999988
 30
0.0
 11
-80.5
 21
-313.99999999999989
 31
0.0
  0
LINE
  5
15B
  8
0
  6
CONTINUOUS
 62
     3
 10
-80.5
 20
-360.99999999999989
 30
0.0
 11
-80.5
 21
-350.12903299999988
 31
0.0
  0
LINE
  5
15C
  8
0
  6
CONTINUOUS
 62
     3
 10
-68.5
 20
-297.99999999999989
 30
0.0
 11
-68.5
 21
-285.99999999999989
 31
0.0
  0
LINE
  5
15D
  8
0
  6
CONTINUOUS
 62
     3
 10
-80.5
 20
-297.99999999999989
 30
0.0
 11
-80.5
 21
-285.99999999999989
 31
0.0
  0
LINE
  5
15E
  8
0
  6
CONTINUOUS
 62
     2
 10
-90.0
 20
-340.12903299999988
 30
0.0
 11
-90.0
 21
-324.12903299999988
 31
0.0
  0
LINE
  5
15F
  8
0
  6
CONTINUOUS
 62
     2
 10
67.0
 20
-324.12903299999988
 30
0.0
 11
67.0
 21
-329.12903299999988
 31
0.0
  0
LINE
  5
160
  8
0
  6
CONTINUOUS
 62
     2
 10
-90.0
 20
-340.12903299999988
 30
0.0
 11
54.0
 21
-340.12903299999988
 31
0.0
  0
LINE
  5
161
  8
0
  6
CONTINUOUS
 62
     2
 10
-90.0
 20
-324.12903299999988
 30
0.0
 11
67.0
 21
-324.12903299999988
 31
0.0
  0
ARC
  5
162
  8
0
  6
CONTINUOUS
 62
     2
 10
60.0
 20
-321.12903299999988
 30
0.0
 40
3.0
 50
180.0
 51
270.0
  0
ARC
  5
163
  8
0
  6
CONTINUOUS
 62
     2
 10
-60.0
 20
-321.12903299999988
 30
0.0
 40
3.0
 50
270.0
 51
0.0
  0
ARC
  5
164
  8
0
  6
CONTINUOUS
 62
     3
 10
-74.5
 20
-352.99999999999989
 30
0.0
 40
10.0
 50
233.13010199999411
 51
306.86989699999663
  0
LINE
  5
165
  8
0
  6
CONTINUOUS
 62
     3
 10
-68.5
 20
-360.99999999999989
 30
0.0
 11
-80.5
 21
-360.99999999999989
 31
0.0
  0
ARC
  5
166
  8
0
  6
CONTINUOUS
 62
     2
 10
0.0
 20
0.0
 30
0.0
 40
54.0
 50
321.51018800000082
 51
38.48981100000055
  0
ARC
  5
167
  8
0
  6
CONTINUOUS
 62
     2
 10
0.0
 20
0.0
 30
0.0
 40
54.0
 50
201.5101879999996
 51
278.48981099999719
  0
ARC
  5
168
  8
0
  6
CONTINUOUS
 62
     2
 10
46.963130000000092
 20
-37.342527999999902
 30
0.0
 40
6.0
 50
141.5101880000008
 51
209.9999999999973
  0
LINE
  5
169
  8
0
  6
CONTINUOUS
 62
     2
 10
50.856406000000113
 20
-56.085879999999861
 30
0.0
 11
41.766977999999867
 21
-40.342527999999902
 31
0.0
  0
ARC
  5
16A
  8
0
  6
CONTINUOUS
 62
     2
 10
37.0
 20
-64.085879999999861
 30
0.0
 40
16.0
 50
209.9999999999973
 51
29.999999999997289
  0
ARC
  5
16B
  8
1
  6
CONTINUOUS
 62
     4
 10
90.5
 20
-272.52449999999988
 30
0.0
 40
35.0
 50
180.0
 51
226.70829999999961
  0
ARC
  5
16C
  8
1
  6
CONTINUOUS
 62
     4
 10
-90.5
 20
-272.7484
 30
0.0
 40
35.0
 50
313.82369999999651
 51
0.0
  0
ARC
  5
16D
  8
0
  6
CONTINUOUS
 62
     2
 10
8.8580130000000281
 20
-59.342527999999902
 30
0.0
 40
6.0
 50
29.999999999997289
 51
98.489811999994004
  0
ARC
  5
16E
  8
0
  6
CONTINUOUS
 62
     2
 10
-55.821142999999999
 20
-22.0
 30
0.0
 40
6.0
 50
21.51018799999957
 51
90.0
  0
LINE
  5
16F
  8
0
  6
CONTINUOUS
 62
     2
 10
-74.0
 20
-16.0
 30
0.0
 11
-55.821142999999999
 21
-16.0
 31
0.0
  0
ARC
  5
170
  8
0
  6
CONTINUOUS
 62
     2
 10
-74.0
 20
0.0
 30
0.0
 40
16.0
 50
90.0
 51
270.0
  0
LINE
  5
171
  8
1
  6
CONTINUOUS
 62
     4
 10
66.5
 20
-313.99999999999989
 30
0.0
 11
66.5
 21
-297.99999999999989
 31
0.0
  0
LINE
  5
172
  8
1
  6
CONTINUOUS
 62
     4
 10
-90.0
 20
-297.99999999999989
 30
0.0
 11
66.5
 21
-297.99999999999989
 31
0.0
  0
LINE
  5
173
  8
0
  6
CONTINUOUS
 62
     2
 10
23.143593999999901
 20
-72.085879999999861
 30
0.0
 11
14.05416500000001
 21
-56.342527999999902
 31
0.0
  0
LINE
  5
174
  8
1
  6
CONTINUOUS
 62
     4
 10
66.5
 20
-313.99999999999989
 30
0.0
 11
-90.0
 21
-313.99999999999989
 31
0.0
  0
LINE
  5
175
  8
1
  6
CONTINUOUS
 62
     4
 10
-90.0
 20
-313.99999999999989
 30
0.0
 11
-90.0
 21
-297.99999999999989
 31
0.0
  0
CIRCLE
  5
176
  8
1
  6
CONTINUOUS
 62
     3
 10
37.0
 20
-64.085879999999861
 30
0.0
 40
6.0
  0
CIRCLE
  5
177
  8
1
  6
CONTINUOUS
 62
     3
 10
37.0
 20
-64.085879999999861
 30
0.0
 40
5.052999999999999
  0
LINE
  5
178
  8
0
  6
CONTINUOUS
 62
     3
 10
42.474999999999902
 20
-54.602901999999972
 30
0.0
 11
31.525000000000091
 21
-54.602901999999972
 31
0.0
  0
LINE
  5
179
  8
0
  6
CONTINUOUS
 62
     3
 10
47.950000000000038
 20
-64.085879999999861
 30
0.0
 11
42.474999999999902
 21
-54.602901999999972
 31
0.0
  0
LINE
  5
17A
  8
0
  6
CONTINUOUS
 62
     3
 10
42.474999999999902
 20
-73.568857999999963
 30
0.0
 11
47.950000000000038
 21
-64.085879999999861
 31
0.0
  0
LINE
  5
17B
  8
0
  6
CONTINUOUS
 62
     3
 10
31.525000000000091
 20
-73.568857999999963
 30
0.0
 11
42.474999999999902
 21
-73.568857999999963
 31
0.0
  0
LINE
  5
17C
  8
0
  6
CONTINUOUS
 62
     3
 10
26.049999999999951
 20
-64.085879999999861
 30
0.0
 11
31.525000000000091
 21
-73.568857999999963
 31
0.0
  0
LINE
  5
17D
  8
0
  6
CONTINUOUS
 62
     3
 10
31.525000000000091
 20
-54.602901999999972
 30
0.0
 11
26.049999999999951
 21
-64.085879999999861
 31
0.0
  0
CIRCLE
  5
17E
  8
0
  6
CONTINUOUS
 62
     3
 10
37.0
 20
-64.085879999999861
 30
0.0
 40
9.5
  0
CIRCLE
  5
17F
  8
1
  6
CONTINUOUS
 62
     3
 10
-74.0
 20
0.0
 30
0.0
 40
6.0
  0
CIRCLE
  5
180
  8
1
  6
CONTINUOUS
 62
     3
 10
-74.0
 20
0.0
 30
0.0
 40
5.052999999999999
  0
LINE
  5
181
  8
0
  6
CONTINUOUS
 62
     3
 10
-68.524999999999977
 20
9.4829780000001165
 30
0.0
 11
-79.475000000000023
 21
9.4829780000001165
 31
0.0
  0
LINE
  5
182
  8
0
  6
CONTINUOUS
 62
     3
 10
-63.049999999999962
 20
0.0
 30
0.0
 11
-68.524999999999977
 21
9.4829780000001165
 31
0.0
  0
LINE
  5
183
  8
0
  6
CONTINUOUS
 62
     3
 10
-68.524999999999977
 20
-9.4829789999998866
 30
0.0
 11
-63.049999999999962
 21
0.0
 31
0.0
  0
CIRCLE
  5
184
  8
0
  6
CONTINUOUS
 62
     3
 10
-74.0
 20
0.0
 30
0.0
 40
9.5
  0
LINE
  5
185
  8
0
  6
CONTINUOUS
 62
     3
 10
-79.475000000000023
 20
9.4829780000001165
 30
0.0
 11
-84.950000000000045
 21
0.0
 31
0.0
  0
LINE
  5
186
  8
0
  6
CONTINUOUS
 62
     3
 10
-84.950000000000045
 20
0.0
 30
0.0
 11
-79.475000000000023
 21
-9.4829789999998866
 31
0.0
  0
LINE
  5
187
  8
0
  6
CONTINUOUS
 62
     3
 10
-79.475000000000023
 20
-9.4829789999998866
 30
0.0
 11
-68.524999999999977
 21
-9.4829789999998866
 31
0.0
  0
CIRCLE
  5
188
  8
0
  6
CONTINUOUS
 62
     2
 10
0.0
 20
0.0
 30
0.0
 40
48.964553000000002
  0
LINE
  5
189
  8
0
  6
CONTINUOUS
 62
     4
 10
49.089047000000157
 20
-221.25159999999991
 30
0.0
 11
-50.115060999999969
 21
-221.25159999999991
 31
0.0
  0
LINE
  5
18A
  8
0
  6
CONTINUOUS
 62
     4
 10
49.089047000000157
 20
-272.52449999999988
 30
0.0
 11
-50.115060999999969
 21
-272.52449999999988
 31
0.0
  0
ARC
  5
18B
  8
0
  6
CENTER
 62
     4
 10
0.0
 20
0.0
 30
0.0
 40
74.0
 50
33.114991999996313
 51
75.159983000001631
  0
ARC
  5
18C
  8
0
  6
CENTER
 62
     4
 10
0.0
 20
0.0
 30
0.0
 40
74.0
 50
283.5580119999961
 51
315.10220499999622
  0
ARC
  5
18D
  8
0
  6
CENTER
 62
     4
 10
0.0
 20
0.0
 30
0.0
 40
74.0
 50
164.25591600000169
 51
217.2279109999954
  0
CIRCLE
  5
18E
  8
0
  6
CONTINUOUS
 62
     2
 10
0.0
 20
0.0
 30
0.0
 40
47.0
  0
ARC
  5
18F
  8
0
  6
CONTINUOUS
 62
     2
 10
0.0
 20
0.0
 30
0.0
 40
54.0
 50
81.510189000002796
 51
158.4898120000004
  0
ARC
  5
190
  8
0
  6
CONTINUOUS
 62
     2
 10
46.963130000000092
 20
37.342527000000018
 30
0.0
 40
6.0
 50
150.0000000000027
 51
218.4898119999992
  0
LINE
  5
191
  8
0
  6
CONTINUOUS
 62
     2
 10
50.856406000000113
 20
56.085880000000088
 30
0.0
 11
41.766977999999867
 21
40.342527000000018
 31
0.0
  0
ARC
  5
192
  8
0
  6
CONTINUOUS
 62
     2
 10
37.0
 20
64.085880000000074
 30
0.0
 40
16.0
 50
330.00000000000267
 51
150.0000000000027
  0
ARC
  5
193
  8
0
  6
CONTINUOUS
 62
     2
 10
8.8580130000000281
 20
59.342527000000011
 30
0.0
 40
6.0
 50
261.510188000006
 51
330.00000000000267
  0
ARC
  5
194
  8
0
  6
CONTINUOUS
 62
     2
 10
-55.821142999999999
 20
22.0
 30
0.0
 40
6.0
 50
270.0
 51
338.48981200000043
  0
LINE
  5
195
  8
0
  6
CONTINUOUS
 62
     2
 10
-74.0
 20
16.0
 30
0.0
 11
-55.821142999999999
 21
16.0
 31
0.0
  0
LINE
  5
196
  8
0
  6
CONTINUOUS
 62
     2
 10
23.143593999999901
 20
72.085880000000088
 30
0.0
 11
14.05416500000001
 21
56.342527000000018
 31
0.0
  0
CIRCLE
  5
197
  8
1
  6
CONTINUOUS
 62
     3
 10
37.0
 20
64.085880000000074
 30
0.0
 40
6.0
  0
CIRCLE
  5
198
  8
1
  6
CONTINUOUS
 62
     3
 10
37.0
 20
64.085880000000074
 30
0.0
 40
5.052999999999999
  0
LINE
  5
199
  8
1
  6
CONTINUOUS
 62
     4
 10
-90.0
 20
-179.99999999999989
 30
0.0
 11
-90.0
 21
-195.99999999999989
 31
0.0
  0
LINE
  5
19A
  8
1
  6
CONTINUOUS
 62
     4
 10
66.5
 20
-179.99999999999989
 30
0.0
 11
-90.0
 21
-179.99999999999989
 31
0.0
  0
LINE
  5
19B
  8
0
  6
CONTINUOUS
 62
     3
 10
42.474999999999902
 20
54.602901000000202
 30
0.0
 11
31.525000000000091
 21
54.602901000000202
 31
0.0
  0
LINE
  5
19C
  8
1
  6
CONTINUOUS
 62
     4
 10
-90.0
 20
-195.99999999999989
 30
0.0
 11
66.5
 21
-195.99999999999989
 31
0.0
  0
LINE
  5
19D
  8
3
  6
CENTER
 62
     2
 10
0.0
 20
-143.65532199999981
 30
0.0
 11
0.0
 21
-349.07252399999987
 31
0.0
  0
LINE
  5
19E
  8
1
  6
CONTINUOUS
 62
     4
 10
55.5
 20
-221.25159999999991
 30
0.0
 11
55.5
 21
-272.52449999999988
 31
0.0
  0
LINE
  5
19F
  8
1
  6
CONTINUOUS
 62
     4
 10
-55.5
 20
-221.4754999999999
 30
0.0
 11
-55.5
 21
-272.7484
 31
0.0
  0
LINE
  5
1A0
  8
1
  6
CONTINUOUS
 62
     4
 10
66.5
 20
-179.99999999999989
 30
0.0
 11
66.5
 21
-195.99999999999989
 31
0.0
  0
LINE
  5
1A1
  8
0
  6
CONTINUOUS
 62
     3
 10
47.950000000000038
 20
64.085880000000074
 30
0.0
 11
42.474999999999902
 21
54.602901000000202
 31
0.0
  0
LINE
  5
1A2
  8
0
  6
CONTINUOUS
 62
     3
 10
42.474999999999902
 20
73.568858000000091
 30
0.0
 11
47.950000000000038
 21
64.085880000000074
 31
0.0
  0
LINE
  5
1A3
  8
0
  6
CONTINUOUS
 62
     3
 10
31.525000000000091
 20
73.568858000000091
 30
0.0
 11
42.474999999999902
 21
73.568858000000091
 31
0.0
  0
LINE
  5
1A4
  8
0
  6
CONTINUOUS
 62
     3
 10
26.049999999999951
 20
64.085880000000074
 30
0.0
 11
31.525000000000091
 21
73.568858000000091
 31
0.0
  0
LINE
  5
1A5
  8
0
  6
CONTINUOUS
 62
     3
 10
31.525000000000091
 20
54.602901000000202
 30
0.0
 11
26.049999999999951
 21
64.085880000000074
 31
0.0
  0
CIRCLE
  5
1A6
  8
0
  6
CONTINUOUS
 62
     3
 10
37.0
 20
64.085880000000074
 30
0.0
 40
9.5
  0
LINE
  5
1A7
  8
0
  6
CONTINUOUS
 62
     3
 10
-68.5
 20
-285.99999999999989
 30
0.0
 11
-80.5
 21
-285.99999999999989
 31
0.0
  0
LINE
  5
1A8
  8
2
  6
CENTER
 62
     2
 10
37.000038000000131
 20
-279.78897899999993
 30
0.0
 11
37.000038000000131
 21
-370.3016639999999
 31
0.0
  0
ARC
  5
1A9
  8
1
  6
CONTINUOUS
 62
     4
 10
-90.5
 20
-221.25159999999991
 30
0.0
 40
35.0
 50
0.0
 51
46.176300000003543
  0
ARC
  5
1AA
  8
1
  6
CONTINUOUS
 62
     4
 10
90.5
 20
-221.4754999999999
 30
0.0
 40
35.0
 50
133.29170000000039
 51
180.0
  0
LINE
  5
1AB
  8
2
  6
CENTER
 62
     2
 10
-74.5
 20
-279.78897899999993
 30
0.0
 11
-74.5
 21
-370.3016639999999
 31
0.0
  0
LINE
  5
1AC
  8
3
  6
CENTER
 62
     2
 10
0.0
 20
-83.819352999999978
 30
0.0
 11
0.0
 21
83.108715999999959
 31
0.0
  0
ARC
  5
1AD
  8
1
  6
CONTINUOUS
 62
     4
 10
-70.0
 20
0.0
 30
0.0
 40
20.0
 50
132.17741800000221
 51
227.8225809999966
  0
LINE
  5
1AE
  8
1
  6
CENTER
 62
     4
 10
44.981876000000049
 20
77.910894000000098
 30
0.0
 11
29.5
 21
51.095498000000141
 31
0.0
  0
LINE
  5
1AF
  8
1
  6
CENTER
 62
     4
 10
44.981876000000049
 20
-77.910893999999985
 30
0.0
 11
29.5
 21
-51.095498999999897
 31
0.0
  0
ARC
  5
1B0
  8
1
  6
CONTINUOUS
 62
     4
 10
35.0
 20
60.621778000000177
 30
0.0
 40
20.0
 50
12.177418000001889
 51
107.8225810000049
  0
ARC
  5
1B1
  8
1
  6
CONTINUOUS
 62
     4
 10
35.0
 20
-60.62177899999994
 30
0.0
 40
20.0
 50
252.1774180000026
 51
347.8225810000003
  0
LINE
  5
1B2
  8
1
  6
CONTINUOUS
 62
     4
 10
-44.985714000000023
 20
-49.651642000000031
 30
0.0
 11
-83.428571000000034
 21
-14.82138599999996
 31
0.0
  0
LINE
  5
1B3
  8
1
  6
CONTINUOUS
 62
     4
 10
28.878589000000151
 20
-79.661954999999921
 30
0.0
 11
-20.506726000000072
 21
-63.784592999999973
 31
0.0
  0
LINE
  5
1B4
  8
1
  6
CONTINUOUS
 62
     4
 10
65.492439999999974
 20
-14.132950999999929
 30
0.0
 11
54.549982
 21
-64.840569999999957
 31
0.0
  0
LINE
  5
1B5
  8
1
  6
CONTINUOUS
 62
     4
 10
54.549982
 20
64.840569000000187
 30
0.0
 11
65.492439999999974
 21
14.13294999999993
 31
0.0
  0
LINE
  5
1B6
  8
1
  6
CONTINUOUS
 62
     4
 10
-20.506726000000072
 20
63.784591999999982
 30
0.0
 11
28.878589000000151
 21
79.661955000000034
 31
0.0
  0
LINE
  5
1B7
  8
1
  6
CONTINUOUS
 62
     4
 10
-44.985714000000023
 20
49.65164099999992
 30
0.0
 11
-83.428571000000034
 21
14.821385000000189
 31
0.0
  0
ARC
  5
1B8
  8
1
  6
CONTINUOUS
 62
     4
 10
0.0
 20
0.0
 30
0.0
 40
67.0
 50
347.82258199999808
 51
12.17741899999969
  0
ARC
  5
1B9
  8
1
  6
CONTINUOUS
 62
     4
 10
0.0
 20
0.0
 30
0.0
 40
67.0
 50
107.8225819999974
 51
132.1774190000034
  0
ARC
  5
1BA
  8
1
  6
CONTINUOUS
 62
     4
 10
0.0
 20
0.0
 30
0.0
 40
67.0
 50
227.82258199999779
 51
252.1774189999951
  0
LINE
  5
1BB
  8
0
  6
CENTER
 62
     2
 10
74.833591000000069
 20
0.0
 30
0.0
 11
-107.9391949999999
 21
0.0
 31
0.0
  0
POINT
  5
1BC
  8
0
 62
     1
 10
2099.5
 20
1484.5
 30
0.0
  0
ENDSEC
  0
EOF
